  0
SECTION
  2
HEADER
  9
$ACADVER
  1
AC1015
  9
$ACADMAINTVER
 70
    10
  9
$DWGCODEPAGE
  3
ANSI_932
  9
$INSBASE
 10
0.0
 20
0.0
 30
0.0
  9
$EXTMIN
 10
114.0981453413597
 20
-61.08120776372683
 30
0.0
  9
$EXTMAX
 10
526.1070387612245
 20
242.82601005137
 30
0.0
  9
$LIMMIN
 10
0.0
 20
0.0
  9
$LIMMAX
 10
420.0
 20
297.0
  9
$ORTHOMODE
 70
     1
  9
$REGENMODE
 70
     1
  9
$FILLMODE
 70
     1
  9
$QTEXTMODE
 70
     0
  9
$MIRRTEXT
 70
     1
  9
$LTSCALE
 40
1.0
  9
$ATTMODE
 70
     1
  9
$TEXTSIZE
 40
3.0
  9
$TRACEWID
 40
1.0
  9
$TEXTSTYLE
  7
STANDARD
  9
$CLAYER
  8
0
  9
$CELTYPE
  6
BYLAYER
  9
$CECOLOR
 62
   256
  9
$CELTSCALE
 40
1.0
  9
$DISPSILH
 70
     0
  9
$DIMSCALE
 40
1.0
  9
$DIMASZ
 40
3.0
  9
$DIMEXO
 40
1.0
  9
$DIMDLI
 40
5.0
  9
$DIMRND
 40
0.0
  9
$DIMDLE
 40
0.0
  9
$DIMEXE
 40
0.75
  9
$DIMTP
 40
0.0
  9
$DIMTM
 40
0.0
  9
$DIMTXT
 40
6.0
  9
$DIMCEN
 40
3.0
  9
$DIMTSZ
 40
0.0
  9
$DIMTOL
 70
     0
  9
$DIMLIM
 70
     0
  9
$DIMTIH
 70
     0
  9
$DIMTOH
 70
     0
  9
$DIMSE1
 70
     0
  9
$DIMSE2
 70
     0
  9
$DIMTAD
 70
     1
  9
$DIMZIN
 70
     9
  9
$DIMBLK
  1

  9
$DIMASO
 70
     1
  9
$DIMSHO
 70
     1
  9
$DIMPOST
  1

  9
$DIMAPOST
  1

  9
$DIMALT
 70
     0
  9
$DIMALTD
 70
     4
  9
$DIMALTF
 40
0.0394
  9
$DIMLFAC
 40
1.0
  9
$DIMTOFL
 70
     1
  9
$DIMTVP
 40
0.0
  9
$DIMTIX
 70
     0
  9
$DIMSOXD
 70
     0
  9
$DIMSAH
 70
     1
  9
$DIMBLK1
  1
OPEN
  9
$DIMBLK2
  1
OPEN
  9
$DIMSTYLE
  2
STANDARD
  9
$DIMCLRD
 70
     0
  9
$DIMCLRE
 70
     0
  9
$DIMCLRT
 70
     7
  9
$DIMTFAC
 40
1.0
  9
$DIMGAP
 40
1.0
  9
$DIMJUST
 70
     0
  9
$DIMSD1
 70
     0
  9
$DIMSD2
 70
     0
  9
$DIMTOLJ
 70
     1
  9
$DIMTZIN
 70
     9
  9
$DIMALTZ
 70
     0
  9
$DIMALTTZ
 70
     0
  9
$DIMUPT
 70
     0
  9
$DIMDEC
 70
     4
  9
$DIMTDEC
 70
     4
  9
$DIMALTU
 70
     8
  9
$DIMALTTD
 70
     4
  9
$DIMTXSTY
  7
STANDARD
  9
$DIMAUNIT
 70
     0
  9
$DIMADEC
 70
     0
  9
$DIMALTRND
 40
0.0
  9
$DIMAZIN
 70
     2
  9
$DIMDSEP
 70
    46
  9
$DIMATFIT
 70
     3
  9
$DIMFRAC
 70
     0
  9
$DIMLDRBLK
  1
OPEN
  9
$DIMLUNIT
 70
     2
  9
$DIMLWD
 70
    -2
  9
$DIMLWE
 70
    -2
  9
$DIMTMOVE
 70
     2
  9
$LUNITS
 70
     2
  9
$LUPREC
 70
     4
  9
$SKETCHINC
 40
1.0
  9
$FILLETRAD
 40
10.0
  9
$AUNITS
 70
     0
  9
$AUPREC
 70
     0
  9
$MENU
  1
.
  9
$ELEVATION
 40
0.0
  9
$PELEVATION
 40
0.0
  9
$THICKNESS
 40
0.0
  9
$LIMCHECK
 70
     0
  9
$CHAMFERA
 40
10.0
  9
$CHAMFERB
 40
10.0
  9
$CHAMFERC
 40
20.0
  9
$CHAMFERD
 40
0.0
  9
$SKPOLY
 70
     0
  9
$TDCREATE
 40
2451224.660162384
  9
$TDUCREATE
 40
2451224.285162384
  9
$TDUPDATE
 40
2457366.484590381
  9
$TDUUPDATE
 40
2457366.109590382
  9
$TDINDWG
 40
0.7911986806
  9
$TDUSRTIMER
 40
2457317.250468206
  9
$USRTIMER
 70
     1
  9
$ANGBASE
 50
0.0
  9
$ANGDIR
 70
     0
  9
$PDMODE
 70
     0
  9
$PDSIZE
 40
0.0
  9
$PLINEWID
 40
0.0
  9
$SPLFRAME
 70
     0
  9
$SPLINETYPE
 70
     6
  9
$SPLINESEGS
 70
     8
  9
$HANDSEED
  5
8015
  9
$SURFTAB1
 70
     6
  9
$SURFTAB2
 70
     6
  9
$SURFTYPE
 70
     6
  9
$SURFU
 70
     6
  9
$SURFV
 70
     6
  9
$UCSBASE
  2

  9
$UCSNAME
  2

  9
$UCSORG
 10
0.0
 20
0.0
 30
0.0
  9
$UCSXDIR
 10
1.0
 20
0.0
 30
0.0
  9
$UCSYDIR
 10
0.0
 20
1.0
 30
0.0
  9
$UCSORTHOREF
  2

  9
$UCSORTHOVIEW
 70
     0
  9
$UCSORGTOP
 10
0.0
 20
0.0
 30
0.0
  9
$UCSORGBOTTOM
 10
0.0
 20
0.0
 30
0.0
  9
$UCSORGLEFT
 10
0.0
 20
0.0
 30
0.0
  9
$UCSORGRIGHT
 10
0.0
 20
0.0
 30
0.0
  9
$UCSORGFRONT
 10
0.0
 20
0.0
 30
0.0
  9
$UCSORGBACK
 10
0.0
 20
0.0
 30
0.0
  9
$PUCSBASE
  2

  9
$PUCSNAME
  2

  9
$PUCSORG
 10
0.0
 20
0.0
 30
0.0
  9
$PUCSXDIR
 10
1.0
 20
0.0
 30
0.0
  9
$PUCSYDIR
 10
0.0
 20
1.0
 30
0.0
  9
$PUCSORTHOREF
  2

  9
$PUCSORTHOVIEW
 70
     0
  9
$PUCSORGTOP
 10
0.0
 20
0.0
 30
0.0
  9
$PUCSORGBOTTOM
 10
0.0
 20
0.0
 30
0.0
  9
$PUCSORGLEFT
 10
0.0
 20
0.0
 30
0.0
  9
$PUCSORGRIGHT
 10
0.0
 20
0.0
 30
0.0
  9
$PUCSORGFRONT
 10
0.0
 20
0.0
 30
0.0
  9
$PUCSORGBACK
 10
0.0
 20
0.0
 30
0.0
  9
$USERI1
 70
     0
  9
$USERI2
 70
     0
  9
$USERI3
 70
     0
  9
$USERI4
 70
     0
  9
$USERI5
 70
     0
  9
$USERR1
 40
0.0
  9
$USERR2
 40
0.0
  9
$USERR3
 40
0.0
  9
$USERR4
 40
0.0
  9
$USERR5
 40
0.0
  9
$WORLDVIEW
 70
     1
  9
$SHADEDGE
 70
     3
  9
$SHADEDIF
 70
    70
  9
$TILEMODE
 70
     1
  9
$MAXACTVP
 70
    48
  9
$PINSBASE
 10
0.0
 20
0.0
 30
0.0
  9
$PLIMCHECK
 70
     0
  9
$PEXTMIN
 10
40.49999999999999
 20
25.69999999999998
 30
0.0
  9
$PEXTMAX
 10
364.5
 20
231.3
 30
0.0
  9
$PLIMMIN
 10
0.0
 20
0.0
  9
$PLIMMAX
 10
0.0
 20
0.0
  9
$UNITMODE
 70
     0
  9
$VISRETAIN
 70
     1
  9
$PLINEGEN
 70
     0
  9
$PSLTSCALE
 70
     1
  9
$TREEDEPTH
 70
  3020
  9
$CMLSTYLE
  2
STANDARD
  9
$CMLJUST
 70
     0
  9
$CMLSCALE
 40
20.0
  9
$PROXYGRAPHICS
 70
     1
  9
$MEASUREMENT
 70
     1
  9
$CELWEIGHT
370
    -1
  9
$ENDCAPS
280
     0
  9
$JOINSTYLE
280
     0
  9
$LWDISPLAY
290
     1
  9
$INSUNITS
 70
     0
  9
$HYPERLINKBASE
  1

  9
$STYLESHEET
  1

  9
$XEDIT
290
     1
  9
$CEPSNTYPE
380
     0
  9
$PSTYLEMODE
290
     1
  9
$FINGERPRINTGUID
  2
{6B368F64-F7EB-11D4-BFBA-00004C030E53}
  9
$VERSIONGUID
  2
{1675D196-9DED-4AE9-BF18-B0E105613687}
  9
$EXTNAMES
290
     1
  9
$PSVPSCALE
 40
0.0
  9
$OLESTARTUP
290
     0
  0
ENDSEC
  0
SECTION
  2
CLASSES
  0
CLASS
  1
HATCH
  2
AcDbHatch
  3
AutoCAD 2000
 90
    32768
280
     0
281
     1
  0
CLASS
  1
LWPOLYLINE
  2
AcDbPolyline
  3
AutoCAD 2000
 90
    32768
280
     0
281
     1
  0
CLASS
  1
ACDBDICTIONARYWDFLT
  2
AcDbDictionaryWithDefault
  3
AutoCAD 2000
 90
        0
280
     0
281
     0
  0
CLASS
  1
ACDBPLACEHOLDER
  2
AcDbPlaceHolder
  3
AutoCAD 2000
 90
        0
280
     0
281
     0
  0
CLASS
  1
LAYOUT
  2
AcDbLayout
  3
AutoCAD 2000
 90
        0
280
     0
281
     0
  0
CLASS
  1
DICTIONARYVAR
  2
AcDbDictionaryVar
  3
AutoCAD 2000
 90
        0
280
     0
281
     0
  0
CLASS
  1
VISUALSTYLE
  2
AcDbVisualStyle
  3
ObjectDBX Classes
 90
    36863
280
     0
281
     0
  0
CLASS
  1
SCALE
  2
AcDbScale
  3
ObjectDBX Classes
 90
     1153
280
     0
281
     0
  0
CLASS
  1
MATERIAL
  2
AcDbMaterial
  3
ObjectDBX Classes
 90
    33921
280
     0
281
     0
  0
CLASS
  1
TABLESTYLE
  2
AcDbTableStyle
  3
ObjectDBX Classes
 90
    36863
280
     0
281
     0
  0
CLASS
  1
MLEADERSTYLE
  2
AcDbMLeaderStyle
  3
ACDB_MLEADERSTYLE_CLASS
 90
    36863
280
     0
281
     0
  0
CLASS
  1
SUN
  2
AcDbSun
  3
SCENEOE
 90
     1153
280
     0
281
     0
  0
CLASS
  1
RASTERVARIABLES
  2
AcDbRasterVariables
  3
ISM
 90
        0
280
     0
281
     0
  0
ENDSEC
  0
SECTION
  2
TABLES
  0
TABLE
  2
VPORT
  5
8
330
0
100
AcDbSymbolTable
 70
     2
  0
VPORT
  5
8014
330
8
100
AcDbSymbolTableRecord
100
AcDbViewportTableRecord
  2
*Active
 70
     0
 10
0.0
 20
0.0
 11
1.0
 21
1.0
 12
403.434608544962
 22
91.74124600702576
 13
0.0
 23
0.0
 14
10.0
 24
10.0
 15
10.0
 25
10.0
 16
0.0
 26
0.0
 36
1.0
 17
0.0
 27
0.0
 37
0.0
 40
372.2593410505058
 41
1.562182741116751
 42
50.0
 43
0.0
 44
0.0
 50
0.0
 51
0.0
 71
     0
 72
   100
 73
     1
 74
     0
 75
     0
 76
     0
 77
     0
 78
     0
281
     0
 65
     1
110
0.0
120
0.0
130
0.0
111
1.0
121
0.0
131
0.0
112
0.0
122
1.0
132
0.0
 79
     0
146
0.0
  0
ENDTAB
  0
TABLE
  2
LTYPE
  5
5
330
0
100
AcDbSymbolTable
 70
     1
  0
LTYPE
  5
12
330
5
100
AcDbSymbolTableRecord
100
AcDbLinetypeTableRecord
  2
BYBLOCK
 70
     0
  3

 72
    65
 73
     0
 40
0.0
  0
LTYPE
  5
13
330
5
100
AcDbSymbolTableRecord
100
AcDbLinetypeTableRecord
  2
BYLAYER
 70
     0
  3

 72
    65
 73
     0
 40
0.0
  0
LTYPE
  5
14
330
5
100
AcDbSymbolTableRecord
100
AcDbLinetypeTableRecord
  2
CONTINUOUS
 70
     0
  3
Solid line
 72
    65
 73
     0
 40
0.0
  0
ENDTAB
  0
TABLE
  2
LAYER
  5
2
330
0
100
AcDbSymbolTable
 70
     1
  0
LAYER
  5
E
330
2
100
AcDbSymbolTableRecord
100
AcDbLayerTableRecord
  2
0
 70
     0
 62
     7
  6
CONTINUOUS
370
    -3
390
73E
  0
ENDTAB
  0
TABLE
  2
STYLE
  5
3
330
0
100
AcDbSymbolTable
 70
     2
  0
STYLE
  5
F
330
3
100
AcDbSymbolTableRecord
100
AcDbTextStyleTableRecord
  2
STANDARD
 70
     0
 40
0.0
 41
1.0
 50
0.0
 71
     0
 42
3.0
  3
isocp.shx
  4
bigfont.shx
  0
STYLE
  5
35
330
3
100
AcDbSymbolTableRecord
100
AcDbTextStyleTableRecord
  2
MSｺﾞｼｯｸ
 70
     0
 40
0.0
 41
1.0
 50
0.0
 71
     0
 42
5.0
  3
MS Gothic.ttf
  4

1001
ACAD
1000
MS Gothic
1071
    32817
  0
ENDTAB
  0
TABLE
  2
VIEW
  5
6
330
0
100
AcDbSymbolTable
 70
     0
  0
ENDTAB
  0
TABLE
  2
UCS
  5
7
330
0
100
AcDbSymbolTable
 70
     0
  0
ENDTAB
  0
TABLE
  2
APPID
  5
9
330
0
100
AcDbSymbolTable
 70
     1
  0
APPID
  5
10
330
9
100
AcDbSymbolTableRecord
100
AcDbRegAppTableRecord
  2
ACAD
 70
     0
  0
ENDTAB
  0
TABLE
  2
DIMSTYLE
  5
A
330
0
100
AcDbSymbolTable
 70
     1
100
AcDbDimStyleTable
 71
     0
  0
DIMSTYLE
105
1D
330
A
100
AcDbSymbolTableRecord
100
AcDbDimStyleTableRecord
  2
STANDARD
 70
     0
 78
     8
 79
     2
140
3.0
340
F
341
89E
342
89E
  0
ENDTAB
  0
TABLE
  2
BLOCK_RECORD
  5
1
330
0
100
AcDbSymbolTable
 70
     7
  0
BLOCK_RECORD
  5
18
330
1
100
AcDbSymbolTableRecord
100
AcDbBlockTableRecord
  2
*MODEL_SPACE
340
741
  0
BLOCK_RECORD
  5
8006
330
1
100
AcDbSymbolTableRecord
100
AcDbBlockTableRecord
  2
*Paper_Space
340
8007
  0
BLOCK_RECORD
  5
24
330
1
100
AcDbSymbolTableRecord
100
AcDbBlockTableRecord
  2
_OPEN
340
0
  0
BLOCK_RECORD
  5
89E
330
1
100
AcDbSymbolTableRecord
100
AcDbBlockTableRecord
  2
_Open30
340
0
  0
BLOCK_RECORD
  5
7058
330
1
100
AcDbSymbolTableRecord
100
AcDbBlockTableRecord
  2
A$C444F17A9
340
0
102
{BLKREFS
331
7609
102
}
  0
BLOCK_RECORD
  5
7064
330
1
100
AcDbSymbolTableRecord
100
AcDbBlockTableRecord
  2
A$C6C1277F2
340
0
102
{BLKREFS
331
7704
102
}
  0
BLOCK_RECORD
  5
7091
330
1
100
AcDbSymbolTableRecord
100
AcDbBlockTableRecord
  2
A$C2F696F30
340
0
102
{BLKREFS
331
7633
102
}
  0
BLOCK_RECORD
  5
70A9
330
1
100
AcDbSymbolTableRecord
100
AcDbBlockTableRecord
  2
A$C57095CDF
340
0
102
{BLKREFS
331
7703
102
}
  0
BLOCK_RECORD
  5
70DC
330
1
100
AcDbSymbolTableRecord
100
AcDbBlockTableRecord
  2
A$C3A6E1F00
340
0
102
{BLKREFS
331
7616
102
}
  0
ENDTAB
  0
ENDSEC
  0
SECTION
  2
BLOCKS
  0
BLOCK
  5
19
330
18
100
AcDbEntity
  8
0
100
AcDbBlockBegin
  2
*MODEL_SPACE
 70
     0
 10
0.0
 20
0.0
 30
0.0
  3
*MODEL_SPACE
  1

  0
ENDBLK
  5
1A
330
18
100
AcDbEntity
  8
0
100
AcDbBlockEnd
  0
BLOCK
  5
8008
330
8006
100
AcDbEntity
 67
     1
  8
0
100
AcDbBlockBegin
  2
*Paper_Space
 70
     0
 10
0.0
 20
0.0
 30
0.0
  3
*Paper_Space
  1

  0
ENDBLK
  5
8009
330
8006
100
AcDbEntity
 67
     1
  8
0
100
AcDbBlockEnd
  0
BLOCK
  5
25
330
24
100
AcDbEntity
  8
0
100
AcDbBlockBegin
  2
_OPEN
 70
     0
 10
0.0
 20
0.0
 30
0.0
  3
_OPEN
  1

  0
LINE
  5
26
330
24
100
AcDbEntity
  8
0
  6
ByBlock
 62
     0
100
AcDbLine
 10
-1.0
 20
0.1666666666666666
 30
0.0
 11
0.0
 21
0.0
 31
0.0
  0
LINE
  5
27
330
24
100
AcDbEntity
  8
0
  6
ByBlock
 62
     0
100
AcDbLine
 10
0.0
 20
0.0
 30
0.0
 11
-1.0
 21
-0.1666666666666666
 31
0.0
  0
LINE
  5
28
330
24
100
AcDbEntity
  8
0
  6
ByBlock
 62
     0
100
AcDbLine
 10
0.0
 20
0.0
 30
0.0
 11
-1.0
 21
0.0
 31
0.0
  0
ENDBLK
  5
29
330
24
100
AcDbEntity
  8
0
100
AcDbBlockEnd
  0
BLOCK
  5
8A2
330
89E
100
AcDbEntity
  8
0
100
AcDbBlockBegin
  2
_Open30
 70
     0
 10
0.0
 20
0.0
 30
0.0
  3
_Open30
  1

  0
LINE
  5
89F
330
89E
100
AcDbEntity
  8
0
  6
ByBlock
 62
     0
370
    -2
100
AcDbLine
 10
-1.0
 20
0.26794919
 30
0.0
 11
0.0
 21
0.0
 31
0.0
  0
LINE
  5
8A0
330
89E
100
AcDbEntity
  8
0
  6
ByBlock
 62
     0
370
    -2
100
AcDbLine
 10
0.0
 20
0.0
 30
0.0
 11
-1.0
 21
-0.26794919
 31
0.0
  0
LINE
  5
8A1
330
89E
100
AcDbEntity
  8
0
  6
ByBlock
 62
     0
370
    -2
100
AcDbLine
 10
0.0
 20
0.0
 30
0.0
 11
-1.0
 21
0.0
 31
0.0
  0
ENDBLK
  5
8A3
330
89E
100
AcDbEntity
  8
0
100
AcDbBlockEnd
  0
BLOCK
  5
7062
330
7058
100
AcDbEntity
  8
0
100
AcDbBlockBegin
  2
A$C444F17A9
 70
     0
 10
0.0
 20
0.0
 30
0.0
  3
A$C444F17A9
  1

  0
LWPOLYLINE
  5
7059
330
7058
100
AcDbEntity
  8
0
100
AcDbPolyline
 90
        4
 70
     1
 43
0.2
 10
0.1000006076973037
 20
13.1000004860266
 10
7.625000607697302
 20
13.1000004860266
 10
7.625000607697302
 20
0.1000004860266017
 10
0.1000006076973037
 20
0.1000004860266017
  0
ELLIPSE
  5
705A
330
7058
100
AcDbEntity
  8
0
100
AcDbEllipse
 10
6.125000607697302
 20
3.07500048602651
 30
0.0
 11
0.5
 21
0.0
 31
0.0
210
0.0
220
0.0
230
1.0
 40
0.95
 41
0.0
 42
6.283184999999999
  0
LWPOLYLINE
  5
705B
330
7058
100
AcDbEntity
  8
0
100
AcDbPolyline
 90
        6
 70
     1
 43
0.2
 10
2.175000607697299
 20
3.525000486026556
 10
1.725000607697296
 20
3.100000486026601
 10
2.175000607697299
 20
2.70000048602651
 10
4.275000607697307
 20
2.70000048602651
 10
4.700000607697305
 20
3.100000486026601
 10
4.275000607697307
 20
3.525000486026556
  0
LWPOLYLINE
  5
705C
330
7058
100
AcDbEntity
  8
0
100
AcDbPolyline
 90
        6
 70
     1
 43
0.2
 10
3.250000607697302
 20
10.80000048602664
 10
2.825000607697305
 20
10.42500048602664
 10
3.250000607697302
 20
10.00000048602669
 10
5.375000607697302
 20
10.00000048602669
 10
5.775000607697307
 20
10.42500048602664
 10
5.375000607697302
 20
10.80000048602664
  0
LWPOLYLINE
  5
705D
330
7058
100
AcDbEntity
  8
0
100
AcDbPolyline
 90
        6
 70
     1
 43
0.2
 10
5.525000607697307
 20
6.70000048602651
 10
5.125000607697302
 20
6.275000486026556
 10
4.700000607697305
 20
3.500000486026692
 10
5.125000607697302
 20
3.100000486026601
 10
5.525000607697307
 20
3.500000486026692
 10
5.975000607697296
 20
6.275000486026556
  0
LWPOLYLINE
  5
705E
330
7058
100
AcDbEntity
  8
0
100
AcDbPolyline
 90
        6
 70
     1
 43
0.2
 10
6.100000607697296
 20
10.42500048602664
 10
5.675000607697299
 20
10.02500048602655
 10
5.275000607697307
 20
7.225000486026601
 10
5.675000607697299
 20
6.82500048602651
 10
6.100000607697296
 20
7.225000486026601
 10
6.525000607697307
 20
10.02500048602655
  0
LWPOLYLINE
  5
705F
330
7058
100
AcDbEntity
  8
0
100
AcDbPolyline
 90
        6
 70
     1
 43
0.2
 10
1.875000607697302
 20
6.70000048602651
 10
1.450000607697305
 20
6.275000486026556
 10
1.050000607697299
 20
3.500000486026692
 10
1.450000607697305
 20
3.100000486026601
 10
1.875000607697302
 20
3.500000486026692
 10
2.300000607697299
 20
6.275000486026556
  0
LWPOLYLINE
  5
7060
330
7058
100
AcDbEntity
  8
0
100
AcDbPolyline
 90
        6
 70
     1
 43
0.2
 10
2.725000607697296
 20
7.225000486026601
 10
2.275000607697307
 20
6.82500048602651
 10
2.725000607697296
 20
6.425000486026647
 10
4.825000607697305
 20
6.425000486026647
 10
5.225000607697296
 20
6.82500048602651
 10
4.825000607697305
 20
7.225000486026601
  0
LWPOLYLINE
  5
7061
330
7058
100
AcDbEntity
  8
0
100
AcDbPolyline
 90
        6
 70
     1
 43
0.2
 10
2.425000607697299
 20
10.42500048602664
 10
2.025000607697307
 20
10.02500048602655
 10
1.600000607697296
 20
7.225000486026601
 10
2.025000607697307
 20
6.82500048602651
 10
2.425000607697299
 20
7.225000486026601
 10
2.875000607697302
 20
10.02500048602655
  0
ENDBLK
  5
7063
330
7058
100
AcDbEntity
  8
0
100
AcDbBlockEnd
  0
BLOCK
  5
708F
330
7064
100
AcDbEntity
  8
0
100
AcDbBlockBegin
  2
A$C6C1277F2
 70
     0
 10
0.0
 20
0.0
 30
0.0
  3
A$C6C1277F2
  1

  0
ELLIPSE
  5
7065
330
7064
100
AcDbEntity
  8
0
100
AcDbEllipse
 10
4.724999973973268
 20
26.39999951743493
 30
0.0
 11
0.0
 21
0.775
 31
0.0
210
0.0
220
0.0
230
1.0
 40
0.9677419999999999
 41
0.0
 42
6.283184999999999
  0
LWPOLYLINE
  5
7066
330
7064
100
AcDbEntity
  8
0
100
AcDbPolyline
 90
        4
 70
     1
 43
0.2
 10
0.0999999739732616
 20
28.77499951743493
 10
0.0999999739732616
 20
0.0999995174349806
 10
9.324999973973262
 20
0.0999995174349806
 10
9.324999973973262
 20
28.77499951743493
  0
ELLIPSE
  5
7067
330
7064
100
AcDbEntity
  8
0
100
AcDbEllipse
 10
4.724999973973268
 20
3.399999517434935
 30
0.0
 11
0.0
 21
0.775
 31
0.0
210
0.0
220
0.0
230
1.0
 40
0.9677419999999999
 41
0.0
 42
6.283184999999999
  0
LINE
  5
7068
330
7064
100
AcDbEntity
  8
0
100
AcDbLine
 10
0.8999999739732658
 20
4.299999517435026
 30
0.0
 11
0.8999999739732658
 21
6.374999517434844
 31
0.0
  0
LINE
  5
7069
330
7064
100
AcDbEntity
  8
0
100
AcDbLine
 10
8.524999973973265
 20
4.299999517435026
 30
0.0
 11
8.524999973973265
 21
6.374999517434844
 31
0.0
  0
LINE
  5
706A
330
7064
100
AcDbEntity
  8
0
100
AcDbLine
 10
6.599999973973268
 20
4.274999517434935
 30
0.0
 11
6.599999973973268
 21
5.249999517434844
 31
0.0
  0
LINE
  5
706B
330
7064
100
AcDbEntity
  8
0
100
AcDbLine
 10
6.599999973973268
 20
5.274999517434935
 30
0.0
 11
3.024999973973265
 21
5.274999517434935
 31
0.0
  0
LINE
  5
706C
330
7064
100
AcDbEntity
  8
0
100
AcDbLine
 10
3.024999973973265
 20
4.299999517435026
 30
0.0
 11
3.024999973973265
 21
5.274999517434935
 31
0.0
  0
LINE
  5
706D
330
7064
100
AcDbEntity
  8
0
100
AcDbLine
 10
3.024999973973265
 20
4.299999517435026
 30
0.0
 11
0.8999999739732658
 21
4.299999517435026
 31
0.0
  0
LINE
  5
706E
330
7064
100
AcDbEntity
  8
0
100
AcDbLine
 10
8.524999973973265
 20
4.299999517435026
 30
0.0
 11
6.599999973973268
 21
4.299999517435026
 31
0.0
  0
LINE
  5
706F
330
7064
100
AcDbEntity
  8
0
100
AcDbLine
 10
8.524999973973265
 20
6.374999517434844
 30
0.0
 11
0.8999999739732658
 21
6.374999517434844
 31
0.0
  0
LINE
  5
7070
330
7064
100
AcDbEntity
  8
0
100
AcDbLine
 10
0.8999999739732658
 20
25.17499951743502
 30
0.0
 11
0.8999999739732658
 21
23.09999951743498
 31
0.0
  0
LINE
  5
7071
330
7064
100
AcDbEntity
  8
0
100
AcDbLine
 10
8.524999973973265
 20
25.17499951743502
 30
0.0
 11
8.524999973973265
 21
23.09999951743498
 31
0.0
  0
LINE
  5
7072
330
7064
100
AcDbEntity
  8
0
100
AcDbLine
 10
6.599999973973268
 20
25.19999951743489
 30
0.0
 11
6.599999973973268
 21
24.22499951743498
 31
0.0
  0
LINE
  5
7073
330
7064
100
AcDbEntity
  8
0
100
AcDbLine
 10
6.599999973973268
 20
24.19999951743489
 30
0.0
 11
3.024999973973265
 21
24.19999951743489
 31
0.0
  0
LINE
  5
7074
330
7064
100
AcDbEntity
  8
0
100
AcDbLine
 10
3.024999973973265
 20
25.17499951743502
 30
0.0
 11
3.024999973973265
 21
24.19999951743489
 31
0.0
  0
LINE
  5
7075
330
7064
100
AcDbEntity
  8
0
100
AcDbLine
 10
3.024999973973265
 20
25.17499951743502
 30
0.0
 11
0.8999999739732658
 21
25.17499951743502
 31
0.0
  0
LINE
  5
7076
330
7064
100
AcDbEntity
  8
0
100
AcDbLine
 10
8.524999973973265
 20
25.17499951743502
 30
0.0
 11
6.599999973973268
 21
25.17499951743502
 31
0.0
  0
LWPOLYLINE
  5
7077
330
7064
100
AcDbEntity
  8
0
100
AcDbPolyline
 90
        4
 70
     1
 43
0.0
 10
3.474999973973268
 20
11.29999951743502
 10
3.12499997397326
 20
11.29999951743502
 10
3.12499997397326
 20
10.32499951743488
 10
3.474999973973268
 20
10.32499951743488
  0
LWPOLYLINE
  5
7078
330
7064
100
AcDbEntity
  8
0
100
AcDbPolyline
 90
        4
 70
     1
 43
0.0
 10
3.474999973973268
 20
12.47499951743498
 10
3.12499997397326
 20
12.47499951743498
 10
3.12499997397326
 20
11.49999951743484
 10
3.474999973973268
 20
11.49999951743484
  0
LWPOLYLINE
  5
7079
330
7064
100
AcDbEntity
  8
0
100
AcDbPolyline
 90
        4
 70
     1
 43
0.0
 10
3.474999973973268
 20
13.74999951743484
 10
3.12499997397326
 20
13.74999951743484
 10
3.12499997397326
 20
12.77499951743493
 10
3.474999973973268
 20
12.77499951743493
  0
LWPOLYLINE
  5
707A
330
7064
100
AcDbEntity
  8
0
100
AcDbPolyline
 90
        4
 70
     1
 43
0.0
 10
3.474999973973268
 20
15.07499951743489
 10
3.12499997397326
 20
15.07499951743489
 10
3.12499997397326
 20
14.12499951743484
 10
3.474999973973268
 20
14.12499951743484
  0
LWPOLYLINE
  5
707B
330
7064
100
AcDbEntity
  8
0
100
AcDbPolyline
 90
        4
 70
     1
 43
0.0
 10
3.474999973973268
 20
16.34999951743498
 10
3.12499997397326
 20
16.34999951743498
 10
3.12499997397326
 20
15.37499951743484
 10
3.474999973973268
 20
15.37499951743484
  0
LWPOLYLINE
  5
707C
330
7064
100
AcDbEntity
  8
0
100
AcDbPolyline
 90
        4
 70
     1
 43
0.0
 10
3.474999973973268
 20
17.57499951743489
 10
3.12499997397326
 20
17.57499951743489
 10
3.12499997397326
 20
16.59999951743498
 10
3.474999973973268
 20
16.59999951743498
  0
LWPOLYLINE
  5
707D
330
7064
100
AcDbEntity
  8
0
100
AcDbPolyline
 90
        4
 70
     1
 43
0.0
 10
3.474999973973268
 20
18.84999951743498
 10
3.12499997397326
 20
18.84999951743498
 10
3.12499997397326
 20
17.84999951743498
 10
3.474999973973268
 20
17.84999951743498
  0
LWPOLYLINE
  5
707E
330
7064
100
AcDbEntity
  8
0
100
AcDbPolyline
 90
        4
 70
     1
 43
0.0
 10
6.24999997397326
 20
11.29999951743502
 10
5.899999973973265
 20
11.29999951743502
 10
5.899999973973265
 20
10.32499951743488
 10
6.24999997397326
 20
10.32499951743488
  0
LWPOLYLINE
  5
707F
330
7064
100
AcDbEntity
  8
0
100
AcDbPolyline
 90
        4
 70
     1
 43
0.0
 10
6.24999997397326
 20
12.47499951743498
 10
5.899999973973265
 20
12.47499951743498
 10
5.899999973973265
 20
11.49999951743484
 10
6.24999997397326
 20
11.49999951743484
  0
LWPOLYLINE
  5
7080
330
7064
100
AcDbEntity
  8
0
100
AcDbPolyline
 90
        4
 70
     1
 43
0.0
 10
6.24999997397326
 20
13.74999951743484
 10
5.899999973973265
 20
13.74999951743484
 10
5.899999973973265
 20
12.77499951743493
 10
6.24999997397326
 20
12.77499951743493
  0
LWPOLYLINE
  5
7081
330
7064
100
AcDbEntity
  8
0
100
AcDbPolyline
 90
        4
 70
     1
 43
0.0
 10
6.24999997397326
 20
15.07499951743489
 10
5.899999973973265
 20
15.07499951743489
 10
5.899999973973265
 20
14.12499951743484
 10
6.24999997397326
 20
14.12499951743484
  0
LWPOLYLINE
  5
7082
330
7064
100
AcDbEntity
  8
0
100
AcDbPolyline
 90
        4
 70
     1
 43
0.0
 10
6.24999997397326
 20
16.34999951743498
 10
5.899999973973265
 20
16.34999951743498
 10
5.899999973973265
 20
15.37499951743484
 10
6.24999997397326
 20
15.37499951743484
  0
LWPOLYLINE
  5
7083
330
7064
100
AcDbEntity
  8
0
100
AcDbPolyline
 90
        4
 70
     1
 43
0.0
 10
6.24999997397326
 20
17.57499951743489
 10
5.899999973973265
 20
17.57499951743489
 10
5.899999973973265
 20
16.59999951743498
 10
6.24999997397326
 20
16.59999951743498
  0
LWPOLYLINE
  5
7084
330
7064
100
AcDbEntity
  8
0
100
AcDbPolyline
 90
        4
 70
     1
 43
0.0
 10
6.24999997397326
 20
18.84999951743498
 10
5.899999973973265
 20
18.84999951743498
 10
5.899999973973265
 20
17.84999951743498
 10
6.24999997397326
 20
17.84999951743498
  0
LWPOLYLINE
  5
7085
330
7064
100
AcDbEntity
  8
0
100
AcDbPolyline
 90
        4
 70
     1
 43
0.0
 10
6.599999973973268
 20
19.69999951743488
 10
2.899999973973265
 20
19.69999951743488
 10
2.899999973973265
 20
9.47499951743498
 10
6.599999973973268
 20
9.47499951743498
  0
ELLIPSE
  5
7086
330
7064
100
AcDbEntity
  8
0
100
AcDbEllipse
 10
6.549999973973257
 20
10.02499951743493
 30
0.0
 11
0.0
 21
1.25
 31
0.0
210
0.0
220
0.0
230
1.0
 40
0.98
 41
3.380894
 42
4.528311
  0
ELLIPSE
  5
7087
330
7064
100
AcDbEntity
  8
0
100
AcDbEllipse
 10
6.549999973973257
 20
19.37499951743484
 30
0.0
 11
0.0
 21
1.25
 31
0.0
210
0.0
220
0.0
230
1.0
 40
0.98
 41
4.509903999999999
 42
6.059223999999999
  0
ELLIPSE
  5
7088
330
7064
100
AcDbEntity
  8
0
100
AcDbEllipse
 10
2.87499997397326
 20
9.049999517435026
 30
0.0
 11
0.0
 21
1.25
 31
0.0
210
0.0
220
0.0
230
1.0
 40
0.98
 41
1.708854999999999
 42
3.380894
  0
ELLIPSE
  5
7089
330
7064
100
AcDbEntity
  8
0
100
AcDbEllipse
 10
2.87499997397326
 20
20.29999951743502
 30
0.0
 11
0.0
 21
1.25
 31
0.0
210
0.0
220
0.0
230
1.0
 40
0.98
 41
6.03468
 42
8.053399307179585
  0
LINE
  5
708A
330
7064
100
AcDbEntity
  8
0
100
AcDbLine
 10
6.849999973973268
 20
20.54999951743502
 30
0.0
 11
3.149999973973265
 21
21.47499951743498
 31
0.0
  0
LINE
  5
708B
330
7064
100
AcDbEntity
  8
0
100
AcDbLine
 10
7.774999973973265
 20
10.02499951743493
 30
0.0
 11
7.774999973973265
 21
19.37499951743484
 31
0.0
  0
LINE
  5
708C
330
7064
100
AcDbEntity
  8
0
100
AcDbLine
 10
3.149999973973265
 20
7.799999517435026
 30
0.0
 11
6.849999973973268
 21
8.774999517434935
 31
0.0
  0
LINE
  5
708D
330
7064
100
AcDbEntity
  8
0
100
AcDbLine
 10
1.649999973973265
 20
20.29999951743502
 30
0.0
 11
1.649999973973265
 21
8.949999517434889
 31
0.0
  0
LINE
  5
708E
330
7064
100
AcDbEntity
  8
0
100
AcDbLine
 10
8.524999973973265
 20
23.09999951743498
 30
0.0
 11
0.8999999739732658
 21
23.09999951743498
 31
0.0
  0
ENDBLK
  5
7090
330
7064
100
AcDbEntity
  8
0
100
AcDbBlockEnd
  0
BLOCK
  5
70A7
330
7091
100
AcDbEntity
  8
0
100
AcDbBlockBegin
  2
A$C2F696F30
 70
     0
 10
0.0
 20
0.0
 30
0.0
  3
A$C2F696F30
  1

  0
LINE
  5
7092
330
7091
100
AcDbEntity
  8
0
100
AcDbLine
 10
1.400000765164122
 20
-0.0000001933823341
 30
0.0
 11
5.400000765164122
 21
-0.0000001933823341
 31
0.0
  0
LINE
  5
7093
330
7091
100
AcDbEntity
  8
0
100
AcDbLine
 10
1.400000765164122
 20
13.77499980661764
 30
0.0
 11
5.400000765164122
 21
13.77499980661764
 31
0.0
  0
LWPOLYLINE
  5
7094
330
7091
100
AcDbEntity
  8
0
100
AcDbPolyline
 90
        4
 70
     1
 43
0.2
 10
15.40000076516412
 20
13.34999980661768
 10
15.40000076516412
 20
0.3499998066176886
 10
0.4000007651641227
 20
0.3499998066176886
 10
0.4000007651641227
 20
13.34999980661768
  0
LWPOLYLINE
  5
7095
330
7091
100
AcDbEntity
  8
0
100
AcDbPolyline
 90
        4
 70
     1
 43
0.2
 10
1.400000765164122
 20
12.34999980661768
 10
3.400000765164122
 20
12.34999980661768
 10
3.400000765164122
 20
1.349999806617688
 10
1.400000765164122
 20
1.349999806617688
  0
LWPOLYLINE
  5
7096
330
7091
100
AcDbEntity
  8
0
100
AcDbPolyline
 90
        4
 70
     1
 43
0.2
 10
3.950000765164119
 20
3.349999806617688
 10
3.950000765164119
 20
2.349999806617688
 10
3.400000765164122
 20
2.349999806617688
 10
3.400000765164122
 20
3.349999806617688
  0
LWPOLYLINE
  5
7097
330
7091
100
AcDbEntity
  8
0
100
AcDbPolyline
 90
        4
 70
     1
 43
0.2
 10
3.950000765164119
 20
5.749999806617665
 10
3.950000765164119
 20
4.749999806617665
 10
3.400000765164122
 20
4.749999806617665
 10
3.400000765164122
 20
5.749999806617665
  0
LINE
  5
7098
330
7091
100
AcDbEntity
  8
0
100
AcDbLine
 10
0.0000007651641241
 20
1.349999806617688
 30
0.0
 11
0.0000007651641241
 21
5.349999806617688
 31
0.0
  0
LWPOLYLINE
  5
7099
330
7091
100
AcDbEntity
  8
0
100
AcDbPolyline
 90
        4
 70
     1
 43
0.2
 10
3.950000765164119
 20
8.949999806617711
 10
3.950000765164119
 20
7.949999806617711
 10
3.400000765164122
 20
7.949999806617711
 10
3.400000765164122
 20
8.949999806617711
  0
LWPOLYLINE
  5
709A
330
7091
100
AcDbEntity
  8
0
100
AcDbPolyline
 90
        4
 70
     1
 43
0.2
 10
3.950000765164119
 20
11.34999980661768
 10
3.950000765164119
 20
10.34999980661768
 10
3.400000765164122
 20
10.34999980661768
 10
3.400000765164122
 20
11.34999980661768
  0
LINE
  5
709B
330
7091
100
AcDbEntity
  8
0
100
AcDbLine
 10
0.0000007651641241
 20
12.34999980661768
 30
0.0
 11
0.0000007651641241
 21
8.349999806617688
 31
0.0
  0
LWPOLYLINE
  5
709C
330
7091
100
AcDbEntity
  8
0
100
AcDbPolyline
 90
        4
 70
     1
 43
0.2
 10
10.40000076516412
 20
12.34999980661768
 10
12.40000076516412
 20
12.34999980661768
 10
12.40000076516412
 20
1.349999806617688
 10
10.40000076516412
 20
1.349999806617688
  0
LINE
  5
709D
330
7091
100
AcDbEntity
  8
0
100
AcDbLine
 10
9.400000765164122
 20
13.34999980661768
 30
0.0
 11
9.400000765164122
 21
0.3499998066176886
 31
0.0
  0
LINE
  5
709E
330
7091
100
AcDbEntity
  8
0
100
AcDbLine
 10
6.400000765164122
 20
13.34999980661768
 30
0.0
 11
6.400000765164122
 21
0.3499998066176886
 31
0.0
  0
LWPOLYLINE
  5
709F
330
7091
100
AcDbEntity
  8
0
100
AcDbPolyline
 90
        4
 70
     1
 43
0.2
 10
12.95000076516412
 20
3.349999806617688
 10
12.95000076516412
 20
2.349999806617688
 10
12.40000076516412
 20
2.349999806617688
 10
12.40000076516412
 20
3.349999806617688
  0
LWPOLYLINE
  5
70A0
330
7091
100
AcDbEntity
  8
0
100
AcDbPolyline
 90
        4
 70
     1
 43
0.2
 10
12.95000076516412
 20
5.749999806617665
 10
12.95000076516412
 20
4.749999806617665
 10
12.40000076516412
 20
4.749999806617665
 10
12.40000076516412
 20
5.749999806617665
  0
LINE
  5
70A1
330
7091
100
AcDbEntity
  8
0
100
AcDbLine
 10
14.40000076516412
 20
-0.0000001933823341
 30
0.0
 11
10.40000076516412
 21
-0.0000001933823341
 31
0.0
  0
LINE
  5
70A2
330
7091
100
AcDbEntity
  8
0
100
AcDbLine
 10
15.80000076516412
 20
1.349999806617688
 30
0.0
 11
15.80000076516412
 21
5.349999806617688
 31
0.0
  0
LWPOLYLINE
  5
70A3
330
7091
100
AcDbEntity
  8
0
100
AcDbPolyline
 90
        4
 70
     1
 43
0.2
 10
12.95000076516412
 20
8.949999806617711
 10
12.95000076516412
 20
7.949999806617711
 10
12.40000076516412
 20
7.949999806617711
 10
12.40000076516412
 20
8.949999806617711
  0
LWPOLYLINE
  5
70A4
330
7091
100
AcDbEntity
  8
0
100
AcDbPolyline
 90
        4
 70
     1
 43
0.2
 10
12.95000076516412
 20
11.34999980661768
 10
12.95000076516412
 20
10.34999980661768
 10
12.40000076516412
 20
10.34999980661768
 10
12.40000076516412
 20
11.34999980661768
  0
LINE
  5
70A5
330
7091
100
AcDbEntity
  8
0
100
AcDbLine
 10
14.40000076516412
 20
13.77499980661764
 30
0.0
 11
10.40000076516412
 21
13.77499980661764
 31
0.0
  0
LINE
  5
70A6
330
7091
100
AcDbEntity
  8
0
100
AcDbLine
 10
15.80000076516412
 20
12.34999980661768
 30
0.0
 11
15.80000076516412
 21
8.349999806617688
 31
0.0
  0
ENDBLK
  5
70A8
330
7091
100
AcDbEntity
  8
0
100
AcDbBlockEnd
  0
BLOCK
  5
70DA
330
70A9
100
AcDbEntity
  8
0
100
AcDbBlockBegin
  2
A$C57095CDF
 70
     0
 10
0.0
 20
0.0
 30
0.0
  3
A$C57095CDF
  1

  0
LWPOLYLINE
  5
70AA
330
70A9
100
AcDbEntity
  8
0
100
AcDbPolyline
 90
        4
 70
     1
 43
0.0
 10
3.474999973973268
 20
16.69999991295117
 10
3.12499997397326
 20
16.69999991295117
 10
3.12499997397326
 20
15.72499991295103
 10
3.474999973973268
 20
15.72499991295103
  0
LWPOLYLINE
  5
70AB
330
70A9
100
AcDbEntity
  8
0
100
AcDbPolyline
 90
        4
 70
     1
 43
0.0
 10
6.24999997397326
 20
16.69999991295117
 10
5.899999973973265
 20
16.69999991295117
 10
5.899999973973265
 20
15.72499991295103
 10
6.24999997397326
 20
15.72499991295103
  0
LWPOLYLINE
  5
70AC
330
70A9
100
AcDbEntity
  8
0
100
AcDbPolyline
 90
        4
 70
     1
 43
0.0
 10
6.599999973973268
 20
24.09999991295103
 10
2.899999973973265
 20
24.09999991295103
 10
2.899999973973265
 20
9.94999991295117
 10
6.599999973973268
 20
9.94999991295117
  0
LINE
  5
70AD
330
70A9
100
AcDbEntity
  8
0
100
AcDbLine
 10
7.774999973973265
 20
9.899999912950988
 30
0.0
 11
7.774999973973265
 21
24.02499991295099
 31
0.0
  0
LINE
  5
70AE
330
70A9
100
AcDbEntity
  8
0
100
AcDbLine
 10
1.649999973973265
 20
24.94999991295117
 30
0.0
 11
1.649999973973265
 21
8.849999912951034
 31
0.0
  0
LWPOLYLINE
  5
70AF
330
70A9
100
AcDbEntity
  8
0
100
AcDbPolyline
 90
        4
 70
     1
 43
0.2
 10
0.0999999739732616
 20
33.42499991295108
 10
0.0999999739732616
 20
0.0999999129510343
 10
9.324999973973262
 20
0.0999999129510343
 10
9.324999973973262
 20
33.42499991295108
  0
LWPOLYLINE
  5
70B0
330
70A9
100
AcDbEntity
  8
0
100
AcDbPolyline
 90
        4
 70
     1
 43
0.0
 10
3.449999973973262
 20
11.87499991295112
 10
3.099999973973261
 20
11.87499991295112
 10
3.099999973973261
 20
10.89999991295098
 10
3.449999973973262
 20
10.89999991295098
  0
LWPOLYLINE
  5
70B1
330
70A9
100
AcDbEntity
  8
0
100
AcDbPolyline
 90
        4
 70
     1
 43
0.0
 10
6.224999973973268
 20
11.87499991295112
 10
5.87499997397326
 20
11.87499991295112
 10
5.87499997397326
 20
10.89999991295098
 10
6.224999973973268
 20
10.89999991295098
  0
LWPOLYLINE
  5
70B2
330
70A9
100
AcDbEntity
  8
0
100
AcDbPolyline
 90
        4
 70
     1
 43
0.0
 10
3.449999973973262
 20
13.07499991295117
 10
3.099999973973261
 20
13.07499991295117
 10
3.099999973973261
 20
12.09999991295103
 10
3.449999973973262
 20
12.09999991295103
  0
LWPOLYLINE
  5
70B3
330
70A9
100
AcDbEntity
  8
0
100
AcDbPolyline
 90
        4
 70
     1
 43
0.0
 10
6.224999973973268
 20
13.07499991295117
 10
5.87499997397326
 20
13.07499991295117
 10
5.87499997397326
 20
12.09999991295103
 10
6.224999973973268
 20
12.09999991295103
  0
LWPOLYLINE
  5
70B4
330
70A9
100
AcDbEntity
  8
0
100
AcDbPolyline
 90
        4
 70
     1
 43
0.0
 10
3.474999973973268
 20
14.27499991295098
 10
3.12499997397326
 20
14.27499991295098
 10
3.12499997397326
 20
13.29999991295108
 10
3.474999973973268
 20
13.29999991295108
  0
LWPOLYLINE
  5
70B5
330
70A9
100
AcDbEntity
  8
0
100
AcDbPolyline
 90
        4
 70
     1
 43
0.0
 10
6.24999997397326
 20
14.27499991295098
 10
5.899999973973265
 20
14.27499991295098
 10
5.899999973973265
 20
13.29999991295108
 10
6.24999997397326
 20
13.29999991295108
  0
LINE
  5
70B6
330
70A9
100
AcDbEntity
  8
0
100
AcDbLine
 10
0.8999999739732658
 20
4.274999912950988
 30
0.0
 11
0.8999999739732658
 21
6.349999912951034
 31
0.0
  0
LINE
  5
70B7
330
70A9
100
AcDbEntity
  8
0
100
AcDbLine
 10
8.524999973973265
 20
4.274999912950988
 30
0.0
 11
8.524999973973265
 21
6.349999912951034
 31
0.0
  0
LINE
  5
70B8
330
70A9
100
AcDbEntity
  8
0
100
AcDbLine
 10
6.599999973973268
 20
4.249999912951125
 30
0.0
 11
6.599999973973268
 21
5.224999912951034
 31
0.0
  0
LINE
  5
70B9
330
70A9
100
AcDbEntity
  8
0
100
AcDbLine
 10
6.599999973973268
 20
5.249999912951125
 30
0.0
 11
3.024999973973265
 21
5.249999912951125
 31
0.0
  0
LINE
  5
70BA
330
70A9
100
AcDbEntity
  8
0
100
AcDbLine
 10
3.024999973973265
 20
4.274999912950988
 30
0.0
 11
3.024999973973265
 21
5.249999912951125
 31
0.0
  0
LINE
  5
70BB
330
70A9
100
AcDbEntity
  8
0
100
AcDbLine
 10
3.024999973973265
 20
4.274999912950988
 30
0.0
 11
0.8999999739732658
 21
4.274999912950988
 31
0.0
  0
LINE
  5
70BC
330
70A9
100
AcDbEntity
  8
0
100
AcDbLine
 10
8.524999973973265
 20
4.274999912950988
 30
0.0
 11
6.599999973973268
 21
4.274999912950988
 31
0.0
  0
LINE
  5
70BD
330
70A9
100
AcDbEntity
  8
0
100
AcDbLine
 10
8.524999973973265
 20
6.349999912951034
 30
0.0
 11
0.8999999739732658
 21
6.349999912951034
 31
0.0
  0
LWPOLYLINE
  5
70BE
330
70A9
100
AcDbEntity
  8
0
100
AcDbPolyline
 90
        4
 70
     1
 43
0.0
 10
3.474999973973268
 20
15.52499991295098
 10
3.12499997397326
 20
15.52499991295098
 10
3.12499997397326
 20
14.54999991295108
 10
3.474999973973268
 20
14.54999991295108
  0
LWPOLYLINE
  5
70BF
330
70A9
100
AcDbEntity
  8
0
100
AcDbPolyline
 90
        4
 70
     1
 43
0.0
 10
6.24999997397326
 20
15.52499991295098
 10
5.899999973973265
 20
15.52499991295098
 10
5.899999973973265
 20
14.54999991295108
 10
6.24999997397326
 20
14.54999991295108
  0
ELLIPSE
  5
70C0
330
70A9
100
AcDbEntity
  8
0
100
AcDbEllipse
 10
6.549999973973257
 20
9.999999912951125
 30
0.0
 11
0.0
 21
1.25
 31
0.0
210
0.0
220
0.0
230
1.0
 40
0.98
 41
3.380894
 42
4.528311
  0
ELLIPSE
  5
70C1
330
70A9
100
AcDbEntity
  8
0
100
AcDbEllipse
 10
2.87499997397326
 20
9.024999912950988
 30
0.0
 11
0.0
 21
1.25
 31
0.0
210
0.0
220
0.0
230
1.0
 40
0.98
 41
1.708854999999999
 42
3.380894
  0
LINE
  5
70C2
330
70A9
100
AcDbEntity
  8
0
100
AcDbLine
 10
3.149999973973265
 20
7.774999912950988
 30
0.0
 11
6.849999973973268
 21
8.749999912951125
 31
0.0
  0
ELLIPSE
  5
70C3
330
70A9
100
AcDbEntity
  8
0
100
AcDbEllipse
 10
4.724999973973268
 20
3.374999912951125
 30
0.0
 11
0.0
 21
0.775
 31
0.0
210
0.0
220
0.0
230
1.0
 40
0.9677419999999999
 41
0.0
 42
6.283184999999999
  0
LINE
  5
70C4
330
70A9
100
AcDbEntity
  8
0
100
AcDbLine
 10
0.8999999739732658
 20
29.82499991295117
 30
0.0
 11
0.8999999739732658
 21
27.74999991295112
 31
0.0
  0
LINE
  5
70C5
330
70A9
100
AcDbEntity
  8
0
100
AcDbLine
 10
8.524999973973265
 20
29.82499991295117
 30
0.0
 11
8.524999973973265
 21
27.74999991295112
 31
0.0
  0
LINE
  5
70C6
330
70A9
100
AcDbEntity
  8
0
100
AcDbLine
 10
6.599999973973268
 20
29.84999991295103
 30
0.0
 11
6.599999973973268
 21
28.87499991295112
 31
0.0
  0
LINE
  5
70C7
330
70A9
100
AcDbEntity
  8
0
100
AcDbLine
 10
6.599999973973268
 20
28.84999991295103
 30
0.0
 11
3.024999973973265
 21
28.84999991295103
 31
0.0
  0
LINE
  5
70C8
330
70A9
100
AcDbEntity
  8
0
100
AcDbLine
 10
3.024999973973265
 20
29.82499991295117
 30
0.0
 11
3.024999973973265
 21
28.84999991295103
 31
0.0
  0
LINE
  5
70C9
330
70A9
100
AcDbEntity
  8
0
100
AcDbLine
 10
3.024999973973265
 20
29.82499991295117
 30
0.0
 11
0.8999999739732658
 21
29.82499991295117
 31
0.0
  0
LINE
  5
70CA
330
70A9
100
AcDbEntity
  8
0
100
AcDbLine
 10
8.524999973973265
 20
29.82499991295117
 30
0.0
 11
6.599999973973268
 21
29.82499991295117
 31
0.0
  0
LWPOLYLINE
  5
70CB
330
70A9
100
AcDbEntity
  8
0
100
AcDbPolyline
 90
        4
 70
     1
 43
0.0
 10
3.474999973973268
 20
17.97499991295103
 10
3.12499997397326
 20
17.97499991295103
 10
3.12499997397326
 20
16.99999991295112
 10
3.474999973973268
 20
16.99999991295112
  0
LWPOLYLINE
  5
70CC
330
70A9
100
AcDbEntity
  8
0
100
AcDbPolyline
 90
        4
 70
     1
 43
0.0
 10
3.474999973973268
 20
19.29999991295107
 10
3.12499997397326
 20
19.29999991295107
 10
3.12499997397326
 20
18.34999991295103
 10
3.474999973973268
 20
18.34999991295103
  0
LWPOLYLINE
  5
70CD
330
70A9
100
AcDbEntity
  8
0
100
AcDbPolyline
 90
        4
 70
     1
 43
0.0
 10
3.474999973973268
 20
20.57499991295117
 10
3.12499997397326
 20
20.57499991295117
 10
3.12499997397326
 20
19.59999991295103
 10
3.474999973973268
 20
19.59999991295103
  0
LWPOLYLINE
  5
70CE
330
70A9
100
AcDbEntity
  8
0
100
AcDbPolyline
 90
        4
 70
     1
 43
0.0
 10
3.474999973973268
 20
21.79999991295108
 10
3.12499997397326
 20
21.79999991295108
 10
3.12499997397326
 20
20.82499991295116
 10
3.474999973973268
 20
20.82499991295116
  0
LWPOLYLINE
  5
70CF
330
70A9
100
AcDbEntity
  8
0
100
AcDbPolyline
 90
        4
 70
     1
 43
0.0
 10
3.474999973973268
 20
23.07499991295117
 10
3.12499997397326
 20
23.07499991295117
 10
3.12499997397326
 20
22.07499991295116
 10
3.474999973973268
 20
22.07499991295116
  0
LWPOLYLINE
  5
70D0
330
70A9
100
AcDbEntity
  8
0
100
AcDbPolyline
 90
        4
 70
     1
 43
0.0
 10
6.24999997397326
 20
17.97499991295103
 10
5.899999973973265
 20
17.97499991295103
 10
5.899999973973265
 20
16.99999991295112
 10
6.24999997397326
 20
16.99999991295112
  0
LWPOLYLINE
  5
70D1
330
70A9
100
AcDbEntity
  8
0
100
AcDbPolyline
 90
        4
 70
     1
 43
0.0
 10
6.24999997397326
 20
19.29999991295107
 10
5.899999973973265
 20
19.29999991295107
 10
5.899999973973265
 20
18.34999991295103
 10
6.24999997397326
 20
18.34999991295103
  0
LWPOLYLINE
  5
70D2
330
70A9
100
AcDbEntity
  8
0
100
AcDbPolyline
 90
        4
 70
     1
 43
0.0
 10
6.24999997397326
 20
20.57499991295117
 10
5.899999973973265
 20
20.57499991295117
 10
5.899999973973265
 20
19.59999991295103
 10
6.24999997397326
 20
19.59999991295103
  0
LWPOLYLINE
  5
70D3
330
70A9
100
AcDbEntity
  8
0
100
AcDbPolyline
 90
        4
 70
     1
 43
0.0
 10
6.24999997397326
 20
21.79999991295108
 10
5.899999973973265
 20
21.79999991295108
 10
5.899999973973265
 20
20.82499991295116
 10
6.24999997397326
 20
20.82499991295116
  0
LWPOLYLINE
  5
70D4
330
70A9
100
AcDbEntity
  8
0
100
AcDbPolyline
 90
        4
 70
     1
 43
0.0
 10
6.24999997397326
 20
23.07499991295117
 10
5.899999973973265
 20
23.07499991295117
 10
5.899999973973265
 20
22.07499991295116
 10
6.24999997397326
 20
22.07499991295116
  0
ELLIPSE
  5
70D5
330
70A9
100
AcDbEntity
  8
0
100
AcDbEllipse
 10
6.549999973973257
 20
24.02499991295099
 30
0.0
 11
0.0
 21
1.25
 31
0.0
210
0.0
220
0.0
230
1.0
 40
0.98
 41
4.509903999999999
 42
6.059223999999999
  0
ELLIPSE
  5
70D6
330
70A9
100
AcDbEntity
  8
0
100
AcDbEllipse
 10
2.87499997397326
 20
24.94999991295117
 30
0.0
 11
0.0
 21
1.25
 31
0.0
210
0.0
220
0.0
230
1.0
 40
0.98
 41
6.03468
 42
8.053399307179585
  0
LINE
  5
70D7
330
70A9
100
AcDbEntity
  8
0
100
AcDbLine
 10
6.849999973973268
 20
25.19999991295117
 30
0.0
 11
3.149999973973265
 21
26.12499991295112
 31
0.0
  0
ELLIPSE
  5
70D8
330
70A9
100
AcDbEntity
  8
0
100
AcDbEllipse
 10
4.724999973973268
 20
31.04999991295108
 30
0.0
 11
0.0
 21
0.775
 31
0.0
210
0.0
220
0.0
230
1.0
 40
0.9677419999999999
 41
0.0
 42
6.283184999999999
  0
LINE
  5
70D9
330
70A9
100
AcDbEntity
  8
0
100
AcDbLine
 10
8.524999973973265
 20
27.74999991295112
 30
0.0
 11
0.8999999739732658
 21
27.74999991295112
 31
0.0
  0
ENDBLK
  5
70DB
330
70A9
100
AcDbEntity
  8
0
100
AcDbBlockEnd
  0
BLOCK
  5
711D
330
70DC
100
AcDbEntity
  8
0
100
AcDbBlockBegin
  2
A$C3A6E1F00
 70
     0
 10
0.0
 20
0.0
 30
0.0
  3
A$C3A6E1F00
  1

  0
LWPOLYLINE
  5
70DD
330
70DC
100
AcDbEntity
  8
0
100
AcDbPolyline
 90
        4
 70
     1
 43
0.0
 10
3.449999973973262
 20
15.9499995198721
 10
3.099999973973261
 20
15.9499995198721
 10
3.099999973973261
 20
14.9749995198722
 10
3.449999973973262
 20
14.9749995198722
  0
LWPOLYLINE
  5
70DE
330
70DC
100
AcDbEntity
  8
0
100
AcDbPolyline
 90
        4
 70
     1
 43
0.0
 10
6.224999973973268
 20
15.9499995198721
 10
5.87499997397326
 20
15.9499995198721
 10
5.87499997397326
 20
14.9749995198722
 10
6.224999973973268
 20
14.9749995198722
  0
LWPOLYLINE
  5
70DF
330
70DC
100
AcDbEntity
  8
0
100
AcDbPolyline
 90
        4
 70
     1
 43
0.0
 10
6.599999973973268
 20
34.0749995198721
 10
2.899999973973265
 20
34.0749995198721
 10
2.899999973973265
 20
10.27499951987215
 10
6.599999973973268
 20
10.27499951987215
  0
LINE
  5
70E0
330
70DC
100
AcDbEntity
  8
0
100
AcDbLine
 10
7.774999973973265
 20
9.824999519872108
 30
0.0
 11
7.774999973973265
 21
33.99999951987206
 31
0.0
  0
LINE
  5
70E1
330
70DC
100
AcDbEntity
  8
0
100
AcDbLine
 10
1.649999973973265
 20
34.92499951987224
 30
0.0
 11
1.649999973973265
 21
8.899999519872153
 31
0.0
  0
LWPOLYLINE
  5
70E2
330
70DC
100
AcDbEntity
  8
0
100
AcDbPolyline
 90
        4
 70
     1
 43
0.2
 10
0.0999999739732616
 20
43.39999951987215
 10
0.0999999739732616
 20
0.099999519872199
 10
9.324999973973262
 20
0.099999519872199
 10
9.324999973973262
 20
43.39999951987215
  0
LWPOLYLINE
  5
70E3
330
70DC
100
AcDbEntity
  8
0
100
AcDbPolyline
 90
        4
 70
     1
 43
0.0
 10
3.449999973973262
 20
12.29999951987224
 10
3.099999973973261
 20
12.29999951987224
 10
3.099999973973261
 20
11.3249995198721
 10
3.449999973973262
 20
11.3249995198721
  0
LWPOLYLINE
  5
70E4
330
70DC
100
AcDbEntity
  8
0
100
AcDbPolyline
 90
        4
 70
     1
 43
0.0
 10
6.224999973973268
 20
12.29999951987224
 10
5.87499997397326
 20
12.29999951987224
 10
5.87499997397326
 20
11.3249995198721
 10
6.224999973973268
 20
11.3249995198721
  0
LWPOLYLINE
  5
70E5
330
70DC
100
AcDbEntity
  8
0
100
AcDbPolyline
 90
        4
 70
     1
 43
0.0
 10
3.449999973973262
 20
13.52499951987215
 10
3.099999973973261
 20
13.52499951987215
 10
3.099999973973261
 20
12.54999951987224
 10
3.449999973973262
 20
12.54999951987224
  0
LWPOLYLINE
  5
70E6
330
70DC
100
AcDbEntity
  8
0
100
AcDbPolyline
 90
        4
 70
     1
 43
0.0
 10
6.224999973973268
 20
13.52499951987215
 10
5.87499997397326
 20
13.52499951987215
 10
5.87499997397326
 20
12.54999951987224
 10
6.224999973973268
 20
12.54999951987224
  0
LWPOLYLINE
  5
70E7
330
70DC
100
AcDbEntity
  8
0
100
AcDbPolyline
 90
        4
 70
     1
 43
0.0
 10
3.449999973973262
 20
14.74999951987206
 10
3.099999973973261
 20
14.74999951987206
 10
3.099999973973261
 20
13.77499951987215
 10
3.449999973973262
 20
13.77499951987215
  0
LWPOLYLINE
  5
70E8
330
70DC
100
AcDbEntity
  8
0
100
AcDbPolyline
 90
        4
 70
     1
 43
0.0
 10
6.224999973973268
 20
14.74999951987206
 10
5.87499997397326
 20
14.74999951987206
 10
5.87499997397326
 20
13.77499951987215
 10
6.224999973973268
 20
13.77499951987215
  0
LINE
  5
70E9
330
70DC
100
AcDbEntity
  8
0
100
AcDbLine
 10
0.8999999739732658
 20
4.374999519872176
 30
0.0
 11
0.8999999739732658
 21
6.449999519872108
 31
0.0
  0
LINE
  5
70EA
330
70DC
100
AcDbEntity
  8
0
100
AcDbLine
 10
8.524999973973265
 20
4.374999519872176
 30
0.0
 11
8.524999973973265
 21
6.449999519872108
 31
0.0
  0
LINE
  5
70EB
330
70DC
100
AcDbEntity
  8
0
100
AcDbLine
 10
6.599999973973268
 20
4.349999519872199
 30
0.0
 11
6.599999973973268
 21
5.324999519872108
 31
0.0
  0
LINE
  5
70EC
330
70DC
100
AcDbEntity
  8
0
100
AcDbLine
 10
6.599999973973268
 20
5.349999519872199
 30
0.0
 11
3.024999973973265
 21
5.349999519872199
 31
0.0
  0
LINE
  5
70ED
330
70DC
100
AcDbEntity
  8
0
100
AcDbLine
 10
3.024999973973265
 20
4.374999519872176
 30
0.0
 11
3.024999973973265
 21
5.349999519872199
 31
0.0
  0
LINE
  5
70EE
330
70DC
100
AcDbEntity
  8
0
100
AcDbLine
 10
3.024999973973265
 20
4.374999519872176
 30
0.0
 11
0.8999999739732658
 21
4.374999519872176
 31
0.0
  0
LINE
  5
70EF
330
70DC
100
AcDbEntity
  8
0
100
AcDbLine
 10
8.524999973973265
 20
4.374999519872176
 30
0.0
 11
6.599999973973268
 21
4.374999519872176
 31
0.0
  0
LINE
  5
70F0
330
70DC
100
AcDbEntity
  8
0
100
AcDbLine
 10
8.524999973973265
 20
6.449999519872108
 30
0.0
 11
0.8999999739732658
 21
6.449999519872108
 31
0.0
  0
ELLIPSE
  5
70F1
330
70DC
100
AcDbEntity
  8
0
100
AcDbEllipse
 10
6.549999973973257
 20
10.04999951987224
 30
0.0
 11
0.0
 21
1.25
 31
0.0
210
0.0
220
0.0
230
1.0
 40
0.98
 41
3.380894
 42
4.528311
  0
ELLIPSE
  5
70F2
330
70DC
100
AcDbEntity
  8
0
100
AcDbEllipse
 10
2.87499997397326
 20
9.074999519872108
 30
0.0
 11
0.0
 21
1.25
 31
0.0
210
0.0
220
0.0
230
1.0
 40
0.98
 41
1.708854999999999
 42
3.380894
  0
LINE
  5
70F3
330
70DC
100
AcDbEntity
  8
0
100
AcDbLine
 10
3.149999973973265
 20
7.824999519872108
 30
0.0
 11
6.849999973973268
 21
8.799999519872244
 31
0.0
  0
ELLIPSE
  5
70F4
330
70DC
100
AcDbEntity
  8
0
100
AcDbEllipse
 10
4.724999973973268
 20
3.474999519872199
 30
0.0
 11
0.0
 21
0.775
 31
0.0
210
0.0
220
0.0
230
1.0
 40
0.9677419999999999
 41
0.0
 42
6.283184999999999
  0
LINE
  5
70F5
330
70DC
100
AcDbEntity
  8
0
100
AcDbLine
 10
0.8999999739732658
 20
39.79999951987224
 30
0.0
 11
0.8999999739732658
 21
37.72499951987219
 31
0.0
  0
LINE
  5
70F6
330
70DC
100
AcDbEntity
  8
0
100
AcDbLine
 10
8.524999973973265
 20
39.79999951987224
 30
0.0
 11
8.524999973973265
 21
37.72499951987219
 31
0.0
  0
LWPOLYLINE
  5
70F7
330
70DC
100
AcDbEntity
  8
0
100
AcDbPolyline
 90
        4
 70
     1
 43
0.0
 10
3.449999973973262
 20
17.12499951987206
 10
3.099999973973261
 20
17.12499951987206
 10
3.099999973973261
 20
16.14999951987215
 10
3.449999973973262
 20
16.14999951987215
  0
LWPOLYLINE
  5
70F8
330
70DC
100
AcDbEntity
  8
0
100
AcDbPolyline
 90
        4
 70
     1
 43
0.0
 10
6.224999973973268
 20
17.12499951987206
 10
5.87499997397326
 20
17.12499951987206
 10
5.87499997397326
 20
16.14999951987215
 10
6.224999973973268
 20
16.14999951987215
  0
LWPOLYLINE
  5
70F9
330
70DC
100
AcDbEntity
  8
0
100
AcDbPolyline
 90
        4
 70
     1
 43
0.0
 10
3.449999973973262
 20
18.29999951987224
 10
3.099999973973261
 20
18.29999951987224
 10
3.099999973973261
 20
17.3249995198721
 10
3.449999973973262
 20
17.3249995198721
  0
LWPOLYLINE
  5
70FA
330
70DC
100
AcDbEntity
  8
0
100
AcDbPolyline
 90
        4
 70
     1
 43
0.0
 10
6.224999973973268
 20
18.29999951987224
 10
5.87499997397326
 20
18.29999951987224
 10
5.87499997397326
 20
17.3249995198721
 10
6.224999973973268
 20
17.3249995198721
  0
LWPOLYLINE
  5
70FB
330
70DC
100
AcDbEntity
  8
0
100
AcDbPolyline
 90
        4
 70
     1
 43
0.0
 10
3.449999973973262
 20
19.4749995198722
 10
3.099999973973261
 20
19.4749995198722
 10
3.099999973973261
 20
18.49999951987206
 10
3.449999973973262
 20
18.49999951987206
  0
LWPOLYLINE
  5
70FC
330
70DC
100
AcDbEntity
  8
0
100
AcDbPolyline
 90
        4
 70
     1
 43
0.0
 10
6.224999973973268
 20
19.4749995198722
 10
5.87499997397326
 20
19.4749995198722
 10
5.87499997397326
 20
18.49999951987206
 10
6.224999973973268
 20
18.49999951987206
  0
LWPOLYLINE
  5
70FD
330
70DC
100
AcDbEntity
  8
0
100
AcDbPolyline
 90
        4
 70
     1
 43
0.0
 10
3.449999973973262
 20
20.67499951987224
 10
3.099999973973261
 20
20.67499951987224
 10
3.099999973973261
 20
19.6999995198721
 10
3.449999973973262
 20
19.6999995198721
  0
LWPOLYLINE
  5
70FE
330
70DC
100
AcDbEntity
  8
0
100
AcDbPolyline
 90
        4
 70
     1
 43
0.0
 10
6.224999973973268
 20
20.67499951987224
 10
5.87499997397326
 20
20.67499951987224
 10
5.87499997397326
 20
19.6999995198721
 10
6.224999973973268
 20
19.6999995198721
  0
LWPOLYLINE
  5
70FF
330
70DC
100
AcDbEntity
  8
0
100
AcDbPolyline
 90
        4
 70
     1
 43
0.0
 10
3.449999973973262
 20
21.8499995198722
 10
3.099999973973261
 20
21.8499995198722
 10
3.099999973973261
 20
20.87499951987206
 10
3.449999973973262
 20
20.87499951987206
  0
LWPOLYLINE
  5
7100
330
70DC
100
AcDbEntity
  8
0
100
AcDbPolyline
 90
        4
 70
     1
 43
0.0
 10
6.224999973973268
 20
21.8499995198722
 10
5.87499997397326
 20
21.8499995198722
 10
5.87499997397326
 20
20.87499951987206
 10
6.224999973973268
 20
20.87499951987206
  0
LWPOLYLINE
  5
7101
330
70DC
100
AcDbEntity
  8
0
100
AcDbPolyline
 90
        4
 70
     1
 43
0.0
 10
3.449999973973262
 20
23.04999951987224
 10
3.099999973973261
 20
23.04999951987224
 10
3.099999973973261
 20
22.0749995198721
 10
3.449999973973262
 20
22.0749995198721
  0
LWPOLYLINE
  5
7102
330
70DC
100
AcDbEntity
  8
0
100
AcDbPolyline
 90
        4
 70
     1
 43
0.0
 10
6.224999973973268
 20
23.04999951987224
 10
5.87499997397326
 20
23.04999951987224
 10
5.87499997397326
 20
22.0749995198721
 10
6.224999973973268
 20
22.0749995198721
  0
LWPOLYLINE
  5
7103
330
70DC
100
AcDbEntity
  8
0
100
AcDbPolyline
 90
        4
 70
     1
 43
0.0
 10
3.474999973973268
 20
24.24999951987206
 10
3.12499997397326
 20
24.24999951987206
 10
3.12499997397326
 20
23.27499951987215
 10
3.474999973973268
 20
23.27499951987215
  0
LWPOLYLINE
  5
7104
330
70DC
100
AcDbEntity
  8
0
100
AcDbPolyline
 90
        4
 70
     1
 43
0.0
 10
6.24999997397326
 20
24.24999951987206
 10
5.899999973973265
 20
24.24999951987206
 10
5.899999973973265
 20
23.27499951987215
 10
6.24999997397326
 20
23.27499951987215
  0
LWPOLYLINE
  5
7105
330
70DC
100
AcDbEntity
  8
0
100
AcDbPolyline
 90
        4
 70
     1
 43
0.0
 10
3.474999973973268
 20
25.49999951987206
 10
3.12499997397326
 20
25.49999951987206
 10
3.12499997397326
 20
24.52499951987215
 10
3.474999973973268
 20
24.52499951987215
  0
LWPOLYLINE
  5
7106
330
70DC
100
AcDbEntity
  8
0
100
AcDbPolyline
 90
        4
 70
     1
 43
0.0
 10
3.474999973973268
 20
26.67499951987224
 10
3.12499997397326
 20
26.67499951987224
 10
3.12499997397326
 20
25.6999995198721
 10
3.474999973973268
 20
25.6999995198721
  0
LWPOLYLINE
  5
7107
330
70DC
100
AcDbEntity
  8
0
100
AcDbPolyline
 90
        4
 70
     1
 43
0.0
 10
3.474999973973268
 20
27.94999951987211
 10
3.12499997397326
 20
27.94999951987211
 10
3.12499997397326
 20
26.9749995198722
 10
3.474999973973268
 20
26.9749995198722
  0
LWPOLYLINE
  5
7108
330
70DC
100
AcDbEntity
  8
0
100
AcDbPolyline
 90
        4
 70
     1
 43
0.0
 10
3.474999973973268
 20
29.27499951987215
 10
3.12499997397326
 20
29.27499951987215
 10
3.12499997397326
 20
28.32499951987211
 10
3.474999973973268
 20
28.32499951987211
  0
LWPOLYLINE
  5
7109
330
70DC
100
AcDbEntity
  8
0
100
AcDbPolyline
 90
        4
 70
     1
 43
0.0
 10
3.474999973973268
 20
30.54999951987224
 10
3.12499997397326
 20
30.54999951987224
 10
3.12499997397326
 20
29.57499951987211
 10
3.474999973973268
 20
29.57499951987211
  0
LWPOLYLINE
  5
710A
330
70DC
100
AcDbEntity
  8
0
100
AcDbPolyline
 90
        4
 70
     1
 43
0.0
 10
3.474999973973268
 20
31.77499951987215
 10
3.12499997397326
 20
31.77499951987215
 10
3.12499997397326
 20
30.79999951987224
 10
3.474999973973268
 20
30.79999951987224
  0
LWPOLYLINE
  5
710B
330
70DC
100
AcDbEntity
  8
0
100
AcDbPolyline
 90
        4
 70
     1
 43
0.0
 10
3.474999973973268
 20
33.04999951987224
 10
3.12499997397326
 20
33.04999951987224
 10
3.12499997397326
 20
32.04999951987224
 10
3.474999973973268
 20
32.04999951987224
  0
LWPOLYLINE
  5
710C
330
70DC
100
AcDbEntity
  8
0
100
AcDbPolyline
 90
        4
 70
     1
 43
0.0
 10
6.24999997397326
 20
25.49999951987206
 10
5.899999973973265
 20
25.49999951987206
 10
5.899999973973265
 20
24.52499951987215
 10
6.24999997397326
 20
24.52499951987215
  0
LWPOLYLINE
  5
710D
330
70DC
100
AcDbEntity
  8
0
100
AcDbPolyline
 90
        4
 70
     1
 43
0.0
 10
6.24999997397326
 20
26.67499951987224
 10
5.899999973973265
 20
26.67499951987224
 10
5.899999973973265
 20
25.6999995198721
 10
6.24999997397326
 20
25.6999995198721
  0
LWPOLYLINE
  5
710E
330
70DC
100
AcDbEntity
  8
0
100
AcDbPolyline
 90
        4
 70
     1
 43
0.0
 10
6.24999997397326
 20
27.94999951987211
 10
5.899999973973265
 20
27.94999951987211
 10
5.899999973973265
 20
26.9749995198722
 10
6.24999997397326
 20
26.9749995198722
  0
LWPOLYLINE
  5
710F
330
70DC
100
AcDbEntity
  8
0
100
AcDbPolyline
 90
        4
 70
     1
 43
0.0
 10
6.24999997397326
 20
29.27499951987215
 10
5.899999973973265
 20
29.27499951987215
 10
5.899999973973265
 20
28.32499951987211
 10
6.24999997397326
 20
28.32499951987211
  0
LWPOLYLINE
  5
7110
330
70DC
100
AcDbEntity
  8
0
100
AcDbPolyline
 90
        4
 70
     1
 43
0.0
 10
6.24999997397326
 20
30.54999951987224
 10
5.899999973973265
 20
30.54999951987224
 10
5.899999973973265
 20
29.57499951987211
 10
6.24999997397326
 20
29.57499951987211
  0
LWPOLYLINE
  5
7111
330
70DC
100
AcDbEntity
  8
0
100
AcDbPolyline
 90
        4
 70
     1
 43
0.0
 10
6.24999997397326
 20
31.77499951987215
 10
5.899999973973265
 20
31.77499951987215
 10
5.899999973973265
 20
30.79999951987224
 10
6.24999997397326
 20
30.79999951987224
  0
LWPOLYLINE
  5
7112
330
70DC
100
AcDbEntity
  8
0
100
AcDbPolyline
 90
        4
 70
     1
 43
0.0
 10
6.24999997397326
 20
33.04999951987224
 10
5.899999973973265
 20
33.04999951987224
 10
5.899999973973265
 20
32.04999951987224
 10
6.24999997397326
 20
32.04999951987224
  0
ELLIPSE
  5
7113
330
70DC
100
AcDbEntity
  8
0
100
AcDbEllipse
 10
6.549999973973257
 20
33.99999951987206
 30
0.0
 11
0.0
 21
1.25
 31
0.0
210
0.0
220
0.0
230
1.0
 40
0.98
 41
4.509903999999999
 42
6.059223999999999
  0
ELLIPSE
  5
7114
330
70DC
100
AcDbEntity
  8
0
100
AcDbEllipse
 10
2.87499997397326
 20
34.92499951987224
 30
0.0
 11
0.0
 21
1.25
 31
0.0
210
0.0
220
0.0
230
1.0
 40
0.98
 41
6.03468
 42
8.053399307179585
  0
LINE
  5
7115
330
70DC
100
AcDbEntity
  8
0
100
AcDbLine
 10
6.849999973973268
 20
35.17499951987224
 30
0.0
 11
3.149999973973265
 21
36.09999951987219
 31
0.0
  0
LINE
  5
7116
330
70DC
100
AcDbEntity
  8
0
100
AcDbLine
 10
8.524999973973265
 20
37.72499951987219
 30
0.0
 11
0.8999999739732658
 21
37.72499951987219
 31
0.0
  0
LINE
  5
7117
330
70DC
100
AcDbEntity
  8
0
100
AcDbLine
 10
6.599999973973268
 20
39.82499951987211
 30
0.0
 11
6.599999973973268
 21
38.8499995198722
 31
0.0
  0
LINE
  5
7118
330
70DC
100
AcDbEntity
  8
0
100
AcDbLine
 10
6.599999973973268
 20
38.8249995198721
 30
0.0
 11
3.024999973973265
 21
38.8249995198721
 31
0.0
  0
LINE
  5
7119
330
70DC
100
AcDbEntity
  8
0
100
AcDbLine
 10
3.024999973973265
 20
39.79999951987224
 30
0.0
 11
3.024999973973265
 21
38.8249995198721
 31
0.0
  0
LINE
  5
711A
330
70DC
100
AcDbEntity
  8
0
100
AcDbLine
 10
3.024999973973265
 20
39.79999951987224
 30
0.0
 11
0.8999999739732658
 21
39.79999951987224
 31
0.0
  0
LINE
  5
711B
330
70DC
100
AcDbEntity
  8
0
100
AcDbLine
 10
8.524999973973265
 20
39.79999951987224
 30
0.0
 11
6.599999973973268
 21
39.79999951987224
 31
0.0
  0
ELLIPSE
  5
711C
330
70DC
100
AcDbEntity
  8
0
100
AcDbEllipse
 10
4.724999973973268
 20
41.02499951987215
 30
0.0
 11
0.0
 21
0.775
 31
0.0
210
0.0
220
0.0
230
1.0
 40
0.9677419999999999
 41
0.0
 42
6.283184999999999
  0
ENDBLK
  5
711E
330
70DC
100
AcDbEntity
  8
0
100
AcDbBlockEnd
  0
ENDSEC
  0
SECTION
  2
ENTITIES
  0
MTEXT
  5
7608
330
18
100
AcDbEntity
  8
0
100
AcDbMText
 10
170.5945521553809
 20
212.1565086293088
 30
0.0
 40
4.0
 41
13.7408
 71
     1
 72
     5
  1
TB1
  7
MSｺﾞｼｯｸ
 73
     1
 44
1.0
  0
INSERT
  5
7609
330
18
100
AcDbEntity
  8
0
100
AcDbBlockReference
  2
A$C444F17A9
 10
196.4731447336624
 20
202.7260095653433
 30
0.0
  0
LINE
  5
760A
330
18
100
AcDbEntity
  8
0
100
AcDbLine
 10
190.5981453413597
 20
171.0760100513699
 30
0.0
 11
190.5981453413597
 21
217.3260100513699
 31
0.0
  0
LINE
  5
760B
330
18
100
AcDbEntity
  8
0
100
AcDbLine
 10
209.0981453413597
 20
227.8260100513699
 30
0.0
 11
209.0981453413597
 21
67.82601005136996
 31
0.0
  0
LINE
  5
760C
330
18
100
AcDbEntity
  8
0
100
AcDbLine
 10
209.0981453413597
 20
53.82601005136973
 30
0.0
 11
209.0981453413598
 21
241.8260100513701
 31
0.0
  0
LINE
  5
760F
330
18
100
AcDbEntity
  8
0
100
AcDbLine
 10
154.0981453413597
 20
227.8260100513699
 30
0.0
 11
154.0981453413597
 21
67.82601005136996
 31
0.0
  0
LINE
  5
7610
330
18
100
AcDbEntity
  8
0
100
AcDbLine
 10
154.0981453413597
 20
227.8260100513699
 30
0.0
 11
154.0981453413597
 21
67.82601005136996
 31
0.0
  0
LINE
  5
7611
330
18
100
AcDbEntity
  8
0
100
AcDbLine
 10
114.0981453413597
 20
227.82601005137
 30
0.0
 11
114.0981453413597
 21
67.82601005137007
 31
0.0
  0
LINE
  5
7612
330
18
100
AcDbEntity
  8
0
100
AcDbLine
 10
205.0981453413598
 20
212.8260100513699
 30
0.0
 11
205.0981453413597
 21
82.82601005136996
 31
0.0
  0
LINE
  5
7613
330
18
100
AcDbEntity
  8
0
100
AcDbLine
 10
205.0981453413597
 20
217.3260100513699
 30
0.0
 11
205.0981453413597
 21
77.32601005136996
 31
0.0
  0
LINE
  5
7614
330
18
100
AcDbEntity
  8
0
100
AcDbLine
 10
154.0981453413599
 20
67.82601005136996
 30
0.0
 11
114.0981453413597
 21
67.82601005137007
 31
0.0
  0
INSERT
  5
7616
330
18
100
AcDbEntity
  8
0
100
AcDbBlockReference
  2
A$C3A6E1F00
 10
194.7731453673865
 20
78.42601053149781
 30
0.0
  0
LINE
  5
7617
330
18
100
AcDbEntity
  8
0
100
AcDbLine
 10
190.5981453413596
 20
155.5760100513699
 30
0.0
 11
190.5981453413595
 21
77.32601005136996
 31
0.0
  0
LINE
  5
7618
330
18
100
AcDbEntity
  8
0
100
AcDbLine
 10
205.0981453413597
 20
77.32601005136996
 30
0.0
 11
190.5981453413595
 21
77.32601005136996
 31
0.0
  0
LINE
  5
7619
330
18
100
AcDbEntity
  8
0
100
AcDbLine
 10
154.0981453413599
 20
67.82601005136996
 30
0.0
 11
228.0981453413597
 21
67.82601005136996
 31
0.0
  0
LINE
  5
761A
330
18
100
AcDbEntity
  8
0
100
AcDbLine
 10
171.8481453413597
 20
52.82601005136985
 30
0.0
 11
195.3481453413597
 21
52.82601005136985
 31
0.0
  0
ARC
  5
761C
330
18
100
AcDbEntity
  8
0
100
AcDbCircle
 10
168.0981453413597
 20
57.82601005137002
 30
0.0
 40
2.75
100
AcDbArc
 50
0.0
 51
180.0
  0
LINE
  5
761D
330
18
100
AcDbEntity
  8
0
370
    40
100
AcDbLine
 10
163.0981453413597
 20
76.82601005137001
 30
0.0
 11
163.0981453413597
 21
75.22601005136983
 31
0.0
  0
CIRCLE
  5
761E
330
18
100
AcDbEntity
  8
0
370
    40
100
AcDbCircle
 10
163.0981453413597
 20
74.82601005136996
 30
0.0
 40
3.0
  0
LINE
  5
761F
330
18
100
AcDbEntity
  8
0
370
    40
100
AcDbLine
 10
163.5981453413597
 20
72.8260100513699
 30
0.0
 11
162.5981453413597
 21
72.8260100513699
 31
0.0
  0
LINE
  5
7620
330
18
100
AcDbEntity
  8
0
370
    40
100
AcDbLine
 10
164.3481453413597
 20
74.0260100513699
 30
0.0
 11
161.8481453413597
 21
74.0260100513699
 31
0.0
  0
LINE
  5
7621
330
18
100
AcDbEntity
  8
0
370
    40
100
AcDbLine
 10
165.0981453413597
 20
75.22601005136983
 30
0.0
 11
161.0981453413597
 21
75.22601005136988
 31
0.0
  0
ARC
  5
7622
330
18
100
AcDbEntity
  8
0
100
AcDbCircle
 10
162.5981453413596
 20
69.07601005136985
 30
0.0
 40
3.249999999999876
100
AcDbArc
 50
202.6198649480369
 51
337.380135051963
  0
LINE
  5
7623
330
18
100
AcDbEntity
  8
0
100
AcDbLine
 10
165.3481453413597
 20
57.82601005136996
 30
0.0
 11
165.3481453413597
 21
53.82601005136996
 31
0.0
  0
LINE
  5
7624
330
18
100
AcDbEntity
  8
0
100
AcDbLine
 10
165.3481453413597
 20
53.82601005136996
 30
0.0
 11
164.3481453413597
 21
52.82601005136996
 31
0.0
  0
LINE
  5
7625
330
18
100
AcDbEntity
  8
0
100
AcDbLine
 10
159.0981453413597
 20
52.82601005136996
 30
0.0
 11
158.0981453413597
 21
53.82601005136996
 31
0.0
  0
LINE
  5
7626
330
18
100
AcDbEntity
  8
0
100
AcDbLine
 10
159.0981453413597
 20
52.82601005136996
 30
0.0
 11
164.3481453413597
 21
52.82601005136996
 31
0.0
  0
LINE
  5
7627
330
18
100
AcDbEntity
  8
0
100
AcDbLine
 10
158.0981453413597
 20
67.82601005136996
 30
0.0
 11
158.0981453413597
 21
53.82601005136996
 31
0.0
  0
LINE
  5
7629
330
18
100
AcDbEntity
  8
0
100
AcDbLine
 10
170.8481453413597
 20
57.82601005136996
 30
0.0
 11
170.8481453413597
 21
53.82601005136985
 31
0.0
  0
LINE
  5
762A
330
18
100
AcDbEntity
  8
0
100
AcDbLine
 10
171.8481453413597
 20
52.82601005136985
 30
0.0
 11
170.8481453413597
 21
53.82601005136985
 31
0.0
  0
LINE
  5
762C
330
18
100
AcDbEntity
  8
0
100
AcDbLine
 10
202.8481453413597
 20
52.82601005136985
 30
0.0
 11
208.0981453413597
 21
52.82601005136985
 31
0.0
  0
LINE
  5
762D
330
18
100
AcDbEntity
  8
0
100
AcDbLine
 10
201.8481453413597
 20
57.82601005136996
 30
0.0
 11
201.8481453413597
 21
53.82601005136985
 31
0.0
  0
LINE
  5
762E
330
18
100
AcDbEntity
  8
0
100
AcDbLine
 10
202.8481453413597
 20
52.82601005136985
 30
0.0
 11
201.8481453413597
 21
53.82601005136985
 31
0.0
  0
LINE
  5
762F
330
18
100
AcDbEntity
  8
0
100
AcDbLine
 10
196.3481453413597
 20
57.82601005136996
 30
0.0
 11
196.3481453413597
 21
53.82601005136996
 31
0.0
  0
LINE
  5
7630
330
18
100
AcDbEntity
  8
0
100
AcDbLine
 10
196.3481453413597
 20
53.82601005136996
 30
0.0
 11
195.3481453413597
 21
52.82601005136996
 31
0.0
  0
ARC
  5
7631
330
18
100
AcDbEntity
  8
0
100
AcDbCircle
 10
199.0981453413597
 20
57.82601005137002
 30
0.0
 40
2.75
100
AcDbArc
 50
0.0
 51
180.0
  0
LINE
  5
7632
330
18
100
AcDbEntity
  8
0
100
AcDbLine
 10
208.0981453413597
 20
52.82601005136985
 30
0.0
 11
209.0981453413597
 21
53.82601005136985
 31
0.0
  0
INSERT
  5
7633
330
18
100
AcDbEntity
  8
0
100
AcDbBlockReference
  2
A$C2F696F30
 10
187.6981445761956
 20
155.9760102447522
 30
0.0
  0
MTEXT
  5
7634
330
18
100
AcDbEntity
  8
0
100
AcDbMText
 10
161.5284039201922
 20
149.2846538679641
 30
0.0
 40
2.799999999999999
 41
4.654799999999999
 71
     1
 72
     5
  1
B2
  7
MSｺﾞｼｯｸ
 73
     1
 44
1.0
  0
LINE
  5
7635
330
18
100
AcDbEntity
  8
0
100
AcDbLine
 10
176.6981453413599
 20
149.9060100513698
 30
0.0
 11
176.6981453413599
 21
145.8260100513697
 31
0.0
  0
LINE
  5
7636
330
18
100
AcDbEntity
  8
0
100
AcDbLine
 10
182.6981453413599
 20
170.72601005137
 30
0.0
 11
182.6981453413598
 21
119.92601005137
 31
0.0
  0
LINE
  5
7637
330
18
100
AcDbEntity
  8
0
100
AcDbLine
 10
177.1981453413599
 20
170.7260100513698
 30
0.0
 11
177.1981453413599
 21
119.92601005137
 31
0.0
  0
LINE
  5
7638
330
18
100
AcDbEntity
  8
0
100
AcDbLine
 10
182.1981453413599
 20
170.72601005137
 30
0.0
 11
182.1981453413598
 21
119.92601005137
 31
0.0
  0
LINE
  5
7639
330
18
100
AcDbEntity
  8
0
100
AcDbLine
 10
174.0981453413597
 20
149.1660100513696
 30
0.0
 11
174.0981453413597
 21
146.5660100513696
 31
0.0
  0
LINE
  5
763A
330
18
100
AcDbEntity
  8
0
100
AcDbLine
 10
170.1981453413598
 20
149.1660100513693
 30
0.0
 11
170.1981453413599
 21
146.5660100513696
 31
0.0
  0
LINE
  5
763B
330
18
100
AcDbEntity
  8
0
100
AcDbLine
 10
169.6981453413599
 20
149.9060100513698
 30
0.0
 11
169.6981453413599
 21
145.8260100513696
 31
0.0
  0
LINE
  5
763C
330
18
100
AcDbEntity
  8
0
100
AcDbLine
 10
167.6981453413599
 20
170.7260100513698
 30
0.0
 11
167.6981453413599
 21
119.9260100513699
 31
0.0
  0
LINE
  5
763D
330
18
100
AcDbEntity
  8
0
100
AcDbLine
 10
167.6981453413599
 20
118.3260100513699
 30
0.0
 11
167.6981453413599
 21
172.3260100513698
 31
0.0
  0
LINE
  5
763E
330
18
100
AcDbEntity
  8
0
100
AcDbLine
 10
175.9981453413597
 20
171.8260100513699
 30
0.0
 11
175.9981453413598
 21
118.8260100513699
 31
0.0
  0
LINE
  5
763F
330
18
100
AcDbEntity
  8
0
100
AcDbLine
 10
167.6981453413599
 20
171.8260100513699
 30
0.0
 11
167.6981453413598
 21
118.8260100513699
 31
0.0
  0
LINE
  5
7640
330
18
100
AcDbEntity
  8
0
100
AcDbLine
 10
167.0981453413597
 20
118.3260100513699
 30
0.0
 11
167.0981453413597
 21
172.3260100513698
 31
0.0
  0
LINE
  5
7641
330
18
100
AcDbEntity
  8
0
100
AcDbLine
 10
180.5981453413597
 20
172.3260100513698
 30
0.0
 11
180.5981453413597
 21
170.7260100513699
 31
0.0
  0
LINE
  5
7642
330
18
100
AcDbEntity
  8
0
100
AcDbLine
 10
167.6981453413599
 20
119.9260100513699
 30
0.0
 11
182.6981453413598
 21
119.92601005137
 31
0.0
  0
LINE
  5
7643
330
18
100
AcDbEntity
  8
0
100
AcDbLine
 10
180.5981453413597
 20
118.3260100513699
 30
0.0
 11
167.0981453413597
 21
118.3260100513699
 31
0.0
  0
LINE
  5
7644
330
18
100
AcDbEntity
  8
0
100
AcDbLine
 10
175.9981453413598
 20
118.8260100513699
 30
0.0
 11
167.6981453413596
 21
118.8260100513699
 31
0.0
  0
MTEXT
  5
7645
330
18
100
AcDbEntity
  8
0
100
AcDbMText
 10
162.2920751356448
 20
133.4565125942538
 30
0.0
 40
2.799999999999999
 41
4.654799999999999
 71
     1
 72
     5
  1
W
  7
MSｺﾞｼｯｸ
 73
     1
 44
1.0
  0
MTEXT
  5
7646
330
18
100
AcDbEntity
  8
0
100
AcDbMText
 10
162.355899414734
 20
143.5523254918764
 30
0.0
 40
2.799999999999999
 41
4.654799999999999
 71
     1
 72
     5
  1
U
  7
MSｺﾞｼｯｸ
 73
     1
 44
1.0
  0
MTEXT
  5
7647
330
18
100
AcDbEntity
  8
0
100
AcDbMText
 10
162.2826106756945
 20
138.3523254918763
 30
0.0
 40
2.799999999999999
 41
4.654799999999999
 71
     1
 72
     5
  1
V
  7
MSｺﾞｼｯｸ
 73
     1
 44
1.0
  0
MTEXT
  5
764C
330
18
100
AcDbEntity
  8
0
100
AcDbMText
 10
188.7999126609624
 20
102.0288343205949
 30
0.0
 40
2.2
 41
7.047999999999999
 71
     3
 72
     5
  1
CN1
  7
MSｺﾞｼｯｸ
 73
     1
 44
1.0
  0
LINE
  5
764D
330
18
100
AcDbEntity
  8
0
100
AcDbLine
 10
176.6981453413599
 20
144.8260100513697
 30
0.0
 11
176.6981453413599
 21
140.7460100513697
 31
0.0
  0
LINE
  5
764E
330
18
100
AcDbEntity
  8
0
100
AcDbLine
 10
176.6981453413599
 20
134.6660100513697
 30
0.0
 11
176.6981453413599
 21
130.5860100513696
 31
0.0
  0
LINE
  5
764F
330
18
100
AcDbEntity
  8
0
100
AcDbLine
 10
176.6981453413599
 20
124.5060100513696
 30
0.0
 11
176.6981453413599
 21
120.4260100513695
 31
0.0
  0
LINE
  5
7650
330
18
100
AcDbEntity
  8
0
100
AcDbLine
 10
176.6981453413599
 20
129.5860100513696
 30
0.0
 11
176.6981453413599
 21
125.5060100513696
 31
0.0
  0
LINE
  5
7651
330
18
100
AcDbEntity
  8
0
100
AcDbLine
 10
176.6981453413599
 20
139.7460100513697
 30
0.0
 11
176.6981453413599
 21
135.6660100513697
 31
0.0
  0
LINE
  5
7652
330
18
100
AcDbEntity
  8
0
100
AcDbLine
 10
174.0981453413597
 20
144.0860100513695
 30
0.0
 11
174.0981453413597
 21
141.4860100513696
 31
0.0
  0
LINE
  5
7653
330
18
100
AcDbEntity
  8
0
100
AcDbLine
 10
170.1981453413598
 20
144.0860100513693
 30
0.0
 11
170.1981453413599
 21
141.4860100513696
 31
0.0
  0
LINE
  5
7654
330
18
100
AcDbEntity
  8
0
100
AcDbLine
 10
169.6981453413599
 20
144.8260100513697
 30
0.0
 11
169.6981453413599
 21
140.7460100513696
 31
0.0
  0
LINE
  5
7655
330
18
100
AcDbEntity
  8
0
100
AcDbLine
 10
170.1981453413599
 20
141.4860100513696
 30
0.0
 11
169.6981453413599
 21
140.7460100513696
 31
0.0
  0
LINE
  5
7656
330
18
100
AcDbEntity
  8
0
100
AcDbLine
 10
169.6981453413599
 20
139.7460100513696
 30
0.0
 11
170.1981453413598
 21
139.0060100513692
 31
0.0
  0
LINE
  5
7657
330
18
100
AcDbEntity
  8
0
100
AcDbLine
 10
170.1981453413599
 20
141.4860100513696
 30
0.0
 11
174.0981453413597
 21
141.4860100513695
 31
0.0
  0
LINE
  5
7658
330
18
100
AcDbEntity
  8
0
100
AcDbLine
 10
170.1981453413598
 20
139.0060100513692
 30
0.0
 11
174.0981453413597
 21
139.0060100513696
 31
0.0
  0
LINE
  5
7659
330
18
100
AcDbEntity
  8
0
100
AcDbLine
 10
170.1981453413599
 20
146.5660100513696
 30
0.0
 11
169.6981453413599
 21
145.8260100513696
 31
0.0
  0
LINE
  5
765A
330
18
100
AcDbEntity
  8
0
100
AcDbLine
 10
169.6981453413599
 20
144.8260100513696
 30
0.0
 11
170.1981453413598
 21
144.0860100513693
 31
0.0
  0
LINE
  5
765B
330
18
100
AcDbEntity
  8
0
100
AcDbLine
 10
170.1981453413599
 20
146.5660100513696
 30
0.0
 11
174.0981453413597
 21
146.5660100513695
 31
0.0
  0
LINE
  5
765C
330
18
100
AcDbEntity
  8
0
100
AcDbLine
 10
170.1981453413598
 20
144.0860100513693
 30
0.0
 11
174.0981453413597
 21
144.0860100513696
 31
0.0
  0
LINE
  5
765D
330
18
100
AcDbEntity
  8
0
100
AcDbLine
 10
174.0981453413597
 20
133.9260100513694
 30
0.0
 11
174.0981453413597
 21
131.3260100513695
 31
0.0
  0
LINE
  5
765E
330
18
100
AcDbEntity
  8
0
100
AcDbLine
 10
170.1981453413599
 20
131.3260100513695
 30
0.0
 11
169.6981453413599
 21
130.5860100513695
 31
0.0
  0
LINE
  5
765F
330
18
100
AcDbEntity
  8
0
100
AcDbLine
 10
169.6981453413599
 20
134.6660100513697
 30
0.0
 11
169.6981453413599
 21
130.5860100513695
 31
0.0
  0
LINE
  5
7660
330
18
100
AcDbEntity
  8
0
100
AcDbLine
 10
170.1981453413598
 20
133.9260100513692
 30
0.0
 11
170.1981453413599
 21
131.3260100513695
 31
0.0
  0
LINE
  5
7661
330
18
100
AcDbEntity
  8
0
100
AcDbLine
 10
169.6981453413599
 20
134.6660100513696
 30
0.0
 11
170.1981453413598
 21
133.9260100513692
 31
0.0
  0
LINE
  5
7662
330
18
100
AcDbEntity
  8
0
100
AcDbLine
 10
170.1981453413599
 20
131.3260100513695
 30
0.0
 11
174.0981453413597
 21
131.3260100513694
 31
0.0
  0
LINE
  5
7663
330
18
100
AcDbEntity
  8
0
100
AcDbLine
 10
170.1981453413598
 20
133.9260100513692
 30
0.0
 11
174.0981453413597
 21
133.9260100513695
 31
0.0
  0
LINE
  5
7664
330
18
100
AcDbEntity
  8
0
100
AcDbLine
 10
170.1981453413599
 20
136.4060100513696
 30
0.0
 11
169.6981453413599
 21
135.6660100513696
 31
0.0
  0
LINE
  5
7665
330
18
100
AcDbEntity
  8
0
100
AcDbLine
 10
170.1981453413599
 20
136.4060100513696
 30
0.0
 11
174.0981453413597
 21
136.4060100513694
 31
0.0
  0
LINE
  5
7666
330
18
100
AcDbEntity
  8
0
100
AcDbLine
 10
174.0981453413597
 20
128.8460100513694
 30
0.0
 11
174.0981453413597
 21
126.2460100513695
 31
0.0
  0
LINE
  5
7667
330
18
100
AcDbEntity
  8
0
100
AcDbLine
 10
170.1981453413598
 20
128.8460100513691
 30
0.0
 11
170.1981453413599
 21
126.2460100513695
 31
0.0
  0
LINE
  5
7668
330
18
100
AcDbEntity
  8
0
100
AcDbLine
 10
174.0981453413597
 20
123.7660100513694
 30
0.0
 11
174.0981453413597
 21
121.1660100513694
 31
0.0
  0
LINE
  5
7669
330
18
100
AcDbEntity
  8
0
100
AcDbLine
 10
170.1981453413599
 20
126.2460100513695
 30
0.0
 11
169.6981453413599
 21
125.5060100513695
 31
0.0
  0
LINE
  5
766A
330
18
100
AcDbEntity
  8
0
100
AcDbLine
 10
170.1981453413598
 20
123.7660100513691
 30
0.0
 11
170.1981453413599
 21
121.1660100513694
 31
0.0
  0
LINE
  5
766B
330
18
100
AcDbEntity
  8
0
100
AcDbLine
 10
169.6981453413599
 20
124.5060100513695
 30
0.0
 11
170.1981453413598
 21
123.7660100513691
 31
0.0
  0
LINE
  5
766C
330
18
100
AcDbEntity
  8
0
100
AcDbLine
 10
170.1981453413599
 20
121.1660100513694
 30
0.0
 11
169.6981453413599
 21
120.4260100513694
 31
0.0
  0
LINE
  5
766D
330
18
100
AcDbEntity
  8
0
100
AcDbLine
 10
169.6981453413599
 20
124.5060100513696
 30
0.0
 11
169.6981453413599
 21
120.4260100513694
 31
0.0
  0
LINE
  5
766E
330
18
100
AcDbEntity
  8
0
100
AcDbLine
 10
170.1981453413599
 20
126.2460100513695
 30
0.0
 11
174.0981453413597
 21
126.2460100513694
 31
0.0
  0
LINE
  5
766F
330
18
100
AcDbEntity
  8
0
100
AcDbLine
 10
170.1981453413599
 20
121.1660100513694
 30
0.0
 11
174.0981453413597
 21
121.1660100513693
 31
0.0
  0
LINE
  5
7670
330
18
100
AcDbEntity
  8
0
100
AcDbLine
 10
170.1981453413598
 20
123.7660100513691
 30
0.0
 11
174.0981453413597
 21
123.7660100513695
 31
0.0
  0
LINE
  5
7671
330
18
100
AcDbEntity
  8
0
100
AcDbLine
 10
170.1981453413598
 20
128.8460100513691
 30
0.0
 11
174.0981453413597
 21
128.8460100513695
 31
0.0
  0
LINE
  5
7672
330
18
100
AcDbEntity
  8
0
100
AcDbLine
 10
169.6981453413599
 20
129.5860100513696
 30
0.0
 11
169.6981453413599
 21
125.5060100513695
 31
0.0
  0
LINE
  5
7673
330
18
100
AcDbEntity
  8
0
100
AcDbLine
 10
169.6981453413599
 20
129.5860100513695
 30
0.0
 11
170.1981453413598
 21
128.8460100513691
 31
0.0
  0
LINE
  5
7674
330
18
100
AcDbEntity
  8
0
100
AcDbLine
 10
174.0981453413597
 20
139.0060100513695
 30
0.0
 11
174.0981453413597
 21
136.4060100513696
 31
0.0
  0
LINE
  5
7675
330
18
100
AcDbEntity
  8
0
100
AcDbLine
 10
170.1981453413598
 20
139.0060100513692
 30
0.0
 11
170.1981453413599
 21
136.4060100513696
 31
0.0
  0
LINE
  5
7676
330
18
100
AcDbEntity
  8
0
100
AcDbLine
 10
169.6981453413599
 20
139.7460100513697
 30
0.0
 11
169.6981453413599
 21
135.6660100513696
 31
0.0
  0
LINE
  5
7677
330
18
100
AcDbEntity
  8
0
100
AcDbLine
 10
174.0981453413597
 20
126.2460100513694
 30
0.0
 11
176.6981453413599
 21
125.5060100513696
 31
0.0
  0
LINE
  5
7678
330
18
100
AcDbEntity
  8
0
100
AcDbLine
 10
174.0981453413597
 20
123.7660100513694
 30
0.0
 11
176.6981453413599
 21
124.5060100513696
 31
0.0
  0
LINE
  5
7679
330
18
100
AcDbEntity
  8
0
100
AcDbLine
 10
174.0981453413597
 20
121.1660100513693
 30
0.0
 11
176.6981453413599
 21
120.4260100513695
 31
0.0
  0
LINE
  5
767A
330
18
100
AcDbEntity
  8
0
100
AcDbLine
 10
169.6981453413599
 20
125.5060100513695
 30
0.0
 11
176.6981453413599
 21
125.5060100513696
 31
0.0
  0
LINE
  5
767B
330
18
100
AcDbEntity
  8
0
100
AcDbLine
 10
169.6981453413599
 20
124.5060100513696
 30
0.0
 11
176.6981453413599
 21
124.5060100513696
 31
0.0
  0
LINE
  5
767C
330
18
100
AcDbEntity
  8
0
100
AcDbLine
 10
169.6981453413599
 20
120.4260100513694
 30
0.0
 11
176.6981453413599
 21
120.4260100513695
 31
0.0
  0
LINE
  5
767D
330
18
100
AcDbEntity
  8
0
100
AcDbLine
 10
174.0981453413597
 20
131.3260100513694
 30
0.0
 11
176.6981453413599
 21
130.5860100513696
 31
0.0
  0
LINE
  5
767E
330
18
100
AcDbEntity
  8
0
100
AcDbLine
 10
174.0981453413597
 20
128.8460100513694
 30
0.0
 11
176.6981453413599
 21
129.5860100513696
 31
0.0
  0
LINE
  5
767F
330
18
100
AcDbEntity
  8
0
100
AcDbLine
 10
174.0981453413597
 20
133.9260100513694
 30
0.0
 11
176.6981453413599
 21
134.6660100513697
 31
0.0
  0
LINE
  5
7680
330
18
100
AcDbEntity
  8
0
100
AcDbLine
 10
169.6981453413599
 20
130.5860100513695
 30
0.0
 11
176.6981453413599
 21
130.5860100513696
 31
0.0
  0
LINE
  5
7681
330
18
100
AcDbEntity
  8
0
100
AcDbLine
 10
169.6981453413599
 20
129.5860100513696
 30
0.0
 11
176.6981453413599
 21
129.5860100513696
 31
0.0
  0
LINE
  5
7682
330
18
100
AcDbEntity
  8
0
100
AcDbLine
 10
169.6981453413599
 20
134.6660100513697
 30
0.0
 11
176.6981453413599
 21
134.6660100513697
 31
0.0
  0
LINE
  5
7683
330
18
100
AcDbEntity
  8
0
100
AcDbLine
 10
174.0981453413597
 20
141.4860100513695
 30
0.0
 11
176.6981453413599
 21
140.7460100513697
 31
0.0
  0
LINE
  5
7684
330
18
100
AcDbEntity
  8
0
100
AcDbLine
 10
174.0981453413597
 20
139.0060100513695
 30
0.0
 11
176.6981453413599
 21
139.7460100513697
 31
0.0
  0
LINE
  5
7685
330
18
100
AcDbEntity
  8
0
100
AcDbLine
 10
174.0981453413597
 20
136.4060100513694
 30
0.0
 11
176.6981453413599
 21
135.6660100513697
 31
0.0
  0
LINE
  5
7686
330
18
100
AcDbEntity
  8
0
100
AcDbLine
 10
169.6981453413599
 20
140.7460100513696
 30
0.0
 11
176.6981453413599
 21
140.7460100513697
 31
0.0
  0
LINE
  5
7687
330
18
100
AcDbEntity
  8
0
100
AcDbLine
 10
169.6981453413599
 20
139.7460100513697
 30
0.0
 11
176.6981453413599
 21
139.7460100513697
 31
0.0
  0
LINE
  5
7688
330
18
100
AcDbEntity
  8
0
100
AcDbLine
 10
169.6981453413599
 20
135.6660100513696
 30
0.0
 11
176.6981453413599
 21
135.6660100513697
 31
0.0
  0
LINE
  5
7689
330
18
100
AcDbEntity
  8
0
100
AcDbLine
 10
174.0981453413597
 20
146.5660100513695
 30
0.0
 11
176.6981453413599
 21
145.8260100513697
 31
0.0
  0
LINE
  5
768A
330
18
100
AcDbEntity
  8
0
100
AcDbLine
 10
174.0981453413597
 20
144.0860100513695
 30
0.0
 11
176.6981453413599
 21
144.8260100513697
 31
0.0
  0
LINE
  5
768B
330
18
100
AcDbEntity
  8
0
100
AcDbLine
 10
169.6981453413599
 20
145.8260100513696
 30
0.0
 11
176.6981453413599
 21
145.8260100513697
 31
0.0
  0
LINE
  5
768C
330
18
100
AcDbEntity
  8
0
100
AcDbLine
 10
169.6981453413599
 20
144.8260100513697
 30
0.0
 11
176.6981453413599
 21
144.8260100513697
 31
0.0
  0
MTEXT
  5
768D
330
18
100
AcDbEntity
  8
0
100
AcDbMText
 10
189.3110299936365
 20
140.0889301076964
 30
0.0
 40
2.2
 41
7.047999999999999
 71
     3
 72
     5
  1
CN2
  7
MSｺﾞｼｯｸ
 73
     1
 44
1.0
  0
LINE
  5
768E
330
18
100
AcDbEntity
  8
0
100
AcDbLine
 10
167.6981453413596
 20
205.44601005137
 30
0.0
 11
182.6981453413598
 21
205.4460100513701
 31
0.0
  0
LINE
  5
768F
330
18
100
AcDbEntity
  8
0
100
AcDbLine
 10
180.5981453413597
 20
206.8260100513701
 30
0.0
 11
167.0981453413597
 21
206.8260100513699
 31
0.0
  0
LINE
  5
7690
330
18
100
AcDbEntity
  8
0
100
AcDbLine
 10
175.9981453413598
 20
206.3260100513701
 30
0.0
 11
167.6981453413598
 21
206.3260100513699
 31
0.0
  0
LINE
  5
7691
330
18
100
AcDbEntity
  8
0
100
AcDbLine
 10
180.5981453413597
 20
172.3260100513698
 30
0.0
 11
167.0981453413597
 21
172.3260100513698
 31
0.0
  0
LINE
  5
7692
330
18
100
AcDbEntity
  8
0
100
AcDbLine
 10
175.9981453413597
 20
171.8260100513699
 30
0.0
 11
167.6981453413599
 21
171.8260100513699
 31
0.0
  0
LINE
  5
7693
330
18
100
AcDbEntity
  8
0
100
AcDbLine
 10
167.6981453413599
 20
170.7260100513698
 30
0.0
 11
182.6981453413599
 21
170.72601005137
 31
0.0
  0
LINE
  5
7694
330
18
100
AcDbEntity
  8
0
100
AcDbLine
 10
180.5981453413597
 20
188.8260100513699
 30
0.0
 11
167.0981453413597
 21
188.8260100513699
 31
0.0
  0
LINE
  5
7695
330
18
100
AcDbEntity
  8
0
100
AcDbLine
 10
175.9981453413598
 20
189.3260100513699
 30
0.0
 11
167.6981453413598
 21
189.3260100513699
 31
0.0
  0
LINE
  5
7696
330
18
100
AcDbEntity
  8
0
100
AcDbLine
 10
167.6981453413599
 20
190.2060100513699
 30
0.0
 11
182.69814534136
 21
190.20601005137
 31
0.0
  0
MTEXT
  5
7697
330
18
100
AcDbEntity
  8
0
100
AcDbMText
 10
162.4908166294915
 20
169.7804667655868
 30
0.0
 40
2.799999999999999
 41
4.654799999999999
 71
     1
 72
     5
  1
R
  7
MSｺﾞｼｯｸ
 73
     1
 44
1.0
  0
MTEXT
  5
7698
330
18
100
AcDbEntity
  8
0
100
AcDbMText
 10
162.4164330300479
 20
159.5325546352123
 30
0.0
 40
2.799999999999999
 41
4.654799999999999
 71
     1
 72
     5
  1
T
  7
MSｺﾞｼｯｸ
 73
     1
 44
1.0
  0
MTEXT
  5
7699
330
18
100
AcDbEntity
  8
0
100
AcDbMText
 10
161.5144566151363
 20
154.3325584229212
 30
0.0
 40
2.799999999999999
 41
4.654799999999999
 71
     1
 72
     5
  1
B1
  7
MSｺﾞｼｯｸ
 73
     1
 44
1.0
  0
MTEXT
  5
769A
330
18
100
AcDbEntity
  8
0
100
AcDbMText
 10
162.355899414734
 20
164.7325584229213
 30
0.0
 40
2.799999999999999
 41
4.654799999999999
 71
     1
 72
     5
  1
S
  7
MSｺﾞｼｯｸ
 73
     1
 44
1.0
  0
MTEXT
  5
769B
330
18
100
AcDbEntity
  8
0
100
AcDbMText
 10
162.502482975369
 20
199.5612330623984
 30
0.0
 40
2.799999999999999
 41
4.654799999999999
 71
     1
 72
     5
  1
s
  7
MSｺﾞｼｯｸ
 73
     1
 44
1.0
  0
MTEXT
  5
769C
330
18
100
AcDbEntity
  8
0
100
AcDbMText
 10
162.7307309571449
 20
204.7612330623984
 30
0.0
 40
2.799999999999999
 41
4.654799999999999
 71
     1
 72
     5
  1
r
  7
MSｺﾞｼｯｸ
 73
     1
 44
1.0
  0
LINE
  5
769D
330
18
100
AcDbEntity
  8
0
100
AcDbLine
 10
167.6981453413596
 20
205.44601005137
 30
0.0
 11
167.6981453413598
 21
190.2060100513699
 31
0.0
  0
LINE
  5
769E
330
18
100
AcDbEntity
  8
0
100
AcDbLine
 10
167.6981453413598
 20
206.3260100513699
 30
0.0
 11
167.6981453413598
 21
189.3260100513699
 31
0.0
  0
LINE
  5
769F
330
18
100
AcDbEntity
  8
0
100
AcDbLine
 10
167.0981453413597
 20
206.8260100513699
 30
0.0
 11
167.0981453413597
 21
188.8260100513699
 31
0.0
  0
MTEXT
  5
76A0
330
18
100
AcDbEntity
  8
0
100
AcDbMText
 10
170.5945521553809
 20
177.6565086293088
 30
0.0
 40
4.0
 41
13.7408
 71
     1
 72
     5
  1
TB2
  7
MSｺﾞｼｯｸ
 73
     1
 44
1.0
  0
LINE
  5
76A1
330
18
100
AcDbEntity
  8
0
100
AcDbLine
 10
176.6981453413599
 20
165.1460100513699
 30
0.0
 11
176.6981453413599
 21
161.0660100513699
 31
0.0
  0
LINE
  5
76A2
330
18
100
AcDbEntity
  8
0
100
AcDbLine
 10
176.6981453413599
 20
170.2260100513699
 30
0.0
 11
176.6981453413599
 21
166.1460100513699
 31
0.0
  0
LINE
  5
76A3
330
18
100
AcDbEntity
  8
0
100
AcDbLine
 10
176.6981453413599
 20
154.9860100513698
 30
0.0
 11
176.6981453413599
 21
150.9060100513698
 31
0.0
  0
LINE
  5
76A4
330
18
100
AcDbEntity
  8
0
100
AcDbLine
 10
176.6981453413599
 20
160.0660100513699
 30
0.0
 11
176.6981453413599
 21
155.9860100513698
 31
0.0
  0
LINE
  5
76A5
330
18
100
AcDbEntity
  8
0
100
AcDbLine
 10
169.6981453413599
 20
170.2260100513698
 30
0.0
 11
170.1981453413598
 21
169.4860100513695
 31
0.0
  0
LINE
  5
76A6
330
18
100
AcDbEntity
  8
0
100
AcDbLine
 10
170.1981453413598
 20
169.4860100513695
 30
0.0
 11
174.0981453413597
 21
169.4860100513698
 31
0.0
  0
LINE
  5
76A7
330
18
100
AcDbEntity
  8
0
100
AcDbLine
 10
170.1981453413599
 20
166.8860100513698
 30
0.0
 11
169.6981453413599
 21
166.1460100513698
 31
0.0
  0
LINE
  5
76A8
330
18
100
AcDbEntity
  8
0
100
AcDbLine
 10
174.0981453413597
 20
164.4060100513697
 30
0.0
 11
174.0981453413597
 21
161.8060100513698
 31
0.0
  0
LINE
  5
76A9
330
18
100
AcDbEntity
  8
0
100
AcDbLine
 10
169.6981453413599
 20
165.1460100513699
 30
0.0
 11
169.6981453413599
 21
161.0660100513698
 31
0.0
  0
LINE
  5
76AA
330
18
100
AcDbEntity
  8
0
100
AcDbLine
 10
170.1981453413599
 20
161.8060100513698
 30
0.0
 11
169.6981453413599
 21
161.0660100513698
 31
0.0
  0
LINE
  5
76AB
330
18
100
AcDbEntity
  8
0
100
AcDbLine
 10
169.6981453413599
 20
165.1460100513698
 30
0.0
 11
170.1981453413598
 21
164.4060100513694
 31
0.0
  0
LINE
  5
76AC
330
18
100
AcDbEntity
  8
0
100
AcDbLine
 10
170.1981453413598
 20
164.4060100513694
 30
0.0
 11
170.1981453413599
 21
161.8060100513698
 31
0.0
  0
LINE
  5
76AD
330
18
100
AcDbEntity
  8
0
100
AcDbLine
 10
169.6981453413599
 20
160.0660100513698
 30
0.0
 11
170.1981453413598
 21
159.3260100513694
 31
0.0
  0
LINE
  5
76AE
330
18
100
AcDbEntity
  8
0
100
AcDbLine
 10
170.1981453413598
 20
164.4060100513694
 30
0.0
 11
174.0981453413597
 21
164.4060100513698
 31
0.0
  0
LINE
  5
76AF
330
18
100
AcDbEntity
  8
0
100
AcDbLine
 10
170.1981453413599
 20
161.8060100513698
 30
0.0
 11
174.0981453413597
 21
161.8060100513696
 31
0.0
  0
LINE
  5
76B0
330
18
100
AcDbEntity
  8
0
100
AcDbLine
 10
170.1981453413598
 20
159.3260100513694
 30
0.0
 11
174.0981453413597
 21
159.3260100513697
 31
0.0
  0
LINE
  5
76B1
330
18
100
AcDbEntity
  8
0
100
AcDbLine
 10
170.1981453413599
 20
166.8860100513698
 30
0.0
 11
174.0981453413597
 21
166.8860100513697
 31
0.0
  0
LINE
  5
76B2
330
18
100
AcDbEntity
  8
0
100
AcDbLine
 10
169.6981453413599
 20
170.2260100513699
 30
0.0
 11
169.6981453413599
 21
166.1460100513698
 31
0.0
  0
LINE
  5
76B3
330
18
100
AcDbEntity
  8
0
100
AcDbLine
 10
174.0981453413597
 20
169.4860100513697
 30
0.0
 11
174.0981453413597
 21
166.8860100513698
 31
0.0
  0
LINE
  5
76B4
330
18
100
AcDbEntity
  8
0
100
AcDbLine
 10
170.1981453413598
 20
169.4860100513695
 30
0.0
 11
170.1981453413599
 21
166.8860100513698
 31
0.0
  0
LINE
  5
76B5
330
18
100
AcDbEntity
  8
0
100
AcDbLine
 10
169.6981453413599
 20
149.9060100513697
 30
0.0
 11
170.1981453413598
 21
149.1660100513693
 31
0.0
  0
LINE
  5
76B6
330
18
100
AcDbEntity
  8
0
100
AcDbLine
 10
170.1981453413598
 20
149.1660100513693
 30
0.0
 11
174.0981453413597
 21
149.1660100513697
 31
0.0
  0
LINE
  5
76B7
330
18
100
AcDbEntity
  8
0
100
AcDbLine
 10
174.0981453413597
 20
154.2460100513696
 30
0.0
 11
174.0981453413597
 21
151.6460100513697
 31
0.0
  0
LINE
  5
76B8
330
18
100
AcDbEntity
  8
0
100
AcDbLine
 10
170.1981453413599
 20
151.6460100513697
 30
0.0
 11
169.6981453413599
 21
150.9060100513697
 31
0.0
  0
LINE
  5
76B9
330
18
100
AcDbEntity
  8
0
100
AcDbLine
 10
170.1981453413599
 20
156.7260100513697
 30
0.0
 11
169.6981453413599
 21
155.9860100513697
 31
0.0
  0
LINE
  5
76BA
330
18
100
AcDbEntity
  8
0
100
AcDbLine
 10
169.6981453413599
 20
154.9860100513697
 30
0.0
 11
170.1981453413598
 21
154.2460100513694
 31
0.0
  0
LINE
  5
76BB
330
18
100
AcDbEntity
  8
0
100
AcDbLine
 10
170.1981453413598
 20
154.2460100513694
 30
0.0
 11
170.1981453413599
 21
151.6460100513697
 31
0.0
  0
LINE
  5
76BC
330
18
100
AcDbEntity
  8
0
100
AcDbLine
 10
169.6981453413599
 20
154.9860100513698
 30
0.0
 11
169.6981453413599
 21
150.9060100513697
 31
0.0
  0
LINE
  5
76BD
330
18
100
AcDbEntity
  8
0
100
AcDbLine
 10
170.1981453413599
 20
151.6460100513697
 30
0.0
 11
174.0981453413597
 21
151.6460100513696
 31
0.0
  0
LINE
  5
76BE
330
18
100
AcDbEntity
  8
0
100
AcDbLine
 10
170.1981453413599
 20
156.7260100513697
 30
0.0
 11
174.0981453413597
 21
156.7260100513696
 31
0.0
  0
LINE
  5
76BF
330
18
100
AcDbEntity
  8
0
100
AcDbLine
 10
170.1981453413598
 20
154.2460100513694
 30
0.0
 11
174.0981453413597
 21
154.2460100513697
 31
0.0
  0
LINE
  5
76C0
330
18
100
AcDbEntity
  8
0
100
AcDbLine
 10
174.0981453413597
 20
159.3260100513696
 30
0.0
 11
174.0981453413597
 21
156.7260100513697
 31
0.0
  0
LINE
  5
76C1
330
18
100
AcDbEntity
  8
0
100
AcDbLine
 10
170.1981453413598
 20
159.3260100513694
 30
0.0
 11
170.1981453413599
 21
156.7260100513697
 31
0.0
  0
LINE
  5
76C2
330
18
100
AcDbEntity
  8
0
100
AcDbLine
 10
169.6981453413599
 20
160.0660100513699
 30
0.0
 11
169.6981453413599
 21
155.9860100513697
 31
0.0
  0
LINE
  5
76C3
330
18
100
AcDbEntity
  8
0
100
AcDbLine
 10
174.0981453413597
 20
166.8860100513697
 30
0.0
 11
176.6981453413599
 21
166.1460100513699
 31
0.0
  0
LINE
  5
76C4
330
18
100
AcDbEntity
  8
0
100
AcDbLine
 10
174.0981453413597
 20
149.1660100513696
 30
0.0
 11
176.6981453413599
 21
149.9060100513698
 31
0.0
  0
LINE
  5
76C5
330
18
100
AcDbEntity
  8
0
100
AcDbLine
 10
169.6981453413599
 20
149.9060100513698
 30
0.0
 11
176.6981453413599
 21
149.9060100513698
 31
0.0
  0
LINE
  5
76C6
330
18
100
AcDbEntity
  8
0
100
AcDbLine
 10
174.0981453413597
 20
151.6460100513696
 30
0.0
 11
176.6981453413599
 21
150.9060100513698
 31
0.0
  0
LINE
  5
76C7
330
18
100
AcDbEntity
  8
0
100
AcDbLine
 10
174.0981453413597
 20
156.7260100513696
 30
0.0
 11
176.6981453413599
 21
155.9860100513698
 31
0.0
  0
LINE
  5
76C8
330
18
100
AcDbEntity
  8
0
100
AcDbLine
 10
174.0981453413597
 20
154.2460100513696
 30
0.0
 11
176.6981453413599
 21
154.9860100513698
 31
0.0
  0
LINE
  5
76C9
330
18
100
AcDbEntity
  8
0
100
AcDbLine
 10
169.6981453413599
 20
150.9060100513697
 30
0.0
 11
176.6981453413599
 21
150.9060100513698
 31
0.0
  0
LINE
  5
76CA
330
18
100
AcDbEntity
  8
0
100
AcDbLine
 10
169.6981453413599
 20
155.9860100513697
 30
0.0
 11
176.6981453413599
 21
155.9860100513698
 31
0.0
  0
LINE
  5
76CB
330
18
100
AcDbEntity
  8
0
100
AcDbLine
 10
169.6981453413599
 20
154.9860100513698
 30
0.0
 11
176.6981453413599
 21
154.9860100513698
 31
0.0
  0
LINE
  5
76CC
330
18
100
AcDbEntity
  8
0
100
AcDbLine
 10
174.0981453413597
 20
161.8060100513696
 30
0.0
 11
176.6981453413599
 21
161.0660100513699
 31
0.0
  0
LINE
  5
76CD
330
18
100
AcDbEntity
  8
0
100
AcDbLine
 10
174.0981453413597
 20
164.4060100513697
 30
0.0
 11
176.6981453413599
 21
165.1460100513699
 31
0.0
  0
LINE
  5
76CE
330
18
100
AcDbEntity
  8
0
100
AcDbLine
 10
174.0981453413597
 20
159.3260100513696
 30
0.0
 11
176.6981453413599
 21
160.0660100513699
 31
0.0
  0
LINE
  5
76CF
330
18
100
AcDbEntity
  8
0
100
AcDbLine
 10
169.6981453413599
 20
166.1460100513698
 30
0.0
 11
176.6981453413599
 21
166.1460100513699
 31
0.0
  0
LINE
  5
76D0
330
18
100
AcDbEntity
  8
0
100
AcDbLine
 10
169.6981453413599
 20
161.0660100513698
 30
0.0
 11
176.6981453413599
 21
161.0660100513699
 31
0.0
  0
LINE
  5
76D1
330
18
100
AcDbEntity
  8
0
100
AcDbLine
 10
169.6981453413599
 20
165.1460100513699
 30
0.0
 11
176.6981453413599
 21
165.1460100513699
 31
0.0
  0
LINE
  5
76D2
330
18
100
AcDbEntity
  8
0
100
AcDbLine
 10
169.6981453413599
 20
160.0660100513699
 30
0.0
 11
176.6981453413599
 21
160.0660100513699
 31
0.0
  0
LINE
  5
76D3
330
18
100
AcDbEntity
  8
0
100
AcDbLine
 10
174.0981453413597
 20
169.4860100513697
 30
0.0
 11
176.6981453413599
 21
170.2260100513699
 31
0.0
  0
LINE
  5
76D4
330
18
100
AcDbEntity
  8
0
100
AcDbLine
 10
169.6981453413599
 20
170.2260100513699
 30
0.0
 11
176.6981453413599
 21
170.2260100513699
 31
0.0
  0
MTEXT
  5
76D5
330
18
100
AcDbEntity
  8
0
100
AcDbMText
 10
188.8564759490259
 20
153.6490258947975
 30
0.0
 40
2.2
 41
7.047999999999999
 71
     3
 72
     5
  1
J2
  7
MSｺﾞｼｯｸ
 73
     1
 44
1.0
  0
LINE
  5
76D6
330
18
100
AcDbEntity
  8
0
100
AcDbLine
 10
190.5981453413597
 20
171.0760100513699
 30
0.0
 11
184.5981453413597
 21
171.0760100513699
 31
0.0
  0
LINE
  5
76D7
330
18
100
AcDbEntity
  8
0
100
AcDbLine
 10
190.5981453413596
 20
155.5760100513699
 30
0.0
 11
184.5981453413597
 21
155.5760100513699
 31
0.0
  0
LINE
  5
76D8
330
18
100
AcDbEntity
  8
0
100
AcDbLine
 10
184.5981453413597
 20
155.5760100513699
 30
0.0
 11
184.5981453413597
 21
171.0760100513699
 31
0.0
  0
LINE
  5
76D9
330
18
100
AcDbEntity
  8
0
100
AcDbLine
 10
176.6981453413598
 20
204.9460100513701
 30
0.0
 11
176.6981453413598
 21
200.86601005137
 31
0.0
  0
LINE
  5
76DA
330
18
100
AcDbEntity
  8
0
100
AcDbLine
 10
174.0981453413596
 20
204.2060100513698
 30
0.0
 11
174.0981453413596
 21
201.6060100513699
 31
0.0
  0
LINE
  5
76DB
330
18
100
AcDbEntity
  8
0
100
AcDbLine
 10
169.6981453413596
 20
204.94601005137
 30
0.0
 11
170.1981453413596
 21
204.2060100513696
 31
0.0
  0
LINE
  5
76DC
330
18
100
AcDbEntity
  8
0
100
AcDbLine
 10
169.6981453413596
 20
199.8660100513699
 30
0.0
 11
170.1981453413596
 21
199.1260100513696
 31
0.0
  0
LINE
  5
76DD
330
18
100
AcDbEntity
  8
0
100
AcDbLine
 10
170.1981453413596
 20
201.6060100513699
 30
0.0
 11
169.6981453413596
 21
200.8660100513699
 31
0.0
  0
LINE
  5
76DE
330
18
100
AcDbEntity
  8
0
100
AcDbLine
 10
170.1981453413596
 20
204.2060100513696
 30
0.0
 11
170.1981453413596
 21
201.6060100513699
 31
0.0
  0
LINE
  5
76DF
330
18
100
AcDbEntity
  8
0
100
AcDbLine
 10
169.6981453413596
 20
204.9460100513701
 30
0.0
 11
169.6981453413596
 21
200.8660100513699
 31
0.0
  0
LINE
  5
76E0
330
18
100
AcDbEntity
  8
0
100
AcDbLine
 10
170.1981453413596
 20
199.1260100513696
 30
0.0
 11
174.0981453413596
 21
199.1260100513699
 31
0.0
  0
LINE
  5
76E1
330
18
100
AcDbEntity
  8
0
100
AcDbLine
 10
170.1981453413596
 20
204.2060100513696
 30
0.0
 11
174.0981453413596
 21
204.20601005137
 31
0.0
  0
LINE
  5
76E2
330
18
100
AcDbEntity
  8
0
100
AcDbLine
 10
170.1981453413596
 20
201.6060100513699
 30
0.0
 11
174.0981453413596
 21
201.6060100513698
 31
0.0
  0
LINE
  5
76E3
330
18
100
AcDbEntity
  8
0
100
AcDbLine
 10
174.0981453413596
 20
204.2060100513698
 30
0.0
 11
176.6981453413598
 21
204.9460100513701
 31
0.0
  0
LINE
  5
76E4
330
18
100
AcDbEntity
  8
0
100
AcDbLine
 10
174.0981453413596
 20
199.1260100513698
 30
0.0
 11
176.6981453413598
 21
199.8660100513701
 31
0.0
  0
LINE
  5
76E5
330
18
100
AcDbEntity
  8
0
100
AcDbLine
 10
174.0981453413596
 20
201.6060100513698
 30
0.0
 11
176.6981453413598
 21
200.86601005137
 31
0.0
  0
LINE
  5
76E6
330
18
100
AcDbEntity
  8
0
100
AcDbLine
 10
169.6981453413596
 20
199.8660100513701
 30
0.0
 11
176.6981453413598
 21
199.8660100513701
 31
0.0
  0
LINE
  5
76E7
330
18
100
AcDbEntity
  8
0
100
AcDbLine
 10
169.6981453413596
 20
200.8660100513699
 30
0.0
 11
176.6981453413598
 21
200.86601005137
 31
0.0
  0
LINE
  5
76E8
330
18
100
AcDbEntity
  8
0
100
AcDbLine
 10
169.6981453413596
 20
204.9460100513701
 30
0.0
 11
176.6981453413598
 21
204.9460100513701
 31
0.0
  0
LINE
  5
76E9
330
18
100
AcDbEntity
  8
0
100
AcDbLine
 10
176.6981453413598
 20
194.78601005137
 30
0.0
 11
176.6981453413598
 21
190.70601005137
 31
0.0
  0
LINE
  5
76EA
330
18
100
AcDbEntity
  8
0
100
AcDbLine
 10
174.0981453413596
 20
194.0460100513698
 30
0.0
 11
174.0981453413596
 21
191.4460100513699
 31
0.0
  0
LINE
  5
76EB
330
18
100
AcDbEntity
  8
0
100
AcDbLine
 10
170.1981453413596
 20
196.5260100513699
 30
0.0
 11
169.6981453413596
 21
195.7860100513699
 31
0.0
  0
LINE
  5
76EC
330
18
100
AcDbEntity
  8
0
100
AcDbLine
 10
170.1981453413596
 20
194.0460100513695
 30
0.0
 11
170.1981453413596
 21
191.4460100513699
 31
0.0
  0
LINE
  5
76ED
330
18
100
AcDbEntity
  8
0
100
AcDbLine
 10
169.6981453413596
 20
194.78601005137
 30
0.0
 11
169.6981453413596
 21
190.7060100513699
 31
0.0
  0
LINE
  5
76EE
330
18
100
AcDbEntity
  8
0
100
AcDbLine
 10
170.1981453413596
 20
191.4460100513699
 30
0.0
 11
169.6981453413596
 21
190.7060100513699
 31
0.0
  0
LINE
  5
76EF
330
18
100
AcDbEntity
  8
0
100
AcDbLine
 10
169.6981453413596
 20
194.7860100513699
 30
0.0
 11
170.1981453413596
 21
194.0460100513695
 31
0.0
  0
LINE
  5
76F0
330
18
100
AcDbEntity
  8
0
100
AcDbLine
 10
170.1981453413596
 20
196.5260100513699
 30
0.0
 11
174.0981453413596
 21
196.5260100513698
 31
0.0
  0
LINE
  5
76F1
330
18
100
AcDbEntity
  8
0
100
AcDbLine
 10
170.1981453413596
 20
194.0460100513695
 30
0.0
 11
174.0981453413596
 21
194.0460100513699
 31
0.0
  0
LINE
  5
76F2
330
18
100
AcDbEntity
  8
0
100
AcDbLine
 10
170.1981453413596
 20
191.4460100513699
 30
0.0
 11
174.0981453413596
 21
191.4460100513698
 31
0.0
  0
LINE
  5
76F3
330
18
100
AcDbEntity
  8
0
100
AcDbLine
 10
174.0981453413596
 20
196.5260100513698
 30
0.0
 11
176.6981453413598
 21
195.78601005137
 31
0.0
  0
LINE
  5
76F4
330
18
100
AcDbEntity
  8
0
100
AcDbLine
 10
174.0981453413596
 20
191.4460100513698
 30
0.0
 11
176.6981453413598
 21
190.70601005137
 31
0.0
  0
LINE
  5
76F5
330
18
100
AcDbEntity
  8
0
100
AcDbLine
 10
174.0981453413596
 20
194.0460100513698
 30
0.0
 11
176.6981453413598
 21
194.78601005137
 31
0.0
  0
LINE
  5
76F6
330
18
100
AcDbEntity
  8
0
100
AcDbLine
 10
169.6981453413596
 20
195.7860100513699
 30
0.0
 11
176.6981453413598
 21
195.78601005137
 31
0.0
  0
LINE
  5
76F7
330
18
100
AcDbEntity
  8
0
100
AcDbLine
 10
169.6981453413596
 20
190.7060100513699
 30
0.0
 11
176.6981453413598
 21
190.70601005137
 31
0.0
  0
LINE
  5
76F8
330
18
100
AcDbEntity
  8
0
100
AcDbLine
 10
169.6981453413596
 20
194.78601005137
 30
0.0
 11
176.6981453413598
 21
194.78601005137
 31
0.0
  0
LINE
  5
76F9
330
18
100
AcDbEntity
  8
0
100
AcDbLine
 10
176.6981453413598
 20
199.8660100513701
 30
0.0
 11
176.6981453413598
 21
195.78601005137
 31
0.0
  0
LINE
  5
76FA
330
18
100
AcDbEntity
  8
0
100
AcDbLine
 10
174.0981453413596
 20
199.1260100513698
 30
0.0
 11
174.0981453413596
 21
196.5260100513699
 31
0.0
  0
LINE
  5
76FB
330
18
100
AcDbEntity
  8
0
100
AcDbLine
 10
170.1981453413596
 20
199.1260100513696
 30
0.0
 11
170.1981453413596
 21
196.5260100513699
 31
0.0
  0
LINE
  5
76FC
330
18
100
AcDbEntity
  8
0
100
AcDbLine
 10
169.6981453413596
 20
199.8660100513701
 30
0.0
 11
169.6981453413596
 21
195.7860100513699
 31
0.0
  0
LINE
  5
76FD
330
18
100
AcDbEntity
  8
0
100
AcDbLine
 10
177.1981453413598
 20
205.44601005137
 30
0.0
 11
177.1981453413598
 21
190.2060100513701
 31
0.0
  0
LINE
  5
76FE
330
18
100
AcDbEntity
  8
0
100
AcDbLine
 10
175.9981453413597
 20
206.3260100513699
 30
0.0
 11
175.9981453413597
 21
189.3260100513699
 31
0.0
  0
MTEXT
  5
76FF
330
18
100
AcDbEntity
  8
0
100
AcDbMText
 10
188.2520765097947
 20
187.3485507469996
 30
0.0
 40
2.2
 41
7.047999999999999
 71
     3
 72
     5
  1
J1
  7
MSｺﾞｼｯｸ
 73
     1
 44
1.0
  0
LINE
  5
7700
330
18
100
AcDbEntity
  8
0
100
AcDbLine
 10
182.6981453413598
 20
205.4460100513701
 30
0.0
 11
182.6981453413598
 21
190.2060100513701
 31
0.0
  0
LINE
  5
7701
330
18
100
AcDbEntity
  8
0
100
AcDbLine
 10
182.1981453413598
 20
205.4460100513701
 30
0.0
 11
182.1981453413598
 21
190.2060100513701
 31
0.0
  0
LINE
  5
7702
330
18
100
AcDbEntity
  8
0
100
AcDbLine
 10
180.5981453413597
 20
206.8260100513701
 30
0.0
 11
180.5981453413598
 21
205.4460100513701
 31
0.0
  0
INSERT
  5
7703
330
18
100
AcDbEntity
  8
0
100
AcDbBlockReference
  2
A$C57095CDF
 10
194.7731453673865
 20
122.4010101384188
 30
0.0
  0
INSERT
  5
7704
330
18
100
AcDbEntity
  8
0
100
AcDbBlockReference
  2
A$C6C1277F2
 10
194.7731453673865
 20
170.551010533935
 30
0.0
  0
LINE
  5
7705
330
18
100
AcDbEntity
  8
0
100
AcDbLine
 10
154.09814534136
 20
227.8260100513699
 30
0.0
 11
114.0981453413597
 21
227.82601005137
 31
0.0
  0
LINE
  5
7706
330
18
100
AcDbEntity
  8
0
100
AcDbLine
 10
205.0981453413597
 20
217.3260100513699
 30
0.0
 11
190.5981453413597
 21
217.32601005137
 31
0.0
  0
LINE
  5
7708
330
18
100
AcDbEntity
  8
0
100
AcDbLine
 10
154.0981453413597
 20
227.8260100513699
 30
0.0
 11
228.0981453413597
 21
227.8260100513699
 31
0.0
  0
LINE
  5
7709
330
18
100
AcDbEntity
  8
0
100
AcDbLine
 10
171.8481453413597
 20
242.82601005137
 30
0.0
 11
195.3481453413597
 21
242.82601005137
 31
0.0
  0
ARC
  5
770B
330
18
100
AcDbEntity
  8
0
100
AcDbCircle
 10
168.0981453413597
 20
237.82601005137
 30
0.0
 40
2.75
100
AcDbArc
 50
180.0
 51
0.0
  0
LINE
  5
770D
330
18
100
AcDbEntity
  8
0
100
AcDbLine
 10
165.3481453413597
 20
237.8260100513699
 30
0.0
 11
165.3481453413597
 21
241.8260100513699
 31
0.0
  0
LINE
  5
770E
330
18
100
AcDbEntity
  8
0
100
AcDbLine
 10
165.3481453413597
 20
241.8260100513699
 30
0.0
 11
164.3481453413597
 21
242.8260100513699
 31
0.0
  0
LINE
  5
770F
330
18
100
AcDbEntity
  8
0
100
AcDbLine
 10
159.0981453413597
 20
242.8260100513699
 30
0.0
 11
158.0981453413597
 21
241.8260100513699
 31
0.0
  0
LINE
  5
7710
330
18
100
AcDbEntity
  8
0
100
AcDbLine
 10
159.0981453413597
 20
242.8260100513699
 30
0.0
 11
164.3481453413597
 21
242.8260100513699
 31
0.0
  0
ARC
  5
7711
330
18
100
AcDbEntity
  8
0
100
AcDbCircle
 10
162.5981453413597
 20
226.57601005137
 30
0.0
 40
3.249999999999876
100
AcDbArc
 50
22.61986494803698
 51
157.380135051963
  0
LINE
  5
7712
330
18
100
AcDbEntity
  8
0
100
AcDbLine
 10
158.0981453413597
 20
227.8260100513699
 30
0.0
 11
158.0981453413597
 21
241.8260100513699
 31
0.0
  0
LINE
  5
7713
330
18
100
AcDbEntity
  8
0
100
AcDbLine
 10
170.8481453413597
 20
237.8260100513699
 30
0.0
 11
170.8481453413597
 21
241.82601005137
 31
0.0
  0
LINE
  5
7714
330
18
100
AcDbEntity
  8
0
100
AcDbLine
 10
171.8481453413597
 20
242.82601005137
 30
0.0
 11
170.8481453413597
 21
241.82601005137
 31
0.0
  0
LINE
  5
7718
330
18
100
AcDbEntity
  8
0
100
AcDbLine
 10
202.8481453413597
 20
242.82601005137
 30
0.0
 11
208.0981453413599
 21
242.82601005137
 31
0.0
  0
LINE
  5
7719
330
18
100
AcDbEntity
  8
0
100
AcDbLine
 10
202.8481453413597
 20
242.82601005137
 30
0.0
 11
201.8481453413597
 21
241.82601005137
 31
0.0
  0
LINE
  5
771A
330
18
100
AcDbEntity
  8
0
100
AcDbLine
 10
201.8481453413597
 20
237.8260100513699
 30
0.0
 11
201.8481453413597
 21
241.82601005137
 31
0.0
  0
LINE
  5
771B
330
18
100
AcDbEntity
  8
0
100
AcDbLine
 10
196.3481453413597
 20
241.8260100513699
 30
0.0
 11
195.3481453413597
 21
242.8260100513699
 31
0.0
  0
LINE
  5
771C
330
18
100
AcDbEntity
  8
0
100
AcDbLine
 10
196.3481453413597
 20
237.8260100513699
 30
0.0
 11
196.3481453413597
 21
241.8260100513699
 31
0.0
  0
ARC
  5
771D
330
18
100
AcDbEntity
  8
0
100
AcDbCircle
 10
199.0981453413597
 20
237.82601005137
 30
0.0
 40
2.75
100
AcDbArc
 50
180.0
 51
0.0
  0
LINE
  5
771E
330
18
100
AcDbEntity
  8
0
100
AcDbLine
 10
208.0981453413599
 20
242.82601005137
 30
0.0
 11
209.0981453413598
 21
241.82601005137
 31
0.0
  0
ARC
  5
771F
330
18
100
AcDbEntity
  8
0
100
AcDbCircle
 10
468.6986717853966
 20
213.0760100513699
 30
0.0
 40
1.75
100
AcDbArc
 50
270.0
 51
90.0
  0
ARC
  5
7720
330
18
100
AcDbEntity
  8
0
100
AcDbCircle
 10
457.1986717853966
 20
213.0760100513699
 30
0.0
 40
1.75
100
AcDbArc
 50
90.0
 51
270.0
  0
ARC
  5
7721
330
18
100
AcDbEntity
  8
0
100
AcDbCircle
 10
446.6986717853966
 20
213.0760100513699
 30
0.0
 40
1.75
100
AcDbArc
 50
270.0
 51
90.0
  0
ARC
  5
7722
330
18
100
AcDbEntity
  8
0
100
AcDbCircle
 10
435.1986717853966
 20
213.0760100513699
 30
0.0
 40
1.75
100
AcDbArc
 50
90.0
 51
270.0
  0
ARC
  5
7723
330
18
100
AcDbEntity
  8
0
100
AcDbCircle
 10
424.6986717853966
 20
213.0760100513699
 30
0.0
 40
1.75
100
AcDbArc
 50
270.0
 51
90.0
  0
ARC
  5
7724
330
18
100
AcDbEntity
  8
0
100
AcDbCircle
 10
413.1986717853966
 20
213.0760100513699
 30
0.0
 40
1.75
100
AcDbArc
 50
90.0
 51
270.0
  0
ARC
  5
7725
330
18
100
AcDbEntity
  8
0
100
AcDbCircle
 10
402.6986717853966
 20
213.0760100513699
 30
0.0
 40
1.75
100
AcDbArc
 50
270.0
 51
90.0
  0
ARC
  5
7726
330
18
100
AcDbEntity
  8
0
100
AcDbCircle
 10
391.1986717853966
 20
213.0760100513699
 30
0.0
 40
1.75
100
AcDbArc
 50
90.0
 51
270.0
  0
ARC
  5
7727
330
18
100
AcDbEntity
  8
0
100
AcDbCircle
 10
380.6986717853966
 20
213.0760100513699
 30
0.0
 40
1.75
100
AcDbArc
 50
270.0
 51
90.0
  0
ARC
  5
7728
330
18
100
AcDbEntity
  8
0
100
AcDbCircle
 10
369.1986717853966
 20
213.0760100513699
 30
0.0
 40
1.75
100
AcDbArc
 50
90.0
 51
270.0
  0
ARC
  5
7729
330
18
100
AcDbEntity
  8
0
100
AcDbCircle
 10
358.6986717853966
 20
213.0760100513699
 30
0.0
 40
1.75
100
AcDbArc
 50
270.0
 51
90.0
  0
ARC
  5
772A
330
18
100
AcDbEntity
  8
0
100
AcDbCircle
 10
347.1986717853966
 20
213.0760100513699
 30
0.0
 40
1.75
100
AcDbArc
 50
90.0
 51
270.0
  0
ARC
  5
772B
330
18
100
AcDbEntity
  8
0
100
AcDbCircle
 10
336.6986717853966
 20
213.0760100513699
 30
0.0
 40
1.75
100
AcDbArc
 50
270.0
 51
90.0
  0
ARC
  5
772C
330
18
100
AcDbEntity
  8
0
100
AcDbCircle
 10
325.1986717853966
 20
213.0760100513699
 30
0.0
 40
1.75
100
AcDbArc
 50
90.0
 51
270.0
  0
LINE
  5
772E
330
18
100
AcDbEntity
  8
0
100
AcDbLine
 10
316.4486717853966
 20
227.8260100513699
 30
0.0
 11
316.4486717853966
 21
67.82601005136996
 31
0.0
  0
LINE
  5
772F
330
18
100
AcDbEntity
  8
0
100
AcDbLine
 10
318.4486717853966
 20
227.8260100513699
 30
0.0
 11
318.4486717853966
 21
67.82601005136996
 31
0.0
  0
LINE
  5
7730
330
18
100
AcDbEntity
  8
0
100
AcDbLine
 10
476.4486717853966
 20
242.8260100513699
 30
0.0
 11
476.4486717853966
 21
52.82601005136996
 31
0.0
  0
LINE
  5
7731
330
18
100
AcDbEntity
  8
0
100
AcDbLine
 10
474.4486717853966
 20
242.8260100513699
 30
0.0
 11
474.4486717853966
 21
52.82601005136996
 31
0.0
  0
LINE
  5
7732
330
18
100
AcDbEntity
  8
0
100
AcDbLine
 10
403.4486717853966
 20
67.82601005136985
 30
0.0
 11
474.4486717853966
 21
67.82601005136996
 31
0.0
  0
LINE
  5
7733
330
18
100
AcDbEntity
  8
0
100
AcDbLine
 10
474.4486717853966
 20
67.82601005136996
 30
0.0
 11
318.4486717853966
 21
67.82601005136996
 31
0.0
  0
LINE
  5
7734
330
18
100
AcDbEntity
  8
0
100
AcDbLine
 10
325.1986717853966
 20
204.8260100513699
 30
0.0
 11
336.6986717853966
 21
204.8260100513699
 31
0.0
  0
LINE
  5
7735
330
18
100
AcDbEntity
  8
0
100
AcDbLine
 10
325.1986717853966
 20
211.3260100513699
 30
0.0
 11
336.6986717853966
 21
211.3260100513699
 31
0.0
  0
LINE
  5
7736
330
18
100
AcDbEntity
  8
0
100
AcDbLine
 10
325.1986717853966
 20
208.32601005137
 30
0.0
 11
336.6986717853966
 21
208.3260100513699
 31
0.0
  0
LINE
  5
7737
330
18
100
AcDbEntity
  8
0
100
AcDbLine
 10
325.1986717853966
 20
81.32601005136995
 30
0.0
 11
336.6986717853966
 21
81.32601005136995
 31
0.0
  0
LINE
  5
7738
330
18
100
AcDbEntity
  8
0
100
AcDbLine
 10
325.1986717853966
 20
84.82601005137007
 30
0.0
 11
336.6986717853966
 21
84.82601005136997
 31
0.0
  0
LINE
  5
7739
330
18
100
AcDbEntity
  8
0
100
AcDbLine
 10
325.1986717853966
 20
91.32601005137008
 30
0.0
 11
336.6986717853966
 21
91.32601005136995
 31
0.0
  0
LINE
  5
773A
330
18
100
AcDbEntity
  8
0
100
AcDbLine
 10
325.1986717853966
 20
87.82601005136996
 30
0.0
 11
336.6986717853966
 21
87.82601005136996
 31
0.0
  0
LINE
  5
773B
330
18
100
AcDbEntity
  8
0
100
AcDbLine
 10
325.1986717853966
 20
74.82601005136996
 30
0.0
 11
336.6986717853966
 21
74.82601005136996
 31
0.0
  0
LINE
  5
773C
330
18
100
AcDbEntity
  8
0
100
AcDbLine
 10
325.1986717853966
 20
78.32601005137007
 30
0.0
 11
336.6986717853966
 21
78.32601005136996
 31
0.0
  0
LINE
  5
773D
330
18
100
AcDbEntity
  8
0
100
AcDbLine
 10
318.4486717853966
 20
67.82601005136996
 30
0.0
 11
389.4486717853966
 21
67.82601005136996
 31
0.0
  0
ARC
  5
773E
330
18
100
AcDbEntity
  8
0
100
AcDbCircle
 10
325.1986717853966
 20
83.07601005137
 30
0.0
 40
1.75
100
AcDbArc
 50
90.0
 51
270.0
  0
ARC
  5
773F
330
18
100
AcDbEntity
  8
0
100
AcDbCircle
 10
325.1986717853966
 20
76.57601005136999
 30
0.0
 40
1.75
100
AcDbArc
 50
90.0
 51
270.0
  0
LINE
  5
7740
330
18
100
AcDbEntity
  8
0
100
AcDbLine
 10
316.4486717853966
 20
67.82601005136996
 30
0.0
 11
318.4486717853966
 21
67.82601005136996
 31
0.0
  0
LINE
  5
7741
330
18
100
AcDbEntity
  8
0
 48
0.2
100
AcDbLine
 10
301.4486717853963
 20
147.4760100513698
 30
0.0
 11
280.4486717853963
 21
147.4760100513698
 31
0.0
  0
LINE
  5
7742
330
18
100
AcDbEntity
  8
0
 48
0.2
100
AcDbLine
 10
301.4486717853965
 20
131.6760100513701
 30
0.0
 11
280.4486717853965
 21
131.6760100513698
 31
0.0
  0
LINE
  5
7743
330
18
100
AcDbEntity
  8
0
 48
0.2
100
AcDbLine
 10
280.4486717853965
 20
131.6760100513701
 30
0.0
 11
280.4486717853963
 21
147.4760100513698
 31
0.0
  0
LINE
  5
7744
330
18
100
AcDbEntity
  8
0
 48
0.2
100
AcDbLine
 10
287.6486717853966
 20
131.6760100513701
 30
0.0
 11
285.8925742244209
 21
129.6471873986141
 31
0.0
  0
ARC
  5
7745
330
18
100
AcDbEntity
  8
0
 48
0.2
100
AcDbCircle
 10
283.5486717853966
 20
131.6760100513701
 30
0.0
 40
3.100000000000022
100
AcDbArc
 50
180.0
 51
319.1213648534843
  0
LINE
  5
7746
330
18
100
AcDbEntity
  8
0
 48
0.2
100
AcDbLine
 10
287.6486717853963
 20
147.4760100513698
 30
0.0
 11
285.8925742244209
 21
149.5048327041257
 31
0.0
  0
ARC
  5
7747
330
18
100
AcDbEntity
  8
0
 48
0.2
100
AcDbCircle
 10
283.5486717853964
 20
147.4760100513698
 30
0.0
 40
3.100000000000022
100
AcDbArc
 50
40.87863514651568
 51
180.0
  0
LINE
  5
7748
330
18
100
AcDbEntity
  8
0
100
AcDbLine
 10
310.6383266056295
 20
146.679928940315
 30
0.0
 11
313.4347528964514
 21
149.4763552311369
 31
0.0
  0
LINE
  5
7749
330
18
100
AcDbEntity
  8
0
100
AcDbLine
 10
311.0625906743414
 20
146.2556648716031
 30
0.0
 11
313.8590169651633
 21
149.052091162425
 31
0.0
  0
CIRCLE
  5
774A
330
18
100
AcDbEntity
  8
0
100
AcDbCircle
 10
312.2486717853965
 20
147.86601005137
 30
0.0
 40
2.0
  0
LINE
  5
774C
330
18
100
AcDbEntity
  8
0
 48
0.2
100
AcDbLine
 10
296.4486717853965
 20
131.6760100513701
 30
0.0
 11
296.4486717853962
 21
147.4760100513698
 31
0.0
  0
LINE
  5
774D
330
18
100
AcDbEntity
  8
0
 48
0.2
100
AcDbLine
 10
301.4486717853965
 20
131.6760100513701
 30
0.0
 11
301.4486717853963
 21
147.4760100513698
 31
0.0
  0
LINE
  5
774E
330
18
100
AcDbEntity
  8
0
100
AcDbLine
 10
306.9486717853965
 20
170.7260100513701
 30
0.0
 11
306.9486717853965
 21
119.9260100513701
 31
0.0
  0
LINE
  5
774F
330
18
100
AcDbEntity
  8
0
100
AcDbLine
 10
308.4486717853966
 20
170.72601005137
 30
0.0
 11
308.4486717853965
 21
119.9260100513701
 31
0.0
  0
LINE
  5
7750
330
18
100
AcDbEntity
  8
0
100
AcDbLine
 10
316.4486717853966
 20
170.7260100513699
 30
0.0
 11
316.4486717853966
 21
119.9260100513699
 31
0.0
  0
LINE
  5
7751
330
18
100
AcDbEntity
  8
0
100
AcDbLine
 10
315.7486717853964
 20
170.7260100513699
 30
0.0
 11
315.7486717853963
 21
119.9260100513699
 31
0.0
  0
LINE
  5
7752
330
18
100
AcDbEntity
  8
0
100
AcDbLine
 10
310.6383266056294
 20
141.599928940315
 30
0.0
 11
313.4347528964513
 21
144.3963552311369
 31
0.0
  0
LINE
  5
7753
330
18
100
AcDbEntity
  8
0
100
AcDbLine
 10
311.0625906743413
 20
141.1756648716031
 30
0.0
 11
313.8590169651632
 21
143.972091162425
 31
0.0
  0
CIRCLE
  5
7754
330
18
100
AcDbEntity
  8
0
100
AcDbCircle
 10
312.2486717853963
 20
142.78601005137
 30
0.0
 40
2.0
  0
CIRCLE
  5
7755
330
18
100
AcDbEntity
  8
0
100
AcDbCircle
 10
312.2486717853963
 20
132.62601005137
 30
0.0
 40
2.0
  0
LINE
  5
7756
330
18
100
AcDbEntity
  8
0
100
AcDbLine
 10
310.6383266056294
 20
131.439928940315
 30
0.0
 11
313.4347528964513
 21
134.2363552311369
 31
0.0
  0
LINE
  5
7757
330
18
100
AcDbEntity
  8
0
100
AcDbLine
 10
311.0625906743413
 20
131.0156648716031
 30
0.0
 11
313.8590169651632
 21
133.812091162425
 31
0.0
  0
LINE
  5
7758
330
18
100
AcDbEntity
  8
0
100
AcDbLine
 10
311.0625906743413
 20
136.0956648716031
 30
0.0
 11
313.8590169651632
 21
138.892091162425
 31
0.0
  0
LINE
  5
7759
330
18
100
AcDbEntity
  8
0
100
AcDbLine
 10
310.6383266056294
 20
126.359928940315
 30
0.0
 11
313.4347528964513
 21
129.156355231137
 31
0.0
  0
LINE
  5
775A
330
18
100
AcDbEntity
  8
0
100
AcDbLine
 10
311.0625906743413
 20
125.9356648716031
 30
0.0
 11
313.8590169651632
 21
128.732091162425
 31
0.0
  0
CIRCLE
  5
775B
330
18
100
AcDbEntity
  8
0
100
AcDbCircle
 10
312.2486717853963
 20
122.4660100513701
 30
0.0
 40
2.0
  0
LINE
  5
775C
330
18
100
AcDbEntity
  8
0
100
AcDbLine
 10
311.0625906743413
 20
120.8556648716032
 30
0.0
 11
313.8590169651632
 21
123.6520911624251
 31
0.0
  0
LINE
  5
775D
330
18
100
AcDbEntity
  8
0
100
AcDbLine
 10
310.6383266056294
 20
121.279928940315
 30
0.0
 11
313.4347528964513
 21
124.076355231137
 31
0.0
  0
CIRCLE
  5
775E
330
18
100
AcDbEntity
  8
0
100
AcDbCircle
 10
312.2486717853963
 20
127.54601005137
 30
0.0
 40
2.0
  0
LINE
  5
775F
330
18
100
AcDbEntity
  8
0
100
AcDbLine
 10
310.6383266056294
 20
136.519928940315
 30
0.0
 11
313.4347528964513
 21
139.3163552311369
 31
0.0
  0
CIRCLE
  5
7760
330
18
100
AcDbEntity
  8
0
100
AcDbCircle
 10
312.2486717853963
 20
137.70601005137
 30
0.0
 40
2.0
  0
LINE
  5
7761
330
18
100
AcDbEntity
  8
0
 48
0.2
100
AcDbLine
 10
316.4486717853965
 20
122.9260100513699
 30
0.0
 11
295.6486717853963
 21
122.92601005137
 31
0.0
  0
LINE
  5
7762
330
18
100
AcDbEntity
  8
0
100
AcDbLine
 10
316.4486717853966
 20
119.9260100513699
 30
0.0
 11
306.9486717853965
 21
119.9260100513701
 31
0.0
  0
ARC
  5
7763
330
18
100
AcDbEntity
  8
0
 48
0.2
100
AcDbCircle
 10
296.8186717853964
 20
125.52601005137
 30
0.0
 40
2.669999999999886
100
AcDbArc
 50
115.9892335838277
 51
244.0107664161721
  0
LINE
  5
7764
330
18
100
AcDbEntity
  8
0
 48
0.2
100
AcDbLine
 10
295.6486717853963
 20
122.92601005137
 30
0.0
 11
295.6486717853963
 21
128.5760100513699
 31
0.0
  0
LINE
  5
7765
330
18
100
AcDbEntity
  8
0
 48
0.2
100
AcDbLine
 10
291.6486717853965
 20
131.6760100513701
 30
0.0
 11
295.6486717853966
 21
128.5760100513699
 31
0.0
  0
LINE
  5
7766
330
18
100
AcDbEntity
  8
0
 48
0.2
100
AcDbLine
 10
303.6986717853965
 20
131.8410735608312
 30
0.0
 11
306.1986717853965
 21
131.8410735608312
 31
0.0
  0
LINE
  5
7767
330
18
100
AcDbEntity
  8
0
 48
0.2
100
AcDbLine
 10
303.554334218099
 20
132.0910735608312
 30
0.0
 11
306.343009352694
 21
132.0910735608312
 31
0.0
  0
LINE
  5
7768
330
18
100
AcDbEntity
  8
0
 48
0.2
100
AcDbLine
 10
302.4486717853965
 20
129.6760100513701
 30
0.0
 11
303.6986717853965
 21
131.8410735608312
 31
0.0
  0
LINE
  5
7769
330
18
100
AcDbEntity
  8
0
 48
0.2
100
AcDbLine
 10
302.1599966508017
 20
129.6760100513701
 30
0.0
 11
303.554334218099
 21
132.0910735608312
 31
0.0
  0
LINE
  5
776A
330
18
100
AcDbEntity
  8
0
 48
0.2
100
AcDbLine
 10
307.4486717853965
 20
129.6760100513701
 30
0.0
 11
306.1986717853965
 21
131.8410735608312
 31
0.0
  0
LINE
  5
776B
330
18
100
AcDbEntity
  8
0
 48
0.2
100
AcDbLine
 10
307.7373469199912
 20
129.6760100513701
 30
0.0
 11
306.343009352694
 21
132.0910735608312
 31
0.0
  0
LINE
  5
776C
330
18
100
AcDbEntity
  8
0
 48
0.2
100
AcDbLine
 10
303.6986717853965
 20
127.5109465419089
 30
0.0
 11
306.1986717853965
 21
127.5109465419089
 31
0.0
  0
LINE
  5
776D
330
18
100
AcDbEntity
  8
0
 48
0.2
100
AcDbLine
 10
303.554334218099
 20
127.260946541909
 30
0.0
 11
306.343009352694
 21
127.260946541909
 31
0.0
  0
CIRCLE
  5
776E
330
18
100
AcDbEntity
  8
0
 48
0.2
100
AcDbCircle
 10
304.9486717853965
 20
129.6760100513701
 30
0.0
 40
1.5
  0
LINE
  5
776F
330
18
100
AcDbEntity
  8
0
 48
0.2
100
AcDbLine
 10
302.4486717853965
 20
129.6760100513701
 30
0.0
 11
303.6986717853965
 21
127.5109465419089
 31
0.0
  0
LINE
  5
7770
330
18
100
AcDbEntity
  8
0
 48
0.2
100
AcDbLine
 10
302.1599966508017
 20
129.6760100513701
 30
0.0
 11
303.554334218099
 21
127.260946541909
 31
0.0
  0
LINE
  5
7771
330
18
100
AcDbEntity
  8
0
 48
0.2
100
AcDbLine
 10
306.1986717853965
 20
127.5109465419089
 30
0.0
 11
307.4486717853965
 21
129.6760100513701
 31
0.0
  0
LINE
  5
7772
330
18
100
AcDbEntity
  8
0
 48
0.2
100
AcDbLine
 10
306.343009352694
 20
127.260946541909
 30
0.0
 11
307.7373469199912
 21
129.6760100513701
 31
0.0
  0
ARC
  5
7774
330
18
100
AcDbEntity
  8
0
100
AcDbCircle
 10
325.1986717853966
 20
89.57601005137002
 30
0.0
 40
1.75
100
AcDbArc
 50
90.0
 51
270.0
  0
CIRCLE
  5
7775
330
18
100
AcDbEntity
  8
0
100
AcDbCircle
 10
312.2486717853965
 20
202.88601005137
 30
0.0
 40
2.0
  0
LINE
  5
7776
330
18
100
AcDbEntity
  8
0
100
AcDbLine
 10
311.0625906743414
 20
201.2756648716031
 30
0.0
 11
313.8590169651633
 21
204.0720911624249
 31
0.0
  0
LINE
  5
7777
330
18
100
AcDbEntity
  8
0
100
AcDbLine
 10
310.6383266056295
 20
201.6999289403149
 30
0.0
 11
313.4347528964514
 21
204.4963552311369
 31
0.0
  0
LINE
  5
7778
330
18
100
AcDbEntity
  8
0
100
AcDbLine
 10
316.4486717853966
 20
205.4260100513699
 30
0.0
 11
306.9486717853965
 21
205.4260100513701
 31
0.0
  0
CIRCLE
  5
7779
330
18
100
AcDbEntity
  8
0
100
AcDbCircle
 10
312.2486717853965
 20
192.72601005137
 30
0.0
 40
2.0
  0
LINE
  5
777A
330
18
100
AcDbEntity
  8
0
100
AcDbLine
 10
311.0625906743414
 20
191.1156648716031
 30
0.0
 11
313.8590169651633
 21
193.9120911624249
 31
0.0
  0
LINE
  5
777B
330
18
100
AcDbEntity
  8
0
100
AcDbLine
 10
310.6383266056295
 20
191.539928940315
 30
0.0
 11
313.4347528964514
 21
194.3363552311369
 31
0.0
  0
LINE
  5
777C
330
18
100
AcDbEntity
  8
0
100
AcDbLine
 10
310.6383266056295
 20
161.9199289403149
 30
0.0
 11
313.4347528964514
 21
164.7163552311369
 31
0.0
  0
LINE
  5
777D
330
18
100
AcDbEntity
  8
0
100
AcDbLine
 10
311.0625906743414
 20
161.495664871603
 30
0.0
 11
313.8590169651633
 21
164.2920911624249
 31
0.0
  0
CIRCLE
  5
777E
330
18
100
AcDbEntity
  8
0
100
AcDbCircle
 10
312.2486717853965
 20
163.10601005137
 30
0.0
 40
2.0
  0
LINE
  5
777F
330
18
100
AcDbEntity
  8
0
100
AcDbLine
 10
311.0625906743414
 20
166.575664871603
 30
0.0
 11
313.8590169651633
 21
169.3720911624249
 31
0.0
  0
CIRCLE
  5
7780
330
18
100
AcDbEntity
  8
0
100
AcDbCircle
 10
312.2486717853965
 20
168.1860100513699
 30
0.0
 40
2.0
  0
LINE
  5
7781
330
18
100
AcDbEntity
  8
0
100
AcDbLine
 10
310.6383266056295
 20
166.9999289403149
 30
0.0
 11
313.4347528964514
 21
169.7963552311368
 31
0.0
  0
LINE
  5
7782
330
18
100
AcDbEntity
  8
0
100
AcDbLine
 10
316.4486717853966
 20
170.7260100513699
 30
0.0
 11
306.9486717853965
 21
170.7260100513701
 31
0.0
  0
LINE
  5
7783
330
18
100
AcDbEntity
  8
0
100
AcDbLine
 10
316.4486717853964
 20
190.2260100513699
 30
0.0
 11
306.9486717853962
 21
190.2260100513701
 31
0.0
  0
LINE
  5
7784
330
18
100
AcDbEntity
  8
0
100
AcDbLine
 10
310.6383266056295
 20
151.7599289403149
 30
0.0
 11
313.4347528964514
 21
154.5563552311369
 31
0.0
  0
LINE
  5
7785
330
18
100
AcDbEntity
  8
0
100
AcDbLine
 10
311.0625906743414
 20
151.3356648716031
 30
0.0
 11
313.8590169651633
 21
154.132091162425
 31
0.0
  0
CIRCLE
  5
7786
330
18
100
AcDbEntity
  8
0
100
AcDbCircle
 10
312.2486717853965
 20
152.94601005137
 30
0.0
 40
2.0
  0
LINE
  5
7787
330
18
100
AcDbEntity
  8
0
 48
0.2
100
AcDbLine
 10
316.4486717853965
 20
156.2260100513698
 30
0.0
 11
295.6486717853963
 21
156.2260100513698
 31
0.0
  0
LINE
  5
7788
330
18
100
AcDbEntity
  8
0
100
AcDbLine
 10
310.6383266056295
 20
156.8399289403149
 30
0.0
 11
313.4347528964514
 21
159.6363552311369
 31
0.0
  0
LINE
  5
7789
330
18
100
AcDbEntity
  8
0
100
AcDbLine
 10
311.0625906743414
 20
156.415664871603
 30
0.0
 11
313.8590169651633
 21
159.212091162425
 31
0.0
  0
CIRCLE
  5
778A
330
18
100
AcDbEntity
  8
0
100
AcDbCircle
 10
312.2486717853965
 20
158.02601005137
 30
0.0
 40
2.0
  0
CIRCLE
  5
778B
330
18
100
AcDbEntity
  8
0
100
AcDbCircle
 10
312.2486717853965
 20
197.8060100513699
 30
0.0
 40
2.0
  0
LINE
  5
778C
330
18
100
AcDbEntity
  8
0
100
AcDbLine
 10
311.0625906743414
 20
196.195664871603
 30
0.0
 11
313.8590169651633
 21
198.992091162425
 31
0.0
  0
LINE
  5
778D
330
18
100
AcDbEntity
  8
0
100
AcDbLine
 10
310.6383266056295
 20
196.6199289403149
 30
0.0
 11
313.4347528964514
 21
199.4163552311368
 31
0.0
  0
LINE
  5
778E
330
18
100
AcDbEntity
  8
0
 48
0.2
100
AcDbLine
 10
295.6486717853963
 20
150.5760100513699
 30
0.0
 11
295.6486717853963
 21
156.2260100513698
 31
0.0
  0
ARC
  5
778F
330
18
100
AcDbEntity
  8
0
 48
0.2
100
AcDbCircle
 10
296.8186717853961
 20
153.6260100513699
 30
0.0
 40
2.669999999999886
100
AcDbArc
 50
115.9892335838277
 51
244.0107664161721
  0
LINE
  5
7790
330
18
100
AcDbEntity
  8
0
 48
0.2
100
AcDbLine
 10
291.6486717853963
 20
147.4760100513698
 30
0.0
 11
295.6486717853963
 21
150.5760100513697
 31
0.0
  0
LINE
  5
7791
330
18
100
AcDbEntity
  8
0
 48
0.2
100
AcDbLine
 10
306.343009352694
 20
151.8910735608309
 30
0.0
 11
307.7373469199912
 21
149.4760100513698
 31
0.0
  0
LINE
  5
7792
330
18
100
AcDbEntity
  8
0
 48
0.2
100
AcDbLine
 10
306.1986717853965
 20
151.6410735608309
 30
0.0
 11
307.4486717853965
 21
149.4760100513698
 31
0.0
  0
LINE
  5
7793
330
18
100
AcDbEntity
  8
0
 48
0.2
100
AcDbLine
 10
302.1599966508017
 20
149.4760100513698
 30
0.0
 11
303.554334218099
 21
151.8910735608309
 31
0.0
  0
LINE
  5
7794
330
18
100
AcDbEntity
  8
0
 48
0.2
100
AcDbLine
 10
302.4486717853965
 20
149.4760100513698
 30
0.0
 11
303.6986717853965
 21
151.6410735608309
 31
0.0
  0
LINE
  5
7795
330
18
100
AcDbEntity
  8
0
 48
0.2
100
AcDbLine
 10
303.554334218099
 20
151.8910735608309
 30
0.0
 11
306.343009352694
 21
151.8910735608309
 31
0.0
  0
LINE
  5
7796
330
18
100
AcDbEntity
  8
0
 48
0.2
100
AcDbLine
 10
303.6986717853965
 20
151.6410735608309
 30
0.0
 11
306.1986717853965
 21
151.6410735608309
 31
0.0
  0
LINE
  5
7797
330
18
100
AcDbEntity
  8
0
 48
0.2
100
AcDbLine
 10
303.554334218099
 20
147.0609465419087
 30
0.0
 11
306.343009352694
 21
147.0609465419087
 31
0.0
  0
LINE
  5
7798
330
18
100
AcDbEntity
  8
0
 48
0.2
100
AcDbLine
 10
303.6986717853965
 20
147.3109465419087
 30
0.0
 11
306.1986717853965
 21
147.3109465419087
 31
0.0
  0
CIRCLE
  5
7799
330
18
100
AcDbEntity
  8
0
 48
0.2
100
AcDbCircle
 10
304.9486717853965
 20
149.4760100513698
 30
0.0
 40
1.5
  0
LINE
  5
779A
330
18
100
AcDbEntity
  8
0
 48
0.2
100
AcDbLine
 10
302.1599966508017
 20
149.4760100513698
 30
0.0
 11
303.554334218099
 21
147.0609465419087
 31
0.0
  0
LINE
  5
779B
330
18
100
AcDbEntity
  8
0
 48
0.2
100
AcDbLine
 10
302.4486717853965
 20
149.4760100513698
 30
0.0
 11
303.6986717853965
 21
147.3109465419087
 31
0.0
  0
LINE
  5
779C
330
18
100
AcDbEntity
  8
0
 48
0.2
100
AcDbLine
 10
307.7373469199912
 20
149.4760100513698
 30
0.0
 11
306.343009352694
 21
147.0609465419087
 31
0.0
  0
LINE
  5
779D
330
18
100
AcDbEntity
  8
0
 48
0.2
100
AcDbLine
 10
307.4486717853965
 20
149.4760100513698
 30
0.0
 11
306.1986717853965
 21
147.3109465419087
 31
0.0
  0
LINE
  5
779E
330
18
100
AcDbEntity
  8
0
100
AcDbLine
 10
306.9486717853965
 20
205.4260100513701
 30
0.0
 11
306.9486717853965
 21
190.2260100513701
 31
0.0
  0
LINE
  5
779F
330
18
100
AcDbEntity
  8
0
100
AcDbLine
 10
308.4486717853966
 20
205.4260100513701
 30
0.0
 11
308.4486717853967
 21
190.2260100513701
 31
0.0
  0
ARC
  5
77A0
330
18
100
AcDbEntity
  8
0
100
AcDbCircle
 10
325.1986717853966
 20
206.5760100513699
 30
0.0
 40
1.75
100
AcDbArc
 50
90.0
 51
270.0
  0
LINE
  5
77A1
330
18
100
AcDbEntity
  8
0
100
AcDbLine
 10
315.7486717853964
 20
205.4260100513699
 30
0.0
 11
315.7486717853964
 21
190.2260100513699
 31
0.0
  0
LINE
  5
77A2
330
18
100
AcDbEntity
  8
0
100
AcDbLine
 10
316.4486717853966
 20
205.4260100513699
 30
0.0
 11
316.4486717853966
 21
190.2260100513699
 31
0.0
  0
ARC
  5
77A3
330
18
100
AcDbEntity
  8
0
100
AcDbCircle
 10
424.6986717853966
 20
83.07601005137
 30
0.0
 40
1.75
100
AcDbArc
 50
270.0
 51
90.0
  0
ARC
  5
77A4
330
18
100
AcDbEntity
  8
0
100
AcDbCircle
 10
413.1986717853966
 20
83.07601005137
 30
0.0
 40
1.75
100
AcDbArc
 50
90.0
 51
270.0
  0
ARC
  5
77A5
330
18
100
AcDbEntity
  8
0
100
AcDbCircle
 10
402.6986717853966
 20
83.07601005137
 30
0.0
 40
1.75
100
AcDbArc
 50
270.0
 51
90.0
  0
ARC
  5
77A6
330
18
100
AcDbEntity
  8
0
100
AcDbCircle
 10
391.1986717853966
 20
83.07601005137
 30
0.0
 40
1.75
100
AcDbArc
 50
90.0
 51
270.0
  0
ARC
  5
77A7
330
18
100
AcDbEntity
  8
0
100
AcDbCircle
 10
380.6986717853966
 20
83.07601005137
 30
0.0
 40
1.75
100
AcDbArc
 50
270.0
 51
90.0
  0
ARC
  5
77A8
330
18
100
AcDbEntity
  8
0
100
AcDbCircle
 10
369.1986717853966
 20
83.07601005137
 30
0.0
 40
1.75
100
AcDbArc
 50
90.0
 51
270.0
  0
ARC
  5
77A9
330
18
100
AcDbEntity
  8
0
100
AcDbCircle
 10
358.6986717853966
 20
83.07601005137
 30
0.0
 40
1.75
100
AcDbArc
 50
270.0
 51
90.0
  0
ARC
  5
77AA
330
18
100
AcDbEntity
  8
0
100
AcDbCircle
 10
347.1986717853966
 20
83.07601005137
 30
0.0
 40
1.75
100
AcDbArc
 50
90.0
 51
270.0
  0
ARC
  5
77AB
330
18
100
AcDbEntity
  8
0
100
AcDbCircle
 10
336.6986717853966
 20
83.07601005137
 30
0.0
 40
1.75
100
AcDbArc
 50
270.0
 51
90.0
  0
ARC
  5
77AC
330
18
100
AcDbEntity
  8
0
100
AcDbCircle
 10
358.6986717853966
 20
76.57601005136999
 30
0.0
 40
1.75
100
AcDbArc
 50
270.0
 51
90.0
  0
LINE
  5
77AD
330
18
100
AcDbEntity
  8
0
100
AcDbLine
 10
347.1986717853966
 20
74.82601005136996
 30
0.0
 11
358.6986717853966
 21
74.82601005136996
 31
0.0
  0
LINE
  5
77AE
330
18
100
AcDbEntity
  8
0
100
AcDbLine
 10
347.1986717853966
 20
78.32601005137007
 30
0.0
 11
358.6986717853966
 21
78.32601005136996
 31
0.0
  0
LINE
  5
77AF
330
18
100
AcDbEntity
  8
0
100
AcDbLine
 10
347.1986717853966
 20
81.32601005136995
 30
0.0
 11
358.6986717853966
 21
81.32601005136995
 31
0.0
  0
ARC
  5
77B0
330
18
100
AcDbEntity
  8
0
100
AcDbCircle
 10
347.1986717853966
 20
76.57601005136999
 30
0.0
 40
1.75
100
AcDbArc
 50
90.0
 51
270.0
  0
ARC
  5
77B1
330
18
100
AcDbEntity
  8
0
100
AcDbCircle
 10
336.6986717853966
 20
76.57601005136999
 30
0.0
 40
1.75
100
AcDbArc
 50
270.0
 51
90.0
  0
LINE
  5
77B2
330
18
100
AcDbEntity
  8
0
100
AcDbLine
 10
369.1986717853966
 20
81.32601005136995
 30
0.0
 11
380.6986717853966
 21
81.32601005136995
 31
0.0
  0
LINE
  5
77B3
330
18
100
AcDbEntity
  8
0
100
AcDbLine
 10
369.1986717853966
 20
74.82601005136996
 30
0.0
 11
380.6986717853966
 21
74.82601005136996
 31
0.0
  0
LINE
  5
77B4
330
18
100
AcDbEntity
  8
0
100
AcDbLine
 10
369.1986717853966
 20
78.32601005137007
 30
0.0
 11
380.6986717853966
 21
78.32601005136996
 31
0.0
  0
ARC
  5
77B5
330
18
100
AcDbEntity
  8
0
100
AcDbCircle
 10
369.1986717853966
 20
76.57601005136999
 30
0.0
 40
1.75
100
AcDbArc
 50
90.0
 51
270.0
  0
ARC
  5
77B6
330
18
100
AcDbEntity
  8
0
100
AcDbCircle
 10
380.6986717853966
 20
76.57601005136999
 30
0.0
 40
1.75
100
AcDbArc
 50
270.0
 51
90.0
  0
LINE
  5
77B7
330
18
100
AcDbEntity
  8
0
100
AcDbLine
 10
391.1986717853966
 20
81.32601005136995
 30
0.0
 11
402.6986717853966
 21
81.32601005136995
 31
0.0
  0
ARC
  5
77B8
330
18
100
AcDbEntity
  8
0
100
AcDbCircle
 10
396.4486717853966
 20
69.07601005136965
 30
0.0
 40
3.249999999999876
100
AcDbArc
 50
202.6198649480369
 51
337.380135051963
  0
LINE
  5
77B9
330
18
100
AcDbEntity
  8
0
100
AcDbLine
 10
391.1986717853966
 20
74.82601005136996
 30
0.0
 11
402.6986717853966
 21
74.82601005136996
 31
0.0
  0
LINE
  5
77BA
330
18
100
AcDbEntity
  8
0
100
AcDbLine
 10
391.1986717853966
 20
78.32601005137007
 30
0.0
 11
402.6986717853966
 21
78.32601005136996
 31
0.0
  0
ARC
  5
77BB
330
18
100
AcDbEntity
  8
0
100
AcDbCircle
 10
391.1986717853966
 20
76.57601005136999
 30
0.0
 40
1.75
100
AcDbArc
 50
90.0
 51
270.0
  0
ARC
  5
77BC
330
18
100
AcDbEntity
  8
0
100
AcDbCircle
 10
402.6986717853966
 20
76.57601005136999
 30
0.0
 40
1.75
100
AcDbArc
 50
270.0
 51
90.0
  0
LINE
  5
77BD
330
18
100
AcDbEntity
  8
0
100
AcDbLine
 10
413.1986717853966
 20
81.32601005136995
 30
0.0
 11
424.6986717853966
 21
81.32601005136995
 31
0.0
  0
LINE
  5
77BE
330
18
100
AcDbEntity
  8
0
100
AcDbLine
 10
413.1986717853966
 20
74.82601005136996
 30
0.0
 11
424.6986717853966
 21
74.82601005136996
 31
0.0
  0
LINE
  5
77BF
330
18
100
AcDbEntity
  8
0
100
AcDbLine
 10
413.1986717853966
 20
78.32601005137007
 30
0.0
 11
424.6986717853966
 21
78.32601005136996
 31
0.0
  0
ARC
  5
77C0
330
18
100
AcDbEntity
  8
0
100
AcDbCircle
 10
413.1986717853966
 20
76.57601005136999
 30
0.0
 40
1.75
100
AcDbArc
 50
90.0
 51
270.0
  0
ARC
  5
77C1
330
18
100
AcDbEntity
  8
0
100
AcDbCircle
 10
424.6986717853966
 20
76.57601005136999
 30
0.0
 40
1.75
100
AcDbArc
 50
270.0
 51
90.0
  0
ARC
  5
77C2
330
18
100
AcDbEntity
  8
0
100
AcDbCircle
 10
358.6986717853966
 20
89.57601005136998
 30
0.0
 40
1.75
100
AcDbArc
 50
270.0
 51
90.0
  0
LINE
  5
77C3
330
18
100
AcDbEntity
  8
0
100
AcDbLine
 10
347.1986717853966
 20
84.82601005137007
 30
0.0
 11
358.6986717853966
 21
84.82601005136997
 31
0.0
  0
LINE
  5
77C4
330
18
100
AcDbEntity
  8
0
100
AcDbLine
 10
347.1986717853966
 20
91.32601005137008
 30
0.0
 11
358.6986717853966
 21
91.32601005136995
 31
0.0
  0
LINE
  5
77C5
330
18
100
AcDbEntity
  8
0
100
AcDbLine
 10
347.1986717853966
 20
87.82601005136996
 30
0.0
 11
358.6986717853966
 21
87.82601005136996
 31
0.0
  0
ARC
  5
77C6
330
18
100
AcDbEntity
  8
0
100
AcDbCircle
 10
336.6986717853966
 20
89.57601005136998
 30
0.0
 40
1.75
100
AcDbArc
 50
270.0
 51
90.0
  0
ARC
  5
77C7
330
18
100
AcDbEntity
  8
0
100
AcDbCircle
 10
347.1986717853966
 20
89.57601005136998
 30
0.0
 40
1.75
100
AcDbArc
 50
90.0
 51
270.0
  0
LINE
  5
77C8
330
18
100
AcDbEntity
  8
0
100
AcDbLine
 10
369.1986717853966
 20
84.82601005137007
 30
0.0
 11
380.6986717853966
 21
84.82601005136997
 31
0.0
  0
LINE
  5
77C9
330
18
100
AcDbEntity
  8
0
100
AcDbLine
 10
369.1986717853966
 20
87.82601005136996
 30
0.0
 11
380.6986717853966
 21
87.82601005136996
 31
0.0
  0
LINE
  5
77CA
330
18
100
AcDbEntity
  8
0
100
AcDbLine
 10
369.1986717853966
 20
91.32601005137008
 30
0.0
 11
380.6986717853966
 21
91.32601005136995
 31
0.0
  0
ARC
  5
77CB
330
18
100
AcDbEntity
  8
0
100
AcDbCircle
 10
369.1986717853966
 20
89.57601005136998
 30
0.0
 40
1.75
100
AcDbArc
 50
90.0
 51
270.0
  0
ARC
  5
77CC
330
18
100
AcDbEntity
  8
0
100
AcDbCircle
 10
380.6986717853966
 20
89.57601005136998
 30
0.0
 40
1.75
100
AcDbArc
 50
270.0
 51
90.0
  0
ARC
  5
77CD
330
18
100
AcDbEntity
  8
0
100
AcDbCircle
 10
358.6986717853966
 20
206.5760100513699
 30
0.0
 40
1.75
100
AcDbArc
 50
270.0
 51
90.0
  0
LINE
  5
77CE
330
18
100
AcDbEntity
  8
0
100
AcDbLine
 10
347.1986717853966
 20
204.8260100513699
 30
0.0
 11
358.6986717853966
 21
204.8260100513699
 31
0.0
  0
LINE
  5
77CF
330
18
100
AcDbEntity
  8
0
100
AcDbLine
 10
347.1986717853966
 20
211.3260100513699
 30
0.0
 11
358.6986717853966
 21
211.3260100513699
 31
0.0
  0
LINE
  5
77D0
330
18
100
AcDbEntity
  8
0
100
AcDbLine
 10
347.1986717853966
 20
208.32601005137
 30
0.0
 11
358.6986717853966
 21
208.3260100513699
 31
0.0
  0
ARC
  5
77D1
330
18
100
AcDbEntity
  8
0
100
AcDbCircle
 10
336.6986717853966
 20
206.5760100513699
 30
0.0
 40
1.75
100
AcDbArc
 50
270.0
 51
90.0
  0
ARC
  5
77D2
330
18
100
AcDbEntity
  8
0
100
AcDbCircle
 10
347.1986717853966
 20
206.5760100513699
 30
0.0
 40
1.75
100
AcDbArc
 50
90.0
 51
270.0
  0
LINE
  5
77D3
330
18
100
AcDbEntity
  8
0
100
AcDbLine
 10
369.1986717853966
 20
204.8260100513699
 30
0.0
 11
380.6986717853966
 21
204.8260100513699
 31
0.0
  0
LINE
  5
77D4
330
18
100
AcDbEntity
  8
0
100
AcDbLine
 10
369.1986717853966
 20
211.3260100513699
 30
0.0
 11
380.6986717853966
 21
211.3260100513699
 31
0.0
  0
LINE
  5
77D5
330
18
100
AcDbEntity
  8
0
100
AcDbLine
 10
369.1986717853966
 20
208.32601005137
 30
0.0
 11
380.6986717853966
 21
208.3260100513699
 31
0.0
  0
ARC
  5
77D6
330
18
100
AcDbEntity
  8
0
100
AcDbCircle
 10
369.1986717853966
 20
206.5760100513699
 30
0.0
 40
1.75
100
AcDbArc
 50
90.0
 51
270.0
  0
ARC
  5
77D7
330
18
100
AcDbEntity
  8
0
100
AcDbCircle
 10
380.6986717853966
 20
206.5760100513699
 30
0.0
 40
1.75
100
AcDbArc
 50
270.0
 51
90.0
  0
LINE
  5
77D8
330
18
100
AcDbEntity
  8
0
100
AcDbLine
 10
391.1986717853966
 20
84.82601005137007
 30
0.0
 11
402.6986717853966
 21
84.82601005136997
 31
0.0
  0
LINE
  5
77D9
330
18
100
AcDbEntity
  8
0
100
AcDbLine
 10
391.1986717853966
 20
91.32601005137008
 30
0.0
 11
402.6986717853966
 21
91.32601005136995
 31
0.0
  0
LINE
  5
77DA
330
18
100
AcDbEntity
  8
0
100
AcDbLine
 10
391.1986717853966
 20
87.82601005136996
 30
0.0
 11
402.6986717853966
 21
87.82601005136996
 31
0.0
  0
ARC
  5
77DB
330
18
100
AcDbEntity
  8
0
100
AcDbCircle
 10
391.1986717853966
 20
89.57601005136998
 30
0.0
 40
1.75
100
AcDbArc
 50
90.0
 51
270.0
  0
ARC
  5
77DC
330
18
100
AcDbEntity
  8
0
100
AcDbCircle
 10
402.6986717853966
 20
89.57601005136998
 30
0.0
 40
1.75
100
AcDbArc
 50
270.0
 51
90.0
  0
LINE
  5
77DD
330
18
100
AcDbEntity
  8
0
100
AcDbLine
 10
413.1986717853966
 20
84.82601005137007
 30
0.0
 11
424.6986717853966
 21
84.82601005136997
 31
0.0
  0
LINE
  5
77DE
330
18
100
AcDbEntity
  8
0
100
AcDbLine
 10
413.1986717853966
 20
91.32601005137008
 30
0.0
 11
424.6986717853966
 21
91.32601005136995
 31
0.0
  0
LINE
  5
77DF
330
18
100
AcDbEntity
  8
0
100
AcDbLine
 10
413.1986717853966
 20
87.82601005136996
 30
0.0
 11
424.6986717853966
 21
87.82601005136996
 31
0.0
  0
ARC
  5
77E0
330
18
100
AcDbEntity
  8
0
100
AcDbCircle
 10
413.1986717853966
 20
89.57601005136996
 30
0.0
 40
1.75
100
AcDbArc
 50
90.0
 51
270.0
  0
ARC
  5
77E1
330
18
100
AcDbEntity
  8
0
100
AcDbCircle
 10
424.6986717853966
 20
89.57601005136996
 30
0.0
 40
1.75
100
AcDbArc
 50
270.0
 51
90.0
  0
LINE
  5
77E2
330
18
100
AcDbEntity
  8
0
100
AcDbLine
 10
391.1986717853966
 20
204.8260100513699
 30
0.0
 11
402.6986717853966
 21
204.8260100513699
 31
0.0
  0
LINE
  5
77E3
330
18
100
AcDbEntity
  8
0
100
AcDbLine
 10
391.1986717853966
 20
211.3260100513699
 30
0.0
 11
402.6986717853966
 21
211.3260100513699
 31
0.0
  0
LINE
  5
77E4
330
18
100
AcDbEntity
  8
0
100
AcDbLine
 10
391.1986717853966
 20
208.32601005137
 30
0.0
 11
402.6986717853966
 21
208.3260100513699
 31
0.0
  0
ARC
  5
77E5
330
18
100
AcDbEntity
  8
0
100
AcDbCircle
 10
391.1986717853966
 20
206.5760100513699
 30
0.0
 40
1.75
100
AcDbArc
 50
90.0
 51
270.0
  0
ARC
  5
77E6
330
18
100
AcDbEntity
  8
0
100
AcDbCircle
 10
402.6986717853966
 20
206.5760100513699
 30
0.0
 40
1.75
100
AcDbArc
 50
270.0
 51
90.0
  0
LINE
  5
77E7
330
18
100
AcDbEntity
  8
0
100
AcDbLine
 10
413.1986717853966
 20
204.8260100513699
 30
0.0
 11
424.6986717853966
 21
204.8260100513699
 31
0.0
  0
LINE
  5
77E8
330
18
100
AcDbEntity
  8
0
100
AcDbLine
 10
413.1986717853966
 20
211.3260100513699
 30
0.0
 11
424.6986717853966
 21
211.3260100513699
 31
0.0
  0
LINE
  5
77E9
330
18
100
AcDbEntity
  8
0
100
AcDbLine
 10
413.1986717853966
 20
208.32601005137
 30
0.0
 11
424.6986717853966
 21
208.3260100513699
 31
0.0
  0
ARC
  5
77EA
330
18
100
AcDbEntity
  8
0
100
AcDbCircle
 10
413.1986717853966
 20
206.5760100513699
 30
0.0
 40
1.75
100
AcDbArc
 50
90.0
 51
270.0
  0
ARC
  5
77EB
330
18
100
AcDbEntity
  8
0
100
AcDbCircle
 10
424.6986717853966
 20
206.5760100513699
 30
0.0
 40
1.75
100
AcDbArc
 50
270.0
 51
90.0
  0
ARC
  5
77EC
330
18
100
AcDbEntity
  8
0
100
AcDbCircle
 10
468.6986717853966
 20
83.07601005136996
 30
0.0
 40
1.75
100
AcDbArc
 50
270.0
 51
90.0
  0
ARC
  5
77ED
330
18
100
AcDbEntity
  8
0
100
AcDbCircle
 10
457.1986717853966
 20
83.07601005136996
 30
0.0
 40
1.75
100
AcDbArc
 50
90.0
 51
270.0
  0
ARC
  5
77EE
330
18
100
AcDbEntity
  8
0
100
AcDbCircle
 10
446.6986717853966
 20
83.07601005136996
 30
0.0
 40
1.75
100
AcDbArc
 50
270.0
 51
90.0
  0
ARC
  5
77EF
330
18
100
AcDbEntity
  8
0
100
AcDbCircle
 10
435.1986717853966
 20
83.07601005136996
 30
0.0
 40
1.75
100
AcDbArc
 50
90.0
 51
270.0
  0
LINE
  5
77F0
330
18
100
AcDbEntity
  8
0
100
AcDbLine
 10
435.1986717853966
 20
74.82601005136996
 30
0.0
 11
446.6986717853966
 21
74.82601005136996
 31
0.0
  0
LINE
  5
77F1
330
18
100
AcDbEntity
  8
0
100
AcDbLine
 10
435.1986717853966
 20
78.32601005137007
 30
0.0
 11
446.6986717853966
 21
78.32601005136996
 31
0.0
  0
LINE
  5
77F2
330
18
100
AcDbEntity
  8
0
100
AcDbLine
 10
435.1986717853966
 20
81.32601005136995
 30
0.0
 11
446.6986717853966
 21
81.32601005136995
 31
0.0
  0
ARC
  5
77F3
330
18
100
AcDbEntity
  8
0
100
AcDbCircle
 10
435.1986717853966
 20
76.57601005136996
 30
0.0
 40
1.75
100
AcDbArc
 50
90.0
 51
270.0
  0
ARC
  5
77F4
330
18
100
AcDbEntity
  8
0
100
AcDbCircle
 10
446.6986717853966
 20
76.57601005136996
 30
0.0
 40
1.75
100
AcDbArc
 50
270.0
 51
90.0
  0
LINE
  5
77F5
330
18
100
AcDbEntity
  8
0
100
AcDbLine
 10
457.1986717853966
 20
81.32601005136995
 30
0.0
 11
468.6986717853966
 21
81.32601005136995
 31
0.0
  0
LINE
  5
77F6
330
18
100
AcDbEntity
  8
0
100
AcDbLine
 10
457.1986717853966
 20
74.82601005136996
 30
0.0
 11
468.6986717853966
 21
74.82601005136996
 31
0.0
  0
LINE
  5
77F7
330
18
100
AcDbEntity
  8
0
100
AcDbLine
 10
457.1986717853966
 20
78.32601005137007
 30
0.0
 11
468.6986717853966
 21
78.32601005136996
 31
0.0
  0
ARC
  5
77F8
330
18
100
AcDbEntity
  8
0
100
AcDbCircle
 10
457.1986717853966
 20
76.57601005136996
 30
0.0
 40
1.75
100
AcDbArc
 50
90.0
 51
270.0
  0
ARC
  5
77F9
330
18
100
AcDbEntity
  8
0
100
AcDbCircle
 10
468.6986717853966
 20
76.57601005136996
 30
0.0
 40
1.75
100
AcDbArc
 50
270.0
 51
90.0
  0
LINE
  5
77FA
330
18
100
AcDbEntity
  8
0
100
AcDbLine
 10
474.4486717853966
 20
52.82601005136996
 30
0.0
 11
476.4486717853966
 21
52.82601005136996
 31
0.0
  0
ARC
  5
77FB
330
18
100
AcDbEntity
  8
0
100
AcDbCircle
 10
468.6986717853966
 20
148.0760100513699
 30
0.0
 40
1.75
100
AcDbArc
 50
270.0
 51
90.0
  0
ARC
  5
77FC
330
18
100
AcDbEntity
  8
0
100
AcDbCircle
 10
446.6986717853966
 20
148.0760100513699
 30
0.0
 40
1.75
100
AcDbArc
 50
270.0
 51
90.0
  0
ARC
  5
77FD
330
18
100
AcDbEntity
  8
0
100
AcDbCircle
 10
457.1986717853966
 20
148.0760100513699
 30
0.0
 40
1.75
100
AcDbArc
 50
90.0
 51
270.0
  0
ARC
  5
77FE
330
18
100
AcDbEntity
  8
0
100
AcDbCircle
 10
435.1986717853966
 20
148.0760100513699
 30
0.0
 40
1.75
100
AcDbArc
 50
90.0
 51
270.0
  0
ARC
  5
77FF
330
18
100
AcDbEntity
  8
0
100
AcDbCircle
 10
446.6986717853966
 20
115.5760100513699
 30
0.0
 40
1.75
100
AcDbArc
 50
270.0
 51
90.0
  0
ARC
  5
7800
330
18
100
AcDbEntity
  8
0
100
AcDbCircle
 10
435.1986717853966
 20
115.5760100513699
 30
0.0
 40
1.75
100
AcDbArc
 50
90.0
 51
270.0
  0
LINE
  5
7801
330
18
100
AcDbEntity
  8
0
100
AcDbLine
 10
435.1986717853966
 20
84.82601005137007
 30
0.0
 11
446.6986717853966
 21
84.82601005136997
 31
0.0
  0
LINE
  5
7802
330
18
100
AcDbEntity
  8
0
100
AcDbLine
 10
435.1986717853966
 20
94.32601005136996
 30
0.0
 11
446.6986717853966
 21
94.32601005136996
 31
0.0
  0
LINE
  5
7803
330
18
100
AcDbEntity
  8
0
100
AcDbLine
 10
435.1986717853966
 20
91.32601005137008
 30
0.0
 11
446.6986717853966
 21
91.32601005136995
 31
0.0
  0
LINE
  5
7804
330
18
100
AcDbEntity
  8
0
100
AcDbLine
 10
435.1986717853966
 20
87.82601005136996
 30
0.0
 11
446.6986717853966
 21
87.82601005136996
 31
0.0
  0
LINE
  5
7805
330
18
100
AcDbEntity
  8
0
100
AcDbLine
 10
435.1986717853966
 20
97.82601005137008
 30
0.0
 11
446.6986717853966
 21
97.82601005136996
 31
0.0
  0
LINE
  5
7806
330
18
100
AcDbEntity
  8
0
100
AcDbLine
 10
435.1986717853966
 20
100.8260100513699
 30
0.0
 11
446.6986717853966
 21
100.8260100513699
 31
0.0
  0
LINE
  5
7807
330
18
100
AcDbEntity
  8
0
100
AcDbLine
 10
435.1986717853966
 20
107.3260100513699
 30
0.0
 11
446.6986717853966
 21
107.3260100513699
 31
0.0
  0
LINE
  5
7808
330
18
100
AcDbEntity
  8
0
100
AcDbLine
 10
435.1986717853966
 20
110.82601005137
 30
0.0
 11
446.6986717853966
 21
110.8260100513699
 31
0.0
  0
LINE
  5
7809
330
18
100
AcDbEntity
  8
0
100
AcDbLine
 10
435.1986717853966
 20
104.32601005137
 30
0.0
 11
446.6986717853966
 21
104.3260100513699
 31
0.0
  0
LINE
  5
780A
330
18
100
AcDbEntity
  8
0
100
AcDbLine
 10
435.1986717853966
 20
113.8260100513699
 30
0.0
 11
446.6986717853966
 21
113.8260100513699
 31
0.0
  0
ARC
  5
780B
330
18
100
AcDbEntity
  8
0
100
AcDbCircle
 10
435.1986717853966
 20
102.5760100513699
 30
0.0
 40
1.75
100
AcDbArc
 50
90.0
 51
270.0
  0
ARC
  5
780C
330
18
100
AcDbEntity
  8
0
100
AcDbCircle
 10
435.1986717853966
 20
109.0760100513699
 30
0.0
 40
1.75
100
AcDbArc
 50
90.0
 51
270.0
  0
ARC
  5
780D
330
18
100
AcDbEntity
  8
0
100
AcDbCircle
 10
435.1986717853966
 20
96.07601005136997
 30
0.0
 40
1.75
100
AcDbArc
 50
90.0
 51
270.0
  0
ARC
  5
780E
330
18
100
AcDbEntity
  8
0
100
AcDbCircle
 10
435.1986717853966
 20
89.57601005136996
 30
0.0
 40
1.75
100
AcDbArc
 50
90.0
 51
270.0
  0
ARC
  5
780F
330
18
100
AcDbEntity
  8
0
100
AcDbCircle
 10
446.6986717853966
 20
102.5760100513699
 30
0.0
 40
1.75
100
AcDbArc
 50
270.0
 51
90.0
  0
ARC
  5
7810
330
18
100
AcDbEntity
  8
0
100
AcDbCircle
 10
446.6986717853966
 20
109.0760100513699
 30
0.0
 40
1.75
100
AcDbArc
 50
270.0
 51
90.0
  0
ARC
  5
7811
330
18
100
AcDbEntity
  8
0
100
AcDbCircle
 10
446.6986717853966
 20
96.07601005136997
 30
0.0
 40
1.75
100
AcDbArc
 50
270.0
 51
90.0
  0
ARC
  5
7812
330
18
100
AcDbEntity
  8
0
100
AcDbCircle
 10
446.6986717853966
 20
89.57601005136996
 30
0.0
 40
1.75
100
AcDbArc
 50
270.0
 51
90.0
  0
LINE
  5
7813
330
18
100
AcDbEntity
  8
0
100
AcDbLine
 10
435.1986717853966
 20
120.3260100513699
 30
0.0
 11
446.6986717853966
 21
120.3260100513699
 31
0.0
  0
LINE
  5
7814
330
18
100
AcDbEntity
  8
0
100
AcDbLine
 10
435.1986717853966
 20
123.82601005137
 30
0.0
 11
446.6986717853966
 21
123.8260100513699
 31
0.0
  0
LINE
  5
7815
330
18
100
AcDbEntity
  8
0
100
AcDbLine
 10
435.1986717853966
 20
126.8260100513699
 30
0.0
 11
446.6986717853966
 21
126.8260100513699
 31
0.0
  0
LINE
  5
7816
330
18
100
AcDbEntity
  8
0
100
AcDbLine
 10
435.1986717853966
 20
130.32601005137
 30
0.0
 11
446.6986717853966
 21
130.3260100513699
 31
0.0
  0
LINE
  5
7817
330
18
100
AcDbEntity
  8
0
100
AcDbLine
 10
435.1986717853966
 20
133.3260100513699
 30
0.0
 11
446.6986717853966
 21
133.3260100513699
 31
0.0
  0
LINE
  5
7818
330
18
100
AcDbEntity
  8
0
100
AcDbLine
 10
435.1986717853966
 20
139.8260100513699
 30
0.0
 11
446.6986717853966
 21
139.8260100513699
 31
0.0
  0
LINE
  5
7819
330
18
100
AcDbEntity
  8
0
100
AcDbLine
 10
435.1986717853966
 20
136.82601005137
 30
0.0
 11
446.6986717853966
 21
136.8260100513699
 31
0.0
  0
LINE
  5
781A
330
18
100
AcDbEntity
  8
0
100
AcDbLine
 10
435.1986717853966
 20
146.3260100513699
 30
0.0
 11
446.6986717853966
 21
146.3260100513699
 31
0.0
  0
LINE
  5
781B
330
18
100
AcDbEntity
  8
0
100
AcDbLine
 10
435.1986717853966
 20
143.32601005137
 30
0.0
 11
446.6986717853966
 21
143.3260100513699
 31
0.0
  0
LINE
  5
781C
330
18
100
AcDbEntity
  8
0
100
AcDbLine
 10
435.1986717853966
 20
117.32601005137
 30
0.0
 11
446.6986717853966
 21
117.3260100513699
 31
0.0
  0
ARC
  5
781D
330
18
100
AcDbEntity
  8
0
100
AcDbCircle
 10
435.1986717853966
 20
141.5760100513699
 30
0.0
 40
1.75
100
AcDbArc
 50
90.0
 51
270.0
  0
ARC
  5
781E
330
18
100
AcDbEntity
  8
0
100
AcDbCircle
 10
435.1986717853966
 20
135.0760100513699
 30
0.0
 40
1.75
100
AcDbArc
 50
90.0
 51
270.0
  0
ARC
  5
781F
330
18
100
AcDbEntity
  8
0
100
AcDbCircle
 10
435.1986717853966
 20
122.0760100513699
 30
0.0
 40
1.75
100
AcDbArc
 50
90.0
 51
270.0
  0
ARC
  5
7820
330
18
100
AcDbEntity
  8
0
100
AcDbCircle
 10
435.1986717853966
 20
128.5760100513699
 30
0.0
 40
1.75
100
AcDbArc
 50
90.0
 51
270.0
  0
ARC
  5
7821
330
18
100
AcDbEntity
  8
0
100
AcDbCircle
 10
446.6986717853966
 20
141.5760100513699
 30
0.0
 40
1.75
100
AcDbArc
 50
270.0
 51
90.0
  0
ARC
  5
7822
330
18
100
AcDbEntity
  8
0
100
AcDbCircle
 10
446.6986717853966
 20
135.0760100513699
 30
0.0
 40
1.75
100
AcDbArc
 50
270.0
 51
90.0
  0
ARC
  5
7823
330
18
100
AcDbEntity
  8
0
100
AcDbCircle
 10
446.6986717853966
 20
122.0760100513699
 30
0.0
 40
1.75
100
AcDbArc
 50
270.0
 51
90.0
  0
ARC
  5
7824
330
18
100
AcDbEntity
  8
0
100
AcDbCircle
 10
446.6986717853966
 20
128.5760100513699
 30
0.0
 40
1.75
100
AcDbArc
 50
270.0
 51
90.0
  0
ARC
  5
7825
330
18
100
AcDbEntity
  8
0
100
AcDbCircle
 10
468.6986717853966
 20
115.5760100513699
 30
0.0
 40
1.75
100
AcDbArc
 50
270.0
 51
90.0
  0
ARC
  5
7826
330
18
100
AcDbEntity
  8
0
100
AcDbCircle
 10
457.1986717853966
 20
115.5760100513699
 30
0.0
 40
1.75
100
AcDbArc
 50
90.0
 51
270.0
  0
LINE
  5
7827
330
18
100
AcDbEntity
  8
0
100
AcDbLine
 10
457.1986717853966
 20
100.8260100513699
 30
0.0
 11
468.6986717853966
 21
100.8260100513699
 31
0.0
  0
LINE
  5
7828
330
18
100
AcDbEntity
  8
0
100
AcDbLine
 10
457.1986717853966
 20
104.32601005137
 30
0.0
 11
468.6986717853966
 21
104.3260100513699
 31
0.0
  0
LINE
  5
7829
330
18
100
AcDbEntity
  8
0
100
AcDbLine
 10
457.1986717853966
 20
110.82601005137
 30
0.0
 11
468.6986717853966
 21
110.8260100513699
 31
0.0
  0
LINE
  5
782A
330
18
100
AcDbEntity
  8
0
100
AcDbLine
 10
457.1986717853966
 20
107.3260100513699
 30
0.0
 11
468.6986717853966
 21
107.3260100513699
 31
0.0
  0
LINE
  5
782B
330
18
100
AcDbEntity
  8
0
100
AcDbLine
 10
457.1986717853966
 20
113.8260100513699
 30
0.0
 11
468.6986717853966
 21
113.8260100513699
 31
0.0
  0
LINE
  5
782C
330
18
100
AcDbEntity
  8
0
100
AcDbLine
 10
457.1986717853966
 20
84.82601005137007
 30
0.0
 11
468.6986717853966
 21
84.82601005136997
 31
0.0
  0
LINE
  5
782D
330
18
100
AcDbEntity
  8
0
100
AcDbLine
 10
457.1986717853966
 20
87.82601005136996
 30
0.0
 11
468.6986717853966
 21
87.82601005136996
 31
0.0
  0
LINE
  5
782E
330
18
100
AcDbEntity
  8
0
100
AcDbLine
 10
457.1986717853966
 20
91.32601005137008
 30
0.0
 11
468.6986717853966
 21
91.32601005136995
 31
0.0
  0
LINE
  5
782F
330
18
100
AcDbEntity
  8
0
100
AcDbLine
 10
457.1986717853966
 20
94.32601005136996
 30
0.0
 11
468.6986717853966
 21
94.32601005136996
 31
0.0
  0
LINE
  5
7830
330
18
100
AcDbEntity
  8
0
100
AcDbLine
 10
457.1986717853966
 20
97.82601005137008
 30
0.0
 11
468.6986717853966
 21
97.82601005136996
 31
0.0
  0
ARC
  5
7831
330
18
100
AcDbEntity
  8
0
100
AcDbCircle
 10
457.1986717853966
 20
102.5760100513699
 30
0.0
 40
1.75
100
AcDbArc
 50
90.0
 51
270.0
  0
ARC
  5
7832
330
18
100
AcDbEntity
  8
0
100
AcDbCircle
 10
457.1986717853966
 20
109.0760100513699
 30
0.0
 40
1.75
100
AcDbArc
 50
90.0
 51
270.0
  0
ARC
  5
7833
330
18
100
AcDbEntity
  8
0
100
AcDbCircle
 10
457.1986717853966
 20
96.07601005136997
 30
0.0
 40
1.75
100
AcDbArc
 50
90.0
 51
270.0
  0
ARC
  5
7834
330
18
100
AcDbEntity
  8
0
100
AcDbCircle
 10
457.1986717853966
 20
89.57601005136996
 30
0.0
 40
1.75
100
AcDbArc
 50
90.0
 51
270.0
  0
ARC
  5
7835
330
18
100
AcDbEntity
  8
0
100
AcDbCircle
 10
468.6986717853966
 20
102.5760100513699
 30
0.0
 40
1.75
100
AcDbArc
 50
270.0
 51
90.0
  0
ARC
  5
7836
330
18
100
AcDbEntity
  8
0
100
AcDbCircle
 10
468.6986717853966
 20
109.0760100513699
 30
0.0
 40
1.75
100
AcDbArc
 50
270.0
 51
90.0
  0
ARC
  5
7837
330
18
100
AcDbEntity
  8
0
100
AcDbCircle
 10
468.6986717853966
 20
96.07601005136997
 30
0.0
 40
1.75
100
AcDbArc
 50
270.0
 51
90.0
  0
ARC
  5
7838
330
18
100
AcDbEntity
  8
0
100
AcDbCircle
 10
468.6986717853966
 20
89.57601005136996
 30
0.0
 40
1.75
100
AcDbArc
 50
270.0
 51
90.0
  0
LINE
  5
7839
330
18
100
AcDbEntity
  8
0
100
AcDbLine
 10
457.1986717853966
 20
139.8260100513699
 30
0.0
 11
468.6986717853966
 21
139.8260100513699
 31
0.0
  0
LINE
  5
783A
330
18
100
AcDbEntity
  8
0
100
AcDbLine
 10
457.1986717853966
 20
143.32601005137
 30
0.0
 11
468.6986717853966
 21
143.3260100513699
 31
0.0
  0
LINE
  5
783B
330
18
100
AcDbEntity
  8
0
100
AcDbLine
 10
457.1986717853966
 20
146.3260100513699
 30
0.0
 11
468.6986717853966
 21
146.3260100513699
 31
0.0
  0
LINE
  5
783C
330
18
100
AcDbEntity
  8
0
100
AcDbLine
 10
457.1986717853966
 20
123.82601005137
 30
0.0
 11
468.6986717853966
 21
123.8260100513699
 31
0.0
  0
LINE
  5
783D
330
18
100
AcDbEntity
  8
0
100
AcDbLine
 10
457.1986717853966
 20
120.3260100513699
 30
0.0
 11
468.6986717853966
 21
120.3260100513699
 31
0.0
  0
LINE
  5
783E
330
18
100
AcDbEntity
  8
0
100
AcDbLine
 10
457.1986717853966
 20
126.8260100513699
 30
0.0
 11
468.6986717853966
 21
126.8260100513699
 31
0.0
  0
LINE
  5
783F
330
18
100
AcDbEntity
  8
0
100
AcDbLine
 10
457.1986717853966
 20
130.32601005137
 30
0.0
 11
468.6986717853966
 21
130.3260100513699
 31
0.0
  0
LINE
  5
7840
330
18
100
AcDbEntity
  8
0
100
AcDbLine
 10
457.1986717853966
 20
133.3260100513699
 30
0.0
 11
468.6986717853966
 21
133.3260100513699
 31
0.0
  0
LINE
  5
7841
330
18
100
AcDbEntity
  8
0
100
AcDbLine
 10
457.1986717853966
 20
136.82601005137
 30
0.0
 11
468.6986717853966
 21
136.8260100513699
 31
0.0
  0
LINE
  5
7842
330
18
100
AcDbEntity
  8
0
100
AcDbLine
 10
457.1986717853966
 20
117.32601005137
 30
0.0
 11
468.6986717853966
 21
117.3260100513699
 31
0.0
  0
ARC
  5
7843
330
18
100
AcDbEntity
  8
0
100
AcDbCircle
 10
457.1986717853966
 20
141.5760100513699
 30
0.0
 40
1.75
100
AcDbArc
 50
90.0
 51
270.0
  0
ARC
  5
7844
330
18
100
AcDbEntity
  8
0
100
AcDbCircle
 10
457.1986717853966
 20
135.0760100513699
 30
0.0
 40
1.75
100
AcDbArc
 50
90.0
 51
270.0
  0
ARC
  5
7845
330
18
100
AcDbEntity
  8
0
100
AcDbCircle
 10
457.1986717853966
 20
122.0760100513699
 30
0.0
 40
1.75
100
AcDbArc
 50
90.0
 51
270.0
  0
ARC
  5
7846
330
18
100
AcDbEntity
  8
0
100
AcDbCircle
 10
457.1986717853966
 20
128.5760100513699
 30
0.0
 40
1.75
100
AcDbArc
 50
90.0
 51
270.0
  0
ARC
  5
7847
330
18
100
AcDbEntity
  8
0
100
AcDbCircle
 10
468.6986717853966
 20
141.5760100513699
 30
0.0
 40
1.75
100
AcDbArc
 50
270.0
 51
90.0
  0
ARC
  5
7848
330
18
100
AcDbEntity
  8
0
100
AcDbCircle
 10
468.6986717853966
 20
135.0760100513699
 30
0.0
 40
1.75
100
AcDbArc
 50
270.0
 51
90.0
  0
ARC
  5
7849
330
18
100
AcDbEntity
  8
0
100
AcDbCircle
 10
468.6986717853966
 20
122.0760100513699
 30
0.0
 40
1.75
100
AcDbArc
 50
270.0
 51
90.0
  0
ARC
  5
784A
330
18
100
AcDbEntity
  8
0
100
AcDbCircle
 10
468.6986717853966
 20
128.5760100513699
 30
0.0
 40
1.75
100
AcDbArc
 50
270.0
 51
90.0
  0
ARC
  5
784B
330
18
100
AcDbEntity
  8
0
100
AcDbCircle
 10
446.6986717853966
 20
180.5760100513699
 30
0.0
 40
1.75
100
AcDbArc
 50
270.0
 51
90.0
  0
ARC
  5
784C
330
18
100
AcDbEntity
  8
0
100
AcDbCircle
 10
435.1986717853966
 20
180.5760100513699
 30
0.0
 40
1.75
100
AcDbArc
 50
90.0
 51
270.0
  0
LINE
  5
784D
330
18
100
AcDbEntity
  8
0
100
AcDbLine
 10
435.1986717853966
 20
149.82601005137
 30
0.0
 11
446.6986717853966
 21
149.8260100513699
 31
0.0
  0
LINE
  5
784E
330
18
100
AcDbEntity
  8
0
100
AcDbLine
 10
435.1986717853966
 20
156.32601005137
 30
0.0
 11
446.6986717853966
 21
156.3260100513699
 31
0.0
  0
LINE
  5
784F
330
18
100
AcDbEntity
  8
0
100
AcDbLine
 10
435.1986717853966
 20
152.8260100513699
 30
0.0
 11
446.6986717853966
 21
152.8260100513699
 31
0.0
  0
LINE
  5
7850
330
18
100
AcDbEntity
  8
0
100
AcDbLine
 10
435.1986717853966
 20
165.8260100513699
 30
0.0
 11
446.6986717853966
 21
165.8260100513699
 31
0.0
  0
LINE
  5
7851
330
18
100
AcDbEntity
  8
0
100
AcDbLine
 10
435.1986717853966
 20
159.3260100513699
 30
0.0
 11
446.6986717853966
 21
159.3260100513699
 31
0.0
  0
LINE
  5
7852
330
18
100
AcDbEntity
  8
0
100
AcDbLine
 10
435.1986717853966
 20
162.82601005137
 30
0.0
 11
446.6986717853966
 21
162.8260100513699
 31
0.0
  0
LINE
  5
7853
330
18
100
AcDbEntity
  8
0
100
AcDbLine
 10
435.1986717853966
 20
172.3260100513699
 30
0.0
 11
446.6986717853966
 21
172.3260100513699
 31
0.0
  0
LINE
  5
7854
330
18
100
AcDbEntity
  8
0
100
AcDbLine
 10
435.1986717853966
 20
169.32601005137
 30
0.0
 11
446.6986717853966
 21
169.3260100513699
 31
0.0
  0
LINE
  5
7855
330
18
100
AcDbEntity
  8
0
100
AcDbLine
 10
435.1986717853966
 20
178.8260100513699
 30
0.0
 11
446.6986717853966
 21
178.8260100513699
 31
0.0
  0
LINE
  5
7856
330
18
100
AcDbEntity
  8
0
100
AcDbLine
 10
435.1986717853966
 20
175.82601005137
 30
0.0
 11
446.6986717853966
 21
175.8260100513699
 31
0.0
  0
ARC
  5
7857
330
18
100
AcDbEntity
  8
0
100
AcDbCircle
 10
435.1986717853966
 20
174.0760100513699
 30
0.0
 40
1.75
100
AcDbArc
 50
90.0
 51
270.0
  0
ARC
  5
7858
330
18
100
AcDbEntity
  8
0
100
AcDbCircle
 10
435.1986717853966
 20
161.0760100513699
 30
0.0
 40
1.75
100
AcDbArc
 50
90.0
 51
270.0
  0
ARC
  5
7859
330
18
100
AcDbEntity
  8
0
100
AcDbCircle
 10
435.1986717853966
 20
167.5760100513699
 30
0.0
 40
1.75
100
AcDbArc
 50
90.0
 51
270.0
  0
ARC
  5
785A
330
18
100
AcDbEntity
  8
0
100
AcDbCircle
 10
435.1986717853966
 20
154.57601005137
 30
0.0
 40
1.75
100
AcDbArc
 50
90.0
 51
270.0
  0
ARC
  5
785B
330
18
100
AcDbEntity
  8
0
100
AcDbCircle
 10
446.6986717853966
 20
174.0760100513699
 30
0.0
 40
1.75
100
AcDbArc
 50
270.0
 51
90.0
  0
ARC
  5
785C
330
18
100
AcDbEntity
  8
0
100
AcDbCircle
 10
446.6986717853966
 20
161.0760100513699
 30
0.0
 40
1.75
100
AcDbArc
 50
270.0
 51
90.0
  0
ARC
  5
785D
330
18
100
AcDbEntity
  8
0
100
AcDbCircle
 10
446.6986717853966
 20
167.5760100513699
 30
0.0
 40
1.75
100
AcDbArc
 50
270.0
 51
90.0
  0
ARC
  5
785E
330
18
100
AcDbEntity
  8
0
100
AcDbCircle
 10
446.6986717853966
 20
154.57601005137
 30
0.0
 40
1.75
100
AcDbArc
 50
270.0
 51
90.0
  0
LINE
  5
785F
330
18
100
AcDbEntity
  8
0
100
AcDbLine
 10
435.1986717853966
 20
182.32601005137
 30
0.0
 11
446.6986717853966
 21
182.3260100513699
 31
0.0
  0
LINE
  5
7860
330
18
100
AcDbEntity
  8
0
100
AcDbLine
 10
435.1986717853966
 20
185.3260100513699
 30
0.0
 11
446.6986717853966
 21
185.3260100513699
 31
0.0
  0
LINE
  5
7861
330
18
100
AcDbEntity
  8
0
100
AcDbLine
 10
435.1986717853966
 20
188.82601005137
 30
0.0
 11
446.6986717853966
 21
188.8260100513699
 31
0.0
  0
LINE
  5
7862
330
18
100
AcDbEntity
  8
0
100
AcDbLine
 10
435.1986717853966
 20
191.8260100513699
 30
0.0
 11
446.6986717853966
 21
191.8260100513699
 31
0.0
  0
LINE
  5
7863
330
18
100
AcDbEntity
  8
0
100
AcDbLine
 10
435.1986717853966
 20
195.32601005137
 30
0.0
 11
446.6986717853966
 21
195.3260100513699
 31
0.0
  0
LINE
  5
7864
330
18
100
AcDbEntity
  8
0
100
AcDbLine
 10
435.1986717853966
 20
198.3260100513699
 30
0.0
 11
446.6986717853966
 21
198.3260100513699
 31
0.0
  0
LINE
  5
7865
330
18
100
AcDbEntity
  8
0
100
AcDbLine
 10
435.1986717853966
 20
204.8260100513699
 30
0.0
 11
446.6986717853966
 21
204.8260100513699
 31
0.0
  0
LINE
  5
7866
330
18
100
AcDbEntity
  8
0
100
AcDbLine
 10
435.1986717853966
 20
201.82601005137
 30
0.0
 11
446.6986717853966
 21
201.8260100513699
 31
0.0
  0
LINE
  5
7867
330
18
100
AcDbEntity
  8
0
100
AcDbLine
 10
435.1986717853966
 20
211.3260100513699
 30
0.0
 11
446.6986717853966
 21
211.3260100513699
 31
0.0
  0
LINE
  5
7868
330
18
100
AcDbEntity
  8
0
100
AcDbLine
 10
435.1986717853966
 20
208.32601005137
 30
0.0
 11
446.6986717853966
 21
208.3260100513699
 31
0.0
  0
ARC
  5
7869
330
18
100
AcDbEntity
  8
0
100
AcDbCircle
 10
435.1986717853966
 20
200.0760100513699
 30
0.0
 40
1.75
100
AcDbArc
 50
90.0
 51
270.0
  0
ARC
  5
786A
330
18
100
AcDbEntity
  8
0
100
AcDbCircle
 10
435.1986717853966
 20
206.5760100513699
 30
0.0
 40
1.75
100
AcDbArc
 50
90.0
 51
270.0
  0
ARC
  5
786B
330
18
100
AcDbEntity
  8
0
100
AcDbCircle
 10
435.1986717853966
 20
193.5760100513699
 30
0.0
 40
1.75
100
AcDbArc
 50
90.0
 51
270.0
  0
ARC
  5
786C
330
18
100
AcDbEntity
  8
0
100
AcDbCircle
 10
435.1986717853966
 20
187.0760100513699
 30
0.0
 40
1.75
100
AcDbArc
 50
90.0
 51
270.0
  0
ARC
  5
786D
330
18
100
AcDbEntity
  8
0
100
AcDbCircle
 10
446.6986717853966
 20
200.0760100513699
 30
0.0
 40
1.75
100
AcDbArc
 50
270.0
 51
90.0
  0
ARC
  5
786E
330
18
100
AcDbEntity
  8
0
100
AcDbCircle
 10
446.6986717853966
 20
206.5760100513699
 30
0.0
 40
1.75
100
AcDbArc
 50
270.0
 51
90.0
  0
ARC
  5
786F
330
18
100
AcDbEntity
  8
0
100
AcDbCircle
 10
446.6986717853966
 20
193.5760100513699
 30
0.0
 40
1.75
100
AcDbArc
 50
270.0
 51
90.0
  0
ARC
  5
7870
330
18
100
AcDbEntity
  8
0
100
AcDbCircle
 10
446.6986717853966
 20
187.0760100513699
 30
0.0
 40
1.75
100
AcDbArc
 50
270.0
 51
90.0
  0
ARC
  5
7871
330
18
100
AcDbEntity
  8
0
100
AcDbCircle
 10
468.6986717853966
 20
180.5760100513699
 30
0.0
 40
1.75
100
AcDbArc
 50
270.0
 51
90.0
  0
ARC
  5
7872
330
18
100
AcDbEntity
  8
0
100
AcDbCircle
 10
457.1986717853966
 20
180.5760100513699
 30
0.0
 40
1.75
100
AcDbArc
 50
90.0
 51
270.0
  0
LINE
  5
7873
330
18
100
AcDbEntity
  8
0
100
AcDbLine
 10
457.1986717853966
 20
178.8260100513699
 30
0.0
 11
468.6986717853966
 21
178.8260100513699
 31
0.0
  0
LINE
  5
7874
330
18
100
AcDbEntity
  8
0
100
AcDbLine
 10
457.1986717853966
 20
162.82601005137
 30
0.0
 11
468.6986717853966
 21
162.8260100513699
 31
0.0
  0
LINE
  5
7875
330
18
100
AcDbEntity
  8
0
100
AcDbLine
 10
457.1986717853966
 20
159.3260100513699
 30
0.0
 11
468.6986717853966
 21
159.3260100513699
 31
0.0
  0
LINE
  5
7876
330
18
100
AcDbEntity
  8
0
100
AcDbLine
 10
457.1986717853966
 20
165.8260100513699
 30
0.0
 11
468.6986717853966
 21
165.8260100513699
 31
0.0
  0
LINE
  5
7877
330
18
100
AcDbEntity
  8
0
100
AcDbLine
 10
457.1986717853966
 20
169.32601005137
 30
0.0
 11
468.6986717853966
 21
169.3260100513699
 31
0.0
  0
LINE
  5
7878
330
18
100
AcDbEntity
  8
0
100
AcDbLine
 10
457.1986717853966
 20
172.3260100513699
 30
0.0
 11
468.6986717853966
 21
172.3260100513699
 31
0.0
  0
LINE
  5
7879
330
18
100
AcDbEntity
  8
0
100
AcDbLine
 10
457.1986717853966
 20
175.82601005137
 30
0.0
 11
468.6986717853966
 21
175.8260100513699
 31
0.0
  0
LINE
  5
787A
330
18
100
AcDbEntity
  8
0
100
AcDbLine
 10
457.1986717853966
 20
149.82601005137
 30
0.0
 11
468.6986717853966
 21
149.8260100513699
 31
0.0
  0
LINE
  5
787B
330
18
100
AcDbEntity
  8
0
100
AcDbLine
 10
457.1986717853966
 20
156.32601005137
 30
0.0
 11
468.6986717853966
 21
156.3260100513699
 31
0.0
  0
LINE
  5
787C
330
18
100
AcDbEntity
  8
0
100
AcDbLine
 10
457.1986717853966
 20
152.8260100513699
 30
0.0
 11
468.6986717853966
 21
152.8260100513699
 31
0.0
  0
ARC
  5
787D
330
18
100
AcDbEntity
  8
0
100
AcDbCircle
 10
457.1986717853966
 20
174.0760100513699
 30
0.0
 40
1.75
100
AcDbArc
 50
90.0
 51
270.0
  0
ARC
  5
787E
330
18
100
AcDbEntity
  8
0
100
AcDbCircle
 10
457.1986717853966
 20
161.0760100513699
 30
0.0
 40
1.75
100
AcDbArc
 50
90.0
 51
270.0
  0
ARC
  5
787F
330
18
100
AcDbEntity
  8
0
100
AcDbCircle
 10
457.1986717853966
 20
167.5760100513699
 30
0.0
 40
1.75
100
AcDbArc
 50
90.0
 51
270.0
  0
ARC
  5
7880
330
18
100
AcDbEntity
  8
0
100
AcDbCircle
 10
457.1986717853966
 20
154.5760100513699
 30
0.0
 40
1.75
100
AcDbArc
 50
90.0
 51
270.0
  0
ARC
  5
7881
330
18
100
AcDbEntity
  8
0
100
AcDbCircle
 10
468.6986717853966
 20
174.0760100513699
 30
0.0
 40
1.75
100
AcDbArc
 50
270.0
 51
90.0
  0
ARC
  5
7882
330
18
100
AcDbEntity
  8
0
100
AcDbCircle
 10
468.6986717853966
 20
161.0760100513699
 30
0.0
 40
1.75
100
AcDbArc
 50
270.0
 51
90.0
  0
ARC
  5
7883
330
18
100
AcDbEntity
  8
0
100
AcDbCircle
 10
468.6986717853966
 20
167.5760100513699
 30
0.0
 40
1.75
100
AcDbArc
 50
270.0
 51
90.0
  0
ARC
  5
7884
330
18
100
AcDbEntity
  8
0
100
AcDbCircle
 10
468.6986717853966
 20
154.5760100513699
 30
0.0
 40
1.75
100
AcDbArc
 50
270.0
 51
90.0
  0
LINE
  5
7885
330
18
100
AcDbEntity
  8
0
100
AcDbLine
 10
457.1986717853966
 20
198.3260100513699
 30
0.0
 11
468.6986717853966
 21
198.3260100513699
 31
0.0
  0
LINE
  5
7886
330
18
100
AcDbEntity
  8
0
100
AcDbLine
 10
457.1986717853966
 20
201.82601005137
 30
0.0
 11
468.6986717853966
 21
201.8260100513699
 31
0.0
  0
LINE
  5
7887
330
18
100
AcDbEntity
  8
0
100
AcDbLine
 10
457.1986717853966
 20
204.8260100513699
 30
0.0
 11
468.6986717853966
 21
204.8260100513699
 31
0.0
  0
LINE
  5
7888
330
18
100
AcDbEntity
  8
0
100
AcDbLine
 10
457.1986717853966
 20
208.32601005137
 30
0.0
 11
468.6986717853966
 21
208.3260100513699
 31
0.0
  0
LINE
  5
7889
330
18
100
AcDbEntity
  8
0
100
AcDbLine
 10
457.1986717853966
 20
211.3260100513699
 30
0.0
 11
468.6986717853966
 21
211.3260100513699
 31
0.0
  0
LINE
  5
788A
330
18
100
AcDbEntity
  8
0
100
AcDbLine
 10
457.1986717853966
 20
182.32601005137
 30
0.0
 11
468.6986717853966
 21
182.3260100513699
 31
0.0
  0
LINE
  5
788B
330
18
100
AcDbEntity
  8
0
100
AcDbLine
 10
457.1986717853966
 20
188.82601005137
 30
0.0
 11
468.6986717853966
 21
188.8260100513699
 31
0.0
  0
LINE
  5
788C
330
18
100
AcDbEntity
  8
0
100
AcDbLine
 10
457.1986717853966
 20
185.3260100513699
 30
0.0
 11
468.6986717853966
 21
185.3260100513699
 31
0.0
  0
LINE
  5
788D
330
18
100
AcDbEntity
  8
0
100
AcDbLine
 10
457.1986717853966
 20
195.32601005137
 30
0.0
 11
468.6986717853966
 21
195.3260100513699
 31
0.0
  0
LINE
  5
788E
330
18
100
AcDbEntity
  8
0
100
AcDbLine
 10
457.1986717853966
 20
191.8260100513699
 30
0.0
 11
468.6986717853966
 21
191.8260100513699
 31
0.0
  0
ARC
  5
788F
330
18
100
AcDbEntity
  8
0
100
AcDbCircle
 10
457.1986717853966
 20
200.0760100513699
 30
0.0
 40
1.75
100
AcDbArc
 50
90.0
 51
270.0
  0
ARC
  5
7890
330
18
100
AcDbEntity
  8
0
100
AcDbCircle
 10
457.1986717853966
 20
206.5760100513699
 30
0.0
 40
1.75
100
AcDbArc
 50
90.0
 51
270.0
  0
ARC
  5
7891
330
18
100
AcDbEntity
  8
0
100
AcDbCircle
 10
457.1986717853966
 20
193.5760100513699
 30
0.0
 40
1.75
100
AcDbArc
 50
90.0
 51
270.0
  0
ARC
  5
7892
330
18
100
AcDbEntity
  8
0
100
AcDbCircle
 10
457.1986717853966
 20
187.0760100513699
 30
0.0
 40
1.75
100
AcDbArc
 50
90.0
 51
270.0
  0
ARC
  5
7893
330
18
100
AcDbEntity
  8
0
100
AcDbCircle
 10
468.6986717853966
 20
200.0760100513699
 30
0.0
 40
1.75
100
AcDbArc
 50
270.0
 51
90.0
  0
ARC
  5
7894
330
18
100
AcDbEntity
  8
0
100
AcDbCircle
 10
468.6986717853966
 20
206.5760100513699
 30
0.0
 40
1.75
100
AcDbArc
 50
270.0
 51
90.0
  0
ARC
  5
7895
330
18
100
AcDbEntity
  8
0
100
AcDbCircle
 10
468.6986717853966
 20
193.5760100513699
 30
0.0
 40
1.75
100
AcDbArc
 50
270.0
 51
90.0
  0
ARC
  5
7896
330
18
100
AcDbEntity
  8
0
100
AcDbCircle
 10
468.6986717853966
 20
187.0760100513699
 30
0.0
 40
1.75
100
AcDbArc
 50
270.0
 51
90.0
  0
LINE
  5
789B
330
18
100
AcDbEntity
  8
0
100
AcDbLine
 10
405.4486717853966
 20
227.8260100513699
 30
0.0
 11
474.4486717853966
 21
227.8260100513699
 31
0.0
  0
LINE
  5
789C
330
18
100
AcDbEntity
  8
0
100
AcDbLine
 10
318.4486717853967
 20
227.8260100513699
 30
0.0
 11
474.4486717853966
 21
227.8260100513699
 31
0.0
  0
LINE
  5
78A1
330
18
100
AcDbEntity
  8
0
100
AcDbLine
 10
325.1986717853967
 20
221.32601005137
 30
0.0
 11
336.6986717853967
 21
221.3260100513699
 31
0.0
  0
LINE
  5
78A2
330
18
100
AcDbEntity
  8
0
100
AcDbLine
 10
325.1986717853967
 20
217.8260100513699
 30
0.0
 11
336.6986717853967
 21
217.8260100513699
 31
0.0
  0
LINE
  5
78A3
330
18
100
AcDbEntity
  8
0
100
AcDbLine
 10
325.1986717853966
 20
214.82601005137
 30
0.0
 11
336.6986717853966
 21
214.8260100513699
 31
0.0
  0
LINE
  5
78A4
330
18
100
AcDbEntity
  8
0
100
AcDbLine
 10
318.4486717853967
 20
227.8260100513699
 30
0.0
 11
391.4486717853966
 21
227.8260100513699
 31
0.0
  0
ARC
  5
78BB
330
18
100
AcDbEntity
  8
0
100
AcDbCircle
 10
325.1986717853966
 20
219.5760100513699
 30
0.0
 40
1.75
100
AcDbArc
 50
90.0
 51
270.0
  0
LINE
  5
78BC
330
18
100
AcDbEntity
  8
0
100
AcDbLine
 10
316.4486717853966
 20
227.8260100513699
 30
0.0
 11
318.4486717853967
 21
227.8260100513699
 31
0.0
  0
ARC
  5
790D
330
18
100
AcDbEntity
  8
0
100
AcDbCircle
 10
358.6986717853966
 20
219.5760100513699
 30
0.0
 40
1.75
100
AcDbArc
 50
270.0
 51
90.0
  0
LINE
  5
790E
330
18
100
AcDbEntity
  8
0
100
AcDbLine
 10
347.1986717853967
 20
217.8260100513699
 30
0.0
 11
358.6986717853967
 21
217.8260100513699
 31
0.0
  0
LINE
  5
790F
330
18
100
AcDbEntity
  8
0
100
AcDbLine
 10
347.1986717853967
 20
221.32601005137
 30
0.0
 11
358.6986717853967
 21
221.3260100513699
 31
0.0
  0
LINE
  5
7910
330
18
100
AcDbEntity
  8
0
100
AcDbLine
 10
347.1986717853966
 20
214.82601005137
 30
0.0
 11
358.6986717853966
 21
214.8260100513699
 31
0.0
  0
ARC
  5
7911
330
18
100
AcDbEntity
  8
0
100
AcDbCircle
 10
347.1986717853966
 20
219.5760100513699
 30
0.0
 40
1.75
100
AcDbArc
 50
90.0
 51
270.0
  0
ARC
  5
7912
330
18
100
AcDbEntity
  8
0
100
AcDbCircle
 10
336.6986717853966
 20
219.5760100513699
 30
0.0
 40
1.75
100
AcDbArc
 50
270.0
 51
90.0
  0
LINE
  5
7913
330
18
100
AcDbEntity
  8
0
100
AcDbLine
 10
369.1986717853967
 20
221.32601005137
 30
0.0
 11
380.6986717853967
 21
221.3260100513699
 31
0.0
  0
LINE
  5
7914
330
18
100
AcDbEntity
  8
0
100
AcDbLine
 10
369.1986717853967
 20
217.8260100513699
 30
0.0
 11
380.6986717853967
 21
217.8260100513699
 31
0.0
  0
LINE
  5
7915
330
18
100
AcDbEntity
  8
0
100
AcDbLine
 10
369.1986717853966
 20
214.82601005137
 30
0.0
 11
380.6986717853966
 21
214.8260100513699
 31
0.0
  0
ARC
  5
7916
330
18
100
AcDbEntity
  8
0
100
AcDbCircle
 10
369.1986717853966
 20
219.5760100513699
 30
0.0
 40
1.75
100
AcDbArc
 50
90.0
 51
270.0
  0
ARC
  5
7917
330
18
100
AcDbEntity
  8
0
100
AcDbCircle
 10
380.6986717853966
 20
219.5760100513699
 30
0.0
 40
1.75
100
AcDbArc
 50
270.0
 51
90.0
  0
LINE
  5
7965
330
18
100
AcDbEntity
  8
0
100
AcDbLine
 10
391.1986717853966
 20
217.8260100513699
 30
0.0
 11
402.6986717853966
 21
217.8260100513699
 31
0.0
  0
LINE
  5
7966
330
18
100
AcDbEntity
  8
0
100
AcDbLine
 10
391.1986717853966
 20
221.32601005137
 30
0.0
 11
402.6986717853966
 21
221.3260100513699
 31
0.0
  0
LINE
  5
7967
330
18
100
AcDbEntity
  8
0
100
AcDbLine
 10
391.1986717853966
 20
214.82601005137
 30
0.0
 11
402.6986717853966
 21
214.8260100513699
 31
0.0
  0
ARC
  5
7968
330
18
100
AcDbEntity
  8
0
100
AcDbCircle
 10
391.1986717853966
 20
219.5760100513699
 30
0.0
 40
1.75
100
AcDbArc
 50
90.0
 51
270.0
  0
ARC
  5
7969
330
18
100
AcDbEntity
  8
0
100
AcDbCircle
 10
402.6986717853966
 20
219.5760100513699
 30
0.0
 40
1.75
100
AcDbArc
 50
270.0
 51
90.0
  0
ARC
  5
796A
330
18
100
AcDbEntity
  8
0
100
AcDbCircle
 10
398.4486717853966
 20
226.57601005137
 30
0.0
 40
3.249999999999876
100
AcDbArc
 50
22.61986494803698
 51
157.380135051963
  0
LINE
  5
796B
330
18
100
AcDbEntity
  8
0
100
AcDbLine
 10
413.1986717853966
 20
221.32601005137
 30
0.0
 11
424.6986717853966
 21
221.3260100513699
 31
0.0
  0
LINE
  5
796C
330
18
100
AcDbEntity
  8
0
100
AcDbLine
 10
413.1986717853966
 20
217.8260100513699
 30
0.0
 11
424.6986717853966
 21
217.8260100513699
 31
0.0
  0
LINE
  5
796D
330
18
100
AcDbEntity
  8
0
100
AcDbLine
 10
413.1986717853966
 20
214.82601005137
 30
0.0
 11
424.6986717853966
 21
214.8260100513699
 31
0.0
  0
ARC
  5
796E
330
18
100
AcDbEntity
  8
0
100
AcDbCircle
 10
413.1986717853966
 20
219.5760100513699
 30
0.0
 40
1.75
100
AcDbArc
 50
90.0
 51
270.0
  0
ARC
  5
796F
330
18
100
AcDbEntity
  8
0
100
AcDbCircle
 10
424.6986717853966
 20
219.5760100513699
 30
0.0
 40
1.75
100
AcDbArc
 50
270.0
 51
90.0
  0
LINE
  5
79E0
330
18
100
AcDbEntity
  8
0
100
AcDbLine
 10
435.1986717853966
 20
217.8260100513699
 30
0.0
 11
446.6986717853966
 21
217.8260100513699
 31
0.0
  0
LINE
  5
79E1
330
18
100
AcDbEntity
  8
0
100
AcDbLine
 10
435.1986717853966
 20
221.32601005137
 30
0.0
 11
446.6986717853966
 21
221.3260100513699
 31
0.0
  0
LINE
  5
79E2
330
18
100
AcDbEntity
  8
0
100
AcDbLine
 10
435.1986717853966
 20
214.82601005137
 30
0.0
 11
446.6986717853966
 21
214.8260100513699
 31
0.0
  0
ARC
  5
79E3
330
18
100
AcDbEntity
  8
0
100
AcDbCircle
 10
435.1986717853966
 20
219.5760100513699
 30
0.0
 40
1.75
100
AcDbArc
 50
90.0
 51
270.0
  0
ARC
  5
79E4
330
18
100
AcDbEntity
  8
0
100
AcDbCircle
 10
446.6986717853966
 20
219.5760100513699
 30
0.0
 40
1.75
100
AcDbArc
 50
270.0
 51
90.0
  0
LINE
  5
79E5
330
18
100
AcDbEntity
  8
0
100
AcDbLine
 10
457.1986717853966
 20
221.32601005137
 30
0.0
 11
468.6986717853966
 21
221.3260100513699
 31
0.0
  0
LINE
  5
79E6
330
18
100
AcDbEntity
  8
0
100
AcDbLine
 10
457.1986717853966
 20
217.8260100513699
 30
0.0
 11
468.6986717853966
 21
217.8260100513699
 31
0.0
  0
LINE
  5
79E7
330
18
100
AcDbEntity
  8
0
100
AcDbLine
 10
457.1986717853966
 20
214.82601005137
 30
0.0
 11
468.6986717853966
 21
214.8260100513699
 31
0.0
  0
ARC
  5
79E8
330
18
100
AcDbEntity
  8
0
100
AcDbCircle
 10
457.1986717853966
 20
219.5760100513699
 30
0.0
 40
1.75
100
AcDbArc
 50
90.0
 51
270.0
  0
LINE
  5
79E9
330
18
100
AcDbEntity
  8
0
100
AcDbLine
 10
474.4486717853966
 20
242.8260100513699
 30
0.0
 11
476.4486717853966
 21
242.8260100513699
 31
0.0
  0
ARC
  5
79EA
330
18
100
AcDbEntity
  8
0
100
AcDbCircle
 10
468.6986717853966
 20
219.5760100513699
 30
0.0
 40
1.75
100
AcDbArc
 50
270.0
 51
90.0
  0
LINE
  5
7B7F
330
18
100
AcDbEntity
  8
0
100
AcDbLine
 10
174.7648120080266
 20
75.49267671803659
 30
0.0
 11
176.6801342388316
 21
75.49267671803659
 31
0.0
  0
LINE
  5
7B80
330
18
100
AcDbEntity
  8
0
100
AcDbLine
 10
174.7648120080266
 20
74.15934338470311
 30
0.0
 11
176.6801342388316
 21
74.15934338470311
 31
0.0
  0
CIRCLE
  5
7B81
330
18
100
AcDbEntity
  8
0
100
AcDbCircle
 10
174.0981453413598
 20
74.82601005136984
 30
0.0
 40
4.0
  0
CIRCLE
  5
7B82
330
18
100
AcDbEntity
  8
0
100
AcDbCircle
 10
174.0981453413598
 20
74.82601005136984
 30
0.0
 40
3.333333333333333
  0
ARC
  5
7B83
330
18
100
AcDbEntity
  8
0
100
AcDbCircle
 10
174.0981453413598
 20
74.82601005136984
 30
0.0
 40
2.666666666666666
100
AcDbArc
 50
75.52248781407015
 51
104.4775121859298
  0
LINE
  5
7B84
330
18
100
AcDbEntity
  8
0
100
AcDbLine
 10
173.4314786746932
 20
75.49267671803659
 30
0.0
 11
173.4314786746932
 21
77.40799894884162
 31
0.0
  0
LINE
  5
7B85
330
18
100
AcDbEntity
  8
0
100
AcDbLine
 10
174.7648120080266
 20
75.49267671803659
 30
0.0
 11
174.7648120080266
 21
77.40799894884162
 31
0.0
  0
ARC
  5
7B86
330
18
100
AcDbEntity
  8
0
100
AcDbCircle
 10
174.0981453413598
 20
74.82601005136984
 30
0.0
 40
2.666666666666666
100
AcDbArc
 50
165.5224878140709
 51
194.477512185929
  0
LINE
  5
7B87
330
18
100
AcDbEntity
  8
0
100
AcDbLine
 10
171.5161564438887
 20
75.49267671803659
 30
0.0
 11
173.4314786746932
 21
75.49267671803659
 31
0.0
  0
LINE
  5
7B88
330
18
100
AcDbEntity
  8
0
100
AcDbLine
 10
171.5161564438887
 20
74.15934338470311
 30
0.0
 11
173.4314786746932
 21
74.15934338470311
 31
0.0
  0
ARC
  5
7B89
330
18
100
AcDbEntity
  8
0
100
AcDbCircle
 10
174.0981453413598
 20
74.82601005136984
 30
0.0
 40
2.666666666666666
100
AcDbArc
 50
255.52248781407
 51
284.4775121859298
  0
LINE
  5
7B8A
330
18
100
AcDbEntity
  8
0
100
AcDbLine
 10
173.4314786746932
 20
72.24402115389807
 30
0.0
 11
173.4314786746932
 21
74.15934338470311
 31
0.0
  0
LINE
  5
7B8B
330
18
100
AcDbEntity
  8
0
100
AcDbLine
 10
174.7648120080266
 20
72.24402115389807
 30
0.0
 11
174.7648120080266
 21
74.15934338470311
 31
0.0
  0
ARC
  5
7B8C
330
18
100
AcDbEntity
  8
0
100
AcDbCircle
 10
174.0981453413598
 20
74.82601005136984
 30
0.0
 40
2.666666666666666
100
AcDbArc
 50
345.5224878140709
 51
14.47751218592907
  0
LINE
  5
7B8D
330
18
100
AcDbEntity
  8
0
100
AcDbLine
 10
185.7648120080266
 20
75.49267671803659
 30
0.0
 11
187.6801342388316
 21
75.49267671803659
 31
0.0
  0
LINE
  5
7B8E
330
18
100
AcDbEntity
  8
0
100
AcDbLine
 10
185.7648120080266
 20
74.15934338470311
 30
0.0
 11
187.6801342388316
 21
74.15934338470311
 31
0.0
  0
CIRCLE
  5
7B8F
330
18
100
AcDbEntity
  8
0
100
AcDbCircle
 10
185.0981453413599
 20
74.82601005136984
 30
0.0
 40
4.0
  0
CIRCLE
  5
7B90
330
18
100
AcDbEntity
  8
0
100
AcDbCircle
 10
185.0981453413599
 20
74.82601005136984
 30
0.0
 40
3.333333333333333
  0
ARC
  5
7B91
330
18
100
AcDbEntity
  8
0
100
AcDbCircle
 10
185.0981453413599
 20
74.82601005136984
 30
0.0
 40
2.666666666666666
100
AcDbArc
 50
75.52248781407015
 51
104.4775121859298
  0
LINE
  5
7B92
330
18
100
AcDbEntity
  8
0
100
AcDbLine
 10
184.4314786746932
 20
75.49267671803659
 30
0.0
 11
184.4314786746932
 21
77.40799894884162
 31
0.0
  0
LINE
  5
7B93
330
18
100
AcDbEntity
  8
0
100
AcDbLine
 10
185.7648120080266
 20
75.49267671803659
 30
0.0
 11
185.7648120080266
 21
77.40799894884162
 31
0.0
  0
ARC
  5
7B94
330
18
100
AcDbEntity
  8
0
100
AcDbCircle
 10
185.0981453413599
 20
74.82601005136984
 30
0.0
 40
2.666666666666666
100
AcDbArc
 50
165.5224878140709
 51
194.477512185929
  0
LINE
  5
7B95
330
18
100
AcDbEntity
  8
0
100
AcDbLine
 10
182.5161564438888
 20
75.49267671803659
 30
0.0
 11
184.4314786746932
 21
75.49267671803659
 31
0.0
  0
LINE
  5
7B96
330
18
100
AcDbEntity
  8
0
100
AcDbLine
 10
182.5161564438888
 20
74.15934338470311
 30
0.0
 11
184.4314786746932
 21
74.15934338470311
 31
0.0
  0
ARC
  5
7B97
330
18
100
AcDbEntity
  8
0
100
AcDbCircle
 10
185.0981453413599
 20
74.82601005136984
 30
0.0
 40
2.666666666666666
100
AcDbArc
 50
255.52248781407
 51
284.4775121859298
  0
LINE
  5
7B98
330
18
100
AcDbEntity
  8
0
100
AcDbLine
 10
184.4314786746932
 20
72.24402115389807
 30
0.0
 11
184.4314786746932
 21
74.15934338470311
 31
0.0
  0
LINE
  5
7B99
330
18
100
AcDbEntity
  8
0
100
AcDbLine
 10
185.7648120080266
 20
72.24402115389807
 30
0.0
 11
185.7648120080266
 21
74.15934338470311
 31
0.0
  0
ARC
  5
7B9A
330
18
100
AcDbEntity
  8
0
100
AcDbCircle
 10
185.0981453413599
 20
74.82601005136984
 30
0.0
 40
2.666666666666666
100
AcDbArc
 50
345.5224878140709
 51
14.47751218592907
  0
LINE
  5
7BC7
330
18
100
AcDbEntity
  8
0
100
AcDbLine
 10
180.5981453413597
 20
119.92601005137
 30
0.0
 11
180.5981453413597
 21
118.3260100513699
 31
0.0
  0
LINE
  5
7BC8
330
18
100
AcDbEntity
  8
0
100
AcDbLine
 10
180.5981453413598
 20
190.20601005137
 30
0.0
 11
180.5981453413597
 21
188.8260100513699
 31
0.0
  0
LINE
  5
7DF2
330
18
100
AcDbEntity
  8
0
100
AcDbLine
 10
228.0981453413597
 20
227.82601005137
 30
0.0
 11
228.0981453413597
 21
67.82601005137007
 31
0.0
  0
LINE
  5
7DF3
330
18
100
AcDbEntity
  8
0
370
    15
100
AcDbLine
 10
214.9855735418652
 20
100.1860536370553
 30
0.0
 11
213.6230017423705
 21
97.82601005137014
 31
0.0
  0
LINE
  5
7DF4
330
18
100
AcDbEntity
  8
0
370
    15
100
AcDbLine
 10
213.6230017423705
 20
97.82601005137014
 30
0.0
 11
214.9855735418652
 21
95.46596646568497
 31
0.0
  0
LINE
  5
7DF5
330
18
100
AcDbEntity
  8
0
370
    15
100
AcDbLine
 10
221.5981453413598
 20
94.82601005137013
 30
0.0
 11
211.0981453413598
 21
94.82601005137007
 31
0.0
  0
LINE
  5
7DF6
330
18
100
AcDbEntity
  8
0
370
    15
100
AcDbLine
 10
213.0981453413598
 20
104.8260100513701
 30
0.0
 11
219.5981453413598
 21
103.3260100513701
 31
0.0
  0
LINE
  5
7DF7
330
18
100
AcDbEntity
  8
0
100
AcDbLine
 10
209.0981453413597
 20
93.82601005137013
 30
0.0
 11
224.5981453413598
 21
93.82601005137013
 31
0.0
  0
LINE
  5
7DF8
330
18
100
AcDbEntity
  8
0
370
    15
100
AcDbLine
 10
213.0981453413598
 20
148.8260100513701
 30
0.0
 11
219.5981453413598
 21
150.32601005137
 31
0.0
  0
LINE
  5
7DF9
330
18
100
AcDbEntity
  8
0
370
    15
100
AcDbLine
 10
213.6230017423705
 20
155.8260100513701
 30
0.0
 11
214.9855735418652
 21
158.1860536370552
 31
0.0
  0
LINE
  5
7DFA
330
18
100
AcDbEntity
  8
0
370
    15
100
AcDbLine
 10
214.9855735418652
 20
153.4659664656849
 30
0.0
 11
213.6230017423705
 21
155.8260100513701
 31
0.0
  0
LINE
  5
7DFB
330
18
100
AcDbEntity
  8
0
370
    15
100
AcDbLine
 10
221.5981453413598
 20
158.82601005137
 30
0.0
 11
211.0981453413598
 21
158.82601005137
 31
0.0
  0
LINE
  5
7DFC
330
18
100
AcDbEntity
  8
0
100
AcDbLine
 10
209.0981453413597
 20
159.8260100513701
 30
0.0
 11
224.5981453413597
 21
159.82601005137
 31
0.0
  0
LINE
  5
7DFD
330
18
100
AcDbEntity
  8
0
100
AcDbLine
 10
210.2981453413597
 20
93.82601005137008
 30
0.0
 11
210.2981453413597
 21
159.8260100513701
 31
0.0
  0
LINE
  5
7DFE
330
18
100
AcDbEntity
  8
0
370
    15
100
AcDbLine
 10
211.0981453413598
 20
158.82601005137
 30
0.0
 11
211.0981453413598
 21
94.82601005137013
 31
0.0
  0
LINE
  5
7DFF
330
18
100
AcDbEntity
  8
0
370
    15
100
AcDbLine
 10
213.0981453413598
 20
148.82601005137
 30
0.0
 11
213.0981453413598
 21
104.8260100513701
 31
0.0
  0
LINE
  5
7E00
330
18
100
AcDbEntity
  8
0
100
AcDbLine
 10
211.8981453413598
 20
93.82601005137013
 30
0.0
 11
211.8981453413597
 21
94.82601005137007
 31
0.0
  0
LINE
  5
7E01
330
18
100
AcDbEntity
  8
0
100
AcDbLine
 10
211.8981453413597
 20
158.82601005137
 30
0.0
 11
211.8981453413597
 21
159.8260100513701
 31
0.0
  0
LINE
  5
7E02
330
18
100
AcDbEntity
  8
0
100
AcDbLine
 10
210.2981453413597
 20
156.57601005137
 30
0.0
 11
210.2981453413597
 21
151.07601005137
 31
0.0
  0
LINE
  5
7E03
330
18
100
AcDbEntity
  8
0
100
AcDbLine
 10
224.5981453413597
 20
159.82601005137
 30
0.0
 11
224.5981453413598
 21
93.82601005137013
 31
0.0
  0
LINE
  5
7E04
330
18
100
AcDbEntity
  8
0
370
    15
100
AcDbLine
 10
221.5981453413598
 20
158.82601005137
 30
0.0
 11
221.5981453413598
 21
94.82601005137013
 31
0.0
  0
LINE
  5
7E05
330
18
100
AcDbEntity
  8
0
370
    15
100
AcDbLine
 10
219.5981453413598
 20
150.32601005137
 30
0.0
 11
219.5981453413598
 21
103.3260100513701
 31
0.0
  0
LINE
  5
7E06
330
18
100
AcDbEntity
  8
0
370
    15
100
AcDbLine
 10
217.7107171408544
 20
95.46596646568497
 30
0.0
 11
214.9855735418652
 21
95.46596646568497
 31
0.0
  0
LINE
  5
7E07
330
18
100
AcDbEntity
  8
0
370
    15
100
AcDbLine
 10
219.073288940349
 20
97.82601005137014
 30
0.0
 11
217.7107171408544
 21
100.1860536370553
 31
0.0
  0
LINE
  5
7E08
330
18
100
AcDbEntity
  8
0
370
    15
100
AcDbLine
 10
217.7107171408544
 20
100.1860536370553
 30
0.0
 11
214.9855735418652
 21
100.1860536370553
 31
0.0
  0
LINE
  5
7E09
330
18
100
AcDbEntity
  8
0
370
    15
100
AcDbLine
 10
217.7107171408544
 20
95.46596646568497
 30
0.0
 11
219.073288940349
 21
97.82601005137014
 31
0.0
  0
CIRCLE
  5
7E0A
330
18
100
AcDbEntity
  8
0
370
    15
100
AcDbCircle
 10
216.3481453413598
 20
97.82601005137014
 30
0.0
 40
1.5
  0
MTEXT
  5
7E0B
330
18
100
AcDbEntity
  8
0
100
AcDbMText
 10
217.1490216317561
 20
163.6010040296199
 30
0.0
 40
3.5
 41
0.0
 71
     5
 72
     5
  1
CN3
  7
MSｺﾞｼｯｸ
 73
     1
 44
1.0
  0
LINE
  5
7E0C
330
18
100
AcDbEntity
  8
0
370
    15
100
AcDbLine
 10
217.7107171408544
 20
153.4659664656849
 30
0.0
 11
214.9855735418652
 21
153.4659664656849
 31
0.0
  0
LINE
  5
7E0D
330
18
100
AcDbEntity
  8
0
370
    15
100
AcDbLine
 10
217.7107171408544
 20
158.1860536370552
 30
0.0
 11
219.073288940349
 21
155.8260100513701
 31
0.0
  0
LINE
  5
7E0E
330
18
100
AcDbEntity
  8
0
370
    15
100
AcDbLine
 10
217.7107171408544
 20
158.1860536370552
 30
0.0
 11
214.9855735418652
 21
158.1860536370552
 31
0.0
  0
LINE
  5
7E0F
330
18
100
AcDbEntity
  8
0
370
    15
100
AcDbLine
 10
219.073288940349
 20
155.8260100513701
 30
0.0
 11
217.7107171408544
 21
153.4659664656849
 31
0.0
  0
CIRCLE
  5
7E10
330
18
100
AcDbEntity
  8
0
370
    15
100
AcDbCircle
 10
216.3481453413598
 20
155.8260100513701
 30
0.0
 40
1.5
  0
MTEXT
  5
7E11
330
18
100
AcDbEntity
  8
0
100
AcDbMText
 10
213.9081110488549
 20
214.7504567905904
 30
0.0
 40
3.5
 41
0.0
 71
     1
 72
     5
  1
P1
  7
MSｺﾞｼｯｸ
 73
     1
 44
1.0
  0
LINE
  5
7E12
330
18
100
AcDbEntity
  8
0
100
AcDbLine
 10
218.8981453413596
 20
191.32601005137
 30
0.0
 11
211.8981453413596
 21
191.32601005137
 31
0.0
  0
LINE
  5
7E13
330
18
100
AcDbEntity
  8
0
100
AcDbLine
 10
218.8981453413596
 20
201.82601005137
 30
0.0
 11
211.8981453413596
 21
201.82601005137
 31
0.0
  0
LINE
  5
7E14
330
18
100
AcDbEntity
  8
0
100
AcDbLine
 10
209.0981453413597
 20
209.8260100513701
 30
0.0
 11
222.0981453413597
 21
209.8260100513701
 31
0.0
  0
LINE
  5
7E15
330
18
100
AcDbEntity
  8
0
100
AcDbLine
 10
209.0981453413597
 20
182.32601005137
 30
0.0
 11
222.0981453413597
 21
182.32601005137
 31
0.0
  0
LINE
  5
7E16
330
18
100
AcDbEntity
  8
0
100
AcDbLine
 10
210.2981453413597
 20
182.32601005137
 30
0.0
 11
210.2981453413597
 21
209.8260100513701
 31
0.0
  0
LINE
  5
7E17
330
18
100
AcDbEntity
  8
0
100
AcDbLine
 10
211.8981453413596
 20
182.32601005137
 30
0.0
 11
211.8981453413596
 21
209.8260100513701
 31
0.0
  0
LINE
  5
7E18
330
18
100
AcDbEntity
  8
0
100
AcDbLine
 10
211.8981453413596
 20
201.82601005137
 30
0.0
 11
211.8981453413598
 21
191.32601005137
 31
0.0
  0
CIRCLE
  5
7E19
330
18
100
AcDbEntity
  8
0
100
AcDbCircle
 10
215.8981453413598
 20
195.32601005137
 30
0.0
 40
0.5
  0
LINE
  5
7E1A
330
18
100
AcDbEntity
  8
0
100
AcDbLine
 10
218.3981453413597
 20
201.82601005137
 30
0.0
 11
218.3981453413597
 21
191.32601005137
 31
0.0
  0
LINE
  5
7E1B
330
18
100
AcDbEntity
  8
0
100
AcDbLine
 10
218.8981453413596
 20
201.82601005137
 30
0.0
 11
218.8981453413596
 21
191.32601005137
 31
0.0
  0
LINE
  5
7E1C
330
18
100
AcDbEntity
  8
0
100
AcDbLine
 10
222.0981453413597
 20
209.8260100513701
 30
0.0
 11
222.0981453413597
 21
182.32601005137
 31
0.0
  0
CIRCLE
  5
7E1D
330
18
100
AcDbEntity
  8
0
100
AcDbCircle
 10
215.8981453413598
 20
192.82601005137
 30
0.0
 40
0.5
  0
CIRCLE
  5
7E1E
330
18
100
AcDbEntity
  8
0
100
AcDbCircle
 10
215.8981453413598
 20
197.82601005137
 30
0.0
 40
0.5
  0
CIRCLE
  5
7E1F
330
18
100
AcDbEntity
  8
0
100
AcDbCircle
 10
215.8981453413598
 20
200.32601005137
 30
0.0
 40
0.5
  0
LINE
  5
7E71
330
18
100
AcDbEntity
  8
0
100
AcDbLine
 10
316.4486717853966
 20
67.82601005136996
 30
0.0
 11
318.4486717853966
 21
67.82601005136996
 31
0.0
  0
LWPOLYLINE
  5
7E72
330
18
100
AcDbEntity
  8
0
100
AcDbPolyline
 90
        4
 70
     1
 43
0.0
 10
315.1153384520633
 20
78.15934338470317
 10
315.1153384520633
 20
71.49267671803648
 10
315.78200511873
 20
71.49267671803648
 10
315.78200511873
 20
78.15934338470317
  0
LWPOLYLINE
  5
7E73
330
18
100
AcDbEntity
  8
0
100
AcDbPolyline
 90
        4
 70
     1
 43
0.0
 10
315.78200511873
 20
78.82601005136985
 10
315.78200511873
 20
70.82601005136985
 10
316.4486717853966
 20
70.82601005136985
 10
316.4486717853966
 20
78.82601005136985
  0
LINE
  5
7E74
330
18
100
AcDbEntity
  8
0
100
AcDbLine
 10
312.4486717853966
 20
76.55934338470342
 30
0.0
 11
312.4486717853966
 21
73.0926767180369
 31
0.0
  0
LINE
  5
7E75
330
18
100
AcDbEntity
  8
0
100
AcDbLine
 10
314.0486717853964
 20
71.49267671803653
 30
0.0
 11
315.1153384520633
 21
71.49267671803653
 31
0.0
  0
ARC
  5
7E76
330
18
100
AcDbEntity
  8
0
100
AcDbCircle
 10
314.0486717853963
 20
73.09267671803657
 30
0.0
 40
1.599999999999999
100
AcDbArc
 50
180.0
 51
270.0
  0
LINE
  5
7E77
330
18
100
AcDbEntity
  8
0
100
AcDbLine
 10
315.1153384520633
 20
78.15934338470317
 30
0.0
 11
314.0486717853964
 21
78.15934338470317
 31
0.0
  0
ARC
  5
7E78
330
18
100
AcDbEntity
  8
0
100
AcDbCircle
 10
314.0486717853963
 20
76.55934338470316
 30
0.0
 40
1.599999999999999
100
AcDbArc
 50
90.0
 51
180.0
  0
MTEXT
  5
7E7F
330
18
100
AcDbEntity
  8
0
100
AcDbMText
 10
165.2510686435221
 20
185.752371903973
 30
0.0
 40
4.0
 41
0.0
 71
     1
 72
     5
  1
AC100V
  7
MSｺﾞｼｯｸ
 73
     1
 44
1.0
  0
TEXT
  5
7FA2
330
18
100
AcDbEntity
  8
0
100
AcDbText
 10
444.8632029998031
 20
-47.81066205720098
 30
0.0
 40
6.0
  1
VC外形図　拡張I/O付
  7
MSｺﾞｼｯｸ
100
AcDbText
  0
TEXT
  5
7FA3
330
18
100
AcDbEntity
  8
0
100
AcDbText
 10
424.6931213191587
 20
-31.25463441650531
 30
0.0
 40
5.0
  1
ＮＣＲ－ＸＡＡ２（３）Ｄ１＊－８０１
 41
0.6
  7
MSｺﾞｼｯｸ
100
AcDbText
  0
TEXT
  5
7FA4
330
18
100
AcDbEntity
  8
0
100
AcDbText
 10
410.3183433798961
 20
-15.69482426899405
 30
0.0
 40
5.0
  1
ＮＣＲ－＊ＡＥ＊Ａ１Ｄ－４０１（－Ｈ、－Ｓ＊＊）
 41
0.6
  7
MSｺﾞｼｯｸ
100
AcDbText
  0
TEXT
  5
7FA5
330
18
100
AcDbEntity
  8
0
100
AcDbText
 10
410.3183433798961
 20
-9.510103266347911
 30
0.0
 40
5.0
  1
ＮＣＲ－＊ＡＤ＊Ａ１Ｄ－４０１＊（－Ｈ、－Ｓ＊＊）
 41
0.6
  7
MSｺﾞｼｯｸ
100
AcDbText
  0
TEXT
  5
7FA6
330
18
100
AcDbEntity
  8
0
100
AcDbText
 10
410.3183433798961
 20
-3.620106983010074
 30
0.0
 40
5.0
  1
ＮＣＲ－＊ＡＣ＊Ａ１Ｄ－４０１（－Ｈ、－Ｓ＊＊）
 41
0.6
  7
MSｺﾞｼｯｸ
100
AcDbText
  0
TEXT
  5
7FA7
330
18
100
AcDbEntity
  8
0
100
AcDbText
 10
410.3183433798961
 20
3.440103456164891
 30
0.0
 40
5.0
  1
ＮＣＲ－＊ＡＢ＊Ａ１Ｄ－４０１＊（－Ｈ、－Ｓ＊＊）
 41
0.6
  7
MSｺﾞｼｯｸ
100
AcDbText
  0
TEXT
  5
7FA8
330
18
100
AcDbEntity
  8
0
100
AcDbText
 10
410.3183433798961
 20
21.41152248448232
 30
0.0
 40
5.0
  1
ＮＣＲ－＊ＡＥ＊Ａ２Ｄ－８０１（－Ｈ、－Ｓ＊＊）
 41
0.6
  7
MSｺﾞｼｯｸ
100
AcDbText
  0
TEXT
  5
7FA9
330
18
100
AcDbEntity
  8
0
100
AcDbText
 10
410.3183433798961
 20
28.4717329236574
 30
0.0
 40
5.0
  1
ＮＣＲ－＊ＡＤ＊Ａ２Ｄ－８０１＊（－Ｈ、－Ｓ＊＊）
 41
0.6
  7
MSｺﾞｼｯｸ
100
AcDbText
  0
TEXT
  5
7FAA
330
18
100
AcDbEntity
  8
0
100
AcDbText
 10
410.3183433798961
 20
40.9841939143974
 30
0.0
 40
5.0
  1
ＮＣＲ－＊ＡＢ＊Ａ２Ｄ－８０１＊（－Ｈ、－Ｓ＊＊）
 41
0.6
  7
MSｺﾞｼｯｸ
100
AcDbText
  0
TEXT
  5
7FAB
330
18
100
AcDbEntity
  8
0
100
AcDbText
 10
410.3183433798961
 20
34.79947426309566
 30
0.0
 40
5.0
  1
ＮＣＲ－＊ＡＣ＊Ａ２Ｄ－８０１（－Ｈ、－Ｓ＊＊）
 41
0.6
  7
MSｺﾞｼｯｸ
100
AcDbText
  0
TEXT
  5
7FAC
330
18
100
AcDbEntity
  8
0
100
AcDbText
 10
410.3183433798961
 20
14.54172009391943
 30
0.0
 40
5.0
  1
ＮＣＲ－＊Ａ＊＊Ａ２Ｃ－８０１－ＵＬ
 41
0.6
  7
MSｺﾞｼｯｸ
100
AcDbText
  0
TEXT
  5
7FAD
330
18
100
AcDbEntity
  8
0
100
AcDbText
 10
448.0868154109707
 20
-59.80201994646795
 30
0.0
 40
7.0
  1
ＳＥ－２８１２１Ａ
 41
0.9530000000000001
  7
MSｺﾞｼｯｸ
100
AcDbText
  0
ARC
  5
7FAE
330
18
100
AcDbEntity
  8
0
100
AcDbCircle
 10
419.0077529655091
 20
-5.014977961226279
 30
0.0
 40
17.13054731457926
100
AcDbArc
 50
140.0978832542876
 51
232.1402136955717
  0
TEXT
  5
7FAF
330
18
100
AcDbEntity
  8
0
100
AcDbText
 10
449.5657725414313
 20
-23.77739913901522
 30
0.0
 40
5.0
  1
＋
 41
0.6
  7
MSｺﾞｼｯｸ
100
AcDbText
  0
ARC
  5
7FB0
330
18
100
AcDbEntity
  8
0
100
AcDbCircle
 10
425.6524887101231
 20
30.58213696878556
 30
0.0
 40
25.48491064268
100
AcDbArc
 50
136.4549044814168
 51
220.6057778050219
  0
TEXT
  5
7FB1
330
18
100
AcDbEntity
  8
0
100
AcDbText
 10
392.3633803341761
 20
29.30513441320847
 30
0.0
 40
5.0
  1
Ａ
  7
MSｺﾞｼｯｸ
100
AcDbText
  0
TEXT
  5
7FB2
330
18
100
AcDbEntity
  8
0
100
AcDbText
 10
392.363379231871
 20
-5.93471204002553
 30
0.0
 40
5.0
  1
Ｂ
  7
MSｺﾞｼｯｸ
100
AcDbText
  0
VIEWPORT
  5
800A
330
8006
100
AcDbEntity
 67
     1
  8
0
100
AcDbViewport
 10
202.4999999999999
 20
128.4999999999999
 30
0.0
 40
486.0
 41
308.3999999999999
 68
     1
 69
     1
 12
202.4999999999999
 22
128.4999999999999
 13
0.0
 23
0.0
 14
0.5
 24
0.5
 15
0.0
 25
0.0
 16
0.0
 26
0.0
 36
1.0
 17
0.0
 27
0.0
 37
0.0
 42
50.0
 43
0.0
 44
0.0
 45
308.3999999999999
 50
0.0
 51
0.0
 72
   100
 90
    32864
  1

281
     0
 71
     1
 74
     0
110
0.0
120
0.0
130
0.0
111
1.0
121
0.0
131
0.0
112
0.0
122
1.0
132
0.0
 79
     0
146
0.0
  0
VIEWPORT
  5
800B
330
8006
100
AcDbEntity
 67
     1
  8
0
100
AcDbViewport
 10
202.4999999999999
 20
128.4999999999999
 30
0.0
 40
324.0
 41
205.6
 68
     2
 69
     2
 12
319.4373883761652
 22
91.51199505245106
 13
0.0
 23
0.0
 14
0.5
 24
0.5
 15
0.0
 25
0.0
 16
0.0
 26
0.0
 36
1.0
 17
0.0
 27
0.0
 37
0.0
 42
50.0
 43
0.0
 44
0.0
 45
308.6805905977948
 50
0.0
 51
0.0
 72
   100
 90
    32864
  1

281
     0
 71
     1
 74
     0
110
0.0
120
0.0
130
0.0
111
1.0
121
0.0
131
0.0
112
0.0
122
1.0
132
0.0
 79
     0
146
0.0
  0
ENDSEC
  0
SECTION
  2
OBJECTS
  0
DICTIONARY
  5
C
330
0
100
AcDbDictionary
281
     1
  3
ACAD_GROUP
350
D
  3
ACAD_IMAGE_VARS
350
8004
  3
ACAD_LAYOUT
350
73F
  3
ACAD_MLINESTYLE
350
1B
  3
ACAD_PLOTSETTINGS
350
740
  3
ACAD_PLOTSTYLENAME
350
73D
  3
ACAD_SCALELIST
350
7FD8
  3
AcadDim
350
61D4
  3
AcDbVariableDictionary
350
7046
  3
APPDATA
350
8002
  3
DWGPROPS
350
800E
  0
DICTIONARY
  5
D
102
{ACAD_REACTORS
330
C
102
}
330
C
100
AcDbDictionary
281
     1
  0
RASTERVARIABLES
  5
8004
102
{ACAD_REACTORS
330
C
102
}
330
C
100
AcDbRasterVariables
 90
        0
 70
     1
 71
     1
 72
     0
  0
DICTIONARY
  5
73F
102
{ACAD_REACTORS
330
C
102
}
330
C
100
AcDbDictionary
281
     1
  3
Model
350
741
  3
Sheet1
350
8007
  0
DICTIONARY
  5
1B
102
{ACAD_REACTORS
330
C
102
}
330
C
100
AcDbDictionary
281
     1
  3
STANDARD
350
1C
  0
DICTIONARY
  5
740
102
{ACAD_REACTORS
330
C
102
}
330
C
100
AcDbDictionary
281
     1
  0
ACDBDICTIONARYWDFLT
  5
73D
102
{ACAD_REACTORS
330
C
102
}
330
C
100
AcDbDictionary
281
     1
  3
Normal
350
73E
100
AcDbDictionaryWithDefault
340
73E
  0
DICTIONARY
  5
7FD8
102
{ACAD_REACTORS
330
C
102
}
330
C
100
AcDbDictionary
281
     1
  3
A0
350
7FD9
  3
A1
350
7FDA
  3
A2
350
7FDB
  3
A3
350
7FDC
  3
A4
350
7FDD
  3
A5
350
7FDE
  3
A6
350
7FDF
  3
A7
350
7FE0
  3
A8
350
7FE1
  3
A9
350
7FE2
  3
B0
350
7FE3
  3
B1
350
7FE4
  3
B2
350
7FE5
  3
B3
350
7FE6
  3
B4
350
7FE7
  3
B5
350
7FE8
  3
B6
350
7FE9
  3
B7
350
7FEA
  3
B8
350
7FEB
  3
B9
350
7FEC
  3
C0
350
7FED
  3
C1
350
7FEE
  3
C2
350
7FEF
  3
C3
350
7FF0
  3
C4
350
7FF1
  3
C5
350
7FF2
  3
C6
350
7FF3
  3
C7
350
7FF4
  3
C8
350
7FF5
  3
C9
350
7FF6
  3
D0
350
7FF7
  3
D1
350
7FF8
  3
D2
350
7FF9
  0
XRECORD
  5
61D4
102
{ACAD_REACTORS
330
C
102
}
330
C
100
AcDbXrecord
280
     1
 90
   990106
  3

 60
     0
 61
     0
 62
     1
 63
     3
 64
     0
 65
     0
 66
     0
 67
     3
 68
     1
 69
     0
 70
     0
 71
     0
 72
     0
 40
0.0
170
     0
  0
DICTIONARY
  5
7046
102
{ACAD_REACTORS
330
C
102
}
330
C
100
AcDbDictionary
281
     1
  3
DIMASSOC
350
7047
  0
DICTIONARY
  5
8002
102
{ACAD_REACTORS
330
C
102
}
330
C
100
AcDbDictionary
281
     1
  0
XRECORD
  5
800E
102
{ACAD_REACTORS
330
C
102
}
330
C
100
AcDbXrecord
280
     1
  1
DWGPROPS COOKIE
  2

  3

  4

  6

  7

  8
k-yoshida
  9

300
=
301
=
302
=
303
=
304
=
305
=
306
=
307
=
308
=
309
=
 40
0.0
 41
2451224.285162384
 42
2457317.259859317
  1

 90
        0
  0
LAYOUT
  5
741
102
{ACAD_REACTORS
330
73F
102
}
330
73F
100
AcDbPlotSettings
  1

  2
HP DesignJet 750C (D/A1) Color
  4
ISO_A3_(420.00_x_297.00_MM)
  6

 40
7.5
 41
20.0
 42
7.5
 43
20.0
 44
420.0
 45
297.0
 46
0.0
 47
0.0
 48
0.0
 49
0.0
140
0.0
141
0.0
142
1.0
143
1.448479926266559
 70
  1712
 72
     1
 73
     0
 74
     0
  7

 75
     0
147
0.6903789150723604
148
-112.6660496406646
149
94.38842451822715
100
AcDbLayout
  1
Model
 70
     1
 71
     0
 10
0.0
 20
0.0
 11
12.0
 21
9.0
 12
0.0
 22
0.0
 32
0.0
 14
114.0981453413597
 24
-59.80201994646795
 34
0.0
 15
524.7766314109707
 25
242.82601005137
 35
0.0
146
0.0
 13
0.0
 23
0.0
 33
0.0
 16
1.0
 26
0.0
 36
0.0
 17
0.0
 27
1.0
 37
0.0
 76
     0
330
18
  0
LAYOUT
  5
8007
102
{ACAD_REACTORS
330
73F
102
}
330
73F
100
AcDbPlotSettings
  1

  2
none_device
  4
ISO_A3_(420.00_x_297.00_MM)
  6

 40
7.5
 41
20.0
 42
7.5
 43
20.0
 44
420.0
 45
297.0
 46
0.0
 47
0.0
 48
0.0
 49
0.0
140
0.0
141
0.0
142
1.0
143
1.0
 70
   688
 72
     1
 73
     0
 74
     5
  7

 75
    16
147
1.0
148
0.0
149
0.0
100
AcDbLayout
  1
Sheet1
 70
     1
 71
     1
 10
0.0
 20
0.0
 11
0.0
 21
0.0
 12
0.0
 22
0.0
 32
0.0
 14
40.49999999999999
 24
25.69999999999998
 34
0.0
 15
364.5
 25
231.3
 35
0.0
146
0.0
 13
0.0
 23
0.0
 33
0.0
 16
1.0
 26
0.0
 36
0.0
 17
0.0
 27
1.0
 37
0.0
 76
     0
330
8006
331
800A
  0
MLINESTYLE
  5
1C
102
{ACAD_REACTORS
330
1B
102
}
330
1B
100
AcDbMlineStyle
  2
STANDARD
 70
     0
  3

 62
   256
 51
90.0
 52
90.0
 71
     2
 49
0.5
 62
   256
  6
BYLAYER
 49
-0.5
 62
   256
  6
BYLAYER
  0
ACDBPLACEHOLDER
  5
73E
102
{ACAD_REACTORS
330
73D
102
}
330
73D
  0
ACAD_PROXY_OBJECT
  5
7FD9
102
{ACAD_REACTORS
330
7FD8
102
}
330
7FD8
100
AcDbProxyObject
 90
      499
 91
      507
 95
   655383
 70
     0
 93
       41
310
903313A31581
 94
        0
  0
ACAD_PROXY_OBJECT
  5
7FDA
102
{ACAD_REACTORS
330
7FD8
102
}
330
7FD8
100
AcDbProxyObject
 90
      499
 91
      507
 95
   655383
 70
     0
 93
      105
310
903313A324000000000000004042
 94
        0
  0
ACAD_PROXY_OBJECT
  5
7FDB
102
{ACAD_REACTORS
330
7FD8
102
}
330
7FD8
100
AcDbProxyObject
 90
      499
 91
      507
 95
   655383
 70
     0
 93
      105
310
903313A344000000000000104042
 94
        0
  0
ACAD_PROXY_OBJECT
  5
7FDC
102
{ACAD_REACTORS
330
7FD8
102
}
330
7FD8
100
AcDbProxyObject
 90
      499
 91
      507
 95
   655383
 70
     0
 93
      105
310
903313A354000000000000144042
 94
        0
  0
ACAD_PROXY_OBJECT
  5
7FDD
102
{ACAD_REACTORS
330
7FD8
102
}
330
7FD8
100
AcDbProxyObject
 90
      499
 91
      507
 95
   655383
 70
     0
 93
      105
310
903313A384000000000000204042
 94
        0
  0
ACAD_PROXY_OBJECT
  5
7FDE
102
{ACAD_REACTORS
330
7FD8
102
}
330
7FD8
100
AcDbProxyObject
 90
      499
 91
      507
 95
   655383
 70
     0
 93
      113
310
904313A31304000000000000244000
 94
        0
  0
ACAD_PROXY_OBJECT
  5
7FDF
102
{ACAD_REACTORS
330
7FD8
102
}
330
7FD8
100
AcDbProxyObject
 90
      499
 91
      507
 95
   655383
 70
     0
 93
      113
310
904313A31364000000000000304000
 94
        0
  0
ACAD_PROXY_OBJECT
  5
7FE0
102
{ACAD_REACTORS
330
7FD8
102
}
330
7FD8
100
AcDbProxyObject
 90
      499
 91
      507
 95
   655383
 70
     0
 93
      113
310
904313A32304000000000000344000
 94
        0
  0
ACAD_PROXY_OBJECT
  5
7FE1
102
{ACAD_REACTORS
330
7FD8
102
}
330
7FD8
100
AcDbProxyObject
 90
      499
 91
      507
 95
   655383
 70
     0
 93
      113
310
904313A333040000000000003E4000
 94
        0
  0
ACAD_PROXY_OBJECT
  5
7FE2
102
{ACAD_REACTORS
330
7FD8
102
}
330
7FD8
100
AcDbProxyObject
 90
      499
 91
      507
 95
   655383
 70
     0
 93
      113
310
904313A34304000000000000444000
 94
        0
  0
ACAD_PROXY_OBJECT
  5
7FE3
102
{ACAD_REACTORS
330
7FD8
102
}
330
7FD8
100
AcDbProxyObject
 90
      499
 91
      507
 95
   655383
 70
     0
 93
      113
310
904313A35304000000000000494000
 94
        0
  0
ACAD_PROXY_OBJECT
  5
7FE4
102
{ACAD_REACTORS
330
7FD8
102
}
330
7FD8
100
AcDbProxyObject
 90
      499
 91
      507
 95
   655383
 70
     0
 93
      121
310
905313A3130304000000000000594000
 94
        0
  0
ACAD_PROXY_OBJECT
  5
7FE5
102
{ACAD_REACTORS
330
7FD8
102
}
330
7FD8
100
AcDbProxyObject
 90
      499
 91
      507
 95
   655383
 70
     0
 93
      105
310
903323A310000000000000010159
 94
        0
  0
ACAD_PROXY_OBJECT
  5
7FE6
102
{ACAD_REACTORS
330
7FD8
102
}
330
7FD8
100
AcDbProxyObject
 90
      499
 91
      507
 95
   655383
 70
     0
 93
      105
310
903343A310000000000000410159
 94
        0
  0
ACAD_PROXY_OBJECT
  5
7FE7
102
{ACAD_REACTORS
330
7FD8
102
}
330
7FD8
100
AcDbProxyObject
 90
      499
 91
      507
 95
   655383
 70
     0
 93
      105
310
903383A310000000000000810159
 94
        0
  0
ACAD_PROXY_OBJECT
  5
7FE8
102
{ACAD_REACTORS
330
7FD8
102
}
330
7FD8
100
AcDbProxyObject
 90
      499
 91
      507
 95
   655383
 70
     0
 93
      113
310
90431303A310000000000000910140
 94
        0
  0
ACAD_PROXY_OBJECT
  5
7FE9
102
{ACAD_REACTORS
330
7FD8
102
}
330
7FD8
100
AcDbProxyObject
 90
      499
 91
      507
 95
   655383
 70
     0
 93
      121
310
9053130303A310000000000001650100
 94
        0
  0
ACAD_PROXY_OBJECT
  5
7FEA
102
{ACAD_REACTORS
330
7FD8
102
}
330
7FD8
100
AcDbProxyObject
 90
      499
 91
      507
 95
   655383
 70
     0
 93
      257
310
90E312F31323822203D2031272D3022000000000000200FC000000000000284000
 94
        0
  0
ACAD_PROXY_OBJECT
  5
7FEB
102
{ACAD_REACTORS
330
7FD8
102
}
330
7FD8
100
AcDbProxyObject
 90
      499
 91
      507
 95
   655383
 70
     0
 93
      249
310
90D312F363422203D2031272D3022000000000000240FC000000000000284040
 94
        0
  0
ACAD_PROXY_OBJECT
  5
7FEC
102
{ACAD_REACTORS
330
7FD8
102
}
330
7FD8
100
AcDbProxyObject
 90
      499
 91
      507
 95
   655383
 70
     0
 93
      249
310
90D312F333222203D2031272D3022000000000000280FC000000000000284040
 94
        0
  0
ACAD_PROXY_OBJECT
  5
7FED
102
{ACAD_REACTORS
330
7FD8
102
}
330
7FD8
100
AcDbProxyObject
 90
      499
 91
      507
 95
   655383
 70
     0
 93
      249
310
90D312F313622203D2031272D30220000000000002C0FC000000000000284040
 94
        0
  0
ACAD_PROXY_OBJECT
  5
7FEE
102
{ACAD_REACTORS
330
7FD8
102
}
330
7FD8
100
AcDbProxyObject
 90
      499
 91
      507
 95
   655383
 70
     0
 93
      249
310
90D332F333222203D2031272D30220000000000002E0FC000000000000284040
 94
        0
  0
ACAD_PROXY_OBJECT
  5
7FEF
102
{ACAD_REACTORS
330
7FD8
102
}
330
7FD8
100
AcDbProxyObject
 90
      499
 91
      507
 95
   655383
 70
     0
 93
      241
310
90C312F3822203D2031272D3022000000000000300FC000000000000284040
 94
        0
  0
ACAD_PROXY_OBJECT
  5
7FF0
102
{ACAD_REACTORS
330
7FD8
102
}
330
7FD8
100
AcDbProxyObject
 90
      499
 91
      507
 95
   655383
 70
     0
 93
      249
310
90D332F313622203D2031272D3022000000000000320FC000000000000284040
 94
        0
  0
ACAD_PROXY_OBJECT
  5
7FF1
102
{ACAD_REACTORS
330
7FD8
102
}
330
7FD8
100
AcDbProxyObject
 90
      499
 91
      507
 95
   655383
 70
     0
 93
      241
310
90C312F3422203D2031272D3022000000000000340FC000000000000284040
 94
        0
  0
ACAD_PROXY_OBJECT
  5
7FF2
102
{ACAD_REACTORS
330
7FD8
102
}
330
7FD8
100
AcDbProxyObject
 90
      499
 91
      507
 95
   655383
 70
     0
 93
      241
310
90C332F3822203D2031272D3022000000000000360FC000000000000284040
 94
        0
  0
ACAD_PROXY_OBJECT
  5
7FF3
102
{ACAD_REACTORS
330
7FD8
102
}
330
7FD8
100
AcDbProxyObject
 90
      499
 91
      507
 95
   655383
 70
     0
 93
      241
310
90C312F3222203D2031272D3022000000000000380FC000000000000284040
 94
        0
  0
ACAD_PROXY_OBJECT
  5
7FF4
102
{ACAD_REACTORS
330
7FD8
102
}
330
7FD8
100
AcDbProxyObject
 90
      499
 91
      507
 95
   655383
 70
     0
 93
      241
310
90C332F3422203D2031272D30220000000000003A0FC000000000000284040
 94
        0
  0
ACAD_PROXY_OBJECT
  5
7FF5
102
{ACAD_REACTORS
330
7FD8
102
}
330
7FD8
100
AcDbProxyObject
 90
      499
 91
      507
 95
   655383
 70
     0
 93
      161
310
90A3122203D2031272D30224000000000000284020
 94
        0
  0
ACAD_PROXY_OBJECT
  5
7FF6
102
{ACAD_REACTORS
330
7FD8
102
}
330
7FD8
100
AcDbProxyObject
 90
      499
 91
      507
 95
   655383
 70
     0
 93
      257
310
90E312D312F3222203D2031272D30220000000000003E0FC000000000000284000
 94
        0
  0
ACAD_PROXY_OBJECT
  5
7FF7
102
{ACAD_REACTORS
330
7FD8
102
}
330
7FD8
100
AcDbProxyObject
 90
      499
 91
      507
 95
   655383
 70
     0
 93
      225
310
90A3322203D2031272D302200000000000002100000000000000284000
 94
        0
  0
ACAD_PROXY_OBJECT
  5
7FF8
102
{ACAD_REACTORS
330
7FD8
102
}
330
7FD8
100
AcDbProxyObject
 90
      499
 91
      507
 95
   655383
 70
     0
 93
      225
310
90A3622203D2031272D302200000000000006100000000000000284000
 94
        0
  0
ACAD_PROXY_OBJECT
  5
7FF9
102
{ACAD_REACTORS
330
7FD8
102
}
330
7FD8
100
AcDbProxyObject
 90
      499
 91
      507
 95
   655383
 70
     0
 93
      249
310
90D31272D3022203D2031272D30220000000000000A100000000000000284040
 94
        0
  0
DICTIONARYVAR
  5
7047
102
{ACAD_REACTORS
330
7046
102
}
330
7046
100
DictionaryVariables
280
     0
  1
1
  0
ENDSEC
  0
EOF
