  0
SECTION
  2
HEADER
  9
$ACADVER
  1
AC1015
  9
$ACADMAINTVER
 70
    10
  9
$DWGCODEPAGE
  3
ANSI_932
  9
$INSBASE
 10
0.0
 20
0.0
 30
0.0
  9
$EXTMIN
 10
133.3503671924545
 20
-68.6517610944159
 30
0.0
  9
$EXTMAX
 10
509.0274211547721
 20
281.7052468127398
 30
0.0
  9
$LIMMIN
 10
0.0
 20
0.0
  9
$LIMMAX
 10
420.0
 20
297.0
  9
$ORTHOMODE
 70
     0
  9
$REGENMODE
 70
     1
  9
$FILLMODE
 70
     1
  9
$QTEXTMODE
 70
     0
  9
$MIRRTEXT
 70
     1
  9
$LTSCALE
 40
1.0
  9
$ATTMODE
 70
     1
  9
$TEXTSIZE
 40
3.0
  9
$TRACEWID
 40
1.0
  9
$TEXTSTYLE
  7
STANDARD
  9
$CLAYER
  8
0
  9
$CELTYPE
  6
BYLAYER
  9
$CECOLOR
 62
   256
  9
$CELTSCALE
 40
1.0
  9
$DISPSILH
 70
     0
  9
$DIMSCALE
 40
1.0
  9
$DIMASZ
 40
1.5
  9
$DIMEXO
 40
0.5
  9
$DIMDLI
 40
5.0
  9
$DIMRND
 40
0.0
  9
$DIMDLE
 40
0.0
  9
$DIMEXE
 40
0.75
  9
$DIMTP
 40
0.0
  9
$DIMTM
 40
0.0
  9
$DIMTXT
 40
3.0
  9
$DIMCEN
 40
2.5
  9
$DIMTSZ
 40
0.0
  9
$DIMTOL
 70
     0
  9
$DIMLIM
 70
     0
  9
$DIMTIH
 70
     0
  9
$DIMTOH
 70
     0
  9
$DIMSE1
 70
     0
  9
$DIMSE2
 70
     0
  9
$DIMTAD
 70
     1
  9
$DIMZIN
 70
     9
  9
$DIMBLK
  1

  9
$DIMASO
 70
     1
  9
$DIMSHO
 70
     1
  9
$DIMPOST
  1

  9
$DIMAPOST
  1

  9
$DIMALT
 70
     0
  9
$DIMALTD
 70
     4
  9
$DIMALTF
 40
0.0394
  9
$DIMLFAC
 40
1.0
  9
$DIMTOFL
 70
     1
  9
$DIMTVP
 40
0.0
  9
$DIMTIX
 70
     0
  9
$DIMSOXD
 70
     0
  9
$DIMSAH
 70
     1
  9
$DIMBLK1
  1
OPEN
  9
$DIMBLK2
  1
OPEN
  9
$DIMSTYLE
  2
STANDARD
  9
$DIMCLRD
 70
     0
  9
$DIMCLRE
 70
     0
  9
$DIMCLRT
 70
     7
  9
$DIMTFAC
 40
1.0
  9
$DIMGAP
 40
0.5
  9
$DIMJUST
 70
     0
  9
$DIMSD1
 70
     0
  9
$DIMSD2
 70
     0
  9
$DIMTOLJ
 70
     1
  9
$DIMTZIN
 70
     9
  9
$DIMALTZ
 70
     0
  9
$DIMALTTZ
 70
     0
  9
$DIMUPT
 70
     0
  9
$DIMDEC
 70
     4
  9
$DIMTDEC
 70
     4
  9
$DIMALTU
 70
     8
  9
$DIMALTTD
 70
     4
  9
$DIMTXSTY
  7
STANDARD
  9
$DIMAUNIT
 70
     0
  9
$DIMADEC
 70
     0
  9
$DIMALTRND
 40
0.0
  9
$DIMAZIN
 70
     2
  9
$DIMDSEP
 70
    46
  9
$DIMATFIT
 70
     3
  9
$DIMFRAC
 70
     0
  9
$DIMLDRBLK
  1
OPEN
  9
$DIMLUNIT
 70
     2
  9
$DIMLWD
 70
    -2
  9
$DIMLWE
 70
    -2
  9
$DIMTMOVE
 70
     2
  9
$LUNITS
 70
     2
  9
$LUPREC
 70
     4
  9
$SKETCHINC
 40
1.0
  9
$FILLETRAD
 40
10.0
  9
$AUNITS
 70
     0
  9
$AUPREC
 70
     0
  9
$MENU
  1
.
  9
$ELEVATION
 40
0.0
  9
$PELEVATION
 40
0.0
  9
$THICKNESS
 40
0.0
  9
$LIMCHECK
 70
     0
  9
$CHAMFERA
 40
10.0
  9
$CHAMFERB
 40
10.0
  9
$CHAMFERC
 40
20.0
  9
$CHAMFERD
 40
0.0
  9
$SKPOLY
 70
     0
  9
$TDCREATE
 40
2451224.660162384
  9
$TDUCREATE
 40
2451224.285162384
  9
$TDUPDATE
 40
2457366.482108101
  9
$TDUUPDATE
 40
2457366.107108101
  9
$TDINDWG
 40
1.2786025926
  9
$TDUSRTIMER
 40
2457315.076557743
  9
$USRTIMER
 70
     1
  9
$ANGBASE
 50
0.0
  9
$ANGDIR
 70
     0
  9
$PDMODE
 70
     0
  9
$PDSIZE
 40
0.0
  9
$PLINEWID
 40
0.0
  9
$SPLFRAME
 70
     0
  9
$SPLINETYPE
 70
     6
  9
$SPLINESEGS
 70
     8
  9
$HANDSEED
  5
7DC5
  9
$SURFTAB1
 70
     6
  9
$SURFTAB2
 70
     6
  9
$SURFTYPE
 70
     6
  9
$SURFU
 70
     6
  9
$SURFV
 70
     6
  9
$UCSBASE
  2

  9
$UCSNAME
  2

  9
$UCSORG
 10
0.0
 20
0.0
 30
0.0
  9
$UCSXDIR
 10
1.0
 20
0.0
 30
0.0
  9
$UCSYDIR
 10
0.0
 20
1.0
 30
0.0
  9
$UCSORTHOREF
  2

  9
$UCSORTHOVIEW
 70
     0
  9
$UCSORGTOP
 10
0.0
 20
0.0
 30
0.0
  9
$UCSORGBOTTOM
 10
0.0
 20
0.0
 30
0.0
  9
$UCSORGLEFT
 10
0.0
 20
0.0
 30
0.0
  9
$UCSORGRIGHT
 10
0.0
 20
0.0
 30
0.0
  9
$UCSORGFRONT
 10
0.0
 20
0.0
 30
0.0
  9
$UCSORGBACK
 10
0.0
 20
0.0
 30
0.0
  9
$PUCSBASE
  2

  9
$PUCSNAME
  2

  9
$PUCSORG
 10
0.0
 20
0.0
 30
0.0
  9
$PUCSXDIR
 10
1.0
 20
0.0
 30
0.0
  9
$PUCSYDIR
 10
0.0
 20
1.0
 30
0.0
  9
$PUCSORTHOREF
  2

  9
$PUCSORTHOVIEW
 70
     0
  9
$PUCSORGTOP
 10
0.0
 20
0.0
 30
0.0
  9
$PUCSORGBOTTOM
 10
0.0
 20
0.0
 30
0.0
  9
$PUCSORGLEFT
 10
0.0
 20
0.0
 30
0.0
  9
$PUCSORGRIGHT
 10
0.0
 20
0.0
 30
0.0
  9
$PUCSORGFRONT
 10
0.0
 20
0.0
 30
0.0
  9
$PUCSORGBACK
 10
0.0
 20
0.0
 30
0.0
  9
$USERI1
 70
     0
  9
$USERI2
 70
     0
  9
$USERI3
 70
     0
  9
$USERI4
 70
     0
  9
$USERI5
 70
     0
  9
$USERR1
 40
0.0
  9
$USERR2
 40
0.0
  9
$USERR3
 40
0.0
  9
$USERR4
 40
0.0
  9
$USERR5
 40
0.0
  9
$WORLDVIEW
 70
     1
  9
$SHADEDGE
 70
     3
  9
$SHADEDIF
 70
    70
  9
$TILEMODE
 70
     1
  9
$MAXACTVP
 70
    48
  9
$PINSBASE
 10
0.0
 20
0.0
 30
0.0
  9
$PLIMCHECK
 70
     0
  9
$PEXTMIN
 10
28.51784982681273
 20
19.82258291244505
 30
0.0
  9
$PEXTMAX
 10
256.6606484413147
 20
178.4032462120056
 30
0.0
  9
$PLIMMIN
 10
-5.873748779296875
 20
-5.873749732971191
  9
$PLIMMAX
 10
291.05224609375
 20
204.0995779037475
  9
$UNITMODE
 70
     0
  9
$VISRETAIN
 70
     1
  9
$PLINEGEN
 70
     0
  9
$PSLTSCALE
 70
     1
  9
$TREEDEPTH
 70
  3020
  9
$CMLSTYLE
  2
STANDARD
  9
$CMLJUST
 70
     0
  9
$CMLSCALE
 40
20.0
  9
$PROXYGRAPHICS
 70
     1
  9
$MEASUREMENT
 70
     1
  9
$CELWEIGHT
370
    -1
  9
$ENDCAPS
280
     0
  9
$JOINSTYLE
280
     0
  9
$LWDISPLAY
290
     0
  9
$INSUNITS
 70
     0
  9
$HYPERLINKBASE
  1

  9
$STYLESHEET
  1

  9
$XEDIT
290
     1
  9
$CEPSNTYPE
380
     0
  9
$PSTYLEMODE
290
     1
  9
$FINGERPRINTGUID
  2
{6B368F64-F7EB-11D4-BFBA-00004C030E53}
  9
$VERSIONGUID
  2
{79AFC6F5-5752-4755-B1F7-18CADCB090ED}
  9
$EXTNAMES
290
     1
  9
$PSVPSCALE
 40
0.0
  9
$OLESTARTUP
290
     0
  0
ENDSEC
  0
SECTION
  2
CLASSES
  0
CLASS
  1
HATCH
  2
AcDbHatch
  3
AutoCAD 2000
 90
    32768
280
     0
281
     1
  0
CLASS
  1
LWPOLYLINE
  2
AcDbPolyline
  3
AutoCAD 2000
 90
    32768
280
     0
281
     1
  0
CLASS
  1
ACDBDICTIONARYWDFLT
  2
AcDbDictionaryWithDefault
  3
AutoCAD 2000
 90
        0
280
     0
281
     0
  0
CLASS
  1
ACDBPLACEHOLDER
  2
AcDbPlaceHolder
  3
AutoCAD 2000
 90
        0
280
     0
281
     0
  0
CLASS
  1
LAYOUT
  2
AcDbLayout
  3
AutoCAD 2000
 90
        0
280
     0
281
     0
  0
CLASS
  1
DICTIONARYVAR
  2
AcDbDictionaryVar
  3
AutoCAD 2000
 90
        0
280
     0
281
     0
  0
CLASS
  1
VISUALSTYLE
  2
AcDbVisualStyle
  3
ObjectDBX Classes
 90
    36863
280
     0
281
     0
  0
CLASS
  1
SCALE
  2
AcDbScale
  3
ObjectDBX Classes
 90
     1153
280
     0
281
     0
  0
CLASS
  1
MATERIAL
  2
AcDbMaterial
  3
ObjectDBX Classes
 90
    33921
280
     0
281
     0
  0
CLASS
  1
TABLESTYLE
  2
AcDbTableStyle
  3
ObjectDBX Classes
 90
    36863
280
     0
281
     0
  0
CLASS
  1
MLEADERSTYLE
  2
AcDbMLeaderStyle
  3
ACDB_MLEADERSTYLE_CLASS
 90
    36863
280
     0
281
     0
  0
CLASS
  1
SUN
  2
AcDbSun
  3
SCENEOE
 90
     1153
280
     0
281
     0
  0
CLASS
  1
RASTERVARIABLES
  2
AcDbRasterVariables
  3
ISM
 90
        0
280
     0
281
     0
  0
ENDSEC
  0
SECTION
  2
TABLES
  0
TABLE
  2
VPORT
  5
8
330
0
100
AcDbSymbolTable
 70
     2
  0
VPORT
  5
7DC4
330
8
100
AcDbSymbolTableRecord
100
AcDbViewportTableRecord
  2
*Active
 70
     0
 10
0.0
 20
0.0
 11
1.0
 21
1.0
 12
403.6137913110361
 22
106.5249211168602
 13
0.0
 23
0.0
 14
10.0
 24
10.0
 15
10.0
 25
10.0
 16
0.0
 26
0.0
 36
1.0
 17
0.0
 27
0.0
 37
0.0
 40
353.0331582859588
 41
1.562182741116751
 42
50.0
 43
0.0
 44
0.0
 50
0.0
 51
0.0
 71
     0
 72
   100
 73
     1
 74
     0
 75
     0
 76
     0
 77
     0
 78
     0
281
     0
 65
     1
110
0.0
120
0.0
130
0.0
111
1.0
121
0.0
131
0.0
112
0.0
122
1.0
132
0.0
 79
     0
146
0.0
  0
ENDTAB
  0
TABLE
  2
LTYPE
  5
5
330
0
100
AcDbSymbolTable
 70
     1
  0
LTYPE
  5
12
330
5
100
AcDbSymbolTableRecord
100
AcDbLinetypeTableRecord
  2
BYBLOCK
 70
     0
  3

 72
    65
 73
     0
 40
0.0
  0
LTYPE
  5
13
330
5
100
AcDbSymbolTableRecord
100
AcDbLinetypeTableRecord
  2
BYLAYER
 70
     0
  3

 72
    65
 73
     0
 40
0.0
  0
LTYPE
  5
14
330
5
100
AcDbSymbolTableRecord
100
AcDbLinetypeTableRecord
  2
CONTINUOUS
 70
     0
  3
Solid line
 72
    65
 73
     0
 40
0.0
  0
ENDTAB
  0
TABLE
  2
LAYER
  5
2
330
0
100
AcDbSymbolTable
 70
     1
  0
LAYER
  5
E
330
2
100
AcDbSymbolTableRecord
100
AcDbLayerTableRecord
  2
0
 70
     0
 62
     7
  6
CONTINUOUS
370
    -3
390
73E
  0
ENDTAB
  0
TABLE
  2
STYLE
  5
3
330
0
100
AcDbSymbolTable
 70
     2
  0
STYLE
  5
F
330
3
100
AcDbSymbolTableRecord
100
AcDbTextStyleTableRecord
  2
STANDARD
 70
     0
 40
0.0
 41
1.0
 50
0.0
 71
     0
 42
3.0
  3
isocp.shx
  4
bigfont.shx
  0
STYLE
  5
35
330
3
100
AcDbSymbolTableRecord
100
AcDbTextStyleTableRecord
  2
MSｺﾞｼｯｸ
 70
     0
 40
0.0
 41
1.0
 50
0.0
 71
     0
 42
5.0
  3
MS Gothic.ttf
  4

1001
ACAD
1000
MS Gothic
1071
    32817
  0
ENDTAB
  0
TABLE
  2
VIEW
  5
6
330
0
100
AcDbSymbolTable
 70
     0
  0
ENDTAB
  0
TABLE
  2
UCS
  5
7
330
0
100
AcDbSymbolTable
 70
     0
  0
ENDTAB
  0
TABLE
  2
APPID
  5
9
330
0
100
AcDbSymbolTable
 70
     1
  0
APPID
  5
10
330
9
100
AcDbSymbolTableRecord
100
AcDbRegAppTableRecord
  2
ACAD
 70
     0
  0
ENDTAB
  0
TABLE
  2
DIMSTYLE
  5
A
330
0
100
AcDbSymbolTable
 70
     1
100
AcDbDimStyleTable
 71
     0
  0
DIMSTYLE
105
1D
330
A
100
AcDbSymbolTableRecord
100
AcDbDimStyleTableRecord
  2
STANDARD
 70
     0
 78
     8
 79
     2
140
3.0
340
F
341
89E
342
89E
  0
ENDTAB
  0
TABLE
  2
BLOCK_RECORD
  5
1
330
0
100
AcDbSymbolTable
 70
     9
  0
BLOCK_RECORD
  5
18
330
1
100
AcDbSymbolTableRecord
100
AcDbBlockTableRecord
  2
*MODEL_SPACE
340
741
  0
BLOCK_RECORD
  5
7D6D
330
1
100
AcDbSymbolTableRecord
100
AcDbBlockTableRecord
  2
*Paper_Space
340
7D6E
  0
BLOCK_RECORD
  5
24
330
1
100
AcDbSymbolTableRecord
100
AcDbBlockTableRecord
  2
_OPEN
340
0
  0
BLOCK_RECORD
  5
89E
330
1
100
AcDbSymbolTableRecord
100
AcDbBlockTableRecord
  2
_Open30
340
0
  0
BLOCK_RECORD
  5
7058
330
1
100
AcDbSymbolTableRecord
100
AcDbBlockTableRecord
  2
A$C444F17A9
340
0
102
{BLKREFS
331
7D17
102
}
  0
BLOCK_RECORD
  5
7064
330
1
100
AcDbSymbolTableRecord
100
AcDbBlockTableRecord
  2
A$C6C1277F2
340
0
102
{BLKREFS
331
7D18
102
}
  0
BLOCK_RECORD
  5
7091
330
1
100
AcDbSymbolTableRecord
100
AcDbBlockTableRecord
  2
A$C2F696F30
340
0
102
{BLKREFS
331
7D11
102
}
  0
BLOCK_RECORD
  5
70A9
330
1
100
AcDbSymbolTableRecord
100
AcDbBlockTableRecord
  2
A$C57095CDF
340
0
102
{BLKREFS
331
7CFD
102
}
  0
BLOCK_RECORD
  5
70DC
330
1
100
AcDbSymbolTableRecord
100
AcDbBlockTableRecord
  2
A$C3A6E1F00
340
0
102
{BLKREFS
331
7CFE
102
}
  0
BLOCK_RECORD
  5
711F
330
1
100
AcDbSymbolTableRecord
100
AcDbBlockTableRecord
  2
A$C5A3A0BB0
340
0
102
{BLKREFS
331
7CDA
102
}
  0
BLOCK_RECORD
  5
7160
330
1
100
AcDbSymbolTableRecord
100
AcDbBlockTableRecord
  2
A$C3413120B
340
0
102
{BLKREFS
331
7D1B
102
}
  0
ENDTAB
  0
ENDSEC
  0
SECTION
  2
BLOCKS
  0
BLOCK
  5
19
330
18
100
AcDbEntity
  8
0
100
AcDbBlockBegin
  2
*MODEL_SPACE
 70
     0
 10
0.0
 20
0.0
 30
0.0
  3
*MODEL_SPACE
  1

  0
ENDBLK
  5
1A
330
18
100
AcDbEntity
  8
0
100
AcDbBlockEnd
  0
BLOCK
  5
7D6F
330
7D6D
100
AcDbEntity
 67
     1
  8
0
100
AcDbBlockBegin
  2
*Paper_Space
 70
     0
 10
0.0
 20
0.0
 30
0.0
  3
*Paper_Space
  1

  0
ENDBLK
  5
7D70
330
7D6D
100
AcDbEntity
 67
     1
  8
0
100
AcDbBlockEnd
  0
BLOCK
  5
25
330
24
100
AcDbEntity
  8
0
100
AcDbBlockBegin
  2
_OPEN
 70
     0
 10
0.0
 20
0.0
 30
0.0
  3
_OPEN
  1

  0
LINE
  5
26
330
24
100
AcDbEntity
  8
0
  6
ByBlock
 62
     0
100
AcDbLine
 10
-1.0
 20
0.1666666666666666
 30
0.0
 11
0.0
 21
0.0
 31
0.0
  0
LINE
  5
27
330
24
100
AcDbEntity
  8
0
  6
ByBlock
 62
     0
100
AcDbLine
 10
0.0
 20
0.0
 30
0.0
 11
-1.0
 21
-0.1666666666666666
 31
0.0
  0
LINE
  5
28
330
24
100
AcDbEntity
  8
0
  6
ByBlock
 62
     0
100
AcDbLine
 10
0.0
 20
0.0
 30
0.0
 11
-1.0
 21
0.0
 31
0.0
  0
ENDBLK
  5
29
330
24
100
AcDbEntity
  8
0
100
AcDbBlockEnd
  0
BLOCK
  5
8A2
330
89E
100
AcDbEntity
  8
0
100
AcDbBlockBegin
  2
_Open30
 70
     0
 10
0.0
 20
0.0
 30
0.0
  3
_Open30
  1

  0
LINE
  5
89F
330
89E
100
AcDbEntity
  8
0
  6
ByBlock
 62
     0
370
    -2
100
AcDbLine
 10
-1.0
 20
0.26794919
 30
0.0
 11
0.0
 21
0.0
 31
0.0
  0
LINE
  5
8A0
330
89E
100
AcDbEntity
  8
0
  6
ByBlock
 62
     0
370
    -2
100
AcDbLine
 10
0.0
 20
0.0
 30
0.0
 11
-1.0
 21
-0.26794919
 31
0.0
  0
LINE
  5
8A1
330
89E
100
AcDbEntity
  8
0
  6
ByBlock
 62
     0
370
    -2
100
AcDbLine
 10
0.0
 20
0.0
 30
0.0
 11
-1.0
 21
0.0
 31
0.0
  0
ENDBLK
  5
8A3
330
89E
100
AcDbEntity
  8
0
100
AcDbBlockEnd
  0
BLOCK
  5
7062
330
7058
100
AcDbEntity
  8
0
100
AcDbBlockBegin
  2
A$C444F17A9
 70
     0
 10
0.0
 20
0.0
 30
0.0
  3
A$C444F17A9
  1

  0
LWPOLYLINE
  5
7059
330
7058
100
AcDbEntity
  8
0
100
AcDbPolyline
 90
        4
 70
     1
 43
0.2
 10
0.1000006076973037
 20
13.1000004860266
 10
7.625000607697302
 20
13.1000004860266
 10
7.625000607697302
 20
0.1000004860266017
 10
0.1000006076973037
 20
0.1000004860266017
  0
ELLIPSE
  5
705A
330
7058
100
AcDbEntity
  8
0
100
AcDbEllipse
 10
6.125000607697302
 20
3.07500048602651
 30
0.0
 11
0.5
 21
0.0
 31
0.0
210
0.0
220
0.0
230
1.0
 40
0.95
 41
0.0
 42
6.283184999999999
  0
LWPOLYLINE
  5
705B
330
7058
100
AcDbEntity
  8
0
100
AcDbPolyline
 90
        6
 70
     1
 43
0.2
 10
2.175000607697299
 20
3.525000486026556
 10
1.725000607697296
 20
3.100000486026601
 10
2.175000607697299
 20
2.70000048602651
 10
4.275000607697307
 20
2.70000048602651
 10
4.700000607697305
 20
3.100000486026601
 10
4.275000607697307
 20
3.525000486026556
  0
LWPOLYLINE
  5
705C
330
7058
100
AcDbEntity
  8
0
100
AcDbPolyline
 90
        6
 70
     1
 43
0.2
 10
3.250000607697302
 20
10.80000048602664
 10
2.825000607697305
 20
10.42500048602664
 10
3.250000607697302
 20
10.00000048602669
 10
5.375000607697302
 20
10.00000048602669
 10
5.775000607697307
 20
10.42500048602664
 10
5.375000607697302
 20
10.80000048602664
  0
LWPOLYLINE
  5
705D
330
7058
100
AcDbEntity
  8
0
100
AcDbPolyline
 90
        6
 70
     1
 43
0.2
 10
5.525000607697307
 20
6.70000048602651
 10
5.125000607697302
 20
6.275000486026556
 10
4.700000607697305
 20
3.500000486026692
 10
5.125000607697302
 20
3.100000486026601
 10
5.525000607697307
 20
3.500000486026692
 10
5.975000607697296
 20
6.275000486026556
  0
LWPOLYLINE
  5
705E
330
7058
100
AcDbEntity
  8
0
100
AcDbPolyline
 90
        6
 70
     1
 43
0.2
 10
6.100000607697296
 20
10.42500048602664
 10
5.675000607697299
 20
10.02500048602655
 10
5.275000607697307
 20
7.225000486026601
 10
5.675000607697299
 20
6.82500048602651
 10
6.100000607697296
 20
7.225000486026601
 10
6.525000607697307
 20
10.02500048602655
  0
LWPOLYLINE
  5
705F
330
7058
100
AcDbEntity
  8
0
100
AcDbPolyline
 90
        6
 70
     1
 43
0.2
 10
1.875000607697302
 20
6.70000048602651
 10
1.450000607697305
 20
6.275000486026556
 10
1.050000607697299
 20
3.500000486026692
 10
1.450000607697305
 20
3.100000486026601
 10
1.875000607697302
 20
3.500000486026692
 10
2.300000607697299
 20
6.275000486026556
  0
LWPOLYLINE
  5
7060
330
7058
100
AcDbEntity
  8
0
100
AcDbPolyline
 90
        6
 70
     1
 43
0.2
 10
2.725000607697296
 20
7.225000486026601
 10
2.275000607697307
 20
6.82500048602651
 10
2.725000607697296
 20
6.425000486026647
 10
4.825000607697305
 20
6.425000486026647
 10
5.225000607697296
 20
6.82500048602651
 10
4.825000607697305
 20
7.225000486026601
  0
LWPOLYLINE
  5
7061
330
7058
100
AcDbEntity
  8
0
100
AcDbPolyline
 90
        6
 70
     1
 43
0.2
 10
2.425000607697299
 20
10.42500048602664
 10
2.025000607697307
 20
10.02500048602655
 10
1.600000607697296
 20
7.225000486026601
 10
2.025000607697307
 20
6.82500048602651
 10
2.425000607697299
 20
7.225000486026601
 10
2.875000607697302
 20
10.02500048602655
  0
ENDBLK
  5
7063
330
7058
100
AcDbEntity
  8
0
100
AcDbBlockEnd
  0
BLOCK
  5
708F
330
7064
100
AcDbEntity
  8
0
100
AcDbBlockBegin
  2
A$C6C1277F2
 70
     0
 10
0.0
 20
0.0
 30
0.0
  3
A$C6C1277F2
  1

  0
ELLIPSE
  5
7065
330
7064
100
AcDbEntity
  8
0
100
AcDbEllipse
 10
4.724999973973268
 20
26.39999951743493
 30
0.0
 11
0.0
 21
0.775
 31
0.0
210
0.0
220
0.0
230
1.0
 40
0.9677419999999999
 41
0.0
 42
6.283184999999999
  0
LWPOLYLINE
  5
7066
330
7064
100
AcDbEntity
  8
0
100
AcDbPolyline
 90
        4
 70
     1
 43
0.2
 10
0.0999999739732616
 20
28.77499951743493
 10
0.0999999739732616
 20
0.0999995174349806
 10
9.324999973973262
 20
0.0999995174349806
 10
9.324999973973262
 20
28.77499951743493
  0
ELLIPSE
  5
7067
330
7064
100
AcDbEntity
  8
0
100
AcDbEllipse
 10
4.724999973973268
 20
3.399999517434935
 30
0.0
 11
0.0
 21
0.775
 31
0.0
210
0.0
220
0.0
230
1.0
 40
0.9677419999999999
 41
0.0
 42
6.283184999999999
  0
LINE
  5
7068
330
7064
100
AcDbEntity
  8
0
100
AcDbLine
 10
0.8999999739732658
 20
4.299999517435026
 30
0.0
 11
0.8999999739732658
 21
6.374999517434844
 31
0.0
  0
LINE
  5
7069
330
7064
100
AcDbEntity
  8
0
100
AcDbLine
 10
8.524999973973265
 20
4.299999517435026
 30
0.0
 11
8.524999973973265
 21
6.374999517434844
 31
0.0
  0
LINE
  5
706A
330
7064
100
AcDbEntity
  8
0
100
AcDbLine
 10
6.599999973973268
 20
4.274999517434935
 30
0.0
 11
6.599999973973268
 21
5.249999517434844
 31
0.0
  0
LINE
  5
706B
330
7064
100
AcDbEntity
  8
0
100
AcDbLine
 10
6.599999973973268
 20
5.274999517434935
 30
0.0
 11
3.024999973973265
 21
5.274999517434935
 31
0.0
  0
LINE
  5
706C
330
7064
100
AcDbEntity
  8
0
100
AcDbLine
 10
3.024999973973265
 20
4.299999517435026
 30
0.0
 11
3.024999973973265
 21
5.274999517434935
 31
0.0
  0
LINE
  5
706D
330
7064
100
AcDbEntity
  8
0
100
AcDbLine
 10
3.024999973973265
 20
4.299999517435026
 30
0.0
 11
0.8999999739732658
 21
4.299999517435026
 31
0.0
  0
LINE
  5
706E
330
7064
100
AcDbEntity
  8
0
100
AcDbLine
 10
8.524999973973265
 20
4.299999517435026
 30
0.0
 11
6.599999973973268
 21
4.299999517435026
 31
0.0
  0
LINE
  5
706F
330
7064
100
AcDbEntity
  8
0
100
AcDbLine
 10
8.524999973973265
 20
6.374999517434844
 30
0.0
 11
0.8999999739732658
 21
6.374999517434844
 31
0.0
  0
LINE
  5
7070
330
7064
100
AcDbEntity
  8
0
100
AcDbLine
 10
0.8999999739732658
 20
25.17499951743502
 30
0.0
 11
0.8999999739732658
 21
23.09999951743498
 31
0.0
  0
LINE
  5
7071
330
7064
100
AcDbEntity
  8
0
100
AcDbLine
 10
8.524999973973265
 20
25.17499951743502
 30
0.0
 11
8.524999973973265
 21
23.09999951743498
 31
0.0
  0
LINE
  5
7072
330
7064
100
AcDbEntity
  8
0
100
AcDbLine
 10
6.599999973973268
 20
25.19999951743489
 30
0.0
 11
6.599999973973268
 21
24.22499951743498
 31
0.0
  0
LINE
  5
7073
330
7064
100
AcDbEntity
  8
0
100
AcDbLine
 10
6.599999973973268
 20
24.19999951743489
 30
0.0
 11
3.024999973973265
 21
24.19999951743489
 31
0.0
  0
LINE
  5
7074
330
7064
100
AcDbEntity
  8
0
100
AcDbLine
 10
3.024999973973265
 20
25.17499951743502
 30
0.0
 11
3.024999973973265
 21
24.19999951743489
 31
0.0
  0
LINE
  5
7075
330
7064
100
AcDbEntity
  8
0
100
AcDbLine
 10
3.024999973973265
 20
25.17499951743502
 30
0.0
 11
0.8999999739732658
 21
25.17499951743502
 31
0.0
  0
LINE
  5
7076
330
7064
100
AcDbEntity
  8
0
100
AcDbLine
 10
8.524999973973265
 20
25.17499951743502
 30
0.0
 11
6.599999973973268
 21
25.17499951743502
 31
0.0
  0
LWPOLYLINE
  5
7077
330
7064
100
AcDbEntity
  8
0
100
AcDbPolyline
 90
        4
 70
     1
 43
0.0
 10
3.474999973973268
 20
11.29999951743502
 10
3.12499997397326
 20
11.29999951743502
 10
3.12499997397326
 20
10.32499951743488
 10
3.474999973973268
 20
10.32499951743488
  0
LWPOLYLINE
  5
7078
330
7064
100
AcDbEntity
  8
0
100
AcDbPolyline
 90
        4
 70
     1
 43
0.0
 10
3.474999973973268
 20
12.47499951743498
 10
3.12499997397326
 20
12.47499951743498
 10
3.12499997397326
 20
11.49999951743484
 10
3.474999973973268
 20
11.49999951743484
  0
LWPOLYLINE
  5
7079
330
7064
100
AcDbEntity
  8
0
100
AcDbPolyline
 90
        4
 70
     1
 43
0.0
 10
3.474999973973268
 20
13.74999951743484
 10
3.12499997397326
 20
13.74999951743484
 10
3.12499997397326
 20
12.77499951743493
 10
3.474999973973268
 20
12.77499951743493
  0
LWPOLYLINE
  5
707A
330
7064
100
AcDbEntity
  8
0
100
AcDbPolyline
 90
        4
 70
     1
 43
0.0
 10
3.474999973973268
 20
15.07499951743489
 10
3.12499997397326
 20
15.07499951743489
 10
3.12499997397326
 20
14.12499951743484
 10
3.474999973973268
 20
14.12499951743484
  0
LWPOLYLINE
  5
707B
330
7064
100
AcDbEntity
  8
0
100
AcDbPolyline
 90
        4
 70
     1
 43
0.0
 10
3.474999973973268
 20
16.34999951743498
 10
3.12499997397326
 20
16.34999951743498
 10
3.12499997397326
 20
15.37499951743484
 10
3.474999973973268
 20
15.37499951743484
  0
LWPOLYLINE
  5
707C
330
7064
100
AcDbEntity
  8
0
100
AcDbPolyline
 90
        4
 70
     1
 43
0.0
 10
3.474999973973268
 20
17.57499951743489
 10
3.12499997397326
 20
17.57499951743489
 10
3.12499997397326
 20
16.59999951743498
 10
3.474999973973268
 20
16.59999951743498
  0
LWPOLYLINE
  5
707D
330
7064
100
AcDbEntity
  8
0
100
AcDbPolyline
 90
        4
 70
     1
 43
0.0
 10
3.474999973973268
 20
18.84999951743498
 10
3.12499997397326
 20
18.84999951743498
 10
3.12499997397326
 20
17.84999951743498
 10
3.474999973973268
 20
17.84999951743498
  0
LWPOLYLINE
  5
707E
330
7064
100
AcDbEntity
  8
0
100
AcDbPolyline
 90
        4
 70
     1
 43
0.0
 10
6.24999997397326
 20
11.29999951743502
 10
5.899999973973265
 20
11.29999951743502
 10
5.899999973973265
 20
10.32499951743488
 10
6.24999997397326
 20
10.32499951743488
  0
LWPOLYLINE
  5
707F
330
7064
100
AcDbEntity
  8
0
100
AcDbPolyline
 90
        4
 70
     1
 43
0.0
 10
6.24999997397326
 20
12.47499951743498
 10
5.899999973973265
 20
12.47499951743498
 10
5.899999973973265
 20
11.49999951743484
 10
6.24999997397326
 20
11.49999951743484
  0
LWPOLYLINE
  5
7080
330
7064
100
AcDbEntity
  8
0
100
AcDbPolyline
 90
        4
 70
     1
 43
0.0
 10
6.24999997397326
 20
13.74999951743484
 10
5.899999973973265
 20
13.74999951743484
 10
5.899999973973265
 20
12.77499951743493
 10
6.24999997397326
 20
12.77499951743493
  0
LWPOLYLINE
  5
7081
330
7064
100
AcDbEntity
  8
0
100
AcDbPolyline
 90
        4
 70
     1
 43
0.0
 10
6.24999997397326
 20
15.07499951743489
 10
5.899999973973265
 20
15.07499951743489
 10
5.899999973973265
 20
14.12499951743484
 10
6.24999997397326
 20
14.12499951743484
  0
LWPOLYLINE
  5
7082
330
7064
100
AcDbEntity
  8
0
100
AcDbPolyline
 90
        4
 70
     1
 43
0.0
 10
6.24999997397326
 20
16.34999951743498
 10
5.899999973973265
 20
16.34999951743498
 10
5.899999973973265
 20
15.37499951743484
 10
6.24999997397326
 20
15.37499951743484
  0
LWPOLYLINE
  5
7083
330
7064
100
AcDbEntity
  8
0
100
AcDbPolyline
 90
        4
 70
     1
 43
0.0
 10
6.24999997397326
 20
17.57499951743489
 10
5.899999973973265
 20
17.57499951743489
 10
5.899999973973265
 20
16.59999951743498
 10
6.24999997397326
 20
16.59999951743498
  0
LWPOLYLINE
  5
7084
330
7064
100
AcDbEntity
  8
0
100
AcDbPolyline
 90
        4
 70
     1
 43
0.0
 10
6.24999997397326
 20
18.84999951743498
 10
5.899999973973265
 20
18.84999951743498
 10
5.899999973973265
 20
17.84999951743498
 10
6.24999997397326
 20
17.84999951743498
  0
LWPOLYLINE
  5
7085
330
7064
100
AcDbEntity
  8
0
100
AcDbPolyline
 90
        4
 70
     1
 43
0.0
 10
6.599999973973268
 20
19.69999951743488
 10
2.899999973973265
 20
19.69999951743488
 10
2.899999973973265
 20
9.47499951743498
 10
6.599999973973268
 20
9.47499951743498
  0
ELLIPSE
  5
7086
330
7064
100
AcDbEntity
  8
0
100
AcDbEllipse
 10
6.549999973973257
 20
10.02499951743493
 30
0.0
 11
0.0
 21
1.25
 31
0.0
210
0.0
220
0.0
230
1.0
 40
0.98
 41
3.380894
 42
4.528311
  0
ELLIPSE
  5
7087
330
7064
100
AcDbEntity
  8
0
100
AcDbEllipse
 10
6.549999973973257
 20
19.37499951743484
 30
0.0
 11
0.0
 21
1.25
 31
0.0
210
0.0
220
0.0
230
1.0
 40
0.98
 41
4.509903999999999
 42
6.059223999999999
  0
ELLIPSE
  5
7088
330
7064
100
AcDbEntity
  8
0
100
AcDbEllipse
 10
2.87499997397326
 20
9.049999517435026
 30
0.0
 11
0.0
 21
1.25
 31
0.0
210
0.0
220
0.0
230
1.0
 40
0.98
 41
1.708854999999999
 42
3.380894
  0
ELLIPSE
  5
7089
330
7064
100
AcDbEntity
  8
0
100
AcDbEllipse
 10
2.87499997397326
 20
20.29999951743502
 30
0.0
 11
0.0
 21
1.25
 31
0.0
210
0.0
220
0.0
230
1.0
 40
0.98
 41
6.03468
 42
8.053399307179585
  0
LINE
  5
708A
330
7064
100
AcDbEntity
  8
0
100
AcDbLine
 10
6.849999973973268
 20
20.54999951743502
 30
0.0
 11
3.149999973973265
 21
21.47499951743498
 31
0.0
  0
LINE
  5
708B
330
7064
100
AcDbEntity
  8
0
100
AcDbLine
 10
7.774999973973265
 20
10.02499951743493
 30
0.0
 11
7.774999973973265
 21
19.37499951743484
 31
0.0
  0
LINE
  5
708C
330
7064
100
AcDbEntity
  8
0
100
AcDbLine
 10
3.149999973973265
 20
7.799999517435026
 30
0.0
 11
6.849999973973268
 21
8.774999517434935
 31
0.0
  0
LINE
  5
708D
330
7064
100
AcDbEntity
  8
0
100
AcDbLine
 10
1.649999973973265
 20
20.29999951743502
 30
0.0
 11
1.649999973973265
 21
8.949999517434889
 31
0.0
  0
LINE
  5
708E
330
7064
100
AcDbEntity
  8
0
100
AcDbLine
 10
8.524999973973265
 20
23.09999951743498
 30
0.0
 11
0.8999999739732658
 21
23.09999951743498
 31
0.0
  0
ENDBLK
  5
7090
330
7064
100
AcDbEntity
  8
0
100
AcDbBlockEnd
  0
BLOCK
  5
70A7
330
7091
100
AcDbEntity
  8
0
100
AcDbBlockBegin
  2
A$C2F696F30
 70
     0
 10
0.0
 20
0.0
 30
0.0
  3
A$C2F696F30
  1

  0
LINE
  5
7092
330
7091
100
AcDbEntity
  8
0
100
AcDbLine
 10
1.400000765164122
 20
-0.0000001933823341
 30
0.0
 11
5.400000765164122
 21
-0.0000001933823341
 31
0.0
  0
LINE
  5
7093
330
7091
100
AcDbEntity
  8
0
100
AcDbLine
 10
1.400000765164122
 20
13.77499980661764
 30
0.0
 11
5.400000765164122
 21
13.77499980661764
 31
0.0
  0
LWPOLYLINE
  5
7094
330
7091
100
AcDbEntity
  8
0
100
AcDbPolyline
 90
        4
 70
     1
 43
0.2
 10
15.40000076516412
 20
13.34999980661768
 10
15.40000076516412
 20
0.3499998066176886
 10
0.4000007651641227
 20
0.3499998066176886
 10
0.4000007651641227
 20
13.34999980661768
  0
LWPOLYLINE
  5
7095
330
7091
100
AcDbEntity
  8
0
100
AcDbPolyline
 90
        4
 70
     1
 43
0.2
 10
1.400000765164122
 20
12.34999980661768
 10
3.400000765164122
 20
12.34999980661768
 10
3.400000765164122
 20
1.349999806617688
 10
1.400000765164122
 20
1.349999806617688
  0
LWPOLYLINE
  5
7096
330
7091
100
AcDbEntity
  8
0
100
AcDbPolyline
 90
        4
 70
     1
 43
0.2
 10
3.950000765164119
 20
3.349999806617688
 10
3.950000765164119
 20
2.349999806617688
 10
3.400000765164122
 20
2.349999806617688
 10
3.400000765164122
 20
3.349999806617688
  0
LWPOLYLINE
  5
7097
330
7091
100
AcDbEntity
  8
0
100
AcDbPolyline
 90
        4
 70
     1
 43
0.2
 10
3.950000765164119
 20
5.749999806617665
 10
3.950000765164119
 20
4.749999806617665
 10
3.400000765164122
 20
4.749999806617665
 10
3.400000765164122
 20
5.749999806617665
  0
LINE
  5
7098
330
7091
100
AcDbEntity
  8
0
100
AcDbLine
 10
0.0000007651641241
 20
1.349999806617688
 30
0.0
 11
0.0000007651641241
 21
5.349999806617688
 31
0.0
  0
LWPOLYLINE
  5
7099
330
7091
100
AcDbEntity
  8
0
100
AcDbPolyline
 90
        4
 70
     1
 43
0.2
 10
3.950000765164119
 20
8.949999806617711
 10
3.950000765164119
 20
7.949999806617711
 10
3.400000765164122
 20
7.949999806617711
 10
3.400000765164122
 20
8.949999806617711
  0
LWPOLYLINE
  5
709A
330
7091
100
AcDbEntity
  8
0
100
AcDbPolyline
 90
        4
 70
     1
 43
0.2
 10
3.950000765164119
 20
11.34999980661768
 10
3.950000765164119
 20
10.34999980661768
 10
3.400000765164122
 20
10.34999980661768
 10
3.400000765164122
 20
11.34999980661768
  0
LINE
  5
709B
330
7091
100
AcDbEntity
  8
0
100
AcDbLine
 10
0.0000007651641241
 20
12.34999980661768
 30
0.0
 11
0.0000007651641241
 21
8.349999806617688
 31
0.0
  0
LWPOLYLINE
  5
709C
330
7091
100
AcDbEntity
  8
0
100
AcDbPolyline
 90
        4
 70
     1
 43
0.2
 10
10.40000076516412
 20
12.34999980661768
 10
12.40000076516412
 20
12.34999980661768
 10
12.40000076516412
 20
1.349999806617688
 10
10.40000076516412
 20
1.349999806617688
  0
LINE
  5
709D
330
7091
100
AcDbEntity
  8
0
100
AcDbLine
 10
9.400000765164122
 20
13.34999980661768
 30
0.0
 11
9.400000765164122
 21
0.3499998066176886
 31
0.0
  0
LINE
  5
709E
330
7091
100
AcDbEntity
  8
0
100
AcDbLine
 10
6.400000765164122
 20
13.34999980661768
 30
0.0
 11
6.400000765164122
 21
0.3499998066176886
 31
0.0
  0
LWPOLYLINE
  5
709F
330
7091
100
AcDbEntity
  8
0
100
AcDbPolyline
 90
        4
 70
     1
 43
0.2
 10
12.95000076516412
 20
3.349999806617688
 10
12.95000076516412
 20
2.349999806617688
 10
12.40000076516412
 20
2.349999806617688
 10
12.40000076516412
 20
3.349999806617688
  0
LWPOLYLINE
  5
70A0
330
7091
100
AcDbEntity
  8
0
100
AcDbPolyline
 90
        4
 70
     1
 43
0.2
 10
12.95000076516412
 20
5.749999806617665
 10
12.95000076516412
 20
4.749999806617665
 10
12.40000076516412
 20
4.749999806617665
 10
12.40000076516412
 20
5.749999806617665
  0
LINE
  5
70A1
330
7091
100
AcDbEntity
  8
0
100
AcDbLine
 10
14.40000076516412
 20
-0.0000001933823341
 30
0.0
 11
10.40000076516412
 21
-0.0000001933823341
 31
0.0
  0
LINE
  5
70A2
330
7091
100
AcDbEntity
  8
0
100
AcDbLine
 10
15.80000076516412
 20
1.349999806617688
 30
0.0
 11
15.80000076516412
 21
5.349999806617688
 31
0.0
  0
LWPOLYLINE
  5
70A3
330
7091
100
AcDbEntity
  8
0
100
AcDbPolyline
 90
        4
 70
     1
 43
0.2
 10
12.95000076516412
 20
8.949999806617711
 10
12.95000076516412
 20
7.949999806617711
 10
12.40000076516412
 20
7.949999806617711
 10
12.40000076516412
 20
8.949999806617711
  0
LWPOLYLINE
  5
70A4
330
7091
100
AcDbEntity
  8
0
100
AcDbPolyline
 90
        4
 70
     1
 43
0.2
 10
12.95000076516412
 20
11.34999980661768
 10
12.95000076516412
 20
10.34999980661768
 10
12.40000076516412
 20
10.34999980661768
 10
12.40000076516412
 20
11.34999980661768
  0
LINE
  5
70A5
330
7091
100
AcDbEntity
  8
0
100
AcDbLine
 10
14.40000076516412
 20
13.77499980661764
 30
0.0
 11
10.40000076516412
 21
13.77499980661764
 31
0.0
  0
LINE
  5
70A6
330
7091
100
AcDbEntity
  8
0
100
AcDbLine
 10
15.80000076516412
 20
12.34999980661768
 30
0.0
 11
15.80000076516412
 21
8.349999806617688
 31
0.0
  0
ENDBLK
  5
70A8
330
7091
100
AcDbEntity
  8
0
100
AcDbBlockEnd
  0
BLOCK
  5
70DA
330
70A9
100
AcDbEntity
  8
0
100
AcDbBlockBegin
  2
A$C57095CDF
 70
     0
 10
0.0
 20
0.0
 30
0.0
  3
A$C57095CDF
  1

  0
LWPOLYLINE
  5
70AA
330
70A9
100
AcDbEntity
  8
0
100
AcDbPolyline
 90
        4
 70
     1
 43
0.0
 10
3.474999973973268
 20
16.69999991295117
 10
3.12499997397326
 20
16.69999991295117
 10
3.12499997397326
 20
15.72499991295103
 10
3.474999973973268
 20
15.72499991295103
  0
LWPOLYLINE
  5
70AB
330
70A9
100
AcDbEntity
  8
0
100
AcDbPolyline
 90
        4
 70
     1
 43
0.0
 10
6.24999997397326
 20
16.69999991295117
 10
5.899999973973265
 20
16.69999991295117
 10
5.899999973973265
 20
15.72499991295103
 10
6.24999997397326
 20
15.72499991295103
  0
LWPOLYLINE
  5
70AC
330
70A9
100
AcDbEntity
  8
0
100
AcDbPolyline
 90
        4
 70
     1
 43
0.0
 10
6.599999973973268
 20
24.09999991295103
 10
2.899999973973265
 20
24.09999991295103
 10
2.899999973973265
 20
9.94999991295117
 10
6.599999973973268
 20
9.94999991295117
  0
LINE
  5
70AD
330
70A9
100
AcDbEntity
  8
0
100
AcDbLine
 10
7.774999973973265
 20
9.899999912950988
 30
0.0
 11
7.774999973973265
 21
24.02499991295099
 31
0.0
  0
LINE
  5
70AE
330
70A9
100
AcDbEntity
  8
0
100
AcDbLine
 10
1.649999973973265
 20
24.94999991295117
 30
0.0
 11
1.649999973973265
 21
8.849999912951034
 31
0.0
  0
LWPOLYLINE
  5
70AF
330
70A9
100
AcDbEntity
  8
0
100
AcDbPolyline
 90
        4
 70
     1
 43
0.2
 10
0.0999999739732616
 20
33.42499991295108
 10
0.0999999739732616
 20
0.0999999129510343
 10
9.324999973973262
 20
0.0999999129510343
 10
9.324999973973262
 20
33.42499991295108
  0
LWPOLYLINE
  5
70B0
330
70A9
100
AcDbEntity
  8
0
100
AcDbPolyline
 90
        4
 70
     1
 43
0.0
 10
3.449999973973262
 20
11.87499991295112
 10
3.099999973973261
 20
11.87499991295112
 10
3.099999973973261
 20
10.89999991295098
 10
3.449999973973262
 20
10.89999991295098
  0
LWPOLYLINE
  5
70B1
330
70A9
100
AcDbEntity
  8
0
100
AcDbPolyline
 90
        4
 70
     1
 43
0.0
 10
6.224999973973268
 20
11.87499991295112
 10
5.87499997397326
 20
11.87499991295112
 10
5.87499997397326
 20
10.89999991295098
 10
6.224999973973268
 20
10.89999991295098
  0
LWPOLYLINE
  5
70B2
330
70A9
100
AcDbEntity
  8
0
100
AcDbPolyline
 90
        4
 70
     1
 43
0.0
 10
3.449999973973262
 20
13.07499991295117
 10
3.099999973973261
 20
13.07499991295117
 10
3.099999973973261
 20
12.09999991295103
 10
3.449999973973262
 20
12.09999991295103
  0
LWPOLYLINE
  5
70B3
330
70A9
100
AcDbEntity
  8
0
100
AcDbPolyline
 90
        4
 70
     1
 43
0.0
 10
6.224999973973268
 20
13.07499991295117
 10
5.87499997397326
 20
13.07499991295117
 10
5.87499997397326
 20
12.09999991295103
 10
6.224999973973268
 20
12.09999991295103
  0
LWPOLYLINE
  5
70B4
330
70A9
100
AcDbEntity
  8
0
100
AcDbPolyline
 90
        4
 70
     1
 43
0.0
 10
3.474999973973268
 20
14.27499991295098
 10
3.12499997397326
 20
14.27499991295098
 10
3.12499997397326
 20
13.29999991295108
 10
3.474999973973268
 20
13.29999991295108
  0
LWPOLYLINE
  5
70B5
330
70A9
100
AcDbEntity
  8
0
100
AcDbPolyline
 90
        4
 70
     1
 43
0.0
 10
6.24999997397326
 20
14.27499991295098
 10
5.899999973973265
 20
14.27499991295098
 10
5.899999973973265
 20
13.29999991295108
 10
6.24999997397326
 20
13.29999991295108
  0
LINE
  5
70B6
330
70A9
100
AcDbEntity
  8
0
100
AcDbLine
 10
0.8999999739732658
 20
4.274999912950988
 30
0.0
 11
0.8999999739732658
 21
6.349999912951034
 31
0.0
  0
LINE
  5
70B7
330
70A9
100
AcDbEntity
  8
0
100
AcDbLine
 10
8.524999973973265
 20
4.274999912950988
 30
0.0
 11
8.524999973973265
 21
6.349999912951034
 31
0.0
  0
LINE
  5
70B8
330
70A9
100
AcDbEntity
  8
0
100
AcDbLine
 10
6.599999973973268
 20
4.249999912951125
 30
0.0
 11
6.599999973973268
 21
5.224999912951034
 31
0.0
  0
LINE
  5
70B9
330
70A9
100
AcDbEntity
  8
0
100
AcDbLine
 10
6.599999973973268
 20
5.249999912951125
 30
0.0
 11
3.024999973973265
 21
5.249999912951125
 31
0.0
  0
LINE
  5
70BA
330
70A9
100
AcDbEntity
  8
0
100
AcDbLine
 10
3.024999973973265
 20
4.274999912950988
 30
0.0
 11
3.024999973973265
 21
5.249999912951125
 31
0.0
  0
LINE
  5
70BB
330
70A9
100
AcDbEntity
  8
0
100
AcDbLine
 10
3.024999973973265
 20
4.274999912950988
 30
0.0
 11
0.8999999739732658
 21
4.274999912950988
 31
0.0
  0
LINE
  5
70BC
330
70A9
100
AcDbEntity
  8
0
100
AcDbLine
 10
8.524999973973265
 20
4.274999912950988
 30
0.0
 11
6.599999973973268
 21
4.274999912950988
 31
0.0
  0
LINE
  5
70BD
330
70A9
100
AcDbEntity
  8
0
100
AcDbLine
 10
8.524999973973265
 20
6.349999912951034
 30
0.0
 11
0.8999999739732658
 21
6.349999912951034
 31
0.0
  0
LWPOLYLINE
  5
70BE
330
70A9
100
AcDbEntity
  8
0
100
AcDbPolyline
 90
        4
 70
     1
 43
0.0
 10
3.474999973973268
 20
15.52499991295098
 10
3.12499997397326
 20
15.52499991295098
 10
3.12499997397326
 20
14.54999991295108
 10
3.474999973973268
 20
14.54999991295108
  0
LWPOLYLINE
  5
70BF
330
70A9
100
AcDbEntity
  8
0
100
AcDbPolyline
 90
        4
 70
     1
 43
0.0
 10
6.24999997397326
 20
15.52499991295098
 10
5.899999973973265
 20
15.52499991295098
 10
5.899999973973265
 20
14.54999991295108
 10
6.24999997397326
 20
14.54999991295108
  0
ELLIPSE
  5
70C0
330
70A9
100
AcDbEntity
  8
0
100
AcDbEllipse
 10
6.549999973973257
 20
9.999999912951125
 30
0.0
 11
0.0
 21
1.25
 31
0.0
210
0.0
220
0.0
230
1.0
 40
0.98
 41
3.380894
 42
4.528311
  0
ELLIPSE
  5
70C1
330
70A9
100
AcDbEntity
  8
0
100
AcDbEllipse
 10
2.87499997397326
 20
9.024999912950988
 30
0.0
 11
0.0
 21
1.25
 31
0.0
210
0.0
220
0.0
230
1.0
 40
0.98
 41
1.708854999999999
 42
3.380894
  0
LINE
  5
70C2
330
70A9
100
AcDbEntity
  8
0
100
AcDbLine
 10
3.149999973973265
 20
7.774999912950988
 30
0.0
 11
6.849999973973268
 21
8.749999912951125
 31
0.0
  0
ELLIPSE
  5
70C3
330
70A9
100
AcDbEntity
  8
0
100
AcDbEllipse
 10
4.724999973973268
 20
3.374999912951125
 30
0.0
 11
0.0
 21
0.775
 31
0.0
210
0.0
220
0.0
230
1.0
 40
0.9677419999999999
 41
0.0
 42
6.283184999999999
  0
LINE
  5
70C4
330
70A9
100
AcDbEntity
  8
0
100
AcDbLine
 10
0.8999999739732658
 20
29.82499991295117
 30
0.0
 11
0.8999999739732658
 21
27.74999991295112
 31
0.0
  0
LINE
  5
70C5
330
70A9
100
AcDbEntity
  8
0
100
AcDbLine
 10
8.524999973973265
 20
29.82499991295117
 30
0.0
 11
8.524999973973265
 21
27.74999991295112
 31
0.0
  0
LINE
  5
70C6
330
70A9
100
AcDbEntity
  8
0
100
AcDbLine
 10
6.599999973973268
 20
29.84999991295103
 30
0.0
 11
6.599999973973268
 21
28.87499991295112
 31
0.0
  0
LINE
  5
70C7
330
70A9
100
AcDbEntity
  8
0
100
AcDbLine
 10
6.599999973973268
 20
28.84999991295103
 30
0.0
 11
3.024999973973265
 21
28.84999991295103
 31
0.0
  0
LINE
  5
70C8
330
70A9
100
AcDbEntity
  8
0
100
AcDbLine
 10
3.024999973973265
 20
29.82499991295117
 30
0.0
 11
3.024999973973265
 21
28.84999991295103
 31
0.0
  0
LINE
  5
70C9
330
70A9
100
AcDbEntity
  8
0
100
AcDbLine
 10
3.024999973973265
 20
29.82499991295117
 30
0.0
 11
0.8999999739732658
 21
29.82499991295117
 31
0.0
  0
LINE
  5
70CA
330
70A9
100
AcDbEntity
  8
0
100
AcDbLine
 10
8.524999973973265
 20
29.82499991295117
 30
0.0
 11
6.599999973973268
 21
29.82499991295117
 31
0.0
  0
LWPOLYLINE
  5
70CB
330
70A9
100
AcDbEntity
  8
0
100
AcDbPolyline
 90
        4
 70
     1
 43
0.0
 10
3.474999973973268
 20
17.97499991295103
 10
3.12499997397326
 20
17.97499991295103
 10
3.12499997397326
 20
16.99999991295112
 10
3.474999973973268
 20
16.99999991295112
  0
LWPOLYLINE
  5
70CC
330
70A9
100
AcDbEntity
  8
0
100
AcDbPolyline
 90
        4
 70
     1
 43
0.0
 10
3.474999973973268
 20
19.29999991295107
 10
3.12499997397326
 20
19.29999991295107
 10
3.12499997397326
 20
18.34999991295103
 10
3.474999973973268
 20
18.34999991295103
  0
LWPOLYLINE
  5
70CD
330
70A9
100
AcDbEntity
  8
0
100
AcDbPolyline
 90
        4
 70
     1
 43
0.0
 10
3.474999973973268
 20
20.57499991295117
 10
3.12499997397326
 20
20.57499991295117
 10
3.12499997397326
 20
19.59999991295103
 10
3.474999973973268
 20
19.59999991295103
  0
LWPOLYLINE
  5
70CE
330
70A9
100
AcDbEntity
  8
0
100
AcDbPolyline
 90
        4
 70
     1
 43
0.0
 10
3.474999973973268
 20
21.79999991295108
 10
3.12499997397326
 20
21.79999991295108
 10
3.12499997397326
 20
20.82499991295116
 10
3.474999973973268
 20
20.82499991295116
  0
LWPOLYLINE
  5
70CF
330
70A9
100
AcDbEntity
  8
0
100
AcDbPolyline
 90
        4
 70
     1
 43
0.0
 10
3.474999973973268
 20
23.07499991295117
 10
3.12499997397326
 20
23.07499991295117
 10
3.12499997397326
 20
22.07499991295116
 10
3.474999973973268
 20
22.07499991295116
  0
LWPOLYLINE
  5
70D0
330
70A9
100
AcDbEntity
  8
0
100
AcDbPolyline
 90
        4
 70
     1
 43
0.0
 10
6.24999997397326
 20
17.97499991295103
 10
5.899999973973265
 20
17.97499991295103
 10
5.899999973973265
 20
16.99999991295112
 10
6.24999997397326
 20
16.99999991295112
  0
LWPOLYLINE
  5
70D1
330
70A9
100
AcDbEntity
  8
0
100
AcDbPolyline
 90
        4
 70
     1
 43
0.0
 10
6.24999997397326
 20
19.29999991295107
 10
5.899999973973265
 20
19.29999991295107
 10
5.899999973973265
 20
18.34999991295103
 10
6.24999997397326
 20
18.34999991295103
  0
LWPOLYLINE
  5
70D2
330
70A9
100
AcDbEntity
  8
0
100
AcDbPolyline
 90
        4
 70
     1
 43
0.0
 10
6.24999997397326
 20
20.57499991295117
 10
5.899999973973265
 20
20.57499991295117
 10
5.899999973973265
 20
19.59999991295103
 10
6.24999997397326
 20
19.59999991295103
  0
LWPOLYLINE
  5
70D3
330
70A9
100
AcDbEntity
  8
0
100
AcDbPolyline
 90
        4
 70
     1
 43
0.0
 10
6.24999997397326
 20
21.79999991295108
 10
5.899999973973265
 20
21.79999991295108
 10
5.899999973973265
 20
20.82499991295116
 10
6.24999997397326
 20
20.82499991295116
  0
LWPOLYLINE
  5
70D4
330
70A9
100
AcDbEntity
  8
0
100
AcDbPolyline
 90
        4
 70
     1
 43
0.0
 10
6.24999997397326
 20
23.07499991295117
 10
5.899999973973265
 20
23.07499991295117
 10
5.899999973973265
 20
22.07499991295116
 10
6.24999997397326
 20
22.07499991295116
  0
ELLIPSE
  5
70D5
330
70A9
100
AcDbEntity
  8
0
100
AcDbEllipse
 10
6.549999973973257
 20
24.02499991295099
 30
0.0
 11
0.0
 21
1.25
 31
0.0
210
0.0
220
0.0
230
1.0
 40
0.98
 41
4.509903999999999
 42
6.059223999999999
  0
ELLIPSE
  5
70D6
330
70A9
100
AcDbEntity
  8
0
100
AcDbEllipse
 10
2.87499997397326
 20
24.94999991295117
 30
0.0
 11
0.0
 21
1.25
 31
0.0
210
0.0
220
0.0
230
1.0
 40
0.98
 41
6.03468
 42
8.053399307179585
  0
LINE
  5
70D7
330
70A9
100
AcDbEntity
  8
0
100
AcDbLine
 10
6.849999973973268
 20
25.19999991295117
 30
0.0
 11
3.149999973973265
 21
26.12499991295112
 31
0.0
  0
ELLIPSE
  5
70D8
330
70A9
100
AcDbEntity
  8
0
100
AcDbEllipse
 10
4.724999973973268
 20
31.04999991295108
 30
0.0
 11
0.0
 21
0.775
 31
0.0
210
0.0
220
0.0
230
1.0
 40
0.9677419999999999
 41
0.0
 42
6.283184999999999
  0
LINE
  5
70D9
330
70A9
100
AcDbEntity
  8
0
100
AcDbLine
 10
8.524999973973265
 20
27.74999991295112
 30
0.0
 11
0.8999999739732658
 21
27.74999991295112
 31
0.0
  0
ENDBLK
  5
70DB
330
70A9
100
AcDbEntity
  8
0
100
AcDbBlockEnd
  0
BLOCK
  5
711D
330
70DC
100
AcDbEntity
  8
0
100
AcDbBlockBegin
  2
A$C3A6E1F00
 70
     0
 10
0.0
 20
0.0
 30
0.0
  3
A$C3A6E1F00
  1

  0
LWPOLYLINE
  5
70DD
330
70DC
100
AcDbEntity
  8
0
100
AcDbPolyline
 90
        4
 70
     1
 43
0.0
 10
3.449999973973262
 20
15.9499995198721
 10
3.099999973973261
 20
15.9499995198721
 10
3.099999973973261
 20
14.9749995198722
 10
3.449999973973262
 20
14.9749995198722
  0
LWPOLYLINE
  5
70DE
330
70DC
100
AcDbEntity
  8
0
100
AcDbPolyline
 90
        4
 70
     1
 43
0.0
 10
6.224999973973268
 20
15.9499995198721
 10
5.87499997397326
 20
15.9499995198721
 10
5.87499997397326
 20
14.9749995198722
 10
6.224999973973268
 20
14.9749995198722
  0
LWPOLYLINE
  5
70DF
330
70DC
100
AcDbEntity
  8
0
100
AcDbPolyline
 90
        4
 70
     1
 43
0.0
 10
6.599999973973268
 20
34.0749995198721
 10
2.899999973973265
 20
34.0749995198721
 10
2.899999973973265
 20
10.27499951987215
 10
6.599999973973268
 20
10.27499951987215
  0
LINE
  5
70E0
330
70DC
100
AcDbEntity
  8
0
100
AcDbLine
 10
7.774999973973265
 20
9.824999519872108
 30
0.0
 11
7.774999973973265
 21
33.99999951987206
 31
0.0
  0
LINE
  5
70E1
330
70DC
100
AcDbEntity
  8
0
100
AcDbLine
 10
1.649999973973265
 20
34.92499951987224
 30
0.0
 11
1.649999973973265
 21
8.899999519872153
 31
0.0
  0
LWPOLYLINE
  5
70E2
330
70DC
100
AcDbEntity
  8
0
100
AcDbPolyline
 90
        4
 70
     1
 43
0.2
 10
0.0999999739732616
 20
43.39999951987215
 10
0.0999999739732616
 20
0.099999519872199
 10
9.324999973973262
 20
0.099999519872199
 10
9.324999973973262
 20
43.39999951987215
  0
LWPOLYLINE
  5
70E3
330
70DC
100
AcDbEntity
  8
0
100
AcDbPolyline
 90
        4
 70
     1
 43
0.0
 10
3.449999973973262
 20
12.29999951987224
 10
3.099999973973261
 20
12.29999951987224
 10
3.099999973973261
 20
11.3249995198721
 10
3.449999973973262
 20
11.3249995198721
  0
LWPOLYLINE
  5
70E4
330
70DC
100
AcDbEntity
  8
0
100
AcDbPolyline
 90
        4
 70
     1
 43
0.0
 10
6.224999973973268
 20
12.29999951987224
 10
5.87499997397326
 20
12.29999951987224
 10
5.87499997397326
 20
11.3249995198721
 10
6.224999973973268
 20
11.3249995198721
  0
LWPOLYLINE
  5
70E5
330
70DC
100
AcDbEntity
  8
0
100
AcDbPolyline
 90
        4
 70
     1
 43
0.0
 10
3.449999973973262
 20
13.52499951987215
 10
3.099999973973261
 20
13.52499951987215
 10
3.099999973973261
 20
12.54999951987224
 10
3.449999973973262
 20
12.54999951987224
  0
LWPOLYLINE
  5
70E6
330
70DC
100
AcDbEntity
  8
0
100
AcDbPolyline
 90
        4
 70
     1
 43
0.0
 10
6.224999973973268
 20
13.52499951987215
 10
5.87499997397326
 20
13.52499951987215
 10
5.87499997397326
 20
12.54999951987224
 10
6.224999973973268
 20
12.54999951987224
  0
LWPOLYLINE
  5
70E7
330
70DC
100
AcDbEntity
  8
0
100
AcDbPolyline
 90
        4
 70
     1
 43
0.0
 10
3.449999973973262
 20
14.74999951987206
 10
3.099999973973261
 20
14.74999951987206
 10
3.099999973973261
 20
13.77499951987215
 10
3.449999973973262
 20
13.77499951987215
  0
LWPOLYLINE
  5
70E8
330
70DC
100
AcDbEntity
  8
0
100
AcDbPolyline
 90
        4
 70
     1
 43
0.0
 10
6.224999973973268
 20
14.74999951987206
 10
5.87499997397326
 20
14.74999951987206
 10
5.87499997397326
 20
13.77499951987215
 10
6.224999973973268
 20
13.77499951987215
  0
LINE
  5
70E9
330
70DC
100
AcDbEntity
  8
0
100
AcDbLine
 10
0.8999999739732658
 20
4.374999519872176
 30
0.0
 11
0.8999999739732658
 21
6.449999519872108
 31
0.0
  0
LINE
  5
70EA
330
70DC
100
AcDbEntity
  8
0
100
AcDbLine
 10
8.524999973973265
 20
4.374999519872176
 30
0.0
 11
8.524999973973265
 21
6.449999519872108
 31
0.0
  0
LINE
  5
70EB
330
70DC
100
AcDbEntity
  8
0
100
AcDbLine
 10
6.599999973973268
 20
4.349999519872199
 30
0.0
 11
6.599999973973268
 21
5.324999519872108
 31
0.0
  0
LINE
  5
70EC
330
70DC
100
AcDbEntity
  8
0
100
AcDbLine
 10
6.599999973973268
 20
5.349999519872199
 30
0.0
 11
3.024999973973265
 21
5.349999519872199
 31
0.0
  0
LINE
  5
70ED
330
70DC
100
AcDbEntity
  8
0
100
AcDbLine
 10
3.024999973973265
 20
4.374999519872176
 30
0.0
 11
3.024999973973265
 21
5.349999519872199
 31
0.0
  0
LINE
  5
70EE
330
70DC
100
AcDbEntity
  8
0
100
AcDbLine
 10
3.024999973973265
 20
4.374999519872176
 30
0.0
 11
0.8999999739732658
 21
4.374999519872176
 31
0.0
  0
LINE
  5
70EF
330
70DC
100
AcDbEntity
  8
0
100
AcDbLine
 10
8.524999973973265
 20
4.374999519872176
 30
0.0
 11
6.599999973973268
 21
4.374999519872176
 31
0.0
  0
LINE
  5
70F0
330
70DC
100
AcDbEntity
  8
0
100
AcDbLine
 10
8.524999973973265
 20
6.449999519872108
 30
0.0
 11
0.8999999739732658
 21
6.449999519872108
 31
0.0
  0
ELLIPSE
  5
70F1
330
70DC
100
AcDbEntity
  8
0
100
AcDbEllipse
 10
6.549999973973257
 20
10.04999951987224
 30
0.0
 11
0.0
 21
1.25
 31
0.0
210
0.0
220
0.0
230
1.0
 40
0.98
 41
3.380894
 42
4.528311
  0
ELLIPSE
  5
70F2
330
70DC
100
AcDbEntity
  8
0
100
AcDbEllipse
 10
2.87499997397326
 20
9.074999519872108
 30
0.0
 11
0.0
 21
1.25
 31
0.0
210
0.0
220
0.0
230
1.0
 40
0.98
 41
1.708854999999999
 42
3.380894
  0
LINE
  5
70F3
330
70DC
100
AcDbEntity
  8
0
100
AcDbLine
 10
3.149999973973265
 20
7.824999519872108
 30
0.0
 11
6.849999973973268
 21
8.799999519872244
 31
0.0
  0
ELLIPSE
  5
70F4
330
70DC
100
AcDbEntity
  8
0
100
AcDbEllipse
 10
4.724999973973268
 20
3.474999519872199
 30
0.0
 11
0.0
 21
0.775
 31
0.0
210
0.0
220
0.0
230
1.0
 40
0.9677419999999999
 41
0.0
 42
6.283184999999999
  0
LINE
  5
70F5
330
70DC
100
AcDbEntity
  8
0
100
AcDbLine
 10
0.8999999739732658
 20
39.79999951987224
 30
0.0
 11
0.8999999739732658
 21
37.72499951987219
 31
0.0
  0
LINE
  5
70F6
330
70DC
100
AcDbEntity
  8
0
100
AcDbLine
 10
8.524999973973265
 20
39.79999951987224
 30
0.0
 11
8.524999973973265
 21
37.72499951987219
 31
0.0
  0
LWPOLYLINE
  5
70F7
330
70DC
100
AcDbEntity
  8
0
100
AcDbPolyline
 90
        4
 70
     1
 43
0.0
 10
3.449999973973262
 20
17.12499951987206
 10
3.099999973973261
 20
17.12499951987206
 10
3.099999973973261
 20
16.14999951987215
 10
3.449999973973262
 20
16.14999951987215
  0
LWPOLYLINE
  5
70F8
330
70DC
100
AcDbEntity
  8
0
100
AcDbPolyline
 90
        4
 70
     1
 43
0.0
 10
6.224999973973268
 20
17.12499951987206
 10
5.87499997397326
 20
17.12499951987206
 10
5.87499997397326
 20
16.14999951987215
 10
6.224999973973268
 20
16.14999951987215
  0
LWPOLYLINE
  5
70F9
330
70DC
100
AcDbEntity
  8
0
100
AcDbPolyline
 90
        4
 70
     1
 43
0.0
 10
3.449999973973262
 20
18.29999951987224
 10
3.099999973973261
 20
18.29999951987224
 10
3.099999973973261
 20
17.3249995198721
 10
3.449999973973262
 20
17.3249995198721
  0
LWPOLYLINE
  5
70FA
330
70DC
100
AcDbEntity
  8
0
100
AcDbPolyline
 90
        4
 70
     1
 43
0.0
 10
6.224999973973268
 20
18.29999951987224
 10
5.87499997397326
 20
18.29999951987224
 10
5.87499997397326
 20
17.3249995198721
 10
6.224999973973268
 20
17.3249995198721
  0
LWPOLYLINE
  5
70FB
330
70DC
100
AcDbEntity
  8
0
100
AcDbPolyline
 90
        4
 70
     1
 43
0.0
 10
3.449999973973262
 20
19.4749995198722
 10
3.099999973973261
 20
19.4749995198722
 10
3.099999973973261
 20
18.49999951987206
 10
3.449999973973262
 20
18.49999951987206
  0
LWPOLYLINE
  5
70FC
330
70DC
100
AcDbEntity
  8
0
100
AcDbPolyline
 90
        4
 70
     1
 43
0.0
 10
6.224999973973268
 20
19.4749995198722
 10
5.87499997397326
 20
19.4749995198722
 10
5.87499997397326
 20
18.49999951987206
 10
6.224999973973268
 20
18.49999951987206
  0
LWPOLYLINE
  5
70FD
330
70DC
100
AcDbEntity
  8
0
100
AcDbPolyline
 90
        4
 70
     1
 43
0.0
 10
3.449999973973262
 20
20.67499951987224
 10
3.099999973973261
 20
20.67499951987224
 10
3.099999973973261
 20
19.6999995198721
 10
3.449999973973262
 20
19.6999995198721
  0
LWPOLYLINE
  5
70FE
330
70DC
100
AcDbEntity
  8
0
100
AcDbPolyline
 90
        4
 70
     1
 43
0.0
 10
6.224999973973268
 20
20.67499951987224
 10
5.87499997397326
 20
20.67499951987224
 10
5.87499997397326
 20
19.6999995198721
 10
6.224999973973268
 20
19.6999995198721
  0
LWPOLYLINE
  5
70FF
330
70DC
100
AcDbEntity
  8
0
100
AcDbPolyline
 90
        4
 70
     1
 43
0.0
 10
3.449999973973262
 20
21.8499995198722
 10
3.099999973973261
 20
21.8499995198722
 10
3.099999973973261
 20
20.87499951987206
 10
3.449999973973262
 20
20.87499951987206
  0
LWPOLYLINE
  5
7100
330
70DC
100
AcDbEntity
  8
0
100
AcDbPolyline
 90
        4
 70
     1
 43
0.0
 10
6.224999973973268
 20
21.8499995198722
 10
5.87499997397326
 20
21.8499995198722
 10
5.87499997397326
 20
20.87499951987206
 10
6.224999973973268
 20
20.87499951987206
  0
LWPOLYLINE
  5
7101
330
70DC
100
AcDbEntity
  8
0
100
AcDbPolyline
 90
        4
 70
     1
 43
0.0
 10
3.449999973973262
 20
23.04999951987224
 10
3.099999973973261
 20
23.04999951987224
 10
3.099999973973261
 20
22.0749995198721
 10
3.449999973973262
 20
22.0749995198721
  0
LWPOLYLINE
  5
7102
330
70DC
100
AcDbEntity
  8
0
100
AcDbPolyline
 90
        4
 70
     1
 43
0.0
 10
6.224999973973268
 20
23.04999951987224
 10
5.87499997397326
 20
23.04999951987224
 10
5.87499997397326
 20
22.0749995198721
 10
6.224999973973268
 20
22.0749995198721
  0
LWPOLYLINE
  5
7103
330
70DC
100
AcDbEntity
  8
0
100
AcDbPolyline
 90
        4
 70
     1
 43
0.0
 10
3.474999973973268
 20
24.24999951987206
 10
3.12499997397326
 20
24.24999951987206
 10
3.12499997397326
 20
23.27499951987215
 10
3.474999973973268
 20
23.27499951987215
  0
LWPOLYLINE
  5
7104
330
70DC
100
AcDbEntity
  8
0
100
AcDbPolyline
 90
        4
 70
     1
 43
0.0
 10
6.24999997397326
 20
24.24999951987206
 10
5.899999973973265
 20
24.24999951987206
 10
5.899999973973265
 20
23.27499951987215
 10
6.24999997397326
 20
23.27499951987215
  0
LWPOLYLINE
  5
7105
330
70DC
100
AcDbEntity
  8
0
100
AcDbPolyline
 90
        4
 70
     1
 43
0.0
 10
3.474999973973268
 20
25.49999951987206
 10
3.12499997397326
 20
25.49999951987206
 10
3.12499997397326
 20
24.52499951987215
 10
3.474999973973268
 20
24.52499951987215
  0
LWPOLYLINE
  5
7106
330
70DC
100
AcDbEntity
  8
0
100
AcDbPolyline
 90
        4
 70
     1
 43
0.0
 10
3.474999973973268
 20
26.67499951987224
 10
3.12499997397326
 20
26.67499951987224
 10
3.12499997397326
 20
25.6999995198721
 10
3.474999973973268
 20
25.6999995198721
  0
LWPOLYLINE
  5
7107
330
70DC
100
AcDbEntity
  8
0
100
AcDbPolyline
 90
        4
 70
     1
 43
0.0
 10
3.474999973973268
 20
27.94999951987211
 10
3.12499997397326
 20
27.94999951987211
 10
3.12499997397326
 20
26.9749995198722
 10
3.474999973973268
 20
26.9749995198722
  0
LWPOLYLINE
  5
7108
330
70DC
100
AcDbEntity
  8
0
100
AcDbPolyline
 90
        4
 70
     1
 43
0.0
 10
3.474999973973268
 20
29.27499951987215
 10
3.12499997397326
 20
29.27499951987215
 10
3.12499997397326
 20
28.32499951987211
 10
3.474999973973268
 20
28.32499951987211
  0
LWPOLYLINE
  5
7109
330
70DC
100
AcDbEntity
  8
0
100
AcDbPolyline
 90
        4
 70
     1
 43
0.0
 10
3.474999973973268
 20
30.54999951987224
 10
3.12499997397326
 20
30.54999951987224
 10
3.12499997397326
 20
29.57499951987211
 10
3.474999973973268
 20
29.57499951987211
  0
LWPOLYLINE
  5
710A
330
70DC
100
AcDbEntity
  8
0
100
AcDbPolyline
 90
        4
 70
     1
 43
0.0
 10
3.474999973973268
 20
31.77499951987215
 10
3.12499997397326
 20
31.77499951987215
 10
3.12499997397326
 20
30.79999951987224
 10
3.474999973973268
 20
30.79999951987224
  0
LWPOLYLINE
  5
710B
330
70DC
100
AcDbEntity
  8
0
100
AcDbPolyline
 90
        4
 70
     1
 43
0.0
 10
3.474999973973268
 20
33.04999951987224
 10
3.12499997397326
 20
33.04999951987224
 10
3.12499997397326
 20
32.04999951987224
 10
3.474999973973268
 20
32.04999951987224
  0
LWPOLYLINE
  5
710C
330
70DC
100
AcDbEntity
  8
0
100
AcDbPolyline
 90
        4
 70
     1
 43
0.0
 10
6.24999997397326
 20
25.49999951987206
 10
5.899999973973265
 20
25.49999951987206
 10
5.899999973973265
 20
24.52499951987215
 10
6.24999997397326
 20
24.52499951987215
  0
LWPOLYLINE
  5
710D
330
70DC
100
AcDbEntity
  8
0
100
AcDbPolyline
 90
        4
 70
     1
 43
0.0
 10
6.24999997397326
 20
26.67499951987224
 10
5.899999973973265
 20
26.67499951987224
 10
5.899999973973265
 20
25.6999995198721
 10
6.24999997397326
 20
25.6999995198721
  0
LWPOLYLINE
  5
710E
330
70DC
100
AcDbEntity
  8
0
100
AcDbPolyline
 90
        4
 70
     1
 43
0.0
 10
6.24999997397326
 20
27.94999951987211
 10
5.899999973973265
 20
27.94999951987211
 10
5.899999973973265
 20
26.9749995198722
 10
6.24999997397326
 20
26.9749995198722
  0
LWPOLYLINE
  5
710F
330
70DC
100
AcDbEntity
  8
0
100
AcDbPolyline
 90
        4
 70
     1
 43
0.0
 10
6.24999997397326
 20
29.27499951987215
 10
5.899999973973265
 20
29.27499951987215
 10
5.899999973973265
 20
28.32499951987211
 10
6.24999997397326
 20
28.32499951987211
  0
LWPOLYLINE
  5
7110
330
70DC
100
AcDbEntity
  8
0
100
AcDbPolyline
 90
        4
 70
     1
 43
0.0
 10
6.24999997397326
 20
30.54999951987224
 10
5.899999973973265
 20
30.54999951987224
 10
5.899999973973265
 20
29.57499951987211
 10
6.24999997397326
 20
29.57499951987211
  0
LWPOLYLINE
  5
7111
330
70DC
100
AcDbEntity
  8
0
100
AcDbPolyline
 90
        4
 70
     1
 43
0.0
 10
6.24999997397326
 20
31.77499951987215
 10
5.899999973973265
 20
31.77499951987215
 10
5.899999973973265
 20
30.79999951987224
 10
6.24999997397326
 20
30.79999951987224
  0
LWPOLYLINE
  5
7112
330
70DC
100
AcDbEntity
  8
0
100
AcDbPolyline
 90
        4
 70
     1
 43
0.0
 10
6.24999997397326
 20
33.04999951987224
 10
5.899999973973265
 20
33.04999951987224
 10
5.899999973973265
 20
32.04999951987224
 10
6.24999997397326
 20
32.04999951987224
  0
ELLIPSE
  5
7113
330
70DC
100
AcDbEntity
  8
0
100
AcDbEllipse
 10
6.549999973973257
 20
33.99999951987206
 30
0.0
 11
0.0
 21
1.25
 31
0.0
210
0.0
220
0.0
230
1.0
 40
0.98
 41
4.509903999999999
 42
6.059223999999999
  0
ELLIPSE
  5
7114
330
70DC
100
AcDbEntity
  8
0
100
AcDbEllipse
 10
2.87499997397326
 20
34.92499951987224
 30
0.0
 11
0.0
 21
1.25
 31
0.0
210
0.0
220
0.0
230
1.0
 40
0.98
 41
6.03468
 42
8.053399307179585
  0
LINE
  5
7115
330
70DC
100
AcDbEntity
  8
0
100
AcDbLine
 10
6.849999973973268
 20
35.17499951987224
 30
0.0
 11
3.149999973973265
 21
36.09999951987219
 31
0.0
  0
LINE
  5
7116
330
70DC
100
AcDbEntity
  8
0
100
AcDbLine
 10
8.524999973973265
 20
37.72499951987219
 30
0.0
 11
0.8999999739732658
 21
37.72499951987219
 31
0.0
  0
LINE
  5
7117
330
70DC
100
AcDbEntity
  8
0
100
AcDbLine
 10
6.599999973973268
 20
39.82499951987211
 30
0.0
 11
6.599999973973268
 21
38.8499995198722
 31
0.0
  0
LINE
  5
7118
330
70DC
100
AcDbEntity
  8
0
100
AcDbLine
 10
6.599999973973268
 20
38.8249995198721
 30
0.0
 11
3.024999973973265
 21
38.8249995198721
 31
0.0
  0
LINE
  5
7119
330
70DC
100
AcDbEntity
  8
0
100
AcDbLine
 10
3.024999973973265
 20
39.79999951987224
 30
0.0
 11
3.024999973973265
 21
38.8249995198721
 31
0.0
  0
LINE
  5
711A
330
70DC
100
AcDbEntity
  8
0
100
AcDbLine
 10
3.024999973973265
 20
39.79999951987224
 30
0.0
 11
0.8999999739732658
 21
39.79999951987224
 31
0.0
  0
LINE
  5
711B
330
70DC
100
AcDbEntity
  8
0
100
AcDbLine
 10
8.524999973973265
 20
39.79999951987224
 30
0.0
 11
6.599999973973268
 21
39.79999951987224
 31
0.0
  0
ELLIPSE
  5
711C
330
70DC
100
AcDbEntity
  8
0
100
AcDbEllipse
 10
4.724999973973268
 20
41.02499951987215
 30
0.0
 11
0.0
 21
0.775
 31
0.0
210
0.0
220
0.0
230
1.0
 40
0.9677419999999999
 41
0.0
 42
6.283184999999999
  0
ENDBLK
  5
711E
330
70DC
100
AcDbEntity
  8
0
100
AcDbBlockEnd
  0
BLOCK
  5
715E
330
711F
100
AcDbEntity
  8
0
100
AcDbBlockBegin
  2
A$C5A3A0BB0
 70
     0
 10
0.0
 20
0.0
 30
0.0
  3
A$C5A3A0BB0
  1

  0
LWPOLYLINE
  5
7120
330
711F
100
AcDbEntity
  8
0
100
AcDbPolyline
 90
        4
 70
     1
 43
0.2
 10
0.0999993794071088
 20
51.09999997583827
 10
15.0999993794071
 20
51.09999997583827
 10
15.0999993794071
 20
0.0999999758382728
 10
0.0999993794071088
 20
0.0999999758382728
  0
LINE
  5
7121
330
711F
100
AcDbEntity
  8
0
100
AcDbLine
 10
5.099999379407108
 20
4.099999975838272
 30
0.0
 11
7.099999379407108
 21
5.099999975838272
 31
0.0
  0
LINE
  5
7122
330
711F
100
AcDbEntity
  8
0
100
AcDbLine
 10
3.099999379407108
 20
4.099999975838272
 30
0.0
 11
2.099999379407108
 21
5.099999975838272
 31
0.0
  0
LWPOLYLINE
  5
7123
330
711F
100
AcDbEntity
  8
0
100
AcDbPolyline
 90
        4
 70
     1
 43
0.2
 10
2.099999379407108
 20
5.099999975838272
 10
7.099999379407108
 20
5.099999975838272
 10
7.099999379407108
 20
1.099999975838272
 10
2.099999379407108
 20
1.099999975838272
  0
LINE
  5
7124
330
711F
100
AcDbEntity
  8
0
100
AcDbLine
 10
10.0999993794071
 20
51.09999997583827
 30
0.0
 11
10.0999993794071
 21
0.0999999758382728
 31
0.0
  0
LINE
  5
7125
330
711F
100
AcDbEntity
  8
0
100
AcDbLine
 10
5.099999379407108
 20
2.099999975838272
 30
0.0
 11
7.099999379407108
 21
1.099999975838272
 31
0.0
  0
LINE
  5
7126
330
711F
100
AcDbEntity
  8
0
100
AcDbLine
 10
3.099999379407108
 20
2.099999975838272
 30
0.0
 11
2.099999379407108
 21
1.099999975838272
 31
0.0
  0
LWPOLYLINE
  5
7127
330
711F
100
AcDbEntity
  8
0
100
AcDbPolyline
 90
        4
 70
     1
 43
0.2
 10
3.099999379407108
 20
4.099999975838272
 10
5.099999379407108
 20
4.099999975838272
 10
5.099999379407108
 20
2.099999975838272
 10
3.099999379407108
 20
2.099999975838272
  0
LINE
  5
7128
330
711F
100
AcDbEntity
  8
0
100
AcDbLine
 10
5.099999379407108
 20
49.09999997583827
 30
0.0
 11
7.099999379407108
 21
50.09999997583827
 31
0.0
  0
LINE
  5
7129
330
711F
100
AcDbEntity
  8
0
100
AcDbLine
 10
3.099999379407108
 20
49.09999997583827
 30
0.0
 11
2.099999379407108
 21
50.09999997583827
 31
0.0
  0
LWPOLYLINE
  5
712A
330
711F
100
AcDbEntity
  8
0
100
AcDbPolyline
 90
        4
 70
     1
 43
0.2
 10
2.099999379407108
 20
50.09999997583827
 10
7.099999379407108
 20
50.09999997583827
 10
7.099999379407108
 20
46.09999997583827
 10
2.099999379407108
 20
46.09999997583827
  0
LINE
  5
712B
330
711F
100
AcDbEntity
  8
0
100
AcDbLine
 10
5.099999379407108
 20
27.09999997583827
 30
0.0
 11
7.099999379407108
 21
26.09999997583827
 31
0.0
  0
LINE
  5
712C
330
711F
100
AcDbEntity
  8
0
100
AcDbLine
 10
3.099999379407108
 20
27.09999997583827
 30
0.0
 11
2.099999379407108
 21
26.09999997583827
 31
0.0
  0
LWPOLYLINE
  5
712D
330
711F
100
AcDbEntity
  8
0
100
AcDbPolyline
 90
        4
 70
     1
 43
0.2
 10
2.099999379407108
 20
30.09999997583827
 10
7.099999379407108
 20
30.09999997583827
 10
7.099999379407108
 20
26.09999997583827
 10
2.099999379407108
 20
26.09999997583827
  0
LINE
  5
712E
330
711F
100
AcDbEntity
  8
0
100
AcDbLine
 10
5.099999379407108
 20
9.099999975838272
 30
0.0
 11
7.099999379407108
 21
10.09999997583827
 31
0.0
  0
LINE
  5
712F
330
711F
100
AcDbEntity
  8
0
100
AcDbLine
 10
5.099999379407108
 20
7.099999975838272
 30
0.0
 11
7.099999379407108
 21
6.099999975838272
 31
0.0
  0
LINE
  5
7130
330
711F
100
AcDbEntity
  8
0
100
AcDbLine
 10
3.099999379407108
 20
7.099999975838272
 30
0.0
 11
2.099999379407108
 21
6.099999975838272
 31
0.0
  0
LINE
  5
7131
330
711F
100
AcDbEntity
  8
0
100
AcDbLine
 10
3.099999379407108
 20
9.099999975838272
 30
0.0
 11
2.099999379407108
 21
10.09999997583827
 31
0.0
  0
LWPOLYLINE
  5
7132
330
711F
100
AcDbEntity
  8
0
100
AcDbPolyline
 90
        4
 70
     1
 43
0.2
 10
3.099999379407108
 20
9.099999975838272
 10
5.099999379407108
 20
9.099999975838272
 10
5.099999379407108
 20
7.099999975838272
 10
3.099999379407108
 20
7.099999975838272
  0
LWPOLYLINE
  5
7133
330
711F
100
AcDbEntity
  8
0
100
AcDbPolyline
 90
        4
 70
     1
 43
0.2
 10
2.099999379407108
 20
10.09999997583827
 10
7.099999379407108
 20
10.09999997583827
 10
7.099999379407108
 20
6.099999975838272
 10
2.099999379407108
 20
6.099999975838272
  0
LINE
  5
7134
330
711F
100
AcDbEntity
  8
0
100
AcDbLine
 10
5.099999379407108
 20
14.09999997583827
 30
0.0
 11
7.099999379407108
 21
15.09999997583827
 31
0.0
  0
LINE
  5
7135
330
711F
100
AcDbEntity
  8
0
100
AcDbLine
 10
5.099999379407108
 20
12.09999997583827
 30
0.0
 11
7.099999379407108
 21
11.09999997583827
 31
0.0
  0
LINE
  5
7136
330
711F
100
AcDbEntity
  8
0
100
AcDbLine
 10
3.099999379407108
 20
12.09999997583827
 30
0.0
 11
2.099999379407108
 21
11.09999997583827
 31
0.0
  0
LINE
  5
7137
330
711F
100
AcDbEntity
  8
0
100
AcDbLine
 10
3.099999379407108
 20
14.09999997583827
 30
0.0
 11
2.099999379407108
 21
15.09999997583827
 31
0.0
  0
LWPOLYLINE
  5
7138
330
711F
100
AcDbEntity
  8
0
100
AcDbPolyline
 90
        4
 70
     1
 43
0.2
 10
3.099999379407108
 20
14.09999997583827
 10
5.099999379407108
 20
14.09999997583827
 10
5.099999379407108
 20
12.09999997583827
 10
3.099999379407108
 20
12.09999997583827
  0
LWPOLYLINE
  5
7139
330
711F
100
AcDbEntity
  8
0
100
AcDbPolyline
 90
        4
 70
     1
 43
0.2
 10
2.099999379407108
 20
15.09999997583827
 10
7.099999379407108
 20
15.09999997583827
 10
7.099999379407108
 20
11.09999997583827
 10
2.099999379407108
 20
11.09999997583827
  0
LINE
  5
713A
330
711F
100
AcDbEntity
  8
0
100
AcDbLine
 10
5.099999379407108
 20
19.09999997583827
 30
0.0
 11
7.099999379407108
 21
20.09999997583827
 31
0.0
  0
LINE
  5
713B
330
711F
100
AcDbEntity
  8
0
100
AcDbLine
 10
5.099999379407108
 20
17.09999997583827
 30
0.0
 11
7.099999379407108
 21
16.09999997583827
 31
0.0
  0
LINE
  5
713C
330
711F
100
AcDbEntity
  8
0
100
AcDbLine
 10
3.099999379407108
 20
17.09999997583827
 30
0.0
 11
2.099999379407108
 21
16.09999997583827
 31
0.0
  0
LINE
  5
713D
330
711F
100
AcDbEntity
  8
0
100
AcDbLine
 10
3.099999379407108
 20
19.09999997583827
 30
0.0
 11
2.099999379407108
 21
20.09999997583827
 31
0.0
  0
LWPOLYLINE
  5
713E
330
711F
100
AcDbEntity
  8
0
100
AcDbPolyline
 90
        4
 70
     1
 43
0.2
 10
3.099999379407108
 20
19.09999997583827
 10
5.099999379407108
 20
19.09999997583827
 10
5.099999379407108
 20
17.09999997583827
 10
3.099999379407108
 20
17.09999997583827
  0
LWPOLYLINE
  5
713F
330
711F
100
AcDbEntity
  8
0
100
AcDbPolyline
 90
        4
 70
     1
 43
0.2
 10
2.099999379407108
 20
20.09999997583827
 10
7.099999379407108
 20
20.09999997583827
 10
7.099999379407108
 20
16.09999997583827
 10
2.099999379407108
 20
16.09999997583827
  0
LINE
  5
7140
330
711F
100
AcDbEntity
  8
0
100
AcDbLine
 10
5.099999379407108
 20
24.09999997583827
 30
0.0
 11
7.099999379407108
 21
25.09999997583827
 31
0.0
  0
LINE
  5
7141
330
711F
100
AcDbEntity
  8
0
100
AcDbLine
 10
5.099999379407108
 20
22.09999997583827
 30
0.0
 11
7.099999379407108
 21
21.09999997583827
 31
0.0
  0
LINE
  5
7142
330
711F
100
AcDbEntity
  8
0
100
AcDbLine
 10
3.099999379407108
 20
22.09999997583827
 30
0.0
 11
2.099999379407108
 21
21.09999997583827
 31
0.0
  0
LINE
  5
7143
330
711F
100
AcDbEntity
  8
0
100
AcDbLine
 10
3.099999379407108
 20
24.09999997583827
 30
0.0
 11
2.099999379407108
 21
25.09999997583827
 31
0.0
  0
LWPOLYLINE
  5
7144
330
711F
100
AcDbEntity
  8
0
100
AcDbPolyline
 90
        4
 70
     1
 43
0.2
 10
3.099999379407108
 20
24.09999997583827
 10
5.099999379407108
 20
24.09999997583827
 10
5.099999379407108
 20
22.09999997583827
 10
3.099999379407108
 20
22.09999997583827
  0
LWPOLYLINE
  5
7145
330
711F
100
AcDbEntity
  8
0
100
AcDbPolyline
 90
        4
 70
     1
 43
0.2
 10
2.099999379407108
 20
25.09999997583827
 10
7.099999379407108
 20
25.09999997583827
 10
7.099999379407108
 20
21.09999997583827
 10
2.099999379407108
 20
21.09999997583827
  0
LINE
  5
7146
330
711F
100
AcDbEntity
  8
0
100
AcDbLine
 10
5.099999379407108
 20
29.09999997583827
 30
0.0
 11
7.099999379407108
 21
30.09999997583827
 31
0.0
  0
LINE
  5
7147
330
711F
100
AcDbEntity
  8
0
100
AcDbLine
 10
3.099999379407108
 20
29.09999997583827
 30
0.0
 11
2.099999379407108
 21
30.09999997583827
 31
0.0
  0
LWPOLYLINE
  5
7148
330
711F
100
AcDbEntity
  8
0
100
AcDbPolyline
 90
        4
 70
     1
 43
0.2
 10
3.099999379407108
 20
29.09999997583827
 10
5.099999379407108
 20
29.09999997583827
 10
5.099999379407108
 20
27.09999997583827
 10
3.099999379407108
 20
27.09999997583827
  0
LINE
  5
7149
330
711F
100
AcDbEntity
  8
0
100
AcDbLine
 10
5.099999379407108
 20
34.09999997583827
 30
0.0
 11
7.099999379407108
 21
35.09999997583827
 31
0.0
  0
LINE
  5
714A
330
711F
100
AcDbEntity
  8
0
100
AcDbLine
 10
5.099999379407108
 20
32.09999997583827
 30
0.0
 11
7.099999379407108
 21
31.09999997583827
 31
0.0
  0
LINE
  5
714B
330
711F
100
AcDbEntity
  8
0
100
AcDbLine
 10
3.099999379407108
 20
32.09999997583827
 30
0.0
 11
2.099999379407108
 21
31.09999997583827
 31
0.0
  0
LINE
  5
714C
330
711F
100
AcDbEntity
  8
0
100
AcDbLine
 10
3.099999379407108
 20
34.09999997583827
 30
0.0
 11
2.099999379407108
 21
35.09999997583827
 31
0.0
  0
LWPOLYLINE
  5
714D
330
711F
100
AcDbEntity
  8
0
100
AcDbPolyline
 90
        4
 70
     1
 43
0.2
 10
3.099999379407108
 20
34.09999997583827
 10
5.099999379407108
 20
34.09999997583827
 10
5.099999379407108
 20
32.09999997583827
 10
3.099999379407108
 20
32.09999997583827
  0
LWPOLYLINE
  5
714E
330
711F
100
AcDbEntity
  8
0
100
AcDbPolyline
 90
        4
 70
     1
 43
0.2
 10
2.099999379407108
 20
35.09999997583827
 10
7.099999379407108
 20
35.09999997583827
 10
7.099999379407108
 20
31.09999997583827
 10
2.099999379407108
 20
31.09999997583827
  0
LINE
  5
714F
330
711F
100
AcDbEntity
  8
0
100
AcDbLine
 10
5.099999379407108
 20
39.09999997583827
 30
0.0
 11
7.099999379407108
 21
40.09999997583827
 31
0.0
  0
LINE
  5
7150
330
711F
100
AcDbEntity
  8
0
100
AcDbLine
 10
5.099999379407108
 20
37.09999997583827
 30
0.0
 11
7.099999379407108
 21
36.09999997583827
 31
0.0
  0
LINE
  5
7151
330
711F
100
AcDbEntity
  8
0
100
AcDbLine
 10
3.099999379407108
 20
37.09999997583827
 30
0.0
 11
2.099999379407108
 21
36.09999997583827
 31
0.0
  0
LINE
  5
7152
330
711F
100
AcDbEntity
  8
0
100
AcDbLine
 10
3.099999379407108
 20
39.09999997583827
 30
0.0
 11
2.099999379407108
 21
40.09999997583827
 31
0.0
  0
LWPOLYLINE
  5
7153
330
711F
100
AcDbEntity
  8
0
100
AcDbPolyline
 90
        4
 70
     1
 43
0.2
 10
3.099999379407108
 20
39.09999997583827
 10
5.099999379407108
 20
39.09999997583827
 10
5.099999379407108
 20
37.09999997583827
 10
3.099999379407108
 20
37.09999997583827
  0
LWPOLYLINE
  5
7154
330
711F
100
AcDbEntity
  8
0
100
AcDbPolyline
 90
        4
 70
     1
 43
0.2
 10
2.099999379407108
 20
40.09999997583827
 10
7.099999379407108
 20
40.09999997583827
 10
7.099999379407108
 20
36.09999997583827
 10
2.099999379407108
 20
36.09999997583827
  0
LINE
  5
7155
330
711F
100
AcDbEntity
  8
0
100
AcDbLine
 10
5.099999379407108
 20
44.09999997583827
 30
0.0
 11
7.099999379407108
 21
45.09999997583827
 31
0.0
  0
LINE
  5
7156
330
711F
100
AcDbEntity
  8
0
100
AcDbLine
 10
5.099999379407108
 20
42.09999997583827
 30
0.0
 11
7.099999379407108
 21
41.09999997583827
 31
0.0
  0
LINE
  5
7157
330
711F
100
AcDbEntity
  8
0
100
AcDbLine
 10
3.099999379407108
 20
42.09999997583827
 30
0.0
 11
2.099999379407108
 21
41.09999997583827
 31
0.0
  0
LINE
  5
7158
330
711F
100
AcDbEntity
  8
0
100
AcDbLine
 10
3.099999379407108
 20
44.09999997583827
 30
0.0
 11
2.099999379407108
 21
45.09999997583827
 31
0.0
  0
LWPOLYLINE
  5
7159
330
711F
100
AcDbEntity
  8
0
100
AcDbPolyline
 90
        4
 70
     1
 43
0.2
 10
3.099999379407108
 20
44.09999997583827
 10
5.099999379407108
 20
44.09999997583827
 10
5.099999379407108
 20
42.09999997583827
 10
3.099999379407108
 20
42.09999997583827
  0
LWPOLYLINE
  5
715A
330
711F
100
AcDbEntity
  8
0
100
AcDbPolyline
 90
        4
 70
     1
 43
0.2
 10
2.099999379407108
 20
45.09999997583827
 10
7.099999379407108
 20
45.09999997583827
 10
7.099999379407108
 20
41.09999997583827
 10
2.099999379407108
 20
41.09999997583827
  0
LINE
  5
715B
330
711F
100
AcDbEntity
  8
0
100
AcDbLine
 10
5.099999379407108
 20
47.09999997583827
 30
0.0
 11
7.099999379407108
 21
46.09999997583827
 31
0.0
  0
LINE
  5
715C
330
711F
100
AcDbEntity
  8
0
100
AcDbLine
 10
3.099999379407108
 20
47.09999997583827
 30
0.0
 11
2.099999379407108
 21
46.09999997583827
 31
0.0
  0
LWPOLYLINE
  5
715D
330
711F
100
AcDbEntity
  8
0
100
AcDbPolyline
 90
        4
 70
     1
 43
0.2
 10
3.099999379407108
 20
49.09999997583827
 10
5.099999379407108
 20
49.09999997583827
 10
5.099999379407108
 20
47.09999997583827
 10
3.099999379407108
 20
47.09999997583827
  0
ENDBLK
  5
715F
330
711F
100
AcDbEntity
  8
0
100
AcDbBlockEnd
  0
BLOCK
  5
7175
330
7160
100
AcDbEntity
  8
0
100
AcDbBlockBegin
  2
A$C3413120B
 70
     0
 10
0.0
 20
0.0
 30
0.0
  3
A$C3413120B
  1

  0
LWPOLYLINE
  5
7161
330
7160
100
AcDbEntity
  8
0
100
AcDbPolyline
 90
        4
 70
     1
 43
0.0
 10
-0.0000002802582912
 20
16.02466200946787
 10
14.99999971974171
 20
16.02466200946787
 10
14.99999971974171
 20
0.0
 10
-0.0000002802582912
 20
0.0
  0
LINE
  5
7162
330
7160
100
AcDbEntity
  8
0
100
AcDbLine
 10
9.999999719741708
 20
16.02466200946787
 30
0.0
 11
9.999999719741708
 21
0.0
 31
0.0
  0
LINE
  5
7163
330
7160
100
AcDbEntity
  8
0
100
AcDbLine
 10
4.999999719741708
 20
14.02466200946787
 30
0.0
 11
6.999999719741708
 21
15.02466200946787
 31
0.0
  0
LINE
  5
7164
330
7160
100
AcDbEntity
  8
0
100
AcDbLine
 10
2.999999719741708
 20
14.02466200946787
 30
0.0
 11
1.999999719741708
 21
15.02466200946787
 31
0.0
  0
LWPOLYLINE
  5
7165
330
7160
100
AcDbEntity
  8
0
100
AcDbPolyline
 90
        4
 70
     1
 43
0.2
 10
1.999999719741708
 20
15.02466200946787
 10
6.999999719741708
 20
15.02466200946787
 10
6.999999719741708
 20
11.02466200946787
 10
1.999999719741708
 20
11.02466200946787
  0
LINE
  5
7166
330
7160
100
AcDbEntity
  8
0
100
AcDbLine
 10
4.999999719741708
 20
4.024662009467874
 30
0.0
 11
6.999999719741708
 21
5.024662009467874
 31
0.0
  0
LINE
  5
7167
330
7160
100
AcDbEntity
  8
0
100
AcDbLine
 10
4.999999719741708
 20
2.024662009467874
 30
0.0
 11
6.999999719741708
 21
1.024662009467874
 31
0.0
  0
LINE
  5
7168
330
7160
100
AcDbEntity
  8
0
100
AcDbLine
 10
2.999999719741708
 20
2.024662009467874
 30
0.0
 11
1.999999719741708
 21
1.024662009467874
 31
0.0
  0
LINE
  5
7169
330
7160
100
AcDbEntity
  8
0
100
AcDbLine
 10
2.999999719741708
 20
4.024662009467874
 30
0.0
 11
1.999999719741708
 21
5.024662009467874
 31
0.0
  0
LWPOLYLINE
  5
716A
330
7160
100
AcDbEntity
  8
0
100
AcDbPolyline
 90
        4
 70
     1
 43
0.2
 10
2.999999719741708
 20
4.024662009467874
 10
4.999999719741708
 20
4.024662009467874
 10
4.999999719741708
 20
2.024662009467874
 10
2.999999719741708
 20
2.024662009467874
  0
LWPOLYLINE
  5
716B
330
7160
100
AcDbEntity
  8
0
100
AcDbPolyline
 90
        4
 70
     1
 43
0.2
 10
1.999999719741708
 20
5.024662009467874
 10
6.999999719741708
 20
5.024662009467874
 10
6.999999719741708
 20
1.024662009467874
 10
1.999999719741708
 20
1.024662009467874
  0
LINE
  5
716C
330
7160
100
AcDbEntity
  8
0
100
AcDbLine
 10
4.999999719741708
 20
9.024662009467874
 30
0.0
 11
6.999999719741708
 21
10.02466200946787
 31
0.0
  0
LINE
  5
716D
330
7160
100
AcDbEntity
  8
0
100
AcDbLine
 10
4.999999719741708
 20
7.024662009467874
 30
0.0
 11
6.999999719741708
 21
6.024662009467874
 31
0.0
  0
LINE
  5
716E
330
7160
100
AcDbEntity
  8
0
100
AcDbLine
 10
2.999999719741708
 20
7.024662009467874
 30
0.0
 11
1.999999719741708
 21
6.024662009467874
 31
0.0
  0
LINE
  5
716F
330
7160
100
AcDbEntity
  8
0
100
AcDbLine
 10
2.999999719741708
 20
9.024662009467874
 30
0.0
 11
1.999999719741708
 21
10.02466200946787
 31
0.0
  0
LWPOLYLINE
  5
7170
330
7160
100
AcDbEntity
  8
0
100
AcDbPolyline
 90
        4
 70
     1
 43
0.2
 10
2.999999719741708
 20
9.024662009467874
 10
4.999999719741708
 20
9.024662009467874
 10
4.999999719741708
 20
7.024662009467874
 10
2.999999719741708
 20
7.024662009467874
  0
LWPOLYLINE
  5
7171
330
7160
100
AcDbEntity
  8
0
100
AcDbPolyline
 90
        4
 70
     1
 43
0.2
 10
1.999999719741708
 20
10.02466200946787
 10
6.999999719741708
 20
10.02466200946787
 10
6.999999719741708
 20
6.024662009467874
 10
1.999999719741708
 20
6.024662009467874
  0
LINE
  5
7172
330
7160
100
AcDbEntity
  8
0
100
AcDbLine
 10
4.999999719741708
 20
12.02466200946787
 30
0.0
 11
6.999999719741708
 21
11.02466200946787
 31
0.0
  0
LINE
  5
7173
330
7160
100
AcDbEntity
  8
0
100
AcDbLine
 10
2.999999719741708
 20
12.02466200946787
 30
0.0
 11
1.999999719741708
 21
11.02466200946787
 31
0.0
  0
LWPOLYLINE
  5
7174
330
7160
100
AcDbEntity
  8
0
100
AcDbPolyline
 90
        4
 70
     1
 43
0.2
 10
2.999999719741708
 20
14.02466200946787
 10
4.999999719741708
 20
14.02466200946787
 10
4.999999719741708
 20
12.02466200946787
 10
2.999999719741708
 20
12.02466200946787
  0
ENDBLK
  5
7176
330
7160
100
AcDbEntity
  8
0
100
AcDbBlockEnd
  0
ENDSEC
  0
SECTION
  2
ENTITIES
  0
ARC
  5
75BE
330
18
100
AcDbEntity
  8
0
100
AcDbCircle
 10
423.4283281057205
 20
141.6730011160861
 30
0.0
 40
1.75
100
AcDbArc
 50
90.0
 51
270.0
  0
ARC
  5
75BF
330
18
100
AcDbEntity
  8
0
100
AcDbCircle
 10
434.9283281057205
 20
141.6730011160861
 30
0.0
 40
1.75
100
AcDbArc
 50
270.0
 51
90.0
  0
ARC
  5
75C0
330
18
100
AcDbEntity
  8
0
100
AcDbCircle
 10
410.9283281057205
 20
141.6730011160861
 30
0.0
 40
1.75
100
AcDbArc
 50
270.0
 51
90.0
  0
ARC
  5
75C1
330
18
100
AcDbEntity
  8
0
100
AcDbCircle
 10
399.4283281057205
 20
141.6730011160861
 30
0.0
 40
1.75
100
AcDbArc
 50
90.0
 51
270.0
  0
LINE
  5
75C2
330
18
100
AcDbEntity
  8
0
100
AcDbLine
 10
292.9783281057205
 20
147.2730011160863
 30
0.0
 11
292.9783281057205
 21
132.0730011160862
 31
0.0
  0
LINE
  5
75C3
330
18
100
AcDbEntity
  8
0
100
AcDbLine
 10
293.6783281057205
 20
147.2730011160863
 30
0.0
 11
293.6783281057205
 21
132.0730011160862
 31
0.0
  0
CIRCLE
  5
75C4
330
18
100
AcDbEntity
  8
0
100
AcDbCircle
 10
289.4783281057204
 20
139.6530011160863
 30
0.0
 40
2.0
  0
LINE
  5
75C5
330
18
100
AcDbEntity
  8
0
100
AcDbLine
 10
288.2922469946654
 20
138.0426559363194
 30
0.0
 11
291.0886732854874
 21
140.8390822271413
 31
0.0
  0
LINE
  5
75C6
330
18
100
AcDbEntity
  8
0
100
AcDbLine
 10
287.8679829259535
 20
138.4669200050312
 30
0.0
 11
290.6644092167752
 21
141.2633462958532
 31
0.0
  0
LINE
  5
75C7
330
18
100
AcDbEntity
  8
0
100
AcDbLine
 10
284.1783281057205
 20
147.2730011160864
 30
0.0
 11
284.1783281057205
 21
132.0730011160865
 31
0.0
  0
LINE
  5
75C8
330
18
100
AcDbEntity
  8
0
100
AcDbLine
 10
285.6783281057205
 20
147.2730011160864
 30
0.0
 11
285.6783281057207
 21
132.0730011160865
 31
0.0
  0
LINE
  5
75CE
330
18
100
AcDbEntity
  8
0
100
AcDbLine
 10
145.3503671924545
 20
169.6730011160863
 30
0.0
 11
145.3503671924545
 21
9.673001116086311
 31
0.0
  0
LINE
  5
75CF
330
18
100
AcDbEntity
  8
0
100
AcDbLine
 10
198.3503671924545
 20
168.6730011160863
 30
0.0
 11
198.3503671924545
 21
10.67300111608631
 31
0.0
  0
LINE
  5
75D0
330
18
100
AcDbEntity
  8
0
100
AcDbLine
 10
133.3503671924545
 20
169.6730011160863
 30
0.0
 11
133.3503671924545
 21
9.673001116086311
 31
0.0
  0
LINE
  5
75D4
330
18
100
AcDbEntity
  8
0
100
AcDbLine
 10
295.6783281057205
 20
10.67300111608619
 30
0.0
 11
295.6783281057205
 21
168.6730011160864
 31
0.0
  0
LINE
  5
75D5
330
18
100
AcDbEntity
  8
0
100
AcDbLine
 10
295.6783281057205
 20
169.6730011160863
 30
0.0
 11
295.6783281057205
 21
9.673001116086311
 31
0.0
  0
LINE
  5
75D6
330
18
100
AcDbEntity
  8
0
100
AcDbLine
 10
293.6783281057205
 20
169.6730011160863
 30
0.0
 11
293.6783281057205
 21
9.673001116086311
 31
0.0
  0
LINE
  5
75D7
330
18
100
AcDbEntity
  8
0
100
AcDbLine
 10
442.6783281057205
 20
168.6730011160864
 30
0.0
 11
442.6783281057205
 21
10.67300111608616
 31
0.0
  0
LINE
  5
75D8
330
18
100
AcDbEntity
  8
0
100
AcDbLine
 10
442.6783281057205
 20
184.6730011160862
 30
0.0
 11
442.6783281057205
 21
-5.326998883913745
 31
0.0
  0
LINE
  5
75D9
330
18
100
AcDbEntity
  8
0
100
AcDbLine
 10
444.6783281057205
 20
184.6730011160862
 30
0.0
 11
444.6783281057205
 21
-5.326998883913745
 31
0.0
  0
LINE
  5
75DA
330
18
100
AcDbEntity
  8
0
100
AcDbLine
 10
441.6783281057205
 20
9.673001116086169
 30
0.0
 11
296.6783281057205
 21
9.673001116086197
 31
0.0
  0
LINE
  5
75DB
330
18
100
AcDbEntity
  8
0
100
AcDbLine
 10
370.6783281057205
 20
9.673001116086027
 30
0.0
 11
442.6783281057205
 21
9.673001116086254
 31
0.0
  0
ARC
  5
75DC
330
18
100
AcDbEntity
  8
0
 48
0.2
100
AcDbCircle
 10
260.7783281057204
 20
89.32300111608624
 30
0.0
 40
3.100000000000022
100
AcDbArc
 50
40.87863514651568
 51
180.0
  0
LINE
  5
75DD
330
18
100
AcDbEntity
  8
0
 48
0.2
100
AcDbLine
 10
278.6783281057203
 20
89.32300111608617
 30
0.0
 11
257.6783281057203
 21
89.32300111608617
 31
0.0
  0
ARC
  5
75DE
330
18
100
AcDbEntity
  8
0
 48
0.2
100
AcDbCircle
 10
260.7783281057206
 20
73.52300111608653
 30
0.0
 40
3.100000000000022
100
AcDbArc
 50
180.0
 51
319.1213648534843
  0
LINE
  5
75DF
330
18
100
AcDbEntity
  8
0
 48
0.2
100
AcDbLine
 10
278.6783281057205
 20
73.52300111608645
 30
0.0
 11
257.6783281057205
 21
73.52300111608622
 31
0.0
  0
LINE
  5
75E0
330
18
100
AcDbEntity
  8
0
100
AcDbLine
 10
170.6003671924545
 20
-5.326998883913915
 30
0.0
 11
151.3503671924545
 21
-5.326998883913688
 31
0.0
  0
LINE
  5
75E1
330
18
100
AcDbEntity
  8
0
100
AcDbLine
 10
133.3503671924545
 20
9.673001116086311
 30
0.0
 11
197.3503671924545
 21
9.673001116086311
 31
0.0
  0
LINE
  5
75E3
330
18
100
AcDbEntity
  8
0
100
AcDbLine
 10
151.3503671924545
 20
-5.326998883913688
 30
0.0
 11
150.3503671924545
 21
-4.326998883913688
 31
0.0
  0
LINE
  5
75E4
330
18
100
AcDbEntity
  8
0
100
AcDbLine
 10
150.3503671924545
 20
8.014688720908679
 30
0.0
 11
150.3503671924545
 21
-4.326998883913688
 31
0.0
  0
ARC
  5
75E5
330
18
100
AcDbEntity
  8
0
100
AcDbCircle
 10
152.8503671924545
 20
9.673001116086311
 30
0.0
 40
3.0
100
AcDbArc
 50
180.0
 51
0.0
  0
LINE
  5
75E6
330
18
100
AcDbEntity
  8
0
100
AcDbLine
 10
197.3503671924545
 20
-5.326998883913915
 30
0.0
 11
178.1003671924545
 21
-5.326998883913915
 31
0.0
  0
LINE
  5
75E7
330
18
100
AcDbEntity
  8
0
100
AcDbLine
 10
178.1003671924545
 20
-5.326998883913915
 30
0.0
 11
177.1003671924545
 21
-4.326998883913915
 31
0.0
  0
LINE
  5
75E9
330
18
100
AcDbEntity
  8
0
100
AcDbLine
 10
177.1003671924545
 20
-0.3269988839136886
 30
0.0
 11
177.1003671924545
 21
-4.326998883913915
 31
0.0
  0
LINE
  5
75EA
330
18
100
AcDbEntity
  8
0
100
AcDbLine
 10
171.6003671924545
 20
-0.3269988839136886
 30
0.0
 11
171.6003671924545
 21
-4.326998883913915
 31
0.0
  0
LINE
  5
75EB
330
18
100
AcDbEntity
  8
0
100
AcDbLine
 10
171.6003671924545
 20
-4.326998883913915
 30
0.0
 11
170.6003671924545
 21
-5.326998883913915
 31
0.0
  0
ARC
  5
75EC
330
18
100
AcDbEntity
  8
0
100
AcDbCircle
 10
174.3503671924545
 20
-0.326998883913916
 30
0.0
 40
2.75
100
AcDbArc
 50
0.0
 51
180.0
  0
LINE
  5
75ED
330
18
100
AcDbEntity
  8
0
100
AcDbLine
 10
198.3503671924545
 20
10.67300111608631
 30
0.0
 11
197.3503671924545
 21
9.673001116086311
 31
0.0
  0
LINE
  5
75EE
330
18
100
AcDbEntity
  8
0
100
AcDbLine
 10
198.3503671924545
 20
-4.326998883913915
 30
0.0
 11
197.3503671924545
 21
-5.326998883913915
 31
0.0
  0
LINE
  5
75EF
330
18
100
AcDbEntity
  8
0
100
AcDbLine
 10
198.3503671924545
 20
10.67300111608631
 30
0.0
 11
198.3503671924545
 21
-4.326998883913915
 31
0.0
  0
LINE
  5
75F5
330
18
100
AcDbEntity
  8
0
370
    40
100
AcDbLine
 10
152.3503671924545
 20
18.67300111608637
 30
0.0
 11
152.3503671924545
 21
17.07300111608617
 31
0.0
  0
LINE
  5
75F6
330
18
100
AcDbEntity
  8
0
370
    40
100
AcDbLine
 10
154.3503671924545
 20
17.07300111608617
 30
0.0
 11
150.3503671924545
 21
17.07300111608623
 31
0.0
  0
LINE
  5
75F7
330
18
100
AcDbEntity
  8
0
370
    40
100
AcDbLine
 10
153.6003671924545
 20
15.87300111608624
 30
0.0
 11
151.1003671924545
 21
15.87300111608624
 31
0.0
  0
LINE
  5
75F8
330
18
100
AcDbEntity
  8
0
370
    40
100
AcDbLine
 10
152.8503671924545
 20
14.67300111608625
 30
0.0
 11
151.8503671924545
 21
14.67300111608625
 31
0.0
  0
CIRCLE
  5
75F9
330
18
100
AcDbEntity
  8
0
370
    40
100
AcDbCircle
 10
152.3503671924545
 20
16.67300111608631
 30
0.0
 40
3.0
  0
LINE
  5
7602
330
18
100
AcDbEntity
  8
0
 48
0.2
100
AcDbLine
 10
257.6783281057205
 20
73.52300111608645
 30
0.0
 11
257.6783281057203
 21
89.32300111608617
 31
0.0
  0
LINE
  5
7619
330
18
100
AcDbEntity
  8
0
100
AcDbLine
 10
295.6783281057205
 20
9.673001116086311
 30
0.0
 11
356.6783281057205
 21
9.673001116086254
 31
0.0
  0
LINE
  5
761A
330
18
100
AcDbEntity
  8
0
100
AcDbLine
 10
296.6783281057205
 20
9.673001116086197
 30
0.0
 11
295.6783281057205
 21
10.67300111608619
 31
0.0
  0
LINE
  5
761B
330
18
100
AcDbEntity
  8
0
100
AcDbLine
 10
293.6783281057205
 20
9.673001116086311
 30
0.0
 11
295.6783281057205
 21
9.673001116086311
 31
0.0
  0
ARC
  5
761C
330
18
100
AcDbEntity
  8
0
100
AcDbCircle
 10
363.6783281057205
 20
9.673001116086311
 30
0.0
 40
3.0
100
AcDbArc
 50
180.0
 51
0.0
  0
LINE
  5
761D
330
18
100
AcDbEntity
  8
0
100
AcDbLine
 10
327.4283281057205
 20
32.92300111608642
 30
0.0
 11
338.9283281057205
 21
32.9230011160862
 31
0.0
  0
LINE
  5
761E
330
18
100
AcDbEntity
  8
0
100
AcDbLine
 10
327.4283281057205
 20
29.4230011160862
 30
0.0
 11
338.9283281057205
 21
29.4230011160862
 31
0.0
  0
LINE
  5
761F
330
18
100
AcDbEntity
  8
0
100
AcDbLine
 10
327.4283281057205
 20
22.92300111608619
 30
0.0
 11
338.9283281057205
 21
22.92300111608619
 31
0.0
  0
LINE
  5
7620
330
18
100
AcDbEntity
  8
0
100
AcDbLine
 10
327.4283281057205
 20
26.42300111608642
 30
0.0
 11
338.9283281057205
 21
26.42300111608619
 31
0.0
  0
LINE
  5
7621
330
18
100
AcDbEntity
  8
0
100
AcDbLine
 10
327.4283281057205
 20
19.92300111608642
 30
0.0
 11
338.9283281057205
 21
19.92300111608616
 31
0.0
  0
LINE
  5
7622
330
18
100
AcDbEntity
  8
0
100
AcDbLine
 10
327.4283281057205
 20
16.42300111608619
 30
0.0
 11
338.9283281057205
 21
16.42300111608617
 31
0.0
  0
LINE
  5
7623
330
18
100
AcDbEntity
  8
0
 48
0.2
100
AcDbLine
 10
273.6783281057205
 20
73.52300111608645
 30
0.0
 11
273.6783281057203
 21
89.32300111608617
 31
0.0
  0
LINE
  5
7624
330
18
100
AcDbEntity
  8
0
 48
0.2
100
AcDbLine
 10
278.6783281057205
 20
73.52300111608645
 30
0.0
 11
278.6783281057203
 21
89.32300111608617
 31
0.0
  0
LINE
  5
7626
330
18
100
AcDbEntity
  8
0
100
AcDbLine
 10
284.1783281057205
 20
112.5730011160864
 30
0.0
 11
284.1783281057205
 21
61.77300111608651
 31
0.0
  0
LINE
  5
7627
330
18
100
AcDbEntity
  8
0
100
AcDbLine
 10
285.6783281057205
 20
112.5730011160864
 30
0.0
 11
285.6783281057205
 21
61.77300111608651
 31
0.0
  0
LINE
  5
7628
330
18
100
AcDbEntity
  8
0
100
AcDbLine
 10
293.6783281057205
 20
112.5730011160863
 30
0.0
 11
293.6783281057205
 21
61.77300111608627
 31
0.0
  0
LINE
  5
7629
330
18
100
AcDbEntity
  8
0
100
AcDbLine
 10
292.9783281057205
 20
112.5730011160863
 30
0.0
 11
292.9783281057202
 21
61.77300111608627
 31
0.0
  0
LINE
  5
762A
330
18
100
AcDbEntity
  8
0
 48
0.2
100
AcDbLine
 10
280.9283281057205
 20
73.68806462554755
 30
0.0
 11
283.4283281057205
 21
73.68806462554755
 31
0.0
  0
LINE
  5
762B
330
18
100
AcDbEntity
  8
0
 48
0.2
100
AcDbLine
 10
280.783990538423
 20
73.93806462554755
 30
0.0
 11
283.572665673018
 21
73.93806462554755
 31
0.0
  0
CIRCLE
  5
762C
330
18
100
AcDbEntity
  8
0
 48
0.2
100
AcDbCircle
 10
282.1783281057205
 20
71.5230011160865
 30
0.0
 40
1.5
  0
LINE
  5
762D
330
18
100
AcDbEntity
  8
0
 48
0.2
100
AcDbLine
 10
280.9283281057205
 20
69.35793760662534
 30
0.0
 11
283.4283281057205
 21
69.35793760662534
 31
0.0
  0
LINE
  5
762E
330
18
100
AcDbEntity
  8
0
 48
0.2
100
AcDbLine
 10
280.783990538423
 20
69.10793760662534
 30
0.0
 11
283.572665673018
 21
69.10793760662534
 31
0.0
  0
LINE
  5
762F
330
18
100
AcDbEntity
  8
0
 48
0.2
100
AcDbLine
 10
293.6783281057205
 20
64.77300111608625
 30
0.0
 11
272.8783281057203
 21
64.77300111608645
 31
0.0
  0
LINE
  5
7630
330
18
100
AcDbEntity
  8
0
 48
0.2
100
AcDbLine
 10
279.6783281057205
 20
71.52300111608645
 30
0.0
 11
280.9283281057205
 21
69.35793760662534
 31
0.0
  0
LINE
  5
7631
330
18
100
AcDbEntity
  8
0
 48
0.2
100
AcDbLine
 10
279.3896529711257
 20
71.52300111608645
 30
0.0
 11
280.783990538423
 21
69.10793760662534
 31
0.0
  0
LINE
  5
7632
330
18
100
AcDbEntity
  8
0
 48
0.2
100
AcDbLine
 10
279.6783281057205
 20
71.52300111608645
 30
0.0
 11
280.9283281057205
 21
73.68806462554755
 31
0.0
  0
LINE
  5
7633
330
18
100
AcDbEntity
  8
0
 48
0.2
100
AcDbLine
 10
279.3896529711257
 20
71.52300111608645
 30
0.0
 11
280.783990538423
 21
73.93806462554755
 31
0.0
  0
LINE
  5
7634
330
18
100
AcDbEntity
  8
0
 48
0.2
100
AcDbLine
 10
264.8783281057205
 20
73.52300111608645
 30
0.0
 11
263.1222305447449
 21
71.49417846333051
 31
0.0
  0
LINE
  5
7635
330
18
100
AcDbEntity
  8
0
 48
0.2
100
AcDbLine
 10
268.8783281057205
 20
73.52300111608645
 30
0.0
 11
272.8783281057205
 21
70.42300111608631
 31
0.0
  0
ARC
  5
7636
330
18
100
AcDbEntity
  8
0
 48
0.2
100
AcDbCircle
 10
274.0483281057204
 20
67.37300111608641
 30
0.0
 40
2.669999999999886
100
AcDbArc
 50
115.9892335838278
 51
244.0107664161721
  0
LINE
  5
7637
330
18
100
AcDbEntity
  8
0
 48
0.2
100
AcDbLine
 10
272.8783281057203
 20
64.77300111608645
 30
0.0
 11
272.8783281057203
 21
70.42300111608631
 31
0.0
  0
LINE
  5
7638
330
18
100
AcDbEntity
  8
0
100
AcDbLine
 10
287.8679829259533
 20
68.2069200050314
 30
0.0
 11
290.6644092167752
 21
71.00334629585336
 31
0.0
  0
LINE
  5
7639
330
18
100
AcDbEntity
  8
0
100
AcDbLine
 10
288.2922469946652
 20
67.78265593631954
 30
0.0
 11
291.0886732854871
 21
70.57908222714144
 31
0.0
  0
CIRCLE
  5
763A
330
18
100
AcDbEntity
  8
0
100
AcDbCircle
 10
289.4783281057202
 20
69.39300111608645
 30
0.0
 40
2.0
  0
CIRCLE
  5
763B
330
18
100
AcDbEntity
  8
0
100
AcDbCircle
 10
289.4783281057202
 20
74.47300111608644
 30
0.0
 40
2.0
  0
LINE
  5
763C
330
18
100
AcDbEntity
  8
0
100
AcDbLine
 10
288.2922469946652
 20
72.86265593631952
 30
0.0
 11
291.0886732854871
 21
75.65908222714142
 31
0.0
  0
LINE
  5
763D
330
18
100
AcDbEntity
  8
0
100
AcDbLine
 10
287.8679829259533
 20
73.28692000503139
 30
0.0
 11
290.6644092167752
 21
76.08334629585335
 31
0.0
  0
LINE
  5
763E
330
18
100
AcDbEntity
  8
0
100
AcDbLine
 10
288.2922469946652
 20
62.70265593631956
 30
0.0
 11
291.0886732854871
 21
65.49908222714146
 31
0.0
  0
LINE
  5
763F
330
18
100
AcDbEntity
  8
0
100
AcDbLine
 10
287.8679829259533
 20
63.12692000503142
 30
0.0
 11
290.6644092167752
 21
65.92334629585337
 31
0.0
  0
LWPOLYLINE
  5
7640
330
18
100
AcDbEntity
  8
0
100
AcDbPolyline
 90
        4
 70
     1
 43
0.0
 10
293.6783281057205
 20
49.17300111608631
 10
291.6783281057205
 20
49.17300111608631
 10
291.6783281057205
 20
57.17300111608631
 10
293.6783281057205
 20
57.17300111608631
  0
CIRCLE
  5
7641
330
18
100
AcDbEntity
  8
0
100
AcDbCircle
 10
289.4783281057202
 20
64.31300111608647
 30
0.0
 40
2.0
  0
LINE
  5
7642
330
18
100
AcDbEntity
  8
0
 48
0.2
100
AcDbLine
 10
283.4283281057205
 20
69.35793760662534
 30
0.0
 11
284.6783281057205
 21
71.52300111608645
 31
0.0
  0
LINE
  5
7643
330
18
100
AcDbEntity
  8
0
 48
0.2
100
AcDbLine
 10
283.572665673018
 20
69.10793760662534
 30
0.0
 11
284.9670032403153
 21
71.52300111608645
 31
0.0
  0
LINE
  5
7644
330
18
100
AcDbEntity
  8
0
 48
0.2
100
AcDbLine
 10
284.6783281057205
 20
71.52300111608645
 30
0.0
 11
283.4283281057205
 21
73.68806462554755
 31
0.0
  0
LINE
  5
7645
330
18
100
AcDbEntity
  8
0
 48
0.2
100
AcDbLine
 10
284.9670032403153
 20
71.52300111608645
 30
0.0
 11
283.572665673018
 21
73.93806462554755
 31
0.0
  0
LINE
  5
7646
330
18
100
AcDbEntity
  8
0
100
AcDbLine
 10
293.6783281057205
 20
61.77300111608627
 30
0.0
 11
284.1783281057205
 21
61.77300111608651
 31
0.0
  0
LINE
  5
7647
330
18
100
AcDbEntity
  8
0
100
AcDbLine
 10
303.4283281057205
 20
32.92300111608642
 30
0.0
 11
314.9283281057205
 21
32.9230011160862
 31
0.0
  0
ARC
  5
7648
330
18
100
AcDbEntity
  8
0
100
AcDbCircle
 10
314.9283281057205
 20
24.67300111608617
 30
0.0
 40
1.75
100
AcDbArc
 50
270.0
 51
90.0
  0
LINE
  5
7649
330
18
100
AcDbEntity
  8
0
100
AcDbLine
 10
303.4283281057205
 20
29.4230011160862
 30
0.0
 11
314.9283281057205
 21
29.4230011160862
 31
0.0
  0
LINE
  5
764A
330
18
100
AcDbEntity
  8
0
100
AcDbLine
 10
303.4283281057205
 20
22.92300111608619
 30
0.0
 11
314.9283281057205
 21
22.92300111608619
 31
0.0
  0
LINE
  5
764B
330
18
100
AcDbEntity
  8
0
100
AcDbLine
 10
303.4283281057205
 20
26.42300111608642
 30
0.0
 11
314.9283281057205
 21
26.42300111608619
 31
0.0
  0
ARC
  5
764C
330
18
100
AcDbEntity
  8
0
100
AcDbCircle
 10
314.9283281057205
 20
31.17300111608617
 30
0.0
 40
1.75
100
AcDbArc
 50
270.0
 51
90.0
  0
ARC
  5
764D
330
18
100
AcDbEntity
  8
0
100
AcDbCircle
 10
303.4283281057205
 20
24.67300111608617
 30
0.0
 40
1.75
100
AcDbArc
 50
90.0
 51
270.0
  0
ARC
  5
764E
330
18
100
AcDbEntity
  8
0
100
AcDbCircle
 10
303.4283281057205
 20
31.17300111608617
 30
0.0
 40
1.75
100
AcDbArc
 50
90.0
 51
270.0
  0
ARC
  5
764F
330
18
100
AcDbEntity
  8
0
100
AcDbCircle
 10
314.9283281057205
 20
18.17300111608616
 30
0.0
 40
1.75
100
AcDbArc
 50
270.0
 51
90.0
  0
LINE
  5
7650
330
18
100
AcDbEntity
  8
0
100
AcDbLine
 10
303.4283281057205
 20
19.92300111608642
 30
0.0
 11
314.9283281057205
 21
19.92300111608619
 31
0.0
  0
LINE
  5
7651
330
18
100
AcDbEntity
  8
0
100
AcDbLine
 10
303.4283281057205
 20
16.42300111608619
 30
0.0
 11
314.9283281057205
 21
16.42300111608619
 31
0.0
  0
ARC
  5
7652
330
18
100
AcDbEntity
  8
0
100
AcDbCircle
 10
303.4283281057205
 20
18.17300111608616
 30
0.0
 40
1.75
100
AcDbArc
 50
90.0
 51
270.0
  0
ARC
  5
7653
330
18
100
AcDbEntity
  8
0
100
AcDbCircle
 10
327.4283281057205
 20
24.67300111608617
 30
0.0
 40
1.75
100
AcDbArc
 50
90.0
 51
270.0
  0
ARC
  5
7654
330
18
100
AcDbEntity
  8
0
100
AcDbCircle
 10
327.4283281057205
 20
31.17300111608617
 30
0.0
 40
1.75
100
AcDbArc
 50
90.0
 51
270.0
  0
ARC
  5
7655
330
18
100
AcDbEntity
  8
0
100
AcDbCircle
 10
327.4283281057205
 20
18.17300111608616
 30
0.0
 40
1.75
100
AcDbArc
 50
90.0
 51
270.0
  0
LINE
  5
7656
330
18
100
AcDbEntity
  8
0
100
AcDbLine
 10
288.2922469946654
 20
108.4226559363194
 30
0.0
 11
291.0886732854874
 21
111.2190822271413
 31
0.0
  0
CIRCLE
  5
7657
330
18
100
AcDbEntity
  8
0
100
AcDbCircle
 10
289.4783281057204
 20
110.0330011160863
 30
0.0
 40
2.0
  0
LINE
  5
7658
330
18
100
AcDbEntity
  8
0
 48
0.2
100
AcDbLine
 10
293.6783281057205
 20
98.07300111608618
 30
0.0
 11
272.8783281057203
 21
98.07300111608618
 31
0.0
  0
LINE
  5
7659
330
18
100
AcDbEntity
  8
0
 48
0.2
100
AcDbLine
 10
280.783990538423
 20
93.73806462554728
 30
0.0
 11
283.572665673018
 21
93.73806462554728
 31
0.0
  0
LINE
  5
765A
330
18
100
AcDbEntity
  8
0
 48
0.2
100
AcDbLine
 10
280.9283281057205
 20
93.48806462554728
 30
0.0
 11
283.4283281057205
 21
93.48806462554728
 31
0.0
  0
LINE
  5
765B
330
18
100
AcDbEntity
  8
0
 48
0.2
100
AcDbLine
 10
280.783990538423
 20
88.90793760662507
 30
0.0
 11
283.572665673018
 21
88.90793760662507
 31
0.0
  0
LINE
  5
765C
330
18
100
AcDbEntity
  8
0
 48
0.2
100
AcDbLine
 10
280.9283281057205
 20
89.15793760662507
 30
0.0
 11
283.4283281057205
 21
89.15793760662507
 31
0.0
  0
CIRCLE
  5
765D
330
18
100
AcDbEntity
  8
0
 48
0.2
100
AcDbCircle
 10
282.1783281057205
 20
91.32300111608623
 30
0.0
 40
1.5
  0
LINE
  5
765E
330
18
100
AcDbEntity
  8
0
 48
0.2
100
AcDbLine
 10
279.3896529711257
 20
91.32300111608618
 30
0.0
 11
280.783990538423
 21
88.90793760662507
 31
0.0
  0
LINE
  5
765F
330
18
100
AcDbEntity
  8
0
 48
0.2
100
AcDbLine
 10
279.6783281057205
 20
91.32300111608618
 30
0.0
 11
280.9283281057205
 21
89.15793760662507
 31
0.0
  0
LINE
  5
7660
330
18
100
AcDbEntity
  8
0
 48
0.2
100
AcDbLine
 10
279.3896529711257
 20
91.32300111608618
 30
0.0
 11
280.783990538423
 21
93.73806462554728
 31
0.0
  0
LINE
  5
7661
330
18
100
AcDbEntity
  8
0
 48
0.2
100
AcDbLine
 10
279.6783281057205
 20
91.32300111608618
 30
0.0
 11
280.9283281057205
 21
93.48806462554728
 31
0.0
  0
LINE
  5
7662
330
18
100
AcDbEntity
  8
0
 48
0.2
100
AcDbLine
 10
264.8783281057203
 20
89.32300111608617
 30
0.0
 11
263.1222305447449
 21
91.35182376884211
 31
0.0
  0
LINE
  5
7663
330
18
100
AcDbEntity
  8
0
 48
0.2
100
AcDbLine
 10
268.8783281057203
 20
89.32300111608617
 30
0.0
 11
272.8783281057203
 21
92.42300111608608
 31
0.0
  0
ARC
  5
7664
330
18
100
AcDbEntity
  8
0
 48
0.2
100
AcDbCircle
 10
274.0483281057202
 20
95.47300111608633
 30
0.0
 40
2.669999999999886
100
AcDbArc
 50
115.9892335838278
 51
244.0107664161721
  0
LINE
  5
7665
330
18
100
AcDbEntity
  8
0
 48
0.2
100
AcDbLine
 10
272.8783281057203
 20
92.42300111608631
 30
0.0
 11
272.8783281057203
 21
98.07300111608618
 31
0.0
  0
LINE
  5
7666
330
18
100
AcDbEntity
  8
0
100
AcDbLine
 10
287.8679829259535
 20
103.7669200050312
 30
0.0
 11
290.6644092167752
 21
106.5633462958532
 31
0.0
  0
LINE
  5
7667
330
18
100
AcDbEntity
  8
0
100
AcDbLine
 10
288.2922469946654
 20
103.3426559363194
 30
0.0
 11
291.0886732854874
 21
106.1390822271413
 31
0.0
  0
CIRCLE
  5
7668
330
18
100
AcDbEntity
  8
0
100
AcDbCircle
 10
289.4783281057204
 20
104.9530011160863
 30
0.0
 40
2.0
  0
LINE
  5
7669
330
18
100
AcDbEntity
  8
0
100
AcDbLine
 10
287.8679829259535
 20
98.68692000503131
 30
0.0
 11
290.6644092167752
 21
101.4833462958532
 31
0.0
  0
LINE
  5
766A
330
18
100
AcDbEntity
  8
0
100
AcDbLine
 10
288.2922469946654
 20
98.26265593631944
 30
0.0
 11
291.0886732854874
 21
101.0590822271413
 31
0.0
  0
CIRCLE
  5
766B
330
18
100
AcDbEntity
  8
0
100
AcDbCircle
 10
289.4783281057204
 20
99.87300111608636
 30
0.0
 40
2.0
  0
LINE
  5
766C
330
18
100
AcDbEntity
  8
0
100
AcDbLine
 10
288.2922469946654
 20
88.10265593631948
 30
0.0
 11
291.0886732854874
 21
90.89908222714138
 31
0.0
  0
LINE
  5
766D
330
18
100
AcDbEntity
  8
0
100
AcDbLine
 10
287.8679829259535
 20
88.52692000503134
 30
0.0
 11
290.6644092167752
 21
91.32334629585329
 31
0.0
  0
LINE
  5
766E
330
18
100
AcDbEntity
  8
0
100
AcDbLine
 10
287.8679829259533
 20
83.44692000503135
 30
0.0
 11
290.6644092167752
 21
86.24334629585332
 31
0.0
  0
LINE
  5
766F
330
18
100
AcDbEntity
  8
0
100
AcDbLine
 10
288.2922469946652
 20
83.02265593631949
 30
0.0
 11
291.0886732854871
 21
85.81908222714139
 31
0.0
  0
CIRCLE
  5
7670
330
18
100
AcDbEntity
  8
0
100
AcDbCircle
 10
289.4783281057202
 20
84.6330011160864
 30
0.0
 40
2.0
  0
CIRCLE
  5
7671
330
18
100
AcDbEntity
  8
0
100
AcDbCircle
 10
289.4783281057204
 20
89.71300111608639
 30
0.0
 40
2.0
  0
LINE
  5
7672
330
18
100
AcDbEntity
  8
0
100
AcDbLine
 10
288.2922469946652
 20
77.94265593631951
 30
0.0
 11
291.0886732854871
 21
80.73908222714141
 31
0.0
  0
LINE
  5
7673
330
18
100
AcDbEntity
  8
0
100
AcDbLine
 10
287.8679829259533
 20
78.36692000503138
 30
0.0
 11
290.6644092167752
 21
81.16334629585333
 31
0.0
  0
CIRCLE
  5
7674
330
18
100
AcDbEntity
  8
0
100
AcDbCircle
 10
289.4783281057202
 20
79.55300111608642
 30
0.0
 40
2.0
  0
LINE
  5
7675
330
18
100
AcDbEntity
  8
0
 48
0.2
100
AcDbLine
 10
284.9670032403153
 20
91.32300111608618
 30
0.0
 11
283.572665673018
 21
88.90793760662507
 31
0.0
  0
LINE
  5
7676
330
18
100
AcDbEntity
  8
0
 48
0.2
100
AcDbLine
 10
284.6783281057205
 20
91.32300111608618
 30
0.0
 11
283.4283281057205
 21
89.15793760662507
 31
0.0
  0
LINE
  5
7677
330
18
100
AcDbEntity
  8
0
 48
0.2
100
AcDbLine
 10
283.572665673018
 20
93.73806462554728
 30
0.0
 11
284.9670032403153
 21
91.32300111608618
 31
0.0
  0
LINE
  5
7678
330
18
100
AcDbEntity
  8
0
 48
0.2
100
AcDbLine
 10
283.4283281057205
 20
93.48806462554728
 30
0.0
 11
284.6783281057205
 21
91.32300111608618
 31
0.0
  0
LINE
  5
7679
330
18
100
AcDbEntity
  8
0
100
AcDbLine
 10
287.8679829259535
 20
93.60692000503133
 30
0.0
 11
290.6644092167752
 21
96.40334629585328
 31
0.0
  0
LINE
  5
767A
330
18
100
AcDbEntity
  8
0
100
AcDbLine
 10
288.2922469946654
 20
93.18265593631947
 30
0.0
 11
291.0886732854874
 21
95.97908222714137
 31
0.0
  0
CIRCLE
  5
767B
330
18
100
AcDbEntity
  8
0
100
AcDbCircle
 10
289.4783281057204
 20
94.79300111608637
 30
0.0
 40
2.0
  0
CIRCLE
  5
767C
330
18
100
AcDbEntity
  8
0
100
AcDbCircle
 10
289.4783281057204
 20
134.5730011160864
 30
0.0
 40
2.0
  0
LINE
  5
767D
330
18
100
AcDbEntity
  8
0
100
AcDbLine
 10
288.2922469946654
 20
132.9626559363194
 30
0.0
 11
291.0886732854874
 21
135.7590822271413
 31
0.0
  0
LINE
  5
767E
330
18
100
AcDbEntity
  8
0
100
AcDbLine
 10
287.8679829259535
 20
133.3869200050313
 30
0.0
 11
290.6644092167752
 21
136.1833462958533
 31
0.0
  0
LINE
  5
767F
330
18
100
AcDbEntity
  8
0
100
AcDbLine
 10
287.8679829259535
 20
108.8469200050312
 30
0.0
 11
290.6644092167752
 21
111.6433462958532
 31
0.0
  0
LINE
  5
7680
330
18
100
AcDbEntity
  8
0
100
AcDbLine
 10
293.6783281057205
 20
112.5730011160863
 30
0.0
 11
284.1783281057205
 21
112.5730011160864
 31
0.0
  0
LINE
  5
7681
330
18
100
AcDbEntity
  8
0
100
AcDbLine
 10
293.6783281057202
 20
132.0730011160862
 30
0.0
 11
284.1783281057203
 21
132.0730011160865
 31
0.0
  0
ARC
  5
7682
330
18
100
AcDbEntity
  8
0
100
AcDbCircle
 10
410.9283281057205
 20
76.67300111608617
 30
0.0
 40
1.75
100
AcDbArc
 50
270.0
 51
90.0
  0
ARC
  5
7683
330
18
100
AcDbEntity
  8
0
100
AcDbCircle
 10
399.4283281057205
 20
76.67300111608617
 30
0.0
 40
1.75
100
AcDbArc
 50
90.0
 51
270.0
  0
LINE
  5
7684
330
18
100
AcDbEntity
  8
0
100
AcDbLine
 10
375.4283281057205
 20
29.42300111608616
 30
0.0
 11
386.9283281057205
 21
29.42300111608616
 31
0.0
  0
LINE
  5
7685
330
18
100
AcDbEntity
  8
0
100
AcDbLine
 10
375.4283281057205
 20
32.92300111608639
 30
0.0
 11
386.9283281057205
 21
32.92300111608617
 31
0.0
  0
LINE
  5
7686
330
18
100
AcDbEntity
  8
0
100
AcDbLine
 10
375.4283281057205
 20
19.92300111608639
 30
0.0
 11
386.9283281057205
 21
19.92300111608616
 31
0.0
  0
LINE
  5
7687
330
18
100
AcDbEntity
  8
0
100
AcDbLine
 10
375.4283281057205
 20
16.42300111608617
 30
0.0
 11
386.9283281057205
 21
16.42300111608617
 31
0.0
  0
LINE
  5
7688
330
18
100
AcDbEntity
  8
0
100
AcDbLine
 10
375.4283281057205
 20
22.92300111608617
 30
0.0
 11
386.9283281057205
 21
22.92300111608617
 31
0.0
  0
LINE
  5
7689
330
18
100
AcDbEntity
  8
0
100
AcDbLine
 10
375.4283281057205
 20
26.42300111608639
 30
0.0
 11
386.9283281057205
 21
26.42300111608617
 31
0.0
  0
LINE
  5
768A
330
18
100
AcDbEntity
  8
0
100
AcDbLine
 10
351.4283281057205
 20
32.92300111608639
 30
0.0
 11
362.9283281057205
 21
32.92300111608617
 31
0.0
  0
LINE
  5
768B
330
18
100
AcDbEntity
  8
0
100
AcDbLine
 10
351.4283281057205
 20
29.42300111608616
 30
0.0
 11
362.9283281057205
 21
29.42300111608616
 31
0.0
  0
LINE
  5
768C
330
18
100
AcDbEntity
  8
0
100
AcDbLine
 10
351.4283281057205
 20
19.92300111608639
 30
0.0
 11
362.9283281057205
 21
19.92300111608616
 31
0.0
  0
LINE
  5
768D
330
18
100
AcDbEntity
  8
0
100
AcDbLine
 10
351.4283281057205
 20
16.42300111608617
 30
0.0
 11
362.9283281057205
 21
16.42300111608617
 31
0.0
  0
LINE
  5
768E
330
18
100
AcDbEntity
  8
0
100
AcDbLine
 10
351.4283281057205
 20
22.92300111608617
 30
0.0
 11
362.9283281057205
 21
22.92300111608617
 31
0.0
  0
LINE
  5
768F
330
18
100
AcDbEntity
  8
0
100
AcDbLine
 10
351.4283281057205
 20
26.42300111608639
 30
0.0
 11
362.9283281057205
 21
26.42300111608617
 31
0.0
  0
ARC
  5
7690
330
18
100
AcDbEntity
  8
0
100
AcDbCircle
 10
351.4283281057205
 20
24.67300111608617
 30
0.0
 40
1.75
100
AcDbArc
 50
90.0
 51
270.0
  0
ARC
  5
7691
330
18
100
AcDbEntity
  8
0
100
AcDbCircle
 10
338.9283281057205
 20
24.67300111608617
 30
0.0
 40
1.75
100
AcDbArc
 50
270.0
 51
90.0
  0
ARC
  5
7692
330
18
100
AcDbEntity
  8
0
100
AcDbCircle
 10
338.9283281057205
 20
31.17300111608617
 30
0.0
 40
1.75
100
AcDbArc
 50
270.0
 51
90.0
  0
ARC
  5
7693
330
18
100
AcDbEntity
  8
0
100
AcDbCircle
 10
351.4283281057205
 20
31.17300111608617
 30
0.0
 40
1.75
100
AcDbArc
 50
90.0
 51
270.0
  0
ARC
  5
7694
330
18
100
AcDbEntity
  8
0
100
AcDbCircle
 10
351.4283281057205
 20
18.17300111608616
 30
0.0
 40
1.75
100
AcDbArc
 50
90.0
 51
270.0
  0
ARC
  5
7695
330
18
100
AcDbEntity
  8
0
100
AcDbCircle
 10
338.9283281057205
 20
18.17300111608616
 30
0.0
 40
1.75
100
AcDbArc
 50
270.0
 51
90.0
  0
ARC
  5
7696
330
18
100
AcDbEntity
  8
0
100
AcDbCircle
 10
375.4283281057205
 20
24.67300111608617
 30
0.0
 40
1.75
100
AcDbArc
 50
90.0
 51
270.0
  0
ARC
  5
7697
330
18
100
AcDbEntity
  8
0
100
AcDbCircle
 10
375.4283281057205
 20
31.17300111608617
 30
0.0
 40
1.75
100
AcDbArc
 50
90.0
 51
270.0
  0
ARC
  5
7698
330
18
100
AcDbEntity
  8
0
100
AcDbCircle
 10
362.9283281057205
 20
24.67300111608617
 30
0.0
 40
1.75
100
AcDbArc
 50
270.0
 51
90.0
  0
ARC
  5
7699
330
18
100
AcDbEntity
  8
0
100
AcDbCircle
 10
362.9283281057205
 20
31.17300111608617
 30
0.0
 40
1.75
100
AcDbArc
 50
270.0
 51
90.0
  0
ARC
  5
769A
330
18
100
AcDbEntity
  8
0
100
AcDbCircle
 10
375.4283281057205
 20
18.17300111608616
 30
0.0
 40
1.75
100
AcDbArc
 50
90.0
 51
270.0
  0
ARC
  5
769B
330
18
100
AcDbEntity
  8
0
100
AcDbCircle
 10
362.9283281057205
 20
18.17300111608616
 30
0.0
 40
1.75
100
AcDbArc
 50
270.0
 51
90.0
  0
ARC
  5
769C
330
18
100
AcDbEntity
  8
0
100
AcDbCircle
 10
410.9283281057205
 20
44.17300111608617
 30
0.0
 40
1.75
100
AcDbArc
 50
270.0
 51
90.0
  0
ARC
  5
769D
330
18
100
AcDbEntity
  8
0
100
AcDbCircle
 10
399.4283281057205
 20
44.17300111608617
 30
0.0
 40
1.75
100
AcDbArc
 50
90.0
 51
270.0
  0
ARC
  5
769E
330
18
100
AcDbEntity
  8
0
100
AcDbCircle
 10
386.9283281057205
 20
24.67300111608617
 30
0.0
 40
1.75
100
AcDbArc
 50
270.0
 51
90.0
  0
ARC
  5
769F
330
18
100
AcDbEntity
  8
0
100
AcDbCircle
 10
386.9283281057205
 20
31.17300111608617
 30
0.0
 40
1.75
100
AcDbArc
 50
270.0
 51
90.0
  0
ARC
  5
76A0
330
18
100
AcDbEntity
  8
0
100
AcDbCircle
 10
386.9283281057205
 20
18.17300111608616
 30
0.0
 40
1.75
100
AcDbArc
 50
270.0
 51
90.0
  0
LINE
  5
76A1
330
18
100
AcDbEntity
  8
0
100
AcDbLine
 10
399.4283281057205
 20
39.4230011160864
 30
0.0
 11
410.9283281057205
 21
39.42300111608616
 31
0.0
  0
LINE
  5
76A2
330
18
100
AcDbEntity
  8
0
100
AcDbLine
 10
399.4283281057205
 20
42.42300111608616
 30
0.0
 11
410.9283281057205
 21
42.42300111608616
 31
0.0
  0
ARC
  5
76A3
330
18
100
AcDbEntity
  8
0
100
AcDbCircle
 10
410.9283281057205
 20
24.67300111608617
 30
0.0
 40
1.75
100
AcDbArc
 50
270.0
 51
90.0
  0
ARC
  5
76A4
330
18
100
AcDbEntity
  8
0
100
AcDbCircle
 10
410.9283281057205
 20
31.17300111608617
 30
0.0
 40
1.75
100
AcDbArc
 50
270.0
 51
90.0
  0
ARC
  5
76A5
330
18
100
AcDbEntity
  8
0
100
AcDbCircle
 10
399.4283281057205
 20
24.67300111608617
 30
0.0
 40
1.75
100
AcDbArc
 50
90.0
 51
270.0
  0
ARC
  5
76A6
330
18
100
AcDbEntity
  8
0
100
AcDbCircle
 10
399.4283281057205
 20
31.17300111608617
 30
0.0
 40
1.75
100
AcDbArc
 50
90.0
 51
270.0
  0
LINE
  5
76A7
330
18
100
AcDbEntity
  8
0
100
AcDbLine
 10
399.4283281057205
 20
29.42300111608616
 30
0.0
 11
410.9283281057205
 21
29.42300111608616
 31
0.0
  0
LINE
  5
76A8
330
18
100
AcDbEntity
  8
0
100
AcDbLine
 10
399.4283281057205
 20
32.92300111608639
 30
0.0
 11
410.9283281057205
 21
32.92300111608617
 31
0.0
  0
LINE
  5
76A9
330
18
100
AcDbEntity
  8
0
100
AcDbLine
 10
399.4283281057205
 20
35.92300111608617
 30
0.0
 11
410.9283281057205
 21
35.92300111608617
 31
0.0
  0
LINE
  5
76AA
330
18
100
AcDbEntity
  8
0
100
AcDbLine
 10
399.4283281057205
 20
22.92300111608617
 30
0.0
 11
410.9283281057205
 21
22.92300111608617
 31
0.0
  0
LINE
  5
76AB
330
18
100
AcDbEntity
  8
0
100
AcDbLine
 10
399.4283281057205
 20
26.42300111608639
 30
0.0
 11
410.9283281057205
 21
26.42300111608617
 31
0.0
  0
ARC
  5
76AC
330
18
100
AcDbEntity
  8
0
100
AcDbCircle
 10
410.9283281057205
 20
18.17300111608616
 30
0.0
 40
1.75
100
AcDbArc
 50
270.0
 51
90.0
  0
ARC
  5
76AD
330
18
100
AcDbEntity
  8
0
100
AcDbCircle
 10
399.4283281057205
 20
18.17300111608616
 30
0.0
 40
1.75
100
AcDbArc
 50
90.0
 51
270.0
  0
LINE
  5
76AE
330
18
100
AcDbEntity
  8
0
100
AcDbLine
 10
399.4283281057205
 20
19.92300111608639
 30
0.0
 11
410.9283281057205
 21
19.92300111608616
 31
0.0
  0
LINE
  5
76AF
330
18
100
AcDbEntity
  8
0
100
AcDbLine
 10
399.4283281057205
 20
16.42300111608617
 30
0.0
 11
410.9283281057205
 21
16.42300111608617
 31
0.0
  0
ARC
  5
76B0
330
18
100
AcDbEntity
  8
0
100
AcDbCircle
 10
399.4283281057205
 20
37.67300111608617
 30
0.0
 40
1.75
100
AcDbArc
 50
90.0
 51
270.0
  0
ARC
  5
76B1
330
18
100
AcDbEntity
  8
0
100
AcDbCircle
 10
410.9283281057205
 20
37.67300111608617
 30
0.0
 40
1.75
100
AcDbArc
 50
270.0
 51
90.0
  0
ARC
  5
76B2
330
18
100
AcDbEntity
  8
0
100
AcDbCircle
 10
410.9283281057205
 20
70.17300111608617
 30
0.0
 40
1.75
100
AcDbArc
 50
270.0
 51
90.0
  0
ARC
  5
76B3
330
18
100
AcDbEntity
  8
0
100
AcDbCircle
 10
399.4283281057205
 20
70.17300111608617
 30
0.0
 40
1.75
100
AcDbArc
 50
90.0
 51
270.0
  0
LINE
  5
76B4
330
18
100
AcDbEntity
  8
0
100
AcDbLine
 10
399.4283281057205
 20
71.9230011160864
 30
0.0
 11
410.9283281057205
 21
71.92300111608616
 31
0.0
  0
LINE
  5
76B5
330
18
100
AcDbEntity
  8
0
100
AcDbLine
 10
399.4283281057205
 20
68.42300111608617
 30
0.0
 11
410.9283281057205
 21
68.42300111608617
 31
0.0
  0
LINE
  5
76B6
330
18
100
AcDbEntity
  8
0
100
AcDbLine
 10
399.4283281057205
 20
74.92300111608617
 30
0.0
 11
410.9283281057205
 21
74.92300111608617
 31
0.0
  0
ARC
  5
76B7
330
18
100
AcDbEntity
  8
0
100
AcDbCircle
 10
410.9283281057205
 20
63.67300111608617
 30
0.0
 40
1.75
100
AcDbArc
 50
270.0
 51
90.0
  0
ARC
  5
76B8
330
18
100
AcDbEntity
  8
0
100
AcDbCircle
 10
410.9283281057205
 20
57.17300111608617
 30
0.0
 40
1.75
100
AcDbArc
 50
270.0
 51
90.0
  0
ARC
  5
76B9
330
18
100
AcDbEntity
  8
0
100
AcDbCircle
 10
399.4283281057205
 20
63.67300111608617
 30
0.0
 40
1.75
100
AcDbArc
 50
90.0
 51
270.0
  0
ARC
  5
76BA
330
18
100
AcDbEntity
  8
0
100
AcDbCircle
 10
399.4283281057205
 20
57.17300111608617
 30
0.0
 40
1.75
100
AcDbArc
 50
90.0
 51
270.0
  0
LINE
  5
76BB
330
18
100
AcDbEntity
  8
0
100
AcDbLine
 10
399.4283281057205
 20
58.92300111608642
 30
0.0
 11
410.9283281057205
 21
58.92300111608617
 31
0.0
  0
LINE
  5
76BC
330
18
100
AcDbEntity
  8
0
100
AcDbLine
 10
399.4283281057205
 20
65.42300111608639
 30
0.0
 11
410.9283281057205
 21
65.42300111608617
 31
0.0
  0
LINE
  5
76BD
330
18
100
AcDbEntity
  8
0
100
AcDbLine
 10
399.4283281057205
 20
61.9230011160862
 30
0.0
 11
410.9283281057205
 21
61.92300111608616
 31
0.0
  0
LINE
  5
76BE
330
18
100
AcDbEntity
  8
0
100
AcDbLine
 10
399.4283281057205
 20
52.42300111608639
 30
0.0
 11
410.9283281057205
 21
52.42300111608617
 31
0.0
  0
LINE
  5
76BF
330
18
100
AcDbEntity
  8
0
100
AcDbLine
 10
399.4283281057205
 20
55.4230011160862
 30
0.0
 11
410.9283281057205
 21
55.42300111608617
 31
0.0
  0
LINE
  5
76C0
330
18
100
AcDbEntity
  8
0
100
AcDbLine
 10
399.4283281057205
 20
45.92300111608639
 30
0.0
 11
410.9283281057205
 21
45.92300111608617
 31
0.0
  0
LINE
  5
76C1
330
18
100
AcDbEntity
  8
0
100
AcDbLine
 10
399.4283281057205
 20
48.92300111608617
 30
0.0
 11
410.9283281057205
 21
48.92300111608617
 31
0.0
  0
ARC
  5
76C2
330
18
100
AcDbEntity
  8
0
100
AcDbCircle
 10
399.4283281057205
 20
50.67300111608616
 30
0.0
 40
1.75
100
AcDbArc
 50
90.0
 51
270.0
  0
ARC
  5
76C3
330
18
100
AcDbEntity
  8
0
100
AcDbCircle
 10
410.9283281057205
 20
50.67300111608616
 30
0.0
 40
1.75
100
AcDbArc
 50
270.0
 51
90.0
  0
ARC
  5
76C4
330
18
100
AcDbEntity
  8
0
100
AcDbCircle
 10
399.4283281057205
 20
109.1730011160861
 30
0.0
 40
1.75
100
AcDbArc
 50
90.0
 51
270.0
  0
ARC
  5
76C5
330
18
100
AcDbEntity
  8
0
100
AcDbCircle
 10
410.9283281057205
 20
109.1730011160861
 30
0.0
 40
1.75
100
AcDbArc
 50
270.0
 51
90.0
  0
ARC
  5
76C6
330
18
100
AcDbEntity
  8
0
100
AcDbCircle
 10
410.9283281057205
 20
102.6730011160861
 30
0.0
 40
1.75
100
AcDbArc
 50
270.0
 51
90.0
  0
ARC
  5
76C7
330
18
100
AcDbEntity
  8
0
100
AcDbCircle
 10
399.4283281057205
 20
102.6730011160861
 30
0.0
 40
1.75
100
AcDbArc
 50
90.0
 51
270.0
  0
LINE
  5
76C8
330
18
100
AcDbEntity
  8
0
100
AcDbLine
 10
399.4283281057205
 20
97.92300111608639
 30
0.0
 11
410.9283281057205
 21
97.92300111608618
 31
0.0
  0
LINE
  5
76C9
330
18
100
AcDbEntity
  8
0
100
AcDbLine
 10
399.4283281057205
 20
100.9230011160861
 30
0.0
 11
410.9283281057205
 21
100.9230011160861
 31
0.0
  0
LINE
  5
76CA
330
18
100
AcDbEntity
  8
0
100
AcDbLine
 10
399.4283281057205
 20
104.4230011160864
 30
0.0
 11
410.9283281057205
 21
104.4230011160861
 31
0.0
  0
LINE
  5
76CB
330
18
100
AcDbEntity
  8
0
100
AcDbLine
 10
399.4283281057205
 20
107.4230011160861
 30
0.0
 11
410.9283281057205
 21
107.4230011160861
 31
0.0
  0
ARC
  5
76CC
330
18
100
AcDbEntity
  8
0
100
AcDbCircle
 10
410.9283281057205
 20
83.17300111608616
 30
0.0
 40
1.75
100
AcDbArc
 50
270.0
 51
90.0
  0
ARC
  5
76CD
330
18
100
AcDbEntity
  8
0
100
AcDbCircle
 10
410.9283281057205
 20
89.67300111608617
 30
0.0
 40
1.75
100
AcDbArc
 50
270.0
 51
90.0
  0
ARC
  5
76CE
330
18
100
AcDbEntity
  8
0
100
AcDbCircle
 10
399.4283281057205
 20
83.17300111608616
 30
0.0
 40
1.75
100
AcDbArc
 50
90.0
 51
270.0
  0
ARC
  5
76CF
330
18
100
AcDbEntity
  8
0
100
AcDbCircle
 10
399.4283281057205
 20
89.67300111608617
 30
0.0
 40
1.75
100
AcDbArc
 50
90.0
 51
270.0
  0
LINE
  5
76D0
330
18
100
AcDbEntity
  8
0
100
AcDbLine
 10
399.4283281057205
 20
91.42300111608639
 30
0.0
 11
410.9283281057205
 21
91.42300111608617
 31
0.0
  0
LINE
  5
76D1
330
18
100
AcDbEntity
  8
0
100
AcDbLine
 10
399.4283281057205
 20
94.42300111608616
 30
0.0
 11
410.9283281057205
 21
94.42300111608616
 31
0.0
  0
LINE
  5
76D2
330
18
100
AcDbEntity
  8
0
100
AcDbLine
 10
399.4283281057205
 20
84.9230011160864
 30
0.0
 11
410.9283281057205
 21
84.92300111608617
 31
0.0
  0
LINE
  5
76D3
330
18
100
AcDbEntity
  8
0
100
AcDbLine
 10
399.4283281057205
 20
81.42300111608617
 30
0.0
 11
410.9283281057205
 21
81.42300111608617
 31
0.0
  0
LINE
  5
76D4
330
18
100
AcDbEntity
  8
0
100
AcDbLine
 10
399.4283281057205
 20
87.92300111608616
 30
0.0
 11
410.9283281057205
 21
87.92300111608616
 31
0.0
  0
LINE
  5
76D5
330
18
100
AcDbEntity
  8
0
100
AcDbLine
 10
399.4283281057205
 20
78.4230011160864
 30
0.0
 11
410.9283281057205
 21
78.42300111608617
 31
0.0
  0
ARC
  5
76D6
330
18
100
AcDbEntity
  8
0
100
AcDbCircle
 10
399.4283281057205
 20
96.17300111608617
 30
0.0
 40
1.75
100
AcDbArc
 50
90.0
 51
270.0
  0
ARC
  5
76D7
330
18
100
AcDbEntity
  8
0
100
AcDbCircle
 10
410.9283281057205
 20
96.17300111608617
 30
0.0
 40
1.75
100
AcDbArc
 50
270.0
 51
90.0
  0
LINE
  5
76D8
330
18
100
AcDbEntity
  8
0
100
AcDbLine
 10
399.4283281057205
 20
139.9230011160861
 30
0.0
 11
410.9283281057205
 21
139.9230011160861
 31
0.0
  0
ARC
  5
76D9
330
18
100
AcDbEntity
  8
0
100
AcDbCircle
 10
410.9283281057205
 20
135.1730011160861
 30
0.0
 40
1.75
100
AcDbArc
 50
270.0
 51
90.0
  0
ARC
  5
76DA
330
18
100
AcDbEntity
  8
0
100
AcDbCircle
 10
410.9283281057205
 20
128.6730011160861
 30
0.0
 40
1.75
100
AcDbArc
 50
270.0
 51
90.0
  0
ARC
  5
76DB
330
18
100
AcDbEntity
  8
0
100
AcDbCircle
 10
399.4283281057205
 20
135.1730011160861
 30
0.0
 40
1.75
100
AcDbArc
 50
90.0
 51
270.0
  0
ARC
  5
76DC
330
18
100
AcDbEntity
  8
0
100
AcDbCircle
 10
399.4283281057205
 20
128.6730011160861
 30
0.0
 40
1.75
100
AcDbArc
 50
90.0
 51
270.0
  0
LINE
  5
76DD
330
18
100
AcDbEntity
  8
0
100
AcDbLine
 10
399.4283281057205
 20
130.4230011160864
 30
0.0
 11
410.9283281057205
 21
130.4230011160861
 31
0.0
  0
LINE
  5
76DE
330
18
100
AcDbEntity
  8
0
100
AcDbLine
 10
399.4283281057205
 20
126.9230011160861
 30
0.0
 11
410.9283281057205
 21
126.9230011160861
 31
0.0
  0
LINE
  5
76DF
330
18
100
AcDbEntity
  8
0
100
AcDbLine
 10
399.4283281057205
 20
133.4230011160861
 30
0.0
 11
410.9283281057205
 21
133.4230011160861
 31
0.0
  0
LINE
  5
76E0
330
18
100
AcDbEntity
  8
0
100
AcDbLine
 10
399.4283281057205
 20
136.9230011160863
 30
0.0
 11
410.9283281057205
 21
136.9230011160861
 31
0.0
  0
ARC
  5
76E1
330
18
100
AcDbEntity
  8
0
100
AcDbCircle
 10
410.9283281057205
 20
122.1730011160861
 30
0.0
 40
1.75
100
AcDbArc
 50
270.0
 51
90.0
  0
ARC
  5
76E2
330
18
100
AcDbEntity
  8
0
100
AcDbCircle
 10
410.9283281057205
 20
115.6730011160861
 30
0.0
 40
1.75
100
AcDbArc
 50
270.0
 51
90.0
  0
ARC
  5
76E3
330
18
100
AcDbEntity
  8
0
100
AcDbCircle
 10
399.4283281057205
 20
122.1730011160861
 30
0.0
 40
1.75
100
AcDbArc
 50
90.0
 51
270.0
  0
ARC
  5
76E4
330
18
100
AcDbEntity
  8
0
100
AcDbCircle
 10
399.4283281057205
 20
115.6730011160861
 30
0.0
 40
1.75
100
AcDbArc
 50
90.0
 51
270.0
  0
LINE
  5
76E5
330
18
100
AcDbEntity
  8
0
100
AcDbLine
 10
399.4283281057205
 20
120.4230011160861
 30
0.0
 11
410.9283281057205
 21
120.4230011160861
 31
0.0
  0
LINE
  5
76E6
330
18
100
AcDbEntity
  8
0
100
AcDbLine
 10
399.4283281057205
 20
123.9230011160864
 30
0.0
 11
410.9283281057205
 21
123.9230011160861
 31
0.0
  0
LINE
  5
76E7
330
18
100
AcDbEntity
  8
0
100
AcDbLine
 10
399.4283281057205
 20
110.9230011160863
 30
0.0
 11
410.9283281057205
 21
110.9230011160861
 31
0.0
  0
LINE
  5
76E8
330
18
100
AcDbEntity
  8
0
100
AcDbLine
 10
399.4283281057205
 20
117.4230011160863
 30
0.0
 11
410.9283281057205
 21
117.4230011160861
 31
0.0
  0
LINE
  5
76E9
330
18
100
AcDbEntity
  8
0
100
AcDbLine
 10
399.4283281057205
 20
113.9230011160861
 30
0.0
 11
410.9283281057205
 21
113.9230011160861
 31
0.0
  0
LINE
  5
76EA
330
18
100
AcDbEntity
  8
0
100
AcDbLine
 10
441.6783281057205
 20
9.673001116086169
 30
0.0
 11
442.6783281057205
 21
10.67300111608616
 31
0.0
  0
LINE
  5
76EB
330
18
100
AcDbEntity
  8
0
100
AcDbLine
 10
442.6783281057205
 20
-5.326998883913745
 30
0.0
 11
444.6783281057205
 21
-5.326998883913745
 31
0.0
  0
ARC
  5
76EC
330
18
100
AcDbEntity
  8
0
100
AcDbCircle
 10
423.4283281057205
 20
76.67300111608617
 30
0.0
 40
1.75
100
AcDbArc
 50
90.0
 51
270.0
  0
ARC
  5
76ED
330
18
100
AcDbEntity
  8
0
100
AcDbCircle
 10
434.9283281057205
 20
76.67300111608617
 30
0.0
 40
1.75
100
AcDbArc
 50
270.0
 51
90.0
  0
ARC
  5
76EE
330
18
100
AcDbEntity
  8
0
100
AcDbCircle
 10
423.4283281057205
 20
44.17300111608617
 30
0.0
 40
1.75
100
AcDbArc
 50
90.0
 51
270.0
  0
ARC
  5
76EF
330
18
100
AcDbEntity
  8
0
100
AcDbCircle
 10
434.9283281057205
 20
44.17300111608613
 30
0.0
 40
1.75
100
AcDbArc
 50
270.0
 51
90.0
  0
LINE
  5
76F0
330
18
100
AcDbEntity
  8
0
100
AcDbLine
 10
423.4283281057205
 20
39.4230011160864
 30
0.0
 11
434.9283281057205
 21
39.42300111608616
 31
0.0
  0
LINE
  5
76F1
330
18
100
AcDbEntity
  8
0
100
AcDbLine
 10
423.4283281057205
 20
42.42300111608616
 30
0.0
 11
434.9283281057205
 21
42.42300111608616
 31
0.0
  0
LINE
  5
76F2
330
18
100
AcDbEntity
  8
0
100
AcDbLine
 10
423.4283281057205
 20
32.92300111608639
 30
0.0
 11
434.9283281057205
 21
32.92300111608617
 31
0.0
  0
LINE
  5
76F3
330
18
100
AcDbEntity
  8
0
100
AcDbLine
 10
423.4283281057205
 20
35.92300111608617
 30
0.0
 11
434.9283281057205
 21
35.92300111608617
 31
0.0
  0
LINE
  5
76F4
330
18
100
AcDbEntity
  8
0
100
AcDbLine
 10
423.4283281057205
 20
29.42300111608616
 30
0.0
 11
434.9283281057205
 21
29.42300111608616
 31
0.0
  0
LINE
  5
76F5
330
18
100
AcDbEntity
  8
0
100
AcDbLine
 10
423.4283281057205
 20
22.92300111608617
 30
0.0
 11
434.9283281057205
 21
22.92300111608617
 31
0.0
  0
LINE
  5
76F6
330
18
100
AcDbEntity
  8
0
100
AcDbLine
 10
423.4283281057205
 20
26.42300111608639
 30
0.0
 11
434.9283281057205
 21
26.42300111608617
 31
0.0
  0
LINE
  5
76F7
330
18
100
AcDbEntity
  8
0
100
AcDbLine
 10
423.4283281057205
 20
19.92300111608639
 30
0.0
 11
434.9283281057205
 21
19.92300111608616
 31
0.0
  0
LINE
  5
76F8
330
18
100
AcDbEntity
  8
0
100
AcDbLine
 10
423.4283281057205
 20
16.42300111608617
 30
0.0
 11
434.9283281057205
 21
16.42300111608617
 31
0.0
  0
ARC
  5
76F9
330
18
100
AcDbEntity
  8
0
100
AcDbCircle
 10
423.4283281057205
 20
24.67300111608617
 30
0.0
 40
1.75
100
AcDbArc
 50
90.0
 51
270.0
  0
ARC
  5
76FA
330
18
100
AcDbEntity
  8
0
100
AcDbCircle
 10
423.4283281057205
 20
31.17300111608617
 30
0.0
 40
1.75
100
AcDbArc
 50
90.0
 51
270.0
  0
ARC
  5
76FB
330
18
100
AcDbEntity
  8
0
100
AcDbCircle
 10
423.4283281057205
 20
18.17300111608616
 30
0.0
 40
1.75
100
AcDbArc
 50
90.0
 51
270.0
  0
ARC
  5
76FC
330
18
100
AcDbEntity
  8
0
100
AcDbCircle
 10
423.4283281057205
 20
37.67300111608617
 30
0.0
 40
1.75
100
AcDbArc
 50
90.0
 51
270.0
  0
ARC
  5
76FD
330
18
100
AcDbEntity
  8
0
100
AcDbCircle
 10
434.9283281057205
 20
24.67300111608617
 30
0.0
 40
1.75
100
AcDbArc
 50
270.0
 51
90.0
  0
ARC
  5
76FE
330
18
100
AcDbEntity
  8
0
100
AcDbCircle
 10
434.9283281057205
 20
31.17300111608617
 30
0.0
 40
1.75
100
AcDbArc
 50
270.0
 51
90.0
  0
ARC
  5
76FF
330
18
100
AcDbEntity
  8
0
100
AcDbCircle
 10
434.9283281057205
 20
18.17300111608616
 30
0.0
 40
1.75
100
AcDbArc
 50
270.0
 51
90.0
  0
ARC
  5
7700
330
18
100
AcDbEntity
  8
0
100
AcDbCircle
 10
434.9283281057205
 20
37.67300111608617
 30
0.0
 40
1.75
100
AcDbArc
 50
270.0
 51
90.0
  0
LINE
  5
7701
330
18
100
AcDbEntity
  8
0
100
AcDbLine
 10
423.4283281057205
 20
74.92300111608617
 30
0.0
 11
434.9283281057205
 21
74.92300111608617
 31
0.0
  0
LINE
  5
7702
330
18
100
AcDbEntity
  8
0
100
AcDbLine
 10
423.4283281057205
 20
71.9230011160864
 30
0.0
 11
434.9283281057205
 21
71.92300111608616
 31
0.0
  0
LINE
  5
7703
330
18
100
AcDbEntity
  8
0
100
AcDbLine
 10
423.4283281057205
 20
68.42300111608617
 30
0.0
 11
434.9283281057205
 21
68.42300111608617
 31
0.0
  0
LINE
  5
7704
330
18
100
AcDbEntity
  8
0
100
AcDbLine
 10
423.4283281057205
 20
65.42300111608639
 30
0.0
 11
434.9283281057205
 21
65.42300111608617
 31
0.0
  0
LINE
  5
7705
330
18
100
AcDbEntity
  8
0
100
AcDbLine
 10
423.4283281057205
 20
61.92300111608616
 30
0.0
 11
434.9283281057205
 21
61.92300111608616
 31
0.0
  0
LINE
  5
7706
330
18
100
AcDbEntity
  8
0
100
AcDbLine
 10
423.4283281057205
 20
58.9230011160864
 30
0.0
 11
434.9283281057205
 21
58.92300111608617
 31
0.0
  0
LINE
  5
7707
330
18
100
AcDbEntity
  8
0
100
AcDbLine
 10
423.4283281057205
 20
52.42300111608639
 30
0.0
 11
434.9283281057205
 21
52.42300111608617
 31
0.0
  0
LINE
  5
7708
330
18
100
AcDbEntity
  8
0
100
AcDbLine
 10
423.4283281057205
 20
55.42300111608617
 30
0.0
 11
434.9283281057205
 21
55.42300111608617
 31
0.0
  0
LINE
  5
7709
330
18
100
AcDbEntity
  8
0
100
AcDbLine
 10
423.4283281057205
 20
45.92300111608639
 30
0.0
 11
434.9283281057205
 21
45.92300111608617
 31
0.0
  0
LINE
  5
770A
330
18
100
AcDbEntity
  8
0
100
AcDbLine
 10
423.4283281057205
 20
48.92300111608617
 30
0.0
 11
434.9283281057205
 21
48.92300111608617
 31
0.0
  0
ARC
  5
770B
330
18
100
AcDbEntity
  8
0
100
AcDbCircle
 10
423.4283281057205
 20
70.17300111608617
 30
0.0
 40
1.75
100
AcDbArc
 50
90.0
 51
270.0
  0
ARC
  5
770C
330
18
100
AcDbEntity
  8
0
100
AcDbCircle
 10
423.4283281057205
 20
63.67300111608617
 30
0.0
 40
1.75
100
AcDbArc
 50
90.0
 51
270.0
  0
ARC
  5
770D
330
18
100
AcDbEntity
  8
0
100
AcDbCircle
 10
423.4283281057205
 20
57.17300111608617
 30
0.0
 40
1.75
100
AcDbArc
 50
90.0
 51
270.0
  0
ARC
  5
770E
330
18
100
AcDbEntity
  8
0
100
AcDbCircle
 10
423.4283281057205
 20
50.67300111608616
 30
0.0
 40
1.75
100
AcDbArc
 50
90.0
 51
270.0
  0
ARC
  5
770F
330
18
100
AcDbEntity
  8
0
100
AcDbCircle
 10
434.9283281057205
 20
70.17300111608617
 30
0.0
 40
1.75
100
AcDbArc
 50
270.0
 51
90.0
  0
ARC
  5
7710
330
18
100
AcDbEntity
  8
0
100
AcDbCircle
 10
434.9283281057205
 20
57.17300111608614
 30
0.0
 40
1.75
100
AcDbArc
 50
270.0
 51
90.0
  0
ARC
  5
7711
330
18
100
AcDbEntity
  8
0
100
AcDbCircle
 10
434.9283281057205
 20
63.67300111608614
 30
0.0
 40
1.75
100
AcDbArc
 50
270.0
 51
90.0
  0
ARC
  5
7712
330
18
100
AcDbEntity
  8
0
100
AcDbCircle
 10
434.9283281057205
 20
50.67300111608614
 30
0.0
 40
1.75
100
AcDbArc
 50
270.0
 51
90.0
  0
ARC
  5
7713
330
18
100
AcDbEntity
  8
0
100
AcDbCircle
 10
423.4283281057205
 20
109.1730011160861
 30
0.0
 40
1.75
100
AcDbArc
 50
90.0
 51
270.0
  0
ARC
  5
7714
330
18
100
AcDbEntity
  8
0
100
AcDbCircle
 10
434.9283281057205
 20
109.1730011160861
 30
0.0
 40
1.75
100
AcDbArc
 50
270.0
 51
90.0
  0
LINE
  5
7715
330
18
100
AcDbEntity
  8
0
100
AcDbLine
 10
423.4283281057205
 20
107.4230011160861
 30
0.0
 11
434.9283281057205
 21
107.4230011160861
 31
0.0
  0
LINE
  5
7716
330
18
100
AcDbEntity
  8
0
100
AcDbLine
 10
423.4283281057205
 20
104.4230011160864
 30
0.0
 11
434.9283281057205
 21
104.4230011160861
 31
0.0
  0
LINE
  5
7717
330
18
100
AcDbEntity
  8
0
100
AcDbLine
 10
423.4283281057205
 20
97.92300111608639
 30
0.0
 11
434.9283281057205
 21
97.92300111608618
 31
0.0
  0
LINE
  5
7718
330
18
100
AcDbEntity
  8
0
100
AcDbLine
 10
423.4283281057205
 20
100.9230011160861
 30
0.0
 11
434.9283281057205
 21
100.9230011160861
 31
0.0
  0
LINE
  5
7719
330
18
100
AcDbEntity
  8
0
100
AcDbLine
 10
423.4283281057205
 20
91.42300111608639
 30
0.0
 11
434.9283281057205
 21
91.42300111608617
 31
0.0
  0
LINE
  5
771A
330
18
100
AcDbEntity
  8
0
100
AcDbLine
 10
423.4283281057205
 20
94.42300111608616
 30
0.0
 11
434.9283281057205
 21
94.42300111608616
 31
0.0
  0
LINE
  5
771B
330
18
100
AcDbEntity
  8
0
100
AcDbLine
 10
423.4283281057205
 20
84.9230011160864
 30
0.0
 11
434.9283281057205
 21
84.92300111608617
 31
0.0
  0
LINE
  5
771C
330
18
100
AcDbEntity
  8
0
100
AcDbLine
 10
423.4283281057205
 20
87.92300111608616
 30
0.0
 11
434.9283281057205
 21
87.92300111608616
 31
0.0
  0
LINE
  5
771D
330
18
100
AcDbEntity
  8
0
100
AcDbLine
 10
423.4283281057205
 20
81.42300111608617
 30
0.0
 11
434.9283281057205
 21
81.42300111608617
 31
0.0
  0
LINE
  5
771E
330
18
100
AcDbEntity
  8
0
100
AcDbLine
 10
423.4283281057205
 20
78.4230011160864
 30
0.0
 11
434.9283281057205
 21
78.42300111608617
 31
0.0
  0
ARC
  5
771F
330
18
100
AcDbEntity
  8
0
100
AcDbCircle
 10
423.4283281057205
 20
102.6730011160861
 30
0.0
 40
1.75
100
AcDbArc
 50
90.0
 51
270.0
  0
ARC
  5
7720
330
18
100
AcDbEntity
  8
0
100
AcDbCircle
 10
423.4283281057205
 20
83.17300111608616
 30
0.0
 40
1.75
100
AcDbArc
 50
90.0
 51
270.0
  0
ARC
  5
7721
330
18
100
AcDbEntity
  8
0
100
AcDbCircle
 10
423.4283281057205
 20
89.67300111608617
 30
0.0
 40
1.75
100
AcDbArc
 50
90.0
 51
270.0
  0
ARC
  5
7722
330
18
100
AcDbEntity
  8
0
100
AcDbCircle
 10
423.4283281057205
 20
96.17300111608617
 30
0.0
 40
1.75
100
AcDbArc
 50
90.0
 51
270.0
  0
ARC
  5
7723
330
18
100
AcDbEntity
  8
0
100
AcDbCircle
 10
434.9283281057205
 20
102.6730011160861
 30
0.0
 40
1.75
100
AcDbArc
 50
270.0
 51
90.0
  0
ARC
  5
7724
330
18
100
AcDbEntity
  8
0
100
AcDbCircle
 10
434.9283281057205
 20
89.67300111608617
 30
0.0
 40
1.75
100
AcDbArc
 50
270.0
 51
90.0
  0
ARC
  5
7725
330
18
100
AcDbEntity
  8
0
100
AcDbCircle
 10
434.9283281057205
 20
83.17300111608616
 30
0.0
 40
1.75
100
AcDbArc
 50
270.0
 51
90.0
  0
ARC
  5
7726
330
18
100
AcDbEntity
  8
0
100
AcDbCircle
 10
434.9283281057205
 20
96.17300111608617
 30
0.0
 40
1.75
100
AcDbArc
 50
270.0
 51
90.0
  0
LINE
  5
7727
330
18
100
AcDbEntity
  8
0
100
AcDbLine
 10
423.4283281057205
 20
139.9230011160861
 30
0.0
 11
434.9283281057205
 21
139.9230011160861
 31
0.0
  0
LINE
  5
7728
330
18
100
AcDbEntity
  8
0
100
AcDbLine
 10
423.4283281057205
 20
133.4230011160861
 30
0.0
 11
434.9283281057205
 21
133.4230011160861
 31
0.0
  0
LINE
  5
7729
330
18
100
AcDbEntity
  8
0
100
AcDbLine
 10
423.4283281057205
 20
136.9230011160863
 30
0.0
 11
434.9283281057205
 21
136.9230011160861
 31
0.0
  0
LINE
  5
772A
330
18
100
AcDbEntity
  8
0
100
AcDbLine
 10
423.4283281057205
 20
130.4230011160864
 30
0.0
 11
434.9283281057205
 21
130.4230011160861
 31
0.0
  0
LINE
  5
772B
330
18
100
AcDbEntity
  8
0
100
AcDbLine
 10
423.4283281057205
 20
126.9230011160861
 30
0.0
 11
434.9283281057205
 21
126.9230011160861
 31
0.0
  0
LINE
  5
772C
330
18
100
AcDbEntity
  8
0
100
AcDbLine
 10
423.4283281057205
 20
120.4230011160861
 30
0.0
 11
434.9283281057205
 21
120.4230011160861
 31
0.0
  0
LINE
  5
772D
330
18
100
AcDbEntity
  8
0
100
AcDbLine
 10
423.4283281057205
 20
123.9230011160864
 30
0.0
 11
434.9283281057205
 21
123.9230011160861
 31
0.0
  0
LINE
  5
772E
330
18
100
AcDbEntity
  8
0
100
AcDbLine
 10
423.4283281057205
 20
117.4230011160863
 30
0.0
 11
434.9283281057205
 21
117.4230011160861
 31
0.0
  0
LINE
  5
772F
330
18
100
AcDbEntity
  8
0
100
AcDbLine
 10
423.4283281057205
 20
110.9230011160863
 30
0.0
 11
434.9283281057205
 21
110.9230011160861
 31
0.0
  0
LINE
  5
7730
330
18
100
AcDbEntity
  8
0
100
AcDbLine
 10
423.4283281057205
 20
113.9230011160861
 30
0.0
 11
434.9283281057205
 21
113.9230011160861
 31
0.0
  0
ARC
  5
7731
330
18
100
AcDbEntity
  8
0
100
AcDbCircle
 10
423.4283281057205
 20
135.1730011160861
 30
0.0
 40
1.75
100
AcDbArc
 50
90.0
 51
270.0
  0
ARC
  5
7732
330
18
100
AcDbEntity
  8
0
100
AcDbCircle
 10
423.4283281057205
 20
128.6730011160861
 30
0.0
 40
1.75
100
AcDbArc
 50
90.0
 51
270.0
  0
ARC
  5
7733
330
18
100
AcDbEntity
  8
0
100
AcDbCircle
 10
423.4283281057205
 20
122.1730011160861
 30
0.0
 40
1.75
100
AcDbArc
 50
90.0
 51
270.0
  0
ARC
  5
7734
330
18
100
AcDbEntity
  8
0
100
AcDbCircle
 10
423.4283281057205
 20
115.6730011160861
 30
0.0
 40
1.75
100
AcDbArc
 50
90.0
 51
270.0
  0
ARC
  5
7735
330
18
100
AcDbEntity
  8
0
100
AcDbCircle
 10
434.9283281057205
 20
135.1730011160861
 30
0.0
 40
1.75
100
AcDbArc
 50
270.0
 51
90.0
  0
ARC
  5
7736
330
18
100
AcDbEntity
  8
0
100
AcDbCircle
 10
434.9283281057205
 20
128.6730011160861
 30
0.0
 40
1.75
100
AcDbArc
 50
270.0
 51
90.0
  0
ARC
  5
7737
330
18
100
AcDbEntity
  8
0
100
AcDbCircle
 10
434.9283281057205
 20
115.6730011160861
 30
0.0
 40
1.75
100
AcDbArc
 50
270.0
 51
90.0
  0
ARC
  5
7738
330
18
100
AcDbEntity
  8
0
100
AcDbCircle
 10
434.9283281057205
 20
122.1730011160861
 30
0.0
 40
1.75
100
AcDbArc
 50
270.0
 51
90.0
  0
LINE
  5
7739
330
18
100
AcDbEntity
  8
0
100
AcDbLine
 10
413.5783281057208
 20
280.9649593085682
 30
0.0
 11
414.7783281057206
 21
280.9649593085682
 31
0.0
  0
ARC
  5
773A
330
18
100
AcDbEntity
  8
0
100
AcDbCircle
 10
414.1783281057207
 20
280.9649593085682
 30
0.0
 40
0.5999999999999944
100
AcDbArc
 50
0.0
 51
180.0
  0
LINE
  5
773B
330
18
100
AcDbEntity
  8
0
100
AcDbLine
 10
414.6783281057205
 20
262.5649593085682
 30
0.0
 11
411.6783281057205
 21
262.5649593085682
 31
0.0
  0
LINE
  5
773C
330
18
100
AcDbEntity
  8
0
100
AcDbLine
 10
414.6783281057205
 20
245.5649593085681
 30
0.0
 11
411.6783281057205
 21
245.5649593085681
 31
0.0
  0
LINE
  5
773D
330
18
100
AcDbEntity
  8
0
100
AcDbLine
 10
414.6783281057205
 20
238.5649593085681
 30
0.0
 11
411.6783281057205
 21
238.5649593085681
 31
0.0
  0
LINE
  5
773E
330
18
100
AcDbEntity
  8
0
100
AcDbLine
 10
414.6783281057205
 20
221.5649593085681
 30
0.0
 11
411.6783281057205
 21
221.5649593085681
 31
0.0
  0
LINE
  5
773F
330
18
100
AcDbEntity
  8
0
100
AcDbLine
 10
443.6783281057205
 20
269.5649593085681
 30
0.0
 11
294.6783281057205
 21
269.5649593085681
 31
0.0
  0
LINE
  5
7740
330
18
100
AcDbEntity
  8
0
100
AcDbLine
 10
296.6783281057205
 20
267.5649593085681
 30
0.0
 11
441.6783281057205
 21
267.5649593085681
 31
0.0
  0
LINE
  5
7741
330
18
100
AcDbEntity
  8
0
100
AcDbLine
 10
295.6783281057205
 20
216.5649593085681
 30
0.0
 11
442.6783281057205
 21
216.5649593085681
 31
0.0
  0
LINE
  5
7742
330
18
100
AcDbEntity
  8
0
100
AcDbLine
 10
425.6783281057205
 20
265.5649593085681
 30
0.0
 11
312.6783281057205
 21
265.5649593085681
 31
0.0
  0
LINE
  5
7743
330
18
100
AcDbEntity
  8
0
100
AcDbLine
 10
444.6783281057205
 20
269.5649593085681
 30
0.0
 11
293.6783281057205
 21
269.5649593085682
 31
0.0
  0
LINE
  5
7744
330
18
100
AcDbEntity
  8
0
100
AcDbLine
 10
296.6783281057205
 20
169.6730011160864
 30
0.0
 11
441.6783281057205
 21
169.6730011160864
 31
0.0
  0
LINE
  5
7746
330
18
100
AcDbEntity
  8
0
100
AcDbLine
 10
376.1783281057205
 20
169.6730011160863
 30
0.0
 11
442.6783281057205
 21
169.6730011160862
 31
0.0
  0
LINE
  5
7747
330
18
100
AcDbEntity
  8
0
 48
0.2
100
AcDbLine
 10
273.6783281057201
 20
236.7149593085683
 30
0.0
 11
257.6783281057205
 21
236.7149593085684
 31
0.0
  0
LINE
  5
7748
330
18
100
AcDbEntity
  8
0
 48
0.2
100
AcDbLine
 10
273.6783281057201
 20
218.7149593085683
 30
0.0
 11
257.6783281057205
 21
218.7149593085683
 31
0.0
  0
LINE
  5
7749
330
18
100
AcDbEntity
  8
0
 48
0.2
100
AcDbLine
 10
296.6783281057205
 20
234.0649593085683
 30
0.0
 11
257.6783281057205
 21
234.0649593085683
 31
0.0
  0
LINE
  5
774A
330
18
100
AcDbEntity
  8
0
 48
0.2
100
AcDbLine
 10
296.6783281057205
 20
221.3649593085682
 30
0.0
 11
257.6783281057204
 21
221.3649593085682
 31
0.0
  0
LINE
  5
774B
330
18
100
AcDbEntity
  8
0
100
AcDbLine
 10
170.6003671924545
 20
184.6730011160863
 30
0.0
 11
151.3503671924546
 21
184.6730011160865
 31
0.0
  0
LINE
  5
774D
330
18
100
AcDbEntity
  8
0
100
AcDbLine
 10
133.3503671924545
 20
169.6730011160863
 30
0.0
 11
197.3503671924545
 21
169.6730011160863
 31
0.0
  0
ARC
  5
7752
330
18
100
AcDbEntity
  8
0
100
AcDbCircle
 10
152.8503671924545
 20
169.6730011160863
 30
0.0
 40
3.0
100
AcDbArc
 50
0.0
 51
180.0
  0
LINE
  5
7753
330
18
100
AcDbEntity
  8
0
100
AcDbLine
 10
150.3503671924545
 20
171.331313511264
 30
0.0
 11
150.3503671924546
 21
183.6730011160865
 31
0.0
  0
LINE
  5
7755
330
18
100
AcDbEntity
  8
0
100
AcDbLine
 10
151.3503671924546
 20
184.6730011160865
 30
0.0
 11
150.3503671924546
 21
183.6730011160865
 31
0.0
  0
LINE
  5
7757
330
18
100
AcDbEntity
  8
0
100
AcDbLine
 10
197.3503671924545
 20
184.6730011160863
 30
0.0
 11
178.1003671924545
 21
184.6730011160863
 31
0.0
  0
LINE
  5
775C
330
18
100
AcDbEntity
  8
0
100
AcDbLine
 10
178.1003671924545
 20
184.6730011160863
 30
0.0
 11
177.1003671924545
 21
183.6730011160863
 31
0.0
  0
LINE
  5
775D
330
18
100
AcDbEntity
  8
0
100
AcDbLine
 10
171.6003671924545
 20
183.6730011160863
 30
0.0
 11
170.6003671924545
 21
184.6730011160863
 31
0.0
  0
ARC
  5
775E
330
18
100
AcDbEntity
  8
0
100
AcDbCircle
 10
174.3503671924545
 20
179.6730011160865
 30
0.0
 40
2.75
100
AcDbArc
 50
180.0
 51
0.0
  0
LINE
  5
775F
330
18
100
AcDbEntity
  8
0
100
AcDbLine
 10
177.1003671924545
 20
179.6730011160863
 30
0.0
 11
177.1003671924545
 21
183.6730011160863
 31
0.0
  0
LINE
  5
7760
330
18
100
AcDbEntity
  8
0
100
AcDbLine
 10
171.6003671924545
 20
179.6730011160863
 30
0.0
 11
171.6003671924545
 21
183.6730011160863
 31
0.0
  0
LINE
  5
7761
330
18
100
AcDbEntity
  8
0
100
AcDbLine
 10
198.3503671924545
 20
168.6730011160863
 30
0.0
 11
198.3503671924545
 21
183.6730011160863
 31
0.0
  0
LINE
  5
7762
330
18
100
AcDbEntity
  8
0
100
AcDbLine
 10
198.3503671924545
 20
168.6730011160863
 30
0.0
 11
197.3503671924545
 21
169.6730011160863
 31
0.0
  0
LINE
  5
7763
330
18
100
AcDbEntity
  8
0
100
AcDbLine
 10
198.3503671924545
 20
183.6730011160863
 30
0.0
 11
197.3503671924545
 21
184.6730011160863
 31
0.0
  0
LINE
  5
7764
330
18
100
AcDbEntity
  8
0
 48
0.2
100
AcDbLine
 10
257.6783281057205
 20
218.7149593085683
 30
0.0
 11
257.6783281057205
 21
236.7149593085684
 31
0.0
  0
LINE
  5
7765
330
18
100
AcDbEntity
  8
0
100
AcDbLine
 10
312.6783281057205
 20
267.5649593085681
 30
0.0
 11
312.6783281057205
 21
265.5649593085681
 31
0.0
  0
LINE
  5
7766
330
18
100
AcDbEntity
  8
0
100
AcDbLine
 10
302.6783281057205
 20
267.5649593085681
 30
0.0
 11
302.6783281057205
 21
265.5649593085681
 31
0.0
  0
ARC
  5
7767
330
18
100
AcDbEntity
  8
0
100
AcDbCircle
 10
296.6783281057205
 20
266.5649593085681
 30
0.0
 40
1.0
100
AcDbArc
 50
90.0
 51
180.0
  0
LINE
  5
7768
330
18
100
AcDbEntity
  8
0
100
AcDbLine
 10
293.6783281057205
 20
268.5649593085681
 30
0.0
 11
293.6783281057205
 21
216.5649593085681
 31
0.0
  0
LWPOLYLINE
  5
7769
330
18
100
AcDbEntity
  8
0
100
AcDbPolyline
 90
        4
 70
     1
 43
0.0
 10
333.6783281057205
 20
223.5649593085682
 10
338.6783281057205
 20
223.5649593085682
 10
338.6783281057205
 20
225.5649593085682
 10
333.6783281057205
 20
225.5649593085682
  0
CIRCLE
  5
776A
330
18
100
AcDbEntity
  8
0
100
AcDbCircle
 10
336.1783281057205
 20
224.5649593085683
 30
0.0
 40
3.25
  0
LINE
  5
776B
330
18
100
AcDbEntity
  8
0
100
AcDbLine
 10
327.4283281057205
 20
156.4230011160864
 30
0.0
 11
338.9283281057205
 21
156.4230011160861
 31
0.0
  0
LINE
  5
776C
330
18
100
AcDbEntity
  8
0
100
AcDbLine
 10
327.4283281057205
 20
162.9230011160864
 30
0.0
 11
338.9283281057205
 21
162.9230011160862
 31
0.0
  0
LINE
  5
776D
330
18
100
AcDbEntity
  8
0
100
AcDbLine
 10
327.4283281057205
 20
159.4230011160862
 30
0.0
 11
338.9283281057205
 21
159.4230011160862
 31
0.0
  0
LINE
  5
776E
330
18
100
AcDbEntity
  8
0
100
AcDbLine
 10
293.6783281057205
 20
169.6730011160865
 30
0.0
 11
362.1783281057205
 21
169.6730011160863
 31
0.0
  0
LINE
  5
776F
330
18
100
AcDbEntity
  8
0
100
AcDbLine
 10
327.4283281057205
 20
149.9230011160864
 30
0.0
 11
338.9283281057205
 21
149.9230011160862
 31
0.0
  0
LINE
  5
7770
330
18
100
AcDbEntity
  8
0
100
AcDbLine
 10
327.4283281057205
 20
152.9230011160862
 30
0.0
 11
338.9283281057205
 21
152.9230011160862
 31
0.0
  0
LINE
  5
7771
330
18
100
AcDbEntity
  8
0
100
AcDbLine
 10
327.4283281057205
 20
146.4230011160861
 30
0.0
 11
338.9283281057205
 21
146.4230011160861
 31
0.0
  0
LINE
  5
7772
330
18
100
AcDbEntity
  8
0
100
AcDbLine
 10
295.6783281057205
 20
168.6730011160864
 30
0.0
 11
296.6783281057205
 21
169.6730011160864
 31
0.0
  0
LINE
  5
7773
330
18
100
AcDbEntity
  8
0
100
AcDbLine
 10
293.6783281057205
 20
169.6730011160863
 30
0.0
 11
295.6783281057205
 21
169.6730011160863
 31
0.0
  0
LINE
  5
7774
330
18
100
AcDbEntity
  8
0
100
AcDbLine
 10
288.2922469946654
 20
143.1226559363194
 30
0.0
 11
291.0886732854874
 21
145.9190822271412
 31
0.0
  0
CIRCLE
  5
7775
330
18
100
AcDbEntity
  8
0
100
AcDbCircle
 10
289.4783281057204
 20
144.7330011160863
 30
0.0
 40
2.0
  0
LINE
  5
7776
330
18
100
AcDbEntity
  8
0
100
AcDbLine
 10
287.8679829259535
 20
143.5469200050313
 30
0.0
 11
290.6644092167752
 21
146.3433462958532
 31
0.0
  0
LINE
  5
7777
330
18
100
AcDbEntity
  8
0
100
AcDbLine
 10
293.6783281057205
 20
147.2730011160863
 30
0.0
 11
284.1783281057205
 21
147.2730011160864
 31
0.0
  0
LINE
  5
7778
330
18
100
AcDbEntity
  8
0
100
AcDbLine
 10
303.4283281057205
 20
162.9230011160864
 30
0.0
 11
314.9283281057205
 21
162.9230011160862
 31
0.0
  0
LINE
  5
7779
330
18
100
AcDbEntity
  8
0
100
AcDbLine
 10
303.4283281057205
 20
156.4230011160864
 30
0.0
 11
314.9283281057205
 21
156.4230011160861
 31
0.0
  0
LINE
  5
777A
330
18
100
AcDbEntity
  8
0
100
AcDbLine
 10
303.4283281057205
 20
159.4230011160862
 30
0.0
 11
314.9283281057205
 21
159.4230011160862
 31
0.0
  0
ARC
  5
777B
330
18
100
AcDbEntity
  8
0
100
AcDbCircle
 10
314.9283281057205
 20
161.1730011160862
 30
0.0
 40
1.75
100
AcDbArc
 50
270.0
 51
90.0
  0
ARC
  5
777C
330
18
100
AcDbEntity
  8
0
100
AcDbCircle
 10
303.4283281057205
 20
161.1730011160862
 30
0.0
 40
1.75
100
AcDbArc
 50
90.0
 51
270.0
  0
ARC
  5
777D
330
18
100
AcDbEntity
  8
0
100
AcDbCircle
 10
314.9283281057205
 20
148.1730011160862
 30
0.0
 40
1.75
100
AcDbArc
 50
270.0
 51
90.0
  0
LINE
  5
777E
330
18
100
AcDbEntity
  8
0
100
AcDbLine
 10
303.4283281057205
 20
152.9230011160862
 30
0.0
 11
314.9283281057205
 21
152.9230011160862
 31
0.0
  0
LINE
  5
777F
330
18
100
AcDbEntity
  8
0
100
AcDbLine
 10
303.4283281057205
 20
149.9230011160864
 30
0.0
 11
314.9283281057205
 21
149.9230011160862
 31
0.0
  0
LINE
  5
7780
330
18
100
AcDbEntity
  8
0
100
AcDbLine
 10
303.4283281057205
 20
146.4230011160861
 30
0.0
 11
314.9283281057205
 21
146.4230011160861
 31
0.0
  0
ARC
  5
7781
330
18
100
AcDbEntity
  8
0
100
AcDbCircle
 10
303.4283281057205
 20
148.1730011160862
 30
0.0
 40
1.75
100
AcDbArc
 50
90.0
 51
270.0
  0
ARC
  5
7782
330
18
100
AcDbEntity
  8
0
100
AcDbCircle
 10
303.4283281057205
 20
154.6730011160861
 30
0.0
 40
1.75
100
AcDbArc
 50
90.0
 51
270.0
  0
ARC
  5
7783
330
18
100
AcDbEntity
  8
0
100
AcDbCircle
 10
314.9283281057205
 20
154.6730011160861
 30
0.0
 40
1.75
100
AcDbArc
 50
270.0
 51
90.0
  0
ARC
  5
7784
330
18
100
AcDbEntity
  8
0
100
AcDbCircle
 10
327.4283281057205
 20
161.1730011160861
 30
0.0
 40
1.75
100
AcDbArc
 50
90.0
 51
270.0
  0
ARC
  5
7785
330
18
100
AcDbEntity
  8
0
100
AcDbCircle
 10
327.4283281057205
 20
148.1730011160861
 30
0.0
 40
1.75
100
AcDbArc
 50
90.0
 51
270.0
  0
ARC
  5
7786
330
18
100
AcDbEntity
  8
0
100
AcDbCircle
 10
327.4283281057205
 20
154.6730011160861
 30
0.0
 40
1.75
100
AcDbArc
 50
90.0
 51
270.0
  0
LINE
  5
7787
330
18
100
AcDbEntity
  8
0
100
AcDbLine
 10
302.6783281057205
 20
265.5649593085681
 30
0.0
 11
298.6783281057205
 21
265.5649593085681
 31
0.0
  0
LINE
  5
7788
330
18
100
AcDbEntity
  8
0
100
AcDbLine
 10
302.3783281057205
 20
256.7649593085693
 30
0.0
 11
293.6783281057208
 21
256.7649593085693
 31
0.0
  0
LINE
  5
7789
330
18
100
AcDbEntity
  8
0
100
AcDbLine
 10
302.3783281057205
 20
251.8649593085693
 30
0.0
 11
293.6783281057205
 21
251.8649593085693
 31
0.0
  0
LINE
  5
778A
330
18
100
AcDbEntity
  8
0
100
AcDbLine
 10
295.6783281057205
 20
216.5649593085681
 30
0.0
 11
295.6783281057205
 21
266.5649593085681
 31
0.0
  0
LINE
  5
778B
330
18
100
AcDbEntity
  8
0
100
AcDbLine
 10
297.6783281057205
 20
264.5649593085682
 30
0.0
 11
297.6783281057205
 21
217.5649593085681
 31
0.0
  0
LINE
  5
778C
330
18
100
AcDbEntity
  8
0
100
AcDbLine
 10
293.6783281057205
 20
234.0649593085683
 30
0.0
 11
293.6783281057205
 21
248.7649593085683
 31
0.0
  0
LINE
  5
778D
330
18
100
AcDbEntity
  8
0
 48
0.2
100
AcDbLine
 10
273.6783281057204
 20
236.7149593085683
 30
0.0
 11
278.6783281057204
 21
234.0649593085683
 31
0.0
  0
LINE
  5
778E
330
18
100
AcDbEntity
  8
0
 48
0.2
100
AcDbLine
 10
272.8783281057204
 20
231.5649593085682
 30
0.0
 11
264.8783281057204
 21
231.5649593085683
 31
0.0
  0
LINE
  5
778F
330
18
100
AcDbEntity
  8
0
 48
0.2
100
AcDbLine
 10
278.6783281057204
 20
221.3649593085682
 30
0.0
 11
273.6783281057204
 21
218.7149593085683
 31
0.0
  0
LINE
  5
7790
330
18
100
AcDbEntity
  8
0
 48
0.2
100
AcDbLine
 10
272.8783281057205
 20
223.8649593085682
 30
0.0
 11
264.8783281057204
 21
223.8649593085682
 31
0.0
  0
LINE
  5
7791
330
18
100
AcDbEntity
  8
0
 48
0.2
100
AcDbLine
 10
272.8783281057204
 20
221.3649593085682
 30
0.0
 11
272.8783281057203
 21
234.0649593085682
 31
0.0
  0
ARC
  5
7792
330
18
100
AcDbEntity
  8
0
 48
0.2
100
AcDbCircle
 10
274.0483281057203
 20
227.7149593085682
 30
0.0
 40
2.669999999999886
100
AcDbArc
 50
115.9892335838278
 51
244.0107664161721
  0
LINE
  5
7793
330
18
100
AcDbEntity
  8
0
 48
0.2
100
AcDbLine
 10
264.8783281057204
 20
223.8649593085682
 30
0.0
 11
264.8783281057204
 21
231.5649593085683
 31
0.0
  0
LINE
  5
7794
330
18
100
AcDbEntity
  8
0
 48
0.2
100
AcDbLine
 10
296.6783281057205
 20
231.2149593085683
 30
0.0
 11
291.6783281057205
 21
231.2149593085684
 31
0.0
  0
LINE
  5
7795
330
18
100
AcDbEntity
  8
0
 48
0.2
100
AcDbLine
 10
296.6783281057205
 20
231.2149593085684
 30
0.0
 11
296.6783281057205
 21
234.0649593085683
 31
0.0
  0
LINE
  5
7796
330
18
100
AcDbEntity
  8
0
 48
0.2
100
AcDbLine
 10
296.6783281057205
 20
221.3649593085682
 30
0.0
 11
296.6783281057205
 21
224.2149593085683
 31
0.0
  0
LINE
  5
7797
330
18
100
AcDbEntity
  8
0
100
AcDbLine
 10
295.6783281057205
 20
221.5649593085681
 30
0.0
 11
296.6783281057205
 21
221.5649593085681
 31
0.0
  0
LINE
  5
7798
330
18
100
AcDbEntity
  8
0
100
AcDbLine
 10
296.6783281057205
 20
221.3649593085682
 30
0.0
 11
293.6783281057205
 21
221.3649593085682
 31
0.0
  0
LINE
  5
7799
330
18
100
AcDbEntity
  8
0
 48
0.2
100
AcDbLine
 10
296.6783281057205
 20
224.2149593085684
 30
0.0
 11
291.6783281057205
 21
224.2149593085683
 31
0.0
  0
LINE
  5
779A
330
18
100
AcDbEntity
  8
0
100
AcDbLine
 10
295.6783281057205
 20
217.5649593085681
 30
0.0
 11
297.6783281057205
 21
217.5649593085681
 31
0.0
  0
LINE
  5
779B
330
18
100
AcDbEntity
  8
0
100
AcDbLine
 10
293.6783281057205
 20
216.5649593085681
 30
0.0
 11
295.6783281057205
 21
216.5649593085681
 31
0.0
  0
LINE
  5
779C
330
18
100
AcDbEntity
  8
0
100
AcDbLine
 10
296.6783281057205
 20
221.5649593085681
 30
0.0
 11
296.6783281057205
 21
217.5649593085681
 31
0.0
  0
LINE
  5
779D
330
18
100
AcDbEntity
  8
0
100
AcDbLine
 10
295.6783281057205
 20
221.5649593085681
 30
0.0
 11
295.6783281057205
 21
216.5649593085681
 31
0.0
  0
LINE
  5
779E
330
18
100
AcDbEntity
  8
0
 48
0.2
100
AcDbLine
 10
291.6783281057205
 20
224.2149593085683
 30
0.0
 11
291.6783281057205
 21
231.2149593085684
 31
0.0
  0
LINE
  5
779F
330
18
100
AcDbEntity
  8
0
100
AcDbLine
 10
297.6783281057205
 20
264.5649593085682
 30
0.0
 11
298.6783281057205
 21
265.5649593085681
 31
0.0
  0
LINE
  5
77A0
330
18
100
AcDbEntity
  8
0
100
AcDbLine
 10
293.6783281057208
 20
257.2649593085693
 30
0.0
 11
293.6783281057208
 21
256.7649593085693
 31
0.0
  0
LINE
  5
77A1
330
18
100
AcDbEntity
  8
0
100
AcDbLine
 10
293.6783281057208
 20
257.2649593085693
 30
0.0
 11
292.9783281057207
 21
257.2649593085693
 31
0.0
  0
LINE
  5
77A2
330
18
100
AcDbEntity
  8
0
100
AcDbLine
 10
292.9783281057206
 20
258.2649593085692
 30
0.0
 11
292.9783281057207
 21
257.2649593085693
 31
0.0
  0
LINE
  5
77A3
330
18
100
AcDbEntity
  8
0
100
AcDbLine
 10
293.6783281057205
 20
251.8649593085693
 30
0.0
 11
293.6783281057206
 21
248.7649593085692
 31
0.0
  0
LINE
  5
77A4
330
18
100
AcDbEntity
  8
0
 48
0.1
100
AcDbLine
 10
293.6783281057206
 20
250.5649593085692
 30
0.0
 11
291.6783281057205
 21
250.5649593085692
 31
0.0
  0
LINE
  5
77A5
330
18
100
AcDbEntity
  8
0
100
AcDbLine
 10
292.9783281057206
 20
243.2649593085693
 30
0.0
 11
293.6783281057206
 21
248.7649593085692
 31
0.0
  0
LINE
  5
77A6
330
18
100
AcDbEntity
  8
0
 48
0.1
100
AcDbLine
 10
291.6783281057205
 20
250.5649593085692
 30
0.0
 11
291.6783281057205
 21
243.2649593085692
 31
0.0
  0
LWPOLYLINE
  5
77A7
330
18
100
AcDbEntity
  8
0
100
AcDbPolyline
 90
        4
 70
     0
 43
0.0
 10
291.6783281057205
 20
243.2649593085692
 10
291.6783281057205
 20
242.5649593085692
 10
293.6783281057205
 20
242.5649593085692
 10
293.6783281057205
 20
248.7649593085683
  0
LINE
  5
77A8
330
18
100
AcDbEntity
  8
0
100
AcDbLine
 10
284.1783281057206
 20
248.7649593085693
 30
0.0
 11
285.6783281057206
 21
243.2649593085693
 31
0.0
  0
LINE
  5
77A9
330
18
100
AcDbEntity
  8
0
100
AcDbLine
 10
284.1783281057206
 20
258.2649593085692
 30
0.0
 11
284.1783281057206
 21
248.7649593085692
 31
0.0
  0
LINE
  5
77AA
330
18
100
AcDbEntity
  8
0
100
AcDbLine
 10
292.9783281057206
 20
243.2649593085692
 30
0.0
 11
285.6783281057206
 21
243.2649593085693
 31
0.0
  0
LINE
  5
77AB
330
18
100
AcDbEntity
  8
0
100
AcDbLine
 10
292.9783281057206
 20
258.2649593085692
 30
0.0
 11
284.1783281057206
 21
258.2649593085692
 31
0.0
  0
LINE
  5
77AC
330
18
100
AcDbEntity
  8
0
100
AcDbLine
 10
337.6783281057205
 20
228.5649593085681
 30
0.0
 11
337.6783281057205
 21
238.5649593085681
 31
0.0
  0
LINE
  5
77AD
330
18
100
AcDbEntity
  8
0
100
AcDbLine
 10
334.6783281057205
 20
228.5649593085681
 30
0.0
 11
334.6783281057205
 21
238.5649593085681
 31
0.0
  0
LINE
  5
77AE
330
18
100
AcDbEntity
  8
0
100
AcDbLine
 10
329.1783281057205
 20
221.5649593085682
 30
0.0
 11
329.1783281057205
 21
238.5649593085681
 31
0.0
  0
LINE
  5
77AF
330
18
100
AcDbEntity
  8
0
100
AcDbLine
 10
323.6783281057205
 20
221.5649593085682
 30
0.0
 11
323.6783281057205
 21
238.5649593085681
 31
0.0
  0
LINE
  5
77B0
330
18
100
AcDbEntity
  8
0
100
AcDbLine
 10
326.6783281057205
 20
221.5649593085682
 30
0.0
 11
326.6783281057205
 21
238.5649593085681
 31
0.0
  0
LINE
  5
77B1
330
18
100
AcDbEntity
  8
0
100
AcDbLine
 10
321.1783281057205
 20
221.5649593085681
 30
0.0
 11
321.1783281057205
 21
238.5649593085681
 31
0.0
  0
LINE
  5
77B2
330
18
100
AcDbEntity
  8
0
100
AcDbLine
 10
332.1783281057205
 20
221.5649593085682
 30
0.0
 11
332.1783281057205
 21
238.5649593085681
 31
0.0
  0
LINE
  5
77B3
330
18
100
AcDbEntity
  8
0
100
AcDbLine
 10
318.1783281057205
 20
221.5649593085681
 30
0.0
 11
318.1783281057205
 21
238.5649593085681
 31
0.0
  0
LINE
  5
77B4
330
18
100
AcDbEntity
  8
0
100
AcDbLine
 10
307.1783281057205
 20
221.5649593085681
 30
0.0
 11
307.1783281057205
 21
238.5649593085681
 31
0.0
  0
LINE
  5
77B5
330
18
100
AcDbEntity
  8
0
100
AcDbLine
 10
304.6783281057205
 20
221.5649593085681
 30
0.0
 11
304.6783281057205
 21
238.5649593085681
 31
0.0
  0
LINE
  5
77B6
330
18
100
AcDbEntity
  8
0
100
AcDbLine
 10
315.6783281057205
 20
221.5649593085681
 30
0.0
 11
315.6783281057205
 21
238.5649593085681
 31
0.0
  0
LINE
  5
77B7
330
18
100
AcDbEntity
  8
0
100
AcDbLine
 10
312.6783281057205
 20
221.5649593085681
 30
0.0
 11
312.6783281057205
 21
238.5649593085681
 31
0.0
  0
LINE
  5
77B8
330
18
100
AcDbEntity
  8
0
100
AcDbLine
 10
310.1783281057205
 20
221.5649593085681
 30
0.0
 11
310.1783281057205
 21
238.5649593085681
 31
0.0
  0
LINE
  5
77B9
330
18
100
AcDbEntity
  8
0
100
AcDbLine
 10
301.6783281057205
 20
221.5649593085681
 30
0.0
 11
301.6783281057205
 21
238.5649593085681
 31
0.0
  0
LINE
  5
77BA
330
18
100
AcDbEntity
  8
0
100
AcDbLine
 10
321.1783281057205
 20
221.5649593085681
 30
0.0
 11
318.1783281057205
 21
221.5649593085681
 31
0.0
  0
LINE
  5
77BB
330
18
100
AcDbEntity
  8
0
100
AcDbLine
 10
315.6783281057205
 20
221.5649593085681
 30
0.0
 11
312.6783281057205
 21
221.5649593085681
 31
0.0
  0
LINE
  5
77BC
330
18
100
AcDbEntity
  8
0
100
AcDbLine
 10
310.1783281057205
 20
221.5649593085681
 30
0.0
 11
307.1783281057205
 21
221.5649593085681
 31
0.0
  0
LINE
  5
77BD
330
18
100
AcDbEntity
  8
0
100
AcDbLine
 10
304.6783281057205
 20
221.5649593085681
 30
0.0
 11
301.6783281057205
 21
221.5649593085681
 31
0.0
  0
LINE
  5
77BE
330
18
100
AcDbEntity
  8
0
100
AcDbLine
 10
337.6783281057205
 20
228.5649593085681
 30
0.0
 11
334.6783281057205
 21
228.5649593085681
 31
0.0
  0
LWPOLYLINE
  5
77BF
330
18
100
AcDbEntity
  8
0
100
AcDbPolyline
 90
        4
 70
     1
 43
0.0
 10
338.4283281057205
 20
223.8149593085683
 10
336.9283281057205
 20
223.8149593085683
 10
336.9283281057205
 20
225.3149593085682
 10
338.4283281057205
 20
225.3149593085682
  0
LINE
  5
77C0
330
18
100
AcDbEntity
  8
0
100
AcDbLine
 10
332.1783281057205
 20
221.5649593085682
 30
0.0
 11
329.1783281057205
 21
221.5649593085682
 31
0.0
  0
LINE
  5
77C1
330
18
100
AcDbEntity
  8
0
100
AcDbLine
 10
326.6783281057205
 20
221.5649593085682
 30
0.0
 11
323.6783281057205
 21
221.5649593085682
 31
0.0
  0
LINE
  5
77C2
330
18
100
AcDbEntity
  8
0
100
AcDbLine
 10
321.1783281057205
 20
245.5649593085681
 30
0.0
 11
318.1783281057205
 21
245.5649593085681
 31
0.0
  0
LINE
  5
77C3
330
18
100
AcDbEntity
  8
0
100
AcDbLine
 10
321.1783281057205
 20
262.5649593085682
 30
0.0
 11
318.1783281057205
 21
262.5649593085682
 31
0.0
  0
LINE
  5
77C4
330
18
100
AcDbEntity
  8
0
100
AcDbLine
 10
321.1783281057205
 20
238.5649593085681
 30
0.0
 11
318.1783281057205
 21
238.5649593085681
 31
0.0
  0
LINE
  5
77C5
330
18
100
AcDbEntity
  8
0
100
AcDbLine
 10
315.6783281057205
 20
262.5649593085682
 30
0.0
 11
312.6783281057205
 21
262.5649593085682
 31
0.0
  0
LINE
  5
77C6
330
18
100
AcDbEntity
  8
0
100
AcDbLine
 10
310.1783281057205
 20
262.5649593085682
 30
0.0
 11
307.1783281057205
 21
262.5649593085682
 31
0.0
  0
LINE
  5
77C7
330
18
100
AcDbEntity
  8
0
100
AcDbLine
 10
304.6783281057205
 20
262.5649593085682
 30
0.0
 11
301.6783281057205
 21
262.5649593085682
 31
0.0
  0
LINE
  5
77C8
330
18
100
AcDbEntity
  8
0
100
AcDbLine
 10
315.6783281057205
 20
245.5649593085681
 30
0.0
 11
312.6783281057205
 21
245.5649593085681
 31
0.0
  0
LINE
  5
77C9
330
18
100
AcDbEntity
  8
0
100
AcDbLine
 10
310.1783281057205
 20
245.5649593085681
 30
0.0
 11
307.1783281057205
 21
245.5649593085681
 31
0.0
  0
LINE
  5
77CA
330
18
100
AcDbEntity
  8
0
100
AcDbLine
 10
304.6783281057205
 20
245.5649593085681
 30
0.0
 11
301.6783281057205
 21
245.5649593085681
 31
0.0
  0
LINE
  5
77CB
330
18
100
AcDbEntity
  8
0
100
AcDbLine
 10
318.1783281057205
 20
245.5649593085681
 30
0.0
 11
318.1783281057205
 21
262.5649593085682
 31
0.0
  0
LINE
  5
77CC
330
18
100
AcDbEntity
  8
0
100
AcDbLine
 10
304.6783281057205
 20
245.5649593085681
 30
0.0
 11
304.6783281057205
 21
262.5649593085682
 31
0.0
  0
LINE
  5
77CD
330
18
100
AcDbEntity
  8
0
100
AcDbLine
 10
307.1783281057205
 20
245.5649593085681
 30
0.0
 11
307.1783281057205
 21
262.5649593085682
 31
0.0
  0
LINE
  5
77CE
330
18
100
AcDbEntity
  8
0
100
AcDbLine
 10
310.1783281057205
 20
245.5649593085681
 30
0.0
 11
310.1783281057205
 21
262.5649593085682
 31
0.0
  0
LINE
  5
77CF
330
18
100
AcDbEntity
  8
0
100
AcDbLine
 10
312.6783281057205
 20
245.5649593085681
 30
0.0
 11
312.6783281057205
 21
262.5649593085682
 31
0.0
  0
LINE
  5
77D0
330
18
100
AcDbEntity
  8
0
100
AcDbLine
 10
315.6783281057205
 20
245.5649593085681
 30
0.0
 11
315.6783281057205
 21
262.5649593085682
 31
0.0
  0
LINE
  5
77D1
330
18
100
AcDbEntity
  8
0
100
AcDbLine
 10
301.6783281057205
 20
245.5649593085681
 30
0.0
 11
301.6783281057205
 21
262.5649593085682
 31
0.0
  0
LINE
  5
77D2
330
18
100
AcDbEntity
  8
0
100
AcDbLine
 10
302.3783281057205
 20
256.7649593085693
 30
0.0
 11
302.3783281057205
 21
251.8649593085693
 31
0.0
  0
LINE
  5
77D3
330
18
100
AcDbEntity
  8
0
100
AcDbLine
 10
315.6783281057205
 20
238.5649593085681
 30
0.0
 11
312.6783281057205
 21
238.5649593085681
 31
0.0
  0
LINE
  5
77D4
330
18
100
AcDbEntity
  8
0
100
AcDbLine
 10
310.1783281057205
 20
238.5649593085681
 30
0.0
 11
307.1783281057205
 21
238.5649593085681
 31
0.0
  0
LINE
  5
77D5
330
18
100
AcDbEntity
  8
0
100
AcDbLine
 10
304.6783281057205
 20
238.5649593085681
 30
0.0
 11
301.6783281057205
 21
238.5649593085681
 31
0.0
  0
LINE
  5
77D6
330
18
100
AcDbEntity
  8
0
100
AcDbLine
 10
332.1783281057205
 20
262.5649593085682
 30
0.0
 11
329.1783281057205
 21
262.5649593085682
 31
0.0
  0
LINE
  5
77D7
330
18
100
AcDbEntity
  8
0
100
AcDbLine
 10
326.6783281057205
 20
262.5649593085682
 30
0.0
 11
323.6783281057205
 21
262.5649593085682
 31
0.0
  0
LINE
  5
77D8
330
18
100
AcDbEntity
  8
0
100
AcDbLine
 10
337.6783281057205
 20
262.5649593085682
 30
0.0
 11
334.6783281057205
 21
262.5649593085682
 31
0.0
  0
LINE
  5
77D9
330
18
100
AcDbEntity
  8
0
100
AcDbLine
 10
332.1783281057205
 20
245.5649593085681
 30
0.0
 11
329.1783281057205
 21
245.5649593085681
 31
0.0
  0
LINE
  5
77DA
330
18
100
AcDbEntity
  8
0
100
AcDbLine
 10
326.6783281057205
 20
245.5649593085681
 30
0.0
 11
323.6783281057205
 21
245.5649593085681
 31
0.0
  0
LINE
  5
77DB
330
18
100
AcDbEntity
  8
0
100
AcDbLine
 10
337.6783281057205
 20
245.5649593085681
 30
0.0
 11
334.6783281057205
 21
245.5649593085681
 31
0.0
  0
LINE
  5
77DC
330
18
100
AcDbEntity
  8
0
100
AcDbLine
 10
323.6783281057205
 20
245.5649593085681
 30
0.0
 11
323.6783281057205
 21
262.5649593085682
 31
0.0
  0
LINE
  5
77DD
330
18
100
AcDbEntity
  8
0
100
AcDbLine
 10
326.6783281057205
 20
245.5649593085681
 30
0.0
 11
326.6783281057205
 21
262.5649593085682
 31
0.0
  0
LINE
  5
77DE
330
18
100
AcDbEntity
  8
0
100
AcDbLine
 10
329.1783281057205
 20
245.5649593085681
 30
0.0
 11
329.1783281057205
 21
262.5649593085682
 31
0.0
  0
LINE
  5
77DF
330
18
100
AcDbEntity
  8
0
100
AcDbLine
 10
321.1783281057205
 20
245.5649593085681
 30
0.0
 11
321.1783281057205
 21
262.5649593085682
 31
0.0
  0
LINE
  5
77E0
330
18
100
AcDbEntity
  8
0
100
AcDbLine
 10
334.6783281057205
 20
245.5649593085681
 30
0.0
 11
334.6783281057205
 21
262.5649593085682
 31
0.0
  0
LINE
  5
77E1
330
18
100
AcDbEntity
  8
0
100
AcDbLine
 10
337.6783281057205
 20
245.5649593085681
 30
0.0
 11
337.6783281057205
 21
262.5649593085682
 31
0.0
  0
LINE
  5
77E2
330
18
100
AcDbEntity
  8
0
100
AcDbLine
 10
332.1783281057205
 20
245.5649593085681
 30
0.0
 11
332.1783281057205
 21
262.5649593085682
 31
0.0
  0
LINE
  5
77E3
330
18
100
AcDbEntity
  8
0
100
AcDbLine
 10
332.1783281057205
 20
238.5649593085683
 30
0.0
 11
329.1783281057205
 21
238.5649593085683
 31
0.0
  0
LINE
  5
77E4
330
18
100
AcDbEntity
  8
0
100
AcDbLine
 10
326.6783281057205
 20
238.5649593085683
 30
0.0
 11
323.6783281057205
 21
238.5649593085683
 31
0.0
  0
LINE
  5
77E5
330
18
100
AcDbEntity
  8
0
100
AcDbLine
 10
337.6783281057205
 20
238.5649593085681
 30
0.0
 11
334.6783281057205
 21
238.5649593085681
 31
0.0
  0
LINE
  5
77E6
330
18
100
AcDbEntity
  8
0
100
AcDbLine
 10
375.4283281057205
 20
156.4230011160864
 30
0.0
 11
386.9283281057205
 21
156.4230011160861
 31
0.0
  0
LINE
  5
77E7
330
18
100
AcDbEntity
  8
0
100
AcDbLine
 10
375.4283281057205
 20
162.9230011160863
 30
0.0
 11
386.9283281057205
 21
162.9230011160861
 31
0.0
  0
LINE
  5
77E8
330
18
100
AcDbEntity
  8
0
100
AcDbLine
 10
375.4283281057205
 20
159.4230011160861
 30
0.0
 11
386.9283281057205
 21
159.4230011160861
 31
0.0
  0
LINE
  5
77E9
330
18
100
AcDbEntity
  8
0
100
AcDbLine
 10
375.4283281057205
 20
149.9230011160864
 30
0.0
 11
386.9283281057205
 21
149.9230011160861
 31
0.0
  0
LINE
  5
77EA
330
18
100
AcDbEntity
  8
0
100
AcDbLine
 10
375.4283281057205
 20
152.9230011160861
 30
0.0
 11
386.9283281057205
 21
152.9230011160861
 31
0.0
  0
LINE
  5
77EB
330
18
100
AcDbEntity
  8
0
100
AcDbLine
 10
375.4283281057205
 20
146.4230011160861
 30
0.0
 11
386.9283281057205
 21
146.4230011160861
 31
0.0
  0
ARC
  5
77EC
330
18
100
AcDbEntity
  8
0
100
AcDbCircle
 10
369.1783281057205
 20
169.6730011160863
 30
0.0
 40
3.0
100
AcDbArc
 50
0.0
 51
180.0
  0
LINE
  5
77ED
330
18
100
AcDbEntity
  8
0
100
AcDbLine
 10
351.4283281057205
 20
156.4230011160864
 30
0.0
 11
362.9283281057205
 21
156.4230011160861
 31
0.0
  0
LINE
  5
77EE
330
18
100
AcDbEntity
  8
0
100
AcDbLine
 10
351.4283281057205
 20
162.9230011160864
 30
0.0
 11
362.9283281057205
 21
162.9230011160862
 31
0.0
  0
LINE
  5
77EF
330
18
100
AcDbEntity
  8
0
100
AcDbLine
 10
351.4283281057205
 20
159.4230011160862
 30
0.0
 11
362.9283281057205
 21
159.4230011160862
 31
0.0
  0
LINE
  5
77F0
330
18
100
AcDbEntity
  8
0
100
AcDbLine
 10
351.4283281057205
 20
152.9230011160862
 30
0.0
 11
362.9283281057205
 21
152.9230011160862
 31
0.0
  0
LINE
  5
77F1
330
18
100
AcDbEntity
  8
0
100
AcDbLine
 10
351.4283281057205
 20
149.9230011160864
 30
0.0
 11
362.9283281057205
 21
149.9230011160862
 31
0.0
  0
LINE
  5
77F2
330
18
100
AcDbEntity
  8
0
100
AcDbLine
 10
351.4283281057205
 20
146.4230011160861
 30
0.0
 11
362.9283281057205
 21
146.4230011160861
 31
0.0
  0
ARC
  5
77F3
330
18
100
AcDbEntity
  8
0
100
AcDbCircle
 10
338.9283281057205
 20
161.1730011160861
 30
0.0
 40
1.75
100
AcDbArc
 50
270.0
 51
90.0
  0
ARC
  5
77F4
330
18
100
AcDbEntity
  8
0
100
AcDbCircle
 10
351.4283281057205
 20
161.1730011160861
 30
0.0
 40
1.75
100
AcDbArc
 50
90.0
 51
270.0
  0
ARC
  5
77F5
330
18
100
AcDbEntity
  8
0
100
AcDbCircle
 10
351.4283281057205
 20
148.1730011160861
 30
0.0
 40
1.75
100
AcDbArc
 50
90.0
 51
270.0
  0
ARC
  5
77F6
330
18
100
AcDbEntity
  8
0
100
AcDbCircle
 10
338.9283281057205
 20
148.1730011160861
 30
0.0
 40
1.75
100
AcDbArc
 50
270.0
 51
90.0
  0
ARC
  5
77F7
330
18
100
AcDbEntity
  8
0
100
AcDbCircle
 10
338.9283281057205
 20
154.6730011160861
 30
0.0
 40
1.75
100
AcDbArc
 50
270.0
 51
90.0
  0
ARC
  5
77F8
330
18
100
AcDbEntity
  8
0
100
AcDbCircle
 10
351.4283281057205
 20
154.6730011160861
 30
0.0
 40
1.75
100
AcDbArc
 50
90.0
 51
270.0
  0
ARC
  5
77F9
330
18
100
AcDbEntity
  8
0
100
AcDbCircle
 10
375.4283281057205
 20
161.1730011160861
 30
0.0
 40
1.75
100
AcDbArc
 50
90.0
 51
270.0
  0
ARC
  5
77FA
330
18
100
AcDbEntity
  8
0
100
AcDbCircle
 10
362.9283281057205
 20
161.1730011160861
 30
0.0
 40
1.75
100
AcDbArc
 50
270.0
 51
90.0
  0
ARC
  5
77FB
330
18
100
AcDbEntity
  8
0
100
AcDbCircle
 10
375.4283281057205
 20
148.1730011160861
 30
0.0
 40
1.75
100
AcDbArc
 50
90.0
 51
270.0
  0
ARC
  5
77FC
330
18
100
AcDbEntity
  8
0
100
AcDbCircle
 10
362.9283281057205
 20
148.1730011160861
 30
0.0
 40
1.75
100
AcDbArc
 50
270.0
 51
90.0
  0
ARC
  5
77FD
330
18
100
AcDbEntity
  8
0
100
AcDbCircle
 10
362.9283281057205
 20
154.6730011160861
 30
0.0
 40
1.75
100
AcDbArc
 50
270.0
 51
90.0
  0
ARC
  5
77FE
330
18
100
AcDbEntity
  8
0
100
AcDbCircle
 10
375.4283281057205
 20
154.6730011160861
 30
0.0
 40
1.75
100
AcDbArc
 50
90.0
 51
270.0
  0
ARC
  5
77FF
330
18
100
AcDbEntity
  8
0
100
AcDbCircle
 10
386.9283281057205
 20
161.1730011160861
 30
0.0
 40
1.75
100
AcDbArc
 50
270.0
 51
90.0
  0
ARC
  5
7800
330
18
100
AcDbEntity
  8
0
100
AcDbCircle
 10
386.9283281057205
 20
148.1730011160861
 30
0.0
 40
1.75
100
AcDbArc
 50
270.0
 51
90.0
  0
ARC
  5
7801
330
18
100
AcDbEntity
  8
0
100
AcDbCircle
 10
386.9283281057205
 20
154.6730011160861
 30
0.0
 40
1.75
100
AcDbArc
 50
270.0
 51
90.0
  0
ARC
  5
7802
330
18
100
AcDbEntity
  8
0
100
AcDbCircle
 10
410.9283281057205
 20
161.1730011160861
 30
0.0
 40
1.75
100
AcDbArc
 50
270.0
 51
90.0
  0
ARC
  5
7803
330
18
100
AcDbEntity
  8
0
100
AcDbCircle
 10
399.4283281057205
 20
161.1730011160861
 30
0.0
 40
1.75
100
AcDbArc
 50
90.0
 51
270.0
  0
LINE
  5
7804
330
18
100
AcDbEntity
  8
0
100
AcDbLine
 10
399.4283281057205
 20
156.4230011160864
 30
0.0
 11
410.9283281057205
 21
156.4230011160861
 31
0.0
  0
LINE
  5
7805
330
18
100
AcDbEntity
  8
0
100
AcDbLine
 10
399.4283281057205
 20
162.9230011160863
 30
0.0
 11
410.9283281057205
 21
162.9230011160861
 31
0.0
  0
LINE
  5
7806
330
18
100
AcDbEntity
  8
0
100
AcDbLine
 10
399.4283281057205
 20
159.4230011160861
 30
0.0
 11
410.9283281057205
 21
159.4230011160861
 31
0.0
  0
ARC
  5
7807
330
18
100
AcDbEntity
  8
0
100
AcDbCircle
 10
410.9283281057205
 20
148.1730011160861
 30
0.0
 40
1.75
100
AcDbArc
 50
270.0
 51
90.0
  0
ARC
  5
7808
330
18
100
AcDbEntity
  8
0
100
AcDbCircle
 10
399.4283281057205
 20
148.1730011160861
 30
0.0
 40
1.75
100
AcDbArc
 50
90.0
 51
270.0
  0
LINE
  5
7809
330
18
100
AcDbEntity
  8
0
100
AcDbLine
 10
399.4283281057205
 20
152.9230011160861
 30
0.0
 11
410.9283281057205
 21
152.9230011160861
 31
0.0
  0
LINE
  5
780A
330
18
100
AcDbEntity
  8
0
100
AcDbLine
 10
399.4283281057205
 20
149.9230011160864
 30
0.0
 11
410.9283281057205
 21
149.9230011160861
 31
0.0
  0
LINE
  5
780B
330
18
100
AcDbEntity
  8
0
100
AcDbLine
 10
399.4283281057205
 20
143.4230011160863
 30
0.0
 11
410.9283281057205
 21
143.4230011160861
 31
0.0
  0
LINE
  5
780C
330
18
100
AcDbEntity
  8
0
100
AcDbLine
 10
399.4283281057205
 20
146.4230011160861
 30
0.0
 11
410.9283281057205
 21
146.4230011160861
 31
0.0
  0
ARC
  5
780D
330
18
100
AcDbEntity
  8
0
100
AcDbCircle
 10
399.4283281057205
 20
154.6730011160861
 30
0.0
 40
1.75
100
AcDbArc
 50
90.0
 51
270.0
  0
ARC
  5
780E
330
18
100
AcDbEntity
  8
0
100
AcDbCircle
 10
410.9283281057205
 20
154.6730011160861
 30
0.0
 40
1.75
100
AcDbArc
 50
270.0
 51
90.0
  0
HATCH
  5
780F
330
18
100
AcDbEntity
  8
0
100
AcDbHatch
 10
0.0
 20
0.0
 30
0.0
210
0.0
220
0.0
230
1.0
  2
SOLID
 70
     1
 71
     0
 91
       20
 92
        7
 72
     1
 73
     1
 93
        2
 10
347.4283281057205
 20
228.0649593085681
 42
1.0
 10
346.4283281057205
 20
228.0649593085681
 42
1.0
 97
        0
 92
        7
 72
     1
 73
     1
 93
        2
 10
349.9283281057205
 20
228.0649593085681
 42
1.0
 10
348.9283281057205
 20
228.0649593085681
 42
1.0
 97
        0
 92
        7
 72
     1
 73
     1
 93
        2
 10
351.4283281057205
 20
228.0649593085681
 42
1.0
 10
352.4283281057205
 20
228.0649593085681
 42
1.0
 97
        0
 92
        7
 72
     1
 73
     1
 93
        2
 10
354.9283281057205
 20
228.0649593085681
 42
1.0
 10
353.9283281057205
 20
228.0649593085681
 42
1.0
 97
        0
 92
        7
 72
     1
 73
     1
 93
        2
 10
357.4283281057205
 20
228.0649593085681
 42
1.0
 10
356.4283281057205
 20
228.0649593085681
 42
1.0
 97
        0
 92
        7
 72
     1
 73
     1
 93
        2
 10
359.9283281057205
 20
228.0649593085681
 42
1.0
 10
358.9283281057205
 20
228.0649593085681
 42
1.0
 97
        0
 92
        7
 72
     1
 73
     1
 93
        2
 10
362.4283281057205
 20
228.0649593085681
 42
1.0
 10
361.4283281057205
 20
228.0649593085681
 42
1.0
 97
        0
 92
        7
 72
     1
 73
     1
 93
        2
 10
364.9283281057205
 20
228.0649593085681
 42
1.0
 10
363.9283281057205
 20
228.0649593085681
 42
1.0
 97
        0
 92
        7
 72
     1
 73
     1
 93
        2
 10
367.4283281057205
 20
228.0649593085681
 42
1.0
 10
366.4283281057205
 20
228.0649593085681
 42
1.0
 97
        0
 92
        7
 72
     1
 73
     1
 93
        2
 10
369.9283281057205
 20
228.0649593085681
 42
1.0
 10
368.9283281057205
 20
228.0649593085681
 42
1.0
 97
        0
 92
        7
 72
     1
 73
     1
 93
        2
 10
369.9283281057205
 20
224.5649593085681
 42
1.0
 10
368.9283281057205
 20
224.5649593085681
 42
1.0
 97
        0
 92
        7
 72
     1
 73
     1
 93
        2
 10
367.4283281057205
 20
224.5649593085681
 42
1.0
 10
366.4283281057205
 20
224.5649593085681
 42
1.0
 97
        0
 92
        7
 72
     1
 73
     1
 93
        2
 10
364.9283281057205
 20
224.5649593085681
 42
1.0
 10
363.9283281057205
 20
224.5649593085681
 42
1.0
 97
        0
 92
        7
 72
     1
 73
     1
 93
        2
 10
362.4283281057205
 20
224.5649593085681
 42
1.0
 10
361.4283281057205
 20
224.5649593085681
 42
1.0
 97
        0
 92
        7
 72
     1
 73
     1
 93
        2
 10
359.9283281057205
 20
224.5649593085681
 42
1.0
 10
358.9283281057205
 20
224.5649593085681
 42
1.0
 97
        0
 92
        7
 72
     1
 73
     1
 93
        2
 10
357.4283281057205
 20
224.5649593085681
 42
1.0
 10
356.4283281057205
 20
224.5649593085681
 42
1.0
 97
        0
 92
        7
 72
     1
 73
     1
 93
        2
 10
354.9283281057205
 20
224.5649593085681
 42
1.0
 10
353.9283281057205
 20
224.5649593085681
 42
1.0
 97
        0
 92
        7
 72
     1
 73
     1
 93
        2
 10
352.4283281057205
 20
224.5649593085681
 42
1.0
 10
351.4283281057205
 20
224.5649593085681
 42
1.0
 97
        0
 92
        7
 72
     1
 73
     1
 93
        2
 10
349.9283281057205
 20
224.5649593085681
 42
1.0
 10
348.9283281057205
 20
224.5649593085681
 42
1.0
 97
        0
 92
        7
 72
     1
 73
     1
 93
        2
 10
347.4283281057205
 20
224.5649593085681
 42
1.0
 10
346.4283281057205
 20
224.5649593085681
 42
1.0
 97
        0
 75
     0
 76
     1
 47
0.0523552323646742
 98
       20
 10
346.9777364051326
 20
227.9652368531956
 10
349.5976064518695
 20
228.0699471974069
 10
352.2174764986061
 20
228.0699471974069
 10
354.4181672902946
 20
228.1223023695125
 10
356.8808449677299
 20
227.9652368531956
 10
359.6579073837681
 20
227.9652368531956
 10
361.9633938811678
 20
228.0699471974069
 10
364.3736737057474
 20
227.9652368531956
 10
366.9935437524843
 20
227.91288168109
 10
369.4038247663295
 20
227.91288168109
 10
369.5610171356308
 20
224.5621466892328
 10
366.8887492360386
 20
224.5621466892328
 10
364.3736737057474
 20
224.3527260008103
 10
361.7538036590106
 20
224.5621466892328
 10
359.4483183508766
 20
224.5621466892328
 10
356.9332428205855
 20
224.4574363450215
 10
354.3133727738488
 20
224.6145018613384
 10
352.0078874657146
 20
224.3527260008103
 10
349.2308250496766
 20
224.5097915171271
 10
346.9777364051326
 20
224.5621466892328
  0
LWPOLYLINE
  5
7810
330
18
100
AcDbEntity
  8
0
100
AcDbPolyline
 90
        4
 70
     1
 43
0.0
 10
343.1783281057205
 20
222.5649593085681
 10
373.1783281057205
 20
222.5649593085681
 10
373.1783281057205
 20
230.5649593085681
 10
343.1783281057205
 20
230.5649593085681
  0
LINE
  5
7811
330
18
100
AcDbEntity
  8
0
100
AcDbLine
 10
376.1783281057205
 20
221.5649593085681
 30
0.0
 11
340.1783281057205
 21
221.5649593085681
 31
0.0
  0
LINE
  5
7812
330
18
100
AcDbEntity
  8
0
100
AcDbLine
 10
376.1783281057205
 20
235.5649593085682
 30
0.0
 11
340.1783281057205
 21
235.5649593085682
 31
0.0
  0
CIRCLE
  5
7813
330
18
100
AcDbEntity
  8
0
100
AcDbCircle
 10
354.4283281057205
 20
228.0649593085681
 30
0.0
 40
0.5
  0
CIRCLE
  5
7814
330
18
100
AcDbEntity
  8
0
100
AcDbCircle
 10
356.9283281057205
 20
228.0649593085681
 30
0.0
 40
0.5
  0
CIRCLE
  5
7815
330
18
100
AcDbEntity
  8
0
100
AcDbCircle
 10
354.4283281057205
 20
224.5649593085681
 30
0.0
 40
0.5
  0
CIRCLE
  5
7816
330
18
100
AcDbEntity
  8
0
100
AcDbCircle
 10
356.9283281057205
 20
224.5649593085681
 30
0.0
 40
0.5
  0
CIRCLE
  5
7817
330
18
100
AcDbEntity
  8
0
100
AcDbCircle
 10
349.4283281057205
 20
228.0649593085681
 30
0.0
 40
0.5
  0
CIRCLE
  5
7818
330
18
100
AcDbEntity
  8
0
100
AcDbCircle
 10
346.9283281057205
 20
228.0649593085681
 30
0.0
 40
0.5
  0
CIRCLE
  5
7819
330
18
100
AcDbEntity
  8
0
100
AcDbCircle
 10
349.4283281057205
 20
224.5649593085681
 30
0.0
 40
0.5
  0
CIRCLE
  5
781A
330
18
100
AcDbEntity
  8
0
100
AcDbCircle
 10
346.9283281057205
 20
224.5649593085681
 30
0.0
 40
0.5
  0
LINE
  5
781B
330
18
100
AcDbEntity
  8
0
100
AcDbLine
 10
340.1783281057205
 20
221.5649593085681
 30
0.0
 11
340.1783281057205
 21
235.5649593085682
 31
0.0
  0
CIRCLE
  5
781C
330
18
100
AcDbEntity
  8
0
100
AcDbCircle
 10
351.9283281057205
 20
224.5649593085681
 30
0.0
 40
0.5
  0
CIRCLE
  5
781D
330
18
100
AcDbEntity
  8
0
100
AcDbCircle
 10
351.9283281057205
 20
228.0649593085681
 30
0.0
 40
0.5
  0
CIRCLE
  5
781E
330
18
100
AcDbEntity
  8
0
100
AcDbCircle
 10
369.4283281057205
 20
228.0649593085681
 30
0.0
 40
0.5
  0
CIRCLE
  5
781F
330
18
100
AcDbEntity
  8
0
100
AcDbCircle
 10
361.9283281057205
 20
228.0649593085681
 30
0.0
 40
0.5
  0
CIRCLE
  5
7820
330
18
100
AcDbEntity
  8
0
100
AcDbCircle
 10
364.4283281057205
 20
228.0649593085681
 30
0.0
 40
0.5
  0
CIRCLE
  5
7821
330
18
100
AcDbEntity
  8
0
100
AcDbCircle
 10
366.9283281057205
 20
228.0649593085681
 30
0.0
 40
0.5
  0
CIRCLE
  5
7822
330
18
100
AcDbEntity
  8
0
100
AcDbCircle
 10
359.4283281057205
 20
228.0649593085681
 30
0.0
 40
0.5
  0
CIRCLE
  5
7823
330
18
100
AcDbEntity
  8
0
100
AcDbCircle
 10
369.4283281057205
 20
224.5649593085681
 30
0.0
 40
0.5
  0
CIRCLE
  5
7824
330
18
100
AcDbEntity
  8
0
100
AcDbCircle
 10
361.9283281057205
 20
224.5649593085681
 30
0.0
 40
0.5
  0
CIRCLE
  5
7825
330
18
100
AcDbEntity
  8
0
100
AcDbCircle
 10
364.4283281057205
 20
224.5649593085681
 30
0.0
 40
0.5
  0
CIRCLE
  5
7826
330
18
100
AcDbEntity
  8
0
100
AcDbCircle
 10
366.9283281057205
 20
224.5649593085681
 30
0.0
 40
0.5
  0
CIRCLE
  5
7827
330
18
100
AcDbEntity
  8
0
100
AcDbCircle
 10
359.4283281057205
 20
224.5649593085681
 30
0.0
 40
0.5
  0
LINE
  5
7828
330
18
100
AcDbEntity
  8
0
100
AcDbLine
 10
376.1783281057205
 20
221.5649593085682
 30
0.0
 11
376.1783281057205
 21
235.5649593085682
 31
0.0
  0
LINE
  5
7829
330
18
100
AcDbEntity
  8
0
100
AcDbLine
 10
359.6783281057205
 20
262.5649593085682
 30
0.0
 11
356.6783281057205
 21
262.5649593085682
 31
0.0
  0
LINE
  5
782A
330
18
100
AcDbEntity
  8
0
100
AcDbLine
 10
359.6783281057205
 20
245.5649593085681
 30
0.0
 11
356.6783281057205
 21
245.5649593085681
 31
0.0
  0
LINE
  5
782B
330
18
100
AcDbEntity
  8
0
100
AcDbLine
 10
354.1783281057205
 20
245.5649593085681
 30
0.0
 11
354.1783281057205
 21
262.5649593085682
 31
0.0
  0
LINE
  5
782C
330
18
100
AcDbEntity
  8
0
100
AcDbLine
 10
356.6783281057205
 20
245.5649593085681
 30
0.0
 11
356.6783281057205
 21
262.5649593085682
 31
0.0
  0
LINE
  5
782D
330
18
100
AcDbEntity
  8
0
100
AcDbLine
 10
348.6783281057205
 20
262.5649593085682
 30
0.0
 11
345.6783281057205
 21
262.5649593085682
 31
0.0
  0
LINE
  5
782E
330
18
100
AcDbEntity
  8
0
100
AcDbLine
 10
343.1783281057205
 20
262.5649593085682
 30
0.0
 11
340.1783281057205
 21
262.5649593085682
 31
0.0
  0
LINE
  5
782F
330
18
100
AcDbEntity
  8
0
100
AcDbLine
 10
348.6783281057205
 20
245.5649593085681
 30
0.0
 11
345.6783281057205
 21
245.5649593085681
 31
0.0
  0
LINE
  5
7830
330
18
100
AcDbEntity
  8
0
100
AcDbLine
 10
343.1783281057205
 20
245.5649593085681
 30
0.0
 11
340.1783281057205
 21
245.5649593085681
 31
0.0
  0
LINE
  5
7831
330
18
100
AcDbEntity
  8
0
100
AcDbLine
 10
343.1783281057205
 20
245.5649593085681
 30
0.0
 11
343.1783281057205
 21
262.5649593085682
 31
0.0
  0
LINE
  5
7832
330
18
100
AcDbEntity
  8
0
100
AcDbLine
 10
345.6783281057205
 20
245.5649593085681
 30
0.0
 11
345.6783281057205
 21
262.5649593085682
 31
0.0
  0
LINE
  5
7833
330
18
100
AcDbEntity
  8
0
100
AcDbLine
 10
348.6783281057205
 20
245.5649593085681
 30
0.0
 11
348.6783281057205
 21
262.5649593085682
 31
0.0
  0
LINE
  5
7834
330
18
100
AcDbEntity
  8
0
100
AcDbLine
 10
351.1783281057205
 20
245.5649593085681
 30
0.0
 11
351.1783281057205
 21
262.5649593085682
 31
0.0
  0
LINE
  5
7835
330
18
100
AcDbEntity
  8
0
100
AcDbLine
 10
340.1783281057205
 20
245.5649593085681
 30
0.0
 11
340.1783281057205
 21
262.5649593085682
 31
0.0
  0
LINE
  5
7836
330
18
100
AcDbEntity
  8
0
100
AcDbLine
 10
354.1783281057205
 20
245.5649593085681
 30
0.0
 11
351.1783281057205
 21
245.5649593085681
 31
0.0
  0
LINE
  5
7837
330
18
100
AcDbEntity
  8
0
100
AcDbLine
 10
354.1783281057205
 20
262.5649593085682
 30
0.0
 11
351.1783281057205
 21
262.5649593085682
 31
0.0
  0
LINE
  5
7838
330
18
100
AcDbEntity
  8
0
100
AcDbLine
 10
371.1148197788241
 20
261.5649593085681
 30
0.0
 11
371.1148197788241
 21
262.5649593085681
 31
0.0
  0
LINE
  5
7839
330
18
100
AcDbEntity
  8
0
100
AcDbLine
 10
376.1783281057205
 20
262.5649593085682
 30
0.0
 11
373.1783281057205
 21
262.5649593085682
 31
0.0
  0
LINE
  5
783A
330
18
100
AcDbEntity
  8
0
100
AcDbLine
 10
369.6783281057205
 20
261.5649593085681
 30
0.0
 11
369.6783281057205
 21
260.1284676354643
 31
0.0
  0
LINE
  5
783B
330
18
100
AcDbEntity
  8
0
100
AcDbLine
 10
369.6783281057205
 20
262.5649593085681
 30
0.0
 11
371.1148197788241
 21
262.5649593085681
 31
0.0
  0
LINE
  5
783C
330
18
100
AcDbEntity
  8
0
100
AcDbLine
 10
369.6783281057205
 20
261.5649593085681
 30
0.0
 11
371.1148197788241
 21
261.5649593085681
 31
0.0
  0
LINE
  5
783D
330
18
100
AcDbEntity
  8
0
100
AcDbLine
 10
369.6783281057205
 20
264.0014509816718
 30
0.0
 11
369.6783281057205
 21
262.5649593085681
 31
0.0
  0
LINE
  5
783E
330
18
100
AcDbEntity
  8
0
100
AcDbLine
 10
367.2418364326168
 20
262.5649593085681
 30
0.0
 11
368.6783281057205
 21
262.5649593085681
 31
0.0
  0
LINE
  5
783F
330
18
100
AcDbEntity
  8
0
100
AcDbLine
 10
367.2418364326168
 20
261.5649593085681
 30
0.0
 11
368.6783281057204
 21
261.5649593085681
 31
0.0
  0
LINE
  5
7840
330
18
100
AcDbEntity
  8
0
100
AcDbLine
 10
367.2418364326168
 20
262.5649593085681
 30
0.0
 11
367.2418364326168
 21
261.5649593085681
 31
0.0
  0
LINE
  5
7841
330
18
100
AcDbEntity
  8
0
100
AcDbLine
 10
365.1783281057205
 20
262.5649593085682
 30
0.0
 11
362.1783281057205
 21
262.5649593085682
 31
0.0
  0
LINE
  5
7842
330
18
100
AcDbEntity
  8
0
100
AcDbLine
 10
368.6783281057204
 20
261.5649593085681
 30
0.0
 11
368.6783281057205
 21
260.1284676354643
 31
0.0
  0
LINE
  5
7843
330
18
100
AcDbEntity
  8
0
100
AcDbLine
 10
368.6783281057205
 20
264.0014509816718
 30
0.0
 11
368.6783281057205
 21
262.5649593085681
 31
0.0
  0
LINE
  5
7844
330
18
100
AcDbEntity
  8
0
100
AcDbLine
 10
370.6783281057205
 20
255.564959308568
 30
0.0
 11
367.6783281057205
 21
255.564959308568
 31
0.0
  0
CIRCLE
  5
7845
330
18
100
AcDbEntity
  8
0
100
AcDbCircle
 10
369.1783281057205
 20
262.0649593085681
 30
0.0
 40
3.0
  0
LINE
  5
7846
330
18
100
AcDbEntity
  8
0
100
AcDbLine
 10
369.6783281057205
 20
264.0014509816718
 30
0.0
 11
368.6783281057205
 21
264.0014509816718
 31
0.0
  0
LINE
  5
7847
330
18
100
AcDbEntity
  8
0
100
AcDbLine
 10
368.6783281057205
 20
260.1284676354643
 30
0.0
 11
369.6783281057205
 21
260.1284676354643
 31
0.0
  0
LINE
  5
7848
330
18
100
AcDbEntity
  8
0
100
AcDbLine
 10
376.1783281057205
 20
245.5649593085681
 30
0.0
 11
373.1783281057205
 21
245.5649593085681
 31
0.0
  0
LINE
  5
7849
330
18
100
AcDbEntity
  8
0
100
AcDbLine
 10
365.1783281057205
 20
245.564959308568
 30
0.0
 11
362.1783281057205
 21
245.5649593085681
 31
0.0
  0
LINE
  5
784A
330
18
100
AcDbEntity
  8
0
100
AcDbLine
 10
370.6783281057205
 20
245.564959308568
 30
0.0
 11
367.6783281057205
 21
245.564959308568
 31
0.0
  0
LINE
  5
784B
330
18
100
AcDbEntity
  8
0
100
AcDbLine
 10
376.1783281057205
 20
245.5649593085681
 30
0.0
 11
376.1783281057205
 21
262.5649593085682
 31
0.0
  0
LINE
  5
784C
330
18
100
AcDbEntity
  8
0
100
AcDbLine
 10
373.1783281057205
 20
245.5649593085681
 30
0.0
 11
373.1783281057205
 21
262.5649593085682
 31
0.0
  0
LINE
  5
784D
330
18
100
AcDbEntity
  8
0
100
AcDbLine
 10
362.1783281057205
 20
245.5649593085681
 30
0.0
 11
362.1783281057205
 21
262.5649593085682
 31
0.0
  0
LINE
  5
784E
330
18
100
AcDbEntity
  8
0
100
AcDbLine
 10
365.1783281057205
 20
245.5649593085681
 30
0.0
 11
365.1783281057205
 21
262.564959308568
 31
0.0
  0
LINE
  5
784F
330
18
100
AcDbEntity
  8
0
100
AcDbLine
 10
359.6783281057205
 20
245.5649593085681
 30
0.0
 11
359.6783281057205
 21
262.5649593085682
 31
0.0
  0
LINE
  5
7850
330
18
100
AcDbEntity
  8
0
100
AcDbLine
 10
367.6783281057205
 20
245.564959308568
 30
0.0
 11
367.6783281057205
 21
255.564959308568
 31
0.0
  0
LINE
  5
7851
330
18
100
AcDbEntity
  8
0
100
AcDbLine
 10
370.6783281057205
 20
245.564959308568
 30
0.0
 11
370.6783281057205
 21
255.564959308568
 31
0.0
  0
LINE
  5
7852
330
18
100
AcDbEntity
  8
0
100
AcDbLine
 10
406.1783281057205
 20
221.5649593085681
 30
0.0
 11
406.1783281057205
 21
238.5649593085681
 31
0.0
  0
LINE
  5
7853
330
18
100
AcDbEntity
  8
0
100
AcDbLine
 10
403.6783281057205
 20
221.5649593085681
 30
0.0
 11
403.6783281057205
 21
238.5649593085681
 31
0.0
  0
LINE
  5
7854
330
18
100
AcDbEntity
  8
0
100
AcDbLine
 10
400.6783281057205
 20
221.5649593085681
 30
0.0
 11
400.6783281057205
 21
238.5649593085681
 31
0.0
  0
LINE
  5
7855
330
18
100
AcDbEntity
  8
0
100
AcDbLine
 10
398.1783281057205
 20
221.5649593085681
 30
0.0
 11
398.1783281057205
 21
238.5649593085681
 31
0.0
  0
LINE
  5
7856
330
18
100
AcDbEntity
  8
0
100
AcDbLine
 10
411.6783281057205
 20
221.5649593085681
 30
0.0
 11
411.6783281057205
 21
238.5649593085681
 31
0.0
  0
LINE
  5
7857
330
18
100
AcDbEntity
  8
0
100
AcDbLine
 10
409.1783281057205
 20
221.5649593085681
 30
0.0
 11
409.1783281057205
 21
238.5649593085681
 31
0.0
  0
LINE
  5
7858
330
18
100
AcDbEntity
  8
0
100
AcDbLine
 10
395.1783281057205
 20
221.5649593085681
 30
0.0
 11
395.1783281057205
 21
238.5649593085681
 31
0.0
  0
LINE
  5
7859
330
18
100
AcDbEntity
  8
0
100
AcDbLine
 10
392.6783281057205
 20
221.5649593085681
 30
0.0
 11
392.6783281057205
 21
238.5649593085681
 31
0.0
  0
LINE
  5
785A
330
18
100
AcDbEntity
  8
0
100
AcDbLine
 10
389.6783281057205
 20
221.5649593085681
 30
0.0
 11
389.6783281057205
 21
238.5649593085681
 31
0.0
  0
LINE
  5
785B
330
18
100
AcDbEntity
  8
0
100
AcDbLine
 10
387.1783281057205
 20
221.5649593085681
 30
0.0
 11
387.1783281057205
 21
238.5649593085681
 31
0.0
  0
LINE
  5
785C
330
18
100
AcDbEntity
  8
0
100
AcDbLine
 10
378.6783281057205
 20
221.5649593085681
 30
0.0
 11
378.6783281057205
 21
238.5649593085681
 31
0.0
  0
LINE
  5
785D
330
18
100
AcDbEntity
  8
0
100
AcDbLine
 10
384.1783281057205
 20
221.5649593085681
 30
0.0
 11
384.1783281057205
 21
238.5649593085681
 31
0.0
  0
LINE
  5
785E
330
18
100
AcDbEntity
  8
0
100
AcDbLine
 10
381.6783281057205
 20
221.5649593085681
 30
0.0
 11
381.6783281057205
 21
238.5649593085681
 31
0.0
  0
LINE
  5
785F
330
18
100
AcDbEntity
  8
0
100
AcDbLine
 10
398.1783281057205
 20
221.5649593085681
 30
0.0
 11
395.1783281057205
 21
221.5649593085681
 31
0.0
  0
LINE
  5
7860
330
18
100
AcDbEntity
  8
0
100
AcDbLine
 10
392.6783281057205
 20
221.5649593085681
 30
0.0
 11
389.6783281057205
 21
221.5649593085681
 31
0.0
  0
LINE
  5
7861
330
18
100
AcDbEntity
  8
0
100
AcDbLine
 10
381.6783281057205
 20
221.5649593085681
 30
0.0
 11
378.6783281057205
 21
221.5649593085681
 31
0.0
  0
LINE
  5
7862
330
18
100
AcDbEntity
  8
0
100
AcDbLine
 10
387.1783281057205
 20
221.5649593085681
 30
0.0
 11
384.1783281057205
 21
221.5649593085681
 31
0.0
  0
LINE
  5
7863
330
18
100
AcDbEntity
  8
0
100
AcDbLine
 10
409.1783281057205
 20
221.5649593085681
 30
0.0
 11
406.1783281057205
 21
221.5649593085681
 31
0.0
  0
LINE
  5
7864
330
18
100
AcDbEntity
  8
0
100
AcDbLine
 10
403.6783281057205
 20
221.5649593085681
 30
0.0
 11
400.6783281057205
 21
221.5649593085681
 31
0.0
  0
LINE
  5
7865
330
18
100
AcDbEntity
  8
0
100
AcDbLine
 10
398.1783281057205
 20
262.5649593085682
 30
0.0
 11
395.1783281057205
 21
262.5649593085682
 31
0.0
  0
LINE
  5
7866
330
18
100
AcDbEntity
  8
0
100
AcDbLine
 10
398.1783281057205
 20
245.5649593085681
 30
0.0
 11
395.1783281057205
 21
245.5649593085681
 31
0.0
  0
LINE
  5
7867
330
18
100
AcDbEntity
  8
0
100
AcDbLine
 10
398.1783281057205
 20
238.5649593085681
 30
0.0
 11
395.1783281057205
 21
238.5649593085681
 31
0.0
  0
LINE
  5
7868
330
18
100
AcDbEntity
  8
0
100
AcDbLine
 10
392.6783281057205
 20
262.5649593085682
 30
0.0
 11
389.6783281057205
 21
262.5649593085682
 31
0.0
  0
LINE
  5
7869
330
18
100
AcDbEntity
  8
0
100
AcDbLine
 10
392.6783281057205
 20
245.5649593085681
 30
0.0
 11
389.6783281057205
 21
245.5649593085681
 31
0.0
  0
LINE
  5
786A
330
18
100
AcDbEntity
  8
0
100
AcDbLine
 10
387.1783281057205
 20
245.5649593085681
 30
0.0
 11
387.1783281057205
 21
262.5649593085682
 31
0.0
  0
LINE
  5
786B
330
18
100
AcDbEntity
  8
0
100
AcDbLine
 10
389.6783281057205
 20
245.5649593085681
 30
0.0
 11
389.6783281057205
 21
262.5649593085682
 31
0.0
  0
LINE
  5
786C
330
18
100
AcDbEntity
  8
0
100
AcDbLine
 10
392.6783281057205
 20
245.5649593085681
 30
0.0
 11
392.6783281057205
 21
262.5649593085682
 31
0.0
  0
LINE
  5
786D
330
18
100
AcDbEntity
  8
0
100
AcDbLine
 10
395.1783281057205
 20
245.5649593085681
 30
0.0
 11
395.1783281057205
 21
262.5649593085682
 31
0.0
  0
LINE
  5
786E
330
18
100
AcDbEntity
  8
0
100
AcDbLine
 10
381.6783281057205
 20
262.5649593085682
 30
0.0
 11
378.6783281057205
 21
262.5649593085682
 31
0.0
  0
LINE
  5
786F
330
18
100
AcDbEntity
  8
0
100
AcDbLine
 10
381.6783281057205
 20
245.5649593085681
 30
0.0
 11
378.6783281057205
 21
245.5649593085681
 31
0.0
  0
LINE
  5
7870
330
18
100
AcDbEntity
  8
0
100
AcDbLine
 10
378.6783281057205
 20
245.5649593085681
 30
0.0
 11
378.6783281057205
 21
262.5649593085682
 31
0.0
  0
LINE
  5
7871
330
18
100
AcDbEntity
  8
0
100
AcDbLine
 10
381.6783281057205
 20
245.5649593085681
 30
0.0
 11
381.6783281057205
 21
262.5649593085682
 31
0.0
  0
LINE
  5
7872
330
18
100
AcDbEntity
  8
0
100
AcDbLine
 10
384.1783281057205
 20
245.5649593085681
 30
0.0
 11
384.1783281057205
 21
262.5649593085682
 31
0.0
  0
LINE
  5
7873
330
18
100
AcDbEntity
  8
0
100
AcDbLine
 10
387.1783281057205
 20
245.5649593085681
 30
0.0
 11
384.1783281057205
 21
245.5649593085681
 31
0.0
  0
LINE
  5
7874
330
18
100
AcDbEntity
  8
0
100
AcDbLine
 10
387.1783281057205
 20
262.5649593085682
 30
0.0
 11
384.1783281057205
 21
262.5649593085682
 31
0.0
  0
LINE
  5
7875
330
18
100
AcDbEntity
  8
0
100
AcDbLine
 10
392.6783281057205
 20
238.5649593085681
 30
0.0
 11
389.6783281057205
 21
238.5649593085681
 31
0.0
  0
LINE
  5
7876
330
18
100
AcDbEntity
  8
0
100
AcDbLine
 10
381.6783281057205
 20
238.5649593085681
 30
0.0
 11
378.6783281057205
 21
238.5649593085681
 31
0.0
  0
LINE
  5
7877
330
18
100
AcDbEntity
  8
0
100
AcDbLine
 10
387.1783281057205
 20
238.5649593085681
 30
0.0
 11
384.1783281057205
 21
238.5649593085681
 31
0.0
  0
LINE
  5
7878
330
18
100
AcDbEntity
  8
0
100
AcDbLine
 10
409.1783281057205
 20
262.5649593085682
 30
0.0
 11
406.1783281057205
 21
262.5649593085682
 31
0.0
  0
LINE
  5
7879
330
18
100
AcDbEntity
  8
0
100
AcDbLine
 10
403.6783281057205
 20
262.5649593085682
 30
0.0
 11
400.6783281057205
 21
262.5649593085682
 31
0.0
  0
LINE
  5
787A
330
18
100
AcDbEntity
  8
0
100
AcDbLine
 10
409.1783281057205
 20
245.5649593085681
 30
0.0
 11
406.1783281057205
 21
245.5649593085681
 31
0.0
  0
LINE
  5
787B
330
18
100
AcDbEntity
  8
0
100
AcDbLine
 10
403.6783281057205
 20
245.5649593085681
 30
0.0
 11
400.6783281057205
 21
245.5649593085681
 31
0.0
  0
LINE
  5
787C
330
18
100
AcDbEntity
  8
0
100
AcDbLine
 10
398.1783281057205
 20
245.5649593085681
 30
0.0
 11
398.1783281057205
 21
262.5649593085682
 31
0.0
  0
LINE
  5
787D
330
18
100
AcDbEntity
  8
0
100
AcDbLine
 10
400.6783281057205
 20
245.5649593085681
 30
0.0
 11
400.6783281057205
 21
262.5649593085682
 31
0.0
  0
LINE
  5
787E
330
18
100
AcDbEntity
  8
0
100
AcDbLine
 10
403.6783281057205
 20
245.5649593085681
 30
0.0
 11
403.6783281057205
 21
262.5649593085682
 31
0.0
  0
LINE
  5
787F
330
18
100
AcDbEntity
  8
0
100
AcDbLine
 10
406.1783281057205
 20
245.5649593085681
 30
0.0
 11
406.1783281057205
 21
262.5649593085682
 31
0.0
  0
LINE
  5
7880
330
18
100
AcDbEntity
  8
0
100
AcDbLine
 10
411.6783281057205
 20
245.5649593085681
 30
0.0
 11
411.6783281057205
 21
262.5649593085682
 31
0.0
  0
LINE
  5
7881
330
18
100
AcDbEntity
  8
0
100
AcDbLine
 10
409.1783281057205
 20
245.5649593085681
 30
0.0
 11
409.1783281057205
 21
262.5649593085682
 31
0.0
  0
LINE
  5
7882
330
18
100
AcDbEntity
  8
0
100
AcDbLine
 10
409.1783281057205
 20
238.5649593085681
 30
0.0
 11
406.1783281057205
 21
238.5649593085681
 31
0.0
  0
LINE
  5
7883
330
18
100
AcDbEntity
  8
0
100
AcDbLine
 10
403.6783281057205
 20
238.5649593085681
 30
0.0
 11
400.6783281057205
 21
238.5649593085681
 31
0.0
  0
LINE
  5
7884
330
18
100
AcDbEntity
  8
0
100
AcDbLine
 10
338.5783281057208
 20
280.9649593085683
 30
0.0
 11
338.4783281057207
 21
273.0649593085682
 31
0.0
  0
LINE
  5
7885
330
18
100
AcDbEntity
  8
0
100
AcDbLine
 10
299.878328105721
 20
273.0649593085682
 30
0.0
 11
303.4783281057205
 21
273.0649593085682
 31
0.0
  0
ARC
  5
7886
330
18
100
AcDbEntity
  8
0
100
AcDbCircle
 10
299.1783281057207
 20
280.9649593085682
 30
0.0
 40
0.5999999999999944
100
AcDbArc
 50
0.0
 51
180.0
  0
LINE
  5
7887
330
18
100
AcDbEntity
  8
0
100
AcDbLine
 10
298.5783281057208
 20
280.9649593085617
 30
0.0
 11
299.7783281057206
 21
280.9649593085683
 31
0.0
  0
LINE
  5
7888
330
18
100
AcDbEntity
  8
0
100
AcDbLine
 10
294.7783281057206
 20
280.9649593085617
 30
0.0
 11
293.6783281057207
 21
280.9649593085617
 31
0.0
  0
ARC
  5
7889
330
18
100
AcDbEntity
  8
0
100
AcDbCircle
 10
294.1783281057207
 20
280.9649593085682
 30
0.0
 40
0.5999999999999944
100
AcDbArc
 50
0.0
 51
146.4426902380729
  0
LINE
  5
788A
330
18
100
AcDbEntity
  8
0
100
AcDbLine
 10
294.8783281057208
 20
273.0649593085682
 30
0.0
 11
298.4783281057207
 21
273.0649593085682
 31
0.0
  0
LINE
  5
788B
330
18
100
AcDbEntity
  8
0
100
AcDbLine
 10
294.8783281057208
 20
273.0649593085682
 30
0.0
 11
294.7783281057206
 21
280.9649593085683
 31
0.0
  0
LINE
  5
788C
330
18
100
AcDbEntity
  8
0
100
AcDbLine
 10
298.5783281057208
 20
280.9649593085683
 30
0.0
 11
298.4783281057207
 21
273.0649593085682
 31
0.0
  0
LINE
  5
788D
330
18
100
AcDbEntity
  8
0
100
AcDbLine
 10
299.8783281057208
 20
273.0649593085682
 30
0.0
 11
299.7783281057206
 21
280.9649593085683
 31
0.0
  0
ARC
  5
788E
330
18
100
AcDbEntity
  8
0
100
AcDbCircle
 10
294.6783281057205
 20
268.5649593085681
 30
0.0
 40
1.0
100
AcDbArc
 50
90.0
 51
180.0
  0
LINE
  5
788F
330
18
100
AcDbEntity
  8
0
100
AcDbLine
 10
293.6783281057207
 20
281.2966217876038
 30
0.0
 11
293.678328105721
 21
269.5649593085682
 31
0.0
  0
LINE
  5
7890
330
18
100
AcDbEntity
  8
0
100
AcDbLine
 10
318.5783281057208
 20
280.9649593085683
 30
0.0
 11
319.7783281057206
 21
280.9649593085683
 31
0.0
  0
ARC
  5
7891
330
18
100
AcDbEntity
  8
0
100
AcDbCircle
 10
319.1783281057207
 20
280.9649593085682
 30
0.0
 40
0.5999999999999944
100
AcDbArc
 50
0.0
 51
180.0
  0
LINE
  5
7892
330
18
100
AcDbEntity
  8
0
100
AcDbLine
 10
313.5783281057208
 20
280.9649593085683
 30
0.0
 11
314.7783281057206
 21
280.9649593085683
 31
0.0
  0
ARC
  5
7893
330
18
100
AcDbEntity
  8
0
100
AcDbCircle
 10
314.1783281057207
 20
280.9649593085682
 30
0.0
 40
0.5999999999999944
100
AcDbArc
 50
0.0
 51
180.0
  0
LINE
  5
7894
330
18
100
AcDbEntity
  8
0
100
AcDbLine
 10
303.5783281057208
 20
280.9649593085683
 30
0.0
 11
304.7783281057206
 21
280.9649593085617
 31
0.0
  0
ARC
  5
7895
330
18
100
AcDbEntity
  8
0
100
AcDbCircle
 10
304.1783281057207
 20
280.9649593085682
 30
0.0
 40
0.5999999999999944
100
AcDbArc
 50
0.0
 51
180.0
  0
LINE
  5
7896
330
18
100
AcDbEntity
  8
0
100
AcDbLine
 10
308.5783281057208
 20
280.9649593085683
 30
0.0
 11
309.7783281057207
 21
280.9649593085617
 31
0.0
  0
ARC
  5
7897
330
18
100
AcDbEntity
  8
0
100
AcDbCircle
 10
309.1783281057207
 20
280.9649593085682
 30
0.0
 40
0.5999999999999944
100
AcDbArc
 50
0.0
 51
180.0
  0
LINE
  5
7898
330
18
100
AcDbEntity
  8
0
100
AcDbLine
 10
314.8783281057208
 20
273.0649593085682
 30
0.0
 11
318.4783281057207
 21
273.0649593085682
 31
0.0
  0
LINE
  5
7899
330
18
100
AcDbEntity
  8
0
100
AcDbLine
 10
304.878328105721
 20
273.0649593085682
 30
0.0
 11
308.4783281057207
 21
273.0649593085682
 31
0.0
  0
LINE
  5
789A
330
18
100
AcDbEntity
  8
0
100
AcDbLine
 10
309.8783281057208
 20
273.0649593085682
 30
0.0
 11
313.4783281057207
 21
273.0649593085682
 31
0.0
  0
LINE
  5
789B
330
18
100
AcDbEntity
  8
0
100
AcDbLine
 10
303.5783281057208
 20
280.9649593085683
 30
0.0
 11
303.4783281057207
 21
273.0649593085682
 31
0.0
  0
LINE
  5
789C
330
18
100
AcDbEntity
  8
0
100
AcDbLine
 10
304.8783281057207
 20
273.0649593085682
 30
0.0
 11
304.7783281057206
 21
280.9649593085683
 31
0.0
  0
LINE
  5
789D
330
18
100
AcDbEntity
  8
0
100
AcDbLine
 10
318.5783281057208
 20
280.9649593085683
 30
0.0
 11
318.4783281057207
 21
273.0649593085682
 31
0.0
  0
LINE
  5
789E
330
18
100
AcDbEntity
  8
0
100
AcDbLine
 10
314.8783281057208
 20
273.0649593085682
 30
0.0
 11
314.7783281057206
 21
280.9649593085683
 31
0.0
  0
LINE
  5
789F
330
18
100
AcDbEntity
  8
0
100
AcDbLine
 10
313.5783281057208
 20
280.9649593085683
 30
0.0
 11
313.4783281057207
 21
273.0649593085682
 31
0.0
  0
LINE
  5
78A0
330
18
100
AcDbEntity
  8
0
100
AcDbLine
 10
308.5783281057208
 20
280.9649593085683
 30
0.0
 11
308.4783281057207
 21
273.0649593085682
 31
0.0
  0
LINE
  5
78A1
330
18
100
AcDbEntity
  8
0
100
AcDbLine
 10
309.8783281057208
 20
273.0649593085682
 30
0.0
 11
309.7783281057207
 21
280.9649593085683
 31
0.0
  0
LINE
  5
78A2
330
18
100
AcDbEntity
  8
0
100
AcDbLine
 10
312.6783281057205
 20
267.5649593085681
 30
0.0
 11
302.6783281057205
 21
267.5649593085681
 31
0.0
  0
LINE
  5
78A3
330
18
100
AcDbEntity
  8
0
100
AcDbLine
 10
328.5783281057208
 20
280.9649593085683
 30
0.0
 11
329.7783281057206
 21
280.9649593085683
 31
0.0
  0
ARC
  5
78A4
330
18
100
AcDbEntity
  8
0
100
AcDbCircle
 10
329.1783281057207
 20
280.9649593085682
 30
0.0
 40
0.5999999999999944
100
AcDbArc
 50
0.0
 51
180.0
  0
ARC
  5
78A5
330
18
100
AcDbEntity
  8
0
100
AcDbCircle
 10
334.1783281057207
 20
280.9649593085682
 30
0.0
 40
0.5999999999999944
100
AcDbArc
 50
0.0
 51
180.0
  0
LINE
  5
78A6
330
18
100
AcDbEntity
  8
0
100
AcDbLine
 10
333.5783281057208
 20
280.9649593085594
 30
0.0
 11
334.7783281057207
 21
280.9649593085594
 31
0.0
  0
LINE
  5
78A7
330
18
100
AcDbEntity
  8
0
100
AcDbLine
 10
323.5783281057208
 20
280.9649593085617
 30
0.0
 11
324.7783281057206
 21
280.9649593085617
 31
0.0
  0
ARC
  5
78A8
330
18
100
AcDbEntity
  8
0
100
AcDbCircle
 10
324.1783281057207
 20
280.9649593085682
 30
0.0
 40
0.5999999999999944
100
AcDbArc
 50
0.0
 51
180.0
  0
LINE
  5
78A9
330
18
100
AcDbEntity
  8
0
100
AcDbLine
 10
329.878328105721
 20
273.0649593085682
 30
0.0
 11
333.4783281057207
 21
273.0649593085682
 31
0.0
  0
LINE
  5
78AA
330
18
100
AcDbEntity
  8
0
100
AcDbLine
 10
319.878328105721
 20
273.0649593085682
 30
0.0
 11
323.4783281057207
 21
273.0649593085682
 31
0.0
  0
LINE
  5
78AB
330
18
100
AcDbEntity
  8
0
100
AcDbLine
 10
324.878328105721
 20
273.0649593085682
 30
0.0
 11
328.4783281057205
 21
273.0649593085682
 31
0.0
  0
LINE
  5
78AC
330
18
100
AcDbEntity
  8
0
100
AcDbLine
 10
323.5783281057208
 20
280.9649593085683
 30
0.0
 11
323.4783281057207
 21
273.0649593085682
 31
0.0
  0
LINE
  5
78AD
330
18
100
AcDbEntity
  8
0
100
AcDbLine
 10
324.8783281057208
 20
273.0649593085682
 30
0.0
 11
324.7783281057206
 21
280.9649593085683
 31
0.0
  0
LINE
  5
78AE
330
18
100
AcDbEntity
  8
0
100
AcDbLine
 10
328.5783281057208
 20
280.9649593085683
 30
0.0
 11
328.4783281057207
 21
273.0649593085682
 31
0.0
  0
LINE
  5
78AF
330
18
100
AcDbEntity
  8
0
100
AcDbLine
 10
319.8783281057208
 20
273.0649593085682
 30
0.0
 11
319.7783281057206
 21
280.9649593085683
 31
0.0
  0
LINE
  5
78B0
330
18
100
AcDbEntity
  8
0
100
AcDbLine
 10
329.8783281057207
 20
273.0649593085682
 30
0.0
 11
329.7783281057206
 21
280.9649593085683
 31
0.0
  0
LINE
  5
78B1
330
18
100
AcDbEntity
  8
0
100
AcDbLine
 10
334.8783281057208
 20
273.0649593085682
 30
0.0
 11
334.7783281057207
 21
280.9649593085683
 31
0.0
  0
LINE
  5
78B2
330
18
100
AcDbEntity
  8
0
100
AcDbLine
 10
333.5783281057208
 20
280.9649593085683
 30
0.0
 11
333.4783281057207
 21
273.0649593085682
 31
0.0
  0
LINE
  5
78B3
330
18
100
AcDbEntity
  8
0
100
AcDbLine
 10
334.8783281057208
 20
273.0649593085682
 30
0.0
 11
338.4783281057205
 21
273.0649593085682
 31
0.0
  0
LINE
  5
78B4
330
18
100
AcDbEntity
  8
0
100
AcDbLine
 10
374.878328105721
 20
273.0649593085682
 30
0.0
 11
378.4783281057207
 21
273.0649593085682
 31
0.0
  0
LINE
  5
78B5
330
18
100
AcDbEntity
  8
0
100
AcDbLine
 10
354.8783281057207
 20
273.0649593085682
 30
0.0
 11
358.4783281057207
 21
273.0649593085682
 31
0.0
  0
LINE
  5
78B6
330
18
100
AcDbEntity
  8
0
100
AcDbLine
 10
353.5783281057208
 20
280.9649593085683
 30
0.0
 11
354.7783281057206
 21
280.9649593085683
 31
0.0
  0
ARC
  5
78B7
330
18
100
AcDbEntity
  8
0
100
AcDbCircle
 10
354.1783281057207
 20
280.9649593085682
 30
0.0
 40
0.5999999999999944
100
AcDbArc
 50
0.0
 51
180.0
  0
LINE
  5
78B8
330
18
100
AcDbEntity
  8
0
100
AcDbLine
 10
354.8783281057207
 20
273.0649593085682
 30
0.0
 11
354.7783281057206
 21
280.9649593085683
 31
0.0
  0
LINE
  5
78B9
330
18
100
AcDbEntity
  8
0
100
AcDbLine
 10
353.5783281057208
 20
280.9649593085683
 30
0.0
 11
353.4783281057207
 21
273.0649593085682
 31
0.0
  0
LINE
  5
78BA
330
18
100
AcDbEntity
  8
0
100
AcDbLine
 10
348.5783281057208
 20
280.9649593085683
 30
0.0
 11
349.7783281057206
 21
280.9649593085683
 31
0.0
  0
ARC
  5
78BB
330
18
100
AcDbEntity
  8
0
100
AcDbCircle
 10
349.1783281057207
 20
280.9649593085682
 30
0.0
 40
0.5999999999999944
100
AcDbArc
 50
0.0
 51
180.0
  0
LINE
  5
78BC
330
18
100
AcDbEntity
  8
0
100
AcDbLine
 10
338.5783281057208
 20
280.9649593085683
 30
0.0
 11
339.7783281057206
 21
280.9649593085683
 31
0.0
  0
ARC
  5
78BD
330
18
100
AcDbEntity
  8
0
100
AcDbCircle
 10
339.1783281057207
 20
280.9649593085682
 30
0.0
 40
0.5999999999999944
100
AcDbArc
 50
0.0
 51
180.0
  0
LINE
  5
78BE
330
18
100
AcDbEntity
  8
0
100
AcDbLine
 10
343.5783281057208
 20
280.9649593085683
 30
0.0
 11
344.7783281057206
 21
280.9649593085683
 31
0.0
  0
ARC
  5
78BF
330
18
100
AcDbEntity
  8
0
100
AcDbCircle
 10
344.1783281057207
 20
280.9649593085682
 30
0.0
 40
0.5999999999999944
100
AcDbArc
 50
0.0
 51
180.0
  0
LINE
  5
78C0
330
18
100
AcDbEntity
  8
0
100
AcDbLine
 10
344.8783281057208
 20
273.0649593085682
 30
0.0
 11
348.4783281057207
 21
273.0649593085682
 31
0.0
  0
LINE
  5
78C1
330
18
100
AcDbEntity
  8
0
100
AcDbLine
 10
339.878328105721
 20
273.0649593085682
 30
0.0
 11
343.4783281057207
 21
273.0649593085682
 31
0.0
  0
LINE
  5
78C2
330
18
100
AcDbEntity
  8
0
100
AcDbLine
 10
343.5783281057208
 20
280.9649593085683
 30
0.0
 11
343.4783281057207
 21
273.0649593085682
 31
0.0
  0
LINE
  5
78C3
330
18
100
AcDbEntity
  8
0
100
AcDbLine
 10
339.8783281057208
 20
273.0649593085682
 30
0.0
 11
339.7783281057206
 21
280.9649593085683
 31
0.0
  0
LINE
  5
78C4
330
18
100
AcDbEntity
  8
0
100
AcDbLine
 10
348.5783281057208
 20
280.9649593085683
 30
0.0
 11
348.4783281057207
 21
273.0649593085682
 31
0.0
  0
LINE
  5
78C5
330
18
100
AcDbEntity
  8
0
100
AcDbLine
 10
349.8783281057208
 20
273.0649593085682
 30
0.0
 11
349.7783281057206
 21
280.9649593085683
 31
0.0
  0
LINE
  5
78C6
330
18
100
AcDbEntity
  8
0
100
AcDbLine
 10
344.8783281057208
 20
273.0649593085682
 30
0.0
 11
344.7783281057206
 21
280.9649593085683
 31
0.0
  0
LINE
  5
78C7
330
18
100
AcDbEntity
  8
0
100
AcDbLine
 10
349.878328105721
 20
273.0649593085682
 30
0.0
 11
353.4783281057205
 21
273.0649593085682
 31
0.0
  0
LINE
  5
78C8
330
18
100
AcDbEntity
  8
0
100
AcDbLine
 10
373.5783281057208
 20
280.9649593085683
 30
0.0
 11
374.7783281057206
 21
280.9649593085683
 31
0.0
  0
ARC
  5
78C9
330
18
100
AcDbEntity
  8
0
100
AcDbCircle
 10
374.1783281057207
 20
280.9649593085682
 30
0.0
 40
0.5999999999999944
100
AcDbArc
 50
0.0
 51
180.0
  0
LINE
  5
78CA
330
18
100
AcDbEntity
  8
0
100
AcDbLine
 10
369.878328105721
 20
273.0649593085682
 30
0.0
 11
373.4783281057207
 21
273.0649593085682
 31
0.0
  0
LINE
  5
78CB
330
18
100
AcDbEntity
  8
0
100
AcDbLine
 10
373.5783281057208
 20
280.9649593085683
 30
0.0
 11
373.4783281057207
 21
273.0649593085682
 31
0.0
  0
LINE
  5
78CC
330
18
100
AcDbEntity
  8
0
100
AcDbLine
 10
374.8783281057208
 20
273.0649593085682
 30
0.0
 11
374.7783281057206
 21
280.9649593085683
 31
0.0
  0
LINE
  5
78CD
330
18
100
AcDbEntity
  8
0
100
AcDbLine
 10
369.8783281057208
 20
273.0649593085682
 30
0.0
 11
369.7783281057206
 21
280.9649593085683
 31
0.0
  0
LINE
  5
78CE
330
18
100
AcDbEntity
  8
0
100
AcDbLine
 10
363.5783281057208
 20
280.9649593085683
 30
0.0
 11
364.7783281057206
 21
280.9649593085683
 31
0.0
  0
ARC
  5
78CF
330
18
100
AcDbEntity
  8
0
100
AcDbCircle
 10
364.1783281057207
 20
280.9649593085682
 30
0.0
 40
0.5999999999999944
100
AcDbArc
 50
0.0
 51
180.0
  0
LINE
  5
78D0
330
18
100
AcDbEntity
  8
0
100
AcDbLine
 10
358.5783281057208
 20
280.9649593085683
 30
0.0
 11
359.7783281057207
 21
280.9649593085683
 31
0.0
  0
ARC
  5
78D1
330
18
100
AcDbEntity
  8
0
100
AcDbCircle
 10
359.1783281057207
 20
280.9649593085682
 30
0.0
 40
0.5999999999999944
100
AcDbArc
 50
0.0
 51
180.0
  0
LINE
  5
78D2
330
18
100
AcDbEntity
  8
0
100
AcDbLine
 10
364.8783281057208
 20
273.0649593085682
 30
0.0
 11
368.4783281057207
 21
273.0649593085682
 31
0.0
  0
LINE
  5
78D3
330
18
100
AcDbEntity
  8
0
100
AcDbLine
 10
359.8783281057212
 20
273.0649593085682
 30
0.0
 11
363.4783281057205
 21
273.0649593085682
 31
0.0
  0
LINE
  5
78D4
330
18
100
AcDbEntity
  8
0
100
AcDbLine
 10
359.8783281057208
 20
273.0649593085682
 30
0.0
 11
359.7783281057207
 21
280.9649593085683
 31
0.0
  0
LINE
  5
78D5
330
18
100
AcDbEntity
  8
0
100
AcDbLine
 10
363.5783281057208
 20
280.9649593085683
 30
0.0
 11
363.4783281057207
 21
273.0649593085682
 31
0.0
  0
LINE
  5
78D6
330
18
100
AcDbEntity
  8
0
100
AcDbLine
 10
364.8783281057208
 20
273.0649593085682
 30
0.0
 11
364.7783281057206
 21
280.9649593085683
 31
0.0
  0
LINE
  5
78D7
330
18
100
AcDbEntity
  8
0
100
AcDbLine
 10
358.5783281057208
 20
280.9649593085683
 30
0.0
 11
358.4783281057207
 21
273.0649593085682
 31
0.0
  0
LINE
  5
78D8
330
18
100
AcDbEntity
  8
0
100
AcDbLine
 10
368.5783281057208
 20
280.9649593085683
 30
0.0
 11
368.4783281057207
 21
273.0649593085682
 31
0.0
  0
LINE
  5
78D9
330
18
100
AcDbEntity
  8
0
100
AcDbLine
 10
368.5783281057208
 20
280.9649593085683
 30
0.0
 11
369.7783281057206
 21
280.9649593085683
 31
0.0
  0
ARC
  5
78DA
330
18
100
AcDbEntity
  8
0
100
AcDbCircle
 10
369.1783281057207
 20
280.9649593085682
 30
0.0
 40
0.5999999999999944
100
AcDbArc
 50
0.0
 51
180.0
  0
LINE
  5
78DB
330
18
100
AcDbEntity
  8
0
100
AcDbLine
 10
394.8783281057208
 20
273.0649593085682
 30
0.0
 11
398.4783281057204
 21
273.0649593085682
 31
0.0
  0
LINE
  5
78DC
330
18
100
AcDbEntity
  8
0
100
AcDbLine
 10
388.5783281057208
 20
280.9649593085682
 30
0.0
 11
389.7783281057206
 21
280.9649593085682
 31
0.0
  0
ARC
  5
78DD
330
18
100
AcDbEntity
  8
0
100
AcDbCircle
 10
389.1783281057207
 20
280.9649593085682
 30
0.0
 40
0.5999999999999944
100
AcDbArc
 50
0.0
 51
180.0
  0
LINE
  5
78DE
330
18
100
AcDbEntity
  8
0
100
AcDbLine
 10
393.5783281057209
 20
280.9649593085594
 30
0.0
 11
394.7783281057207
 21
280.9649593085594
 31
0.0
  0
ARC
  5
78DF
330
18
100
AcDbEntity
  8
0
100
AcDbCircle
 10
394.1783281057207
 20
280.9649593085682
 30
0.0
 40
0.5999999999999944
100
AcDbArc
 50
0.0
 51
180.0
  0
LINE
  5
78E0
330
18
100
AcDbEntity
  8
0
100
AcDbLine
 10
389.8783281057207
 20
273.0649593085682
 30
0.0
 11
393.4783281057205
 21
273.0649593085682
 31
0.0
  0
LINE
  5
78E1
330
18
100
AcDbEntity
  8
0
100
AcDbLine
 10
388.5783281057208
 20
280.9649593085682
 30
0.0
 11
388.4783281057207
 21
273.0649593085682
 31
0.0
  0
LINE
  5
78E2
330
18
100
AcDbEntity
  8
0
100
AcDbLine
 10
389.8783281057207
 20
273.0649593085682
 30
0.0
 11
389.7783281057206
 21
280.9649593085682
 31
0.0
  0
LINE
  5
78E3
330
18
100
AcDbEntity
  8
0
100
AcDbLine
 10
393.5783281057208
 20
280.9649593085682
 30
0.0
 11
393.4783281057207
 21
273.0649593085682
 31
0.0
  0
LINE
  5
78E4
330
18
100
AcDbEntity
  8
0
100
AcDbLine
 10
394.8783281057208
 20
273.0649593085682
 30
0.0
 11
394.7783281057206
 21
280.9649593085682
 31
0.0
  0
LINE
  5
78E5
330
18
100
AcDbEntity
  8
0
100
AcDbLine
 10
378.5783281057208
 20
280.9649593085617
 30
0.0
 11
379.7783281057206
 21
280.9649593085617
 31
0.0
  0
ARC
  5
78E6
330
18
100
AcDbEntity
  8
0
100
AcDbCircle
 10
379.1783281057207
 20
280.9649593085682
 30
0.0
 40
0.5999999999999944
100
AcDbArc
 50
0.0
 51
180.0
  0
LINE
  5
78E7
330
18
100
AcDbEntity
  8
0
100
AcDbLine
 10
383.5783281057208
 20
280.9649593085682
 30
0.0
 11
384.7783281057207
 21
280.9649593085682
 31
0.0
  0
ARC
  5
78E8
330
18
100
AcDbEntity
  8
0
100
AcDbCircle
 10
384.1783281057207
 20
280.9649593085682
 30
0.0
 40
0.5999999999999944
100
AcDbArc
 50
0.0
 51
180.0
  0
LINE
  5
78E9
330
18
100
AcDbEntity
  8
0
100
AcDbLine
 10
379.878328105721
 20
273.0649593085682
 30
0.0
 11
383.4783281057207
 21
273.0649593085682
 31
0.0
  0
LINE
  5
78EA
330
18
100
AcDbEntity
  8
0
100
AcDbLine
 10
379.8783281057207
 20
273.0649593085682
 30
0.0
 11
379.7783281057206
 21
280.9649593085683
 31
0.0
  0
LINE
  5
78EB
330
18
100
AcDbEntity
  8
0
100
AcDbLine
 10
378.5783281057208
 20
280.9649593085683
 30
0.0
 11
378.4783281057207
 21
273.0649593085682
 31
0.0
  0
LINE
  5
78EC
330
18
100
AcDbEntity
  8
0
100
AcDbLine
 10
383.5783281057208
 20
280.9649593085682
 30
0.0
 11
383.4783281057207
 21
273.0649593085682
 31
0.0
  0
LINE
  5
78ED
330
18
100
AcDbEntity
  8
0
100
AcDbLine
 10
384.8783281057208
 20
273.0649593085682
 30
0.0
 11
384.7783281057207
 21
280.9649593085682
 31
0.0
  0
LINE
  5
78EE
330
18
100
AcDbEntity
  8
0
100
AcDbLine
 10
384.8783281057208
 20
273.0649593085682
 30
0.0
 11
388.4783281057202
 21
273.0649593085682
 31
0.0
  0
LINE
  5
78EF
330
18
100
AcDbEntity
  8
0
100
AcDbLine
 10
403.5783281057209
 20
280.9649593085682
 30
0.0
 11
404.7783281057207
 21
280.9649593085682
 31
0.0
  0
ARC
  5
78F0
330
18
100
AcDbEntity
  8
0
100
AcDbCircle
 10
404.1783281057207
 20
280.9649593085682
 30
0.0
 40
0.5999999999999944
100
AcDbArc
 50
0.0
 51
180.0
  0
LINE
  5
78F1
330
18
100
AcDbEntity
  8
0
100
AcDbLine
 10
408.5783281057209
 20
280.9649593085682
 30
0.0
 11
409.7783281057208
 21
280.9649593085682
 31
0.0
  0
ARC
  5
78F2
330
18
100
AcDbEntity
  8
0
100
AcDbCircle
 10
409.1783281057208
 20
280.9649593085682
 30
0.0
 40
0.5999999999999944
100
AcDbArc
 50
0.0
 51
180.0
  0
LINE
  5
78F3
330
18
100
AcDbEntity
  8
0
100
AcDbLine
 10
404.8783281057207
 20
273.0649593085682
 30
0.0
 11
408.4783281057204
 21
273.0649593085682
 31
0.0
  0
LINE
  5
78F4
330
18
100
AcDbEntity
  8
0
100
AcDbLine
 10
409.8783281057207
 20
273.0649593085682
 30
0.0
 11
413.4783281057207
 21
273.0649593085682
 31
0.0
  0
LINE
  5
78F5
330
18
100
AcDbEntity
  8
0
100
AcDbLine
 10
403.5783281057208
 20
280.9649593085682
 30
0.0
 11
403.4783281057206
 21
273.0649593085682
 31
0.0
  0
LINE
  5
78F6
330
18
100
AcDbEntity
  8
0
100
AcDbLine
 10
408.5783281057208
 20
280.9649593085682
 30
0.0
 11
408.4783281057207
 21
273.0649593085682
 31
0.0
  0
LINE
  5
78F7
330
18
100
AcDbEntity
  8
0
100
AcDbLine
 10
413.5783281057208
 20
280.9649593085682
 30
0.0
 11
413.4783281057207
 21
273.0649593085682
 31
0.0
  0
LINE
  5
78F8
330
18
100
AcDbEntity
  8
0
100
AcDbLine
 10
409.8783281057207
 20
273.0649593085682
 30
0.0
 11
409.7783281057206
 21
280.9649593085682
 31
0.0
  0
LINE
  5
78F9
330
18
100
AcDbEntity
  8
0
100
AcDbLine
 10
404.8783281057207
 20
273.0649593085682
 30
0.0
 11
404.7783281057206
 21
280.9649593085682
 31
0.0
  0
LINE
  5
78FA
330
18
100
AcDbEntity
  8
0
100
AcDbLine
 10
398.5783281057208
 20
280.9649593085682
 30
0.0
 11
399.7783281057206
 21
280.9649593085682
 31
0.0
  0
ARC
  5
78FB
330
18
100
AcDbEntity
  8
0
100
AcDbCircle
 10
399.1783281057207
 20
280.9649593085682
 30
0.0
 40
0.5999999999999944
100
AcDbArc
 50
0.0
 51
180.0
  0
LINE
  5
78FC
330
18
100
AcDbEntity
  8
0
100
AcDbLine
 10
399.8783281057208
 20
273.0649593085682
 30
0.0
 11
399.7783281057206
 21
280.9649593085682
 31
0.0
  0
LINE
  5
78FD
330
18
100
AcDbEntity
  8
0
100
AcDbLine
 10
398.5783281057208
 20
280.9649593085682
 30
0.0
 11
398.4783281057207
 21
273.0649593085682
 31
0.0
  0
LINE
  5
78FE
330
18
100
AcDbEntity
  8
0
100
AcDbLine
 10
399.8783281057205
 20
273.0649593085682
 30
0.0
 11
403.4783281057205
 21
273.0649593085682
 31
0.0
  0
LINE
  5
78FF
330
18
100
AcDbEntity
  8
0
100
AcDbLine
 10
435.6783281057205
 20
267.5649593085681
 30
0.0
 11
435.6783281057205
 21
265.5649593085683
 31
0.0
  0
ARC
  5
7900
330
18
100
AcDbEntity
  8
0
100
AcDbCircle
 10
441.6783281057205
 20
266.5649593085681
 30
0.0
 40
1.0
100
AcDbArc
 50
0.0
 51
90.0
  0
LINE
  5
7901
330
18
100
AcDbEntity
  8
0
100
AcDbLine
 10
425.6783281057208
 20
267.5649593085681
 30
0.0
 11
425.6783281057205
 21
265.5649593085681
 31
0.0
  0
LINE
  5
7902
330
18
100
AcDbEntity
  8
0
100
AcDbLine
 10
444.6783281057205
 20
216.5649593085681
 30
0.0
 11
444.6783281057205
 21
268.5649593085681
 31
0.0
  0
LINE
  5
7903
330
18
100
AcDbEntity
  8
0
100
AcDbLine
 10
423.4283281057205
 20
162.9230011160863
 30
0.0
 11
434.9283281057205
 21
162.9230011160861
 31
0.0
  0
LINE
  5
7904
330
18
100
AcDbEntity
  8
0
100
AcDbLine
 10
423.4283281057205
 20
156.4230011160864
 30
0.0
 11
434.9283281057205
 21
156.4230011160861
 31
0.0
  0
LINE
  5
7905
330
18
100
AcDbEntity
  8
0
100
AcDbLine
 10
423.4283281057205
 20
159.4230011160861
 30
0.0
 11
434.9283281057205
 21
159.4230011160861
 31
0.0
  0
LINE
  5
7906
330
18
100
AcDbEntity
  8
0
100
AcDbLine
 10
423.4283281057205
 20
149.9230011160864
 30
0.0
 11
434.9283281057205
 21
149.9230011160861
 31
0.0
  0
LINE
  5
7907
330
18
100
AcDbEntity
  8
0
100
AcDbLine
 10
423.4283281057205
 20
152.9230011160861
 30
0.0
 11
434.9283281057205
 21
152.9230011160861
 31
0.0
  0
LINE
  5
7908
330
18
100
AcDbEntity
  8
0
100
AcDbLine
 10
423.4283281057205
 20
146.4230011160861
 30
0.0
 11
434.9283281057205
 21
146.4230011160861
 31
0.0
  0
LINE
  5
7909
330
18
100
AcDbEntity
  8
0
100
AcDbLine
 10
423.4283281057205
 20
143.4230011160863
 30
0.0
 11
434.9283281057205
 21
143.4230011160861
 31
0.0
  0
ARC
  5
790A
330
18
100
AcDbEntity
  8
0
100
AcDbCircle
 10
423.4283281057205
 20
161.1730011160861
 30
0.0
 40
1.75
100
AcDbArc
 50
90.0
 51
270.0
  0
ARC
  5
790B
330
18
100
AcDbEntity
  8
0
100
AcDbCircle
 10
423.4283281057205
 20
148.1730011160861
 30
0.0
 40
1.75
100
AcDbArc
 50
90.0
 51
270.0
  0
ARC
  5
790C
330
18
100
AcDbEntity
  8
0
100
AcDbCircle
 10
423.4283281057205
 20
154.6730011160861
 30
0.0
 40
1.75
100
AcDbArc
 50
90.0
 51
270.0
  0
LINE
  5
790D
330
18
100
AcDbEntity
  8
0
100
AcDbLine
 10
441.6783281057205
 20
169.6730011160864
 30
0.0
 11
442.6783281057205
 21
168.6730011160864
 31
0.0
  0
ARC
  5
790E
330
18
100
AcDbEntity
  8
0
100
AcDbCircle
 10
434.9283281057205
 20
161.1730011160861
 30
0.0
 40
1.75
100
AcDbArc
 50
270.0
 51
90.0
  0
ARC
  5
790F
330
18
100
AcDbEntity
  8
0
100
AcDbCircle
 10
434.9283281057205
 20
148.1730011160861
 30
0.0
 40
1.75
100
AcDbArc
 50
270.0
 51
90.0
  0
ARC
  5
7910
330
18
100
AcDbEntity
  8
0
100
AcDbCircle
 10
434.9283281057205
 20
154.6730011160861
 30
0.0
 40
1.75
100
AcDbArc
 50
270.0
 51
90.0
  0
LINE
  5
7911
330
18
100
AcDbEntity
  8
0
100
AcDbLine
 10
442.6783281057205
 20
184.6730011160862
 30
0.0
 11
444.6783281057205
 21
184.6730011160862
 31
0.0
  0
LINE
  5
7912
330
18
100
AcDbEntity
  8
0
100
AcDbLine
 10
428.1783281057205
 20
221.5649593085681
 30
0.0
 11
428.1783281057205
 21
238.5649593085681
 31
0.0
  0
LINE
  5
7913
330
18
100
AcDbEntity
  8
0
100
AcDbLine
 10
425.6783281057205
 20
221.5649593085681
 30
0.0
 11
425.6783281057205
 21
238.5649593085681
 31
0.0
  0
LINE
  5
7914
330
18
100
AcDbEntity
  8
0
100
AcDbLine
 10
422.6783281057205
 20
221.5649593085681
 30
0.0
 11
422.6783281057205
 21
238.5649593085681
 31
0.0
  0
LINE
  5
7915
330
18
100
AcDbEntity
  8
0
100
AcDbLine
 10
420.1783281057205
 20
221.5649593085681
 30
0.0
 11
420.1783281057205
 21
238.5649593085681
 31
0.0
  0
LINE
  5
7916
330
18
100
AcDbEntity
  8
0
100
AcDbLine
 10
433.6783281057205
 20
221.5649593085681
 30
0.0
 11
433.6783281057205
 21
238.5649593085681
 31
0.0
  0
LINE
  5
7917
330
18
100
AcDbEntity
  8
0
100
AcDbLine
 10
436.6783281057205
 20
221.5649593085681
 30
0.0
 11
436.6783281057205
 21
238.5649593085681
 31
0.0
  0
LINE
  5
7918
330
18
100
AcDbEntity
  8
0
100
AcDbLine
 10
431.1783281057205
 20
221.5649593085681
 30
0.0
 11
431.1783281057205
 21
238.5649593085681
 31
0.0
  0
LINE
  5
7919
330
18
100
AcDbEntity
  8
0
100
AcDbLine
 10
442.6783281057205
 20
266.5649593085681
 30
0.0
 11
442.6783281057205
 21
216.5649593085681
 31
0.0
  0
LINE
  5
791A
330
18
100
AcDbEntity
  8
0
100
AcDbLine
 10
440.6783281057205
 20
264.5649593085682
 30
0.0
 11
440.6783281057205
 21
217.5649593085681
 31
0.0
  0
LINE
  5
791B
330
18
100
AcDbEntity
  8
0
100
AcDbLine
 10
417.1783281057205
 20
221.5649593085681
 30
0.0
 11
417.1783281057205
 21
238.5649593085681
 31
0.0
  0
LINE
  5
791C
330
18
100
AcDbEntity
  8
0
100
AcDbLine
 10
414.6783281057205
 20
221.5649593085681
 30
0.0
 11
414.6783281057205
 21
238.5649593085681
 31
0.0
  0
LINE
  5
791D
330
18
100
AcDbEntity
  8
0
100
AcDbLine
 10
431.1783281057205
 20
221.5649593085681
 30
0.0
 11
428.1783281057205
 21
221.5649593085681
 31
0.0
  0
LINE
  5
791E
330
18
100
AcDbEntity
  8
0
100
AcDbLine
 10
425.6783281057205
 20
221.5649593085681
 30
0.0
 11
422.6783281057205
 21
221.5649593085681
 31
0.0
  0
LINE
  5
791F
330
18
100
AcDbEntity
  8
0
100
AcDbLine
 10
420.1783281057205
 20
221.5649593085681
 30
0.0
 11
417.1783281057205
 21
221.5649593085681
 31
0.0
  0
LINE
  5
7920
330
18
100
AcDbEntity
  8
0
100
AcDbLine
 10
441.6783281057205
 20
221.5649593085681
 30
0.0
 11
442.6783281057205
 21
221.5649593085681
 31
0.0
  0
LINE
  5
7921
330
18
100
AcDbEntity
  8
0
100
AcDbLine
 10
440.6783281057205
 20
217.5649593085681
 30
0.0
 11
442.6783281057205
 21
217.5649593085681
 31
0.0
  0
LINE
  5
7922
330
18
100
AcDbEntity
  8
0
100
AcDbLine
 10
442.6783281057205
 20
216.5649593085681
 30
0.0
 11
444.6783281057205
 21
216.5649593085681
 31
0.0
  0
LINE
  5
7923
330
18
100
AcDbEntity
  8
0
100
AcDbLine
 10
441.6783281057205
 20
221.5649593085681
 30
0.0
 11
441.6783281057205
 21
217.5649593085681
 31
0.0
  0
LINE
  5
7924
330
18
100
AcDbEntity
  8
0
100
AcDbLine
 10
442.6783281057205
 20
221.5649593085681
 30
0.0
 11
442.6783281057205
 21
216.5649593085681
 31
0.0
  0
LINE
  5
7925
330
18
100
AcDbEntity
  8
0
100
AcDbLine
 10
436.6783281057205
 20
221.5649593085681
 30
0.0
 11
433.6783281057205
 21
221.5649593085681
 31
0.0
  0
LINE
  5
7926
330
18
100
AcDbEntity
  8
0
100
AcDbLine
 10
431.1783281057205
 20
262.5649593085682
 30
0.0
 11
428.1783281057205
 21
262.5649593085682
 31
0.0
  0
LINE
  5
7927
330
18
100
AcDbEntity
  8
0
100
AcDbLine
 10
425.6783281057205
 20
262.5649593085682
 30
0.0
 11
422.6783281057205
 21
262.5649593085682
 31
0.0
  0
LINE
  5
7928
330
18
100
AcDbEntity
  8
0
100
AcDbLine
 10
431.1783281057205
 20
245.5649593085681
 30
0.0
 11
428.1783281057205
 21
245.5649593085681
 31
0.0
  0
LINE
  5
7929
330
18
100
AcDbEntity
  8
0
100
AcDbLine
 10
425.6783281057205
 20
245.5649593085681
 30
0.0
 11
422.6783281057205
 21
245.5649593085681
 31
0.0
  0
LINE
  5
792A
330
18
100
AcDbEntity
  8
0
100
AcDbLine
 10
431.1783281057205
 20
245.5649593085681
 30
0.0
 11
431.1783281057205
 21
262.5649593085682
 31
0.0
  0
LINE
  5
792B
330
18
100
AcDbEntity
  8
0
100
AcDbLine
 10
420.1783281057205
 20
245.5649593085681
 30
0.0
 11
420.1783281057205
 21
262.5649593085682
 31
0.0
  0
LINE
  5
792C
330
18
100
AcDbEntity
  8
0
100
AcDbLine
 10
422.6783281057205
 20
245.5649593085681
 30
0.0
 11
422.6783281057205
 21
262.5649593085682
 31
0.0
  0
LINE
  5
792D
330
18
100
AcDbEntity
  8
0
100
AcDbLine
 10
425.6783281057205
 20
245.5649593085681
 30
0.0
 11
425.6783281057205
 21
262.5649593085682
 31
0.0
  0
LINE
  5
792E
330
18
100
AcDbEntity
  8
0
100
AcDbLine
 10
428.1783281057205
 20
245.5649593085681
 30
0.0
 11
428.1783281057205
 21
262.5649593085682
 31
0.0
  0
LINE
  5
792F
330
18
100
AcDbEntity
  8
0
100
AcDbLine
 10
431.1783281057205
 20
238.5649593085681
 30
0.0
 11
428.1783281057205
 21
238.5649593085681
 31
0.0
  0
LINE
  5
7930
330
18
100
AcDbEntity
  8
0
100
AcDbLine
 10
425.6783281057205
 20
238.5649593085681
 30
0.0
 11
422.6783281057205
 21
238.5649593085681
 31
0.0
  0
LINE
  5
7931
330
18
100
AcDbEntity
  8
0
100
AcDbLine
 10
417.1783281057205
 20
245.5649593085681
 30
0.0
 11
417.1783281057205
 21
262.5649593085682
 31
0.0
  0
LINE
  5
7932
330
18
100
AcDbEntity
  8
0
100
AcDbLine
 10
414.6783281057205
 20
245.5649593085681
 30
0.0
 11
414.6783281057205
 21
262.5649593085682
 31
0.0
  0
LINE
  5
7933
330
18
100
AcDbEntity
  8
0
100
AcDbLine
 10
420.1783281057205
 20
238.5649593085681
 30
0.0
 11
417.1783281057205
 21
238.5649593085681
 31
0.0
  0
LINE
  5
7934
330
18
100
AcDbEntity
  8
0
100
AcDbLine
 10
420.1783281057205
 20
245.5649593085681
 30
0.0
 11
417.1783281057205
 21
245.5649593085681
 31
0.0
  0
LINE
  5
7935
330
18
100
AcDbEntity
  8
0
100
AcDbLine
 10
420.1783281057205
 20
262.5649593085682
 30
0.0
 11
417.1783281057205
 21
262.5649593085682
 31
0.0
  0
LINE
  5
7936
330
18
100
AcDbEntity
  8
0
100
AcDbLine
 10
439.6783281057205
 20
265.5649593085681
 30
0.0
 11
435.6783281057205
 21
265.5649593085681
 31
0.0
  0
LINE
  5
7937
330
18
100
AcDbEntity
  8
0
100
AcDbLine
 10
439.6783281057205
 20
265.5649593085681
 30
0.0
 11
440.6783281057205
 21
264.5649593085682
 31
0.0
  0
LINE
  5
7938
330
18
100
AcDbEntity
  8
0
100
AcDbLine
 10
442.6783281057205
 20
264.5649593085682
 30
0.0
 11
444.6783281057205
 21
264.5649593085682
 31
0.0
  0
LINE
  5
7939
330
18
100
AcDbEntity
  8
0
100
AcDbLine
 10
436.6783281057205
 20
262.5649593085682
 30
0.0
 11
433.6783281057205
 21
262.5649593085682
 31
0.0
  0
LINE
  5
793A
330
18
100
AcDbEntity
  8
0
100
AcDbLine
 10
436.6783281057205
 20
245.5649593085681
 30
0.0
 11
433.6783281057205
 21
245.5649593085681
 31
0.0
  0
LINE
  5
793B
330
18
100
AcDbEntity
  8
0
100
AcDbLine
 10
436.6783281057205
 20
245.5649593085681
 30
0.0
 11
436.6783281057205
 21
262.5649593085682
 31
0.0
  0
LINE
  5
793C
330
18
100
AcDbEntity
  8
0
100
AcDbLine
 10
433.6783281057205
 20
245.5649593085681
 30
0.0
 11
433.6783281057205
 21
262.5649593085682
 31
0.0
  0
LINE
  5
793D
330
18
100
AcDbEntity
  8
0
100
AcDbLine
 10
436.6783281057205
 20
238.5649593085681
 30
0.0
 11
433.6783281057205
 21
238.5649593085681
 31
0.0
  0
LINE
  5
793E
330
18
100
AcDbEntity
  8
0
100
AcDbLine
 10
429.8783281057207
 20
273.0649593085682
 30
0.0
 11
433.4783281057204
 21
273.0649593085682
 31
0.0
  0
LINE
  5
793F
330
18
100
AcDbEntity
  8
0
100
AcDbLine
 10
425.6783281057208
 20
267.5649593085681
 30
0.0
 11
435.6783281057205
 21
267.5649593085681
 31
0.0
  0
LINE
  5
7940
330
18
100
AcDbEntity
  8
0
100
AcDbLine
 10
428.5783281057209
 20
280.9649593085605
 30
0.0
 11
429.7783281057207
 21
280.9649593085605
 31
0.0
  0
ARC
  5
7941
330
18
100
AcDbEntity
  8
0
100
AcDbCircle
 10
429.1783281057207
 20
280.9649593085682
 30
0.0
 40
0.5999999999999944
100
AcDbArc
 50
0.0
 51
180.0
  0
LINE
  5
7942
330
18
100
AcDbEntity
  8
0
100
AcDbLine
 10
423.578328105721
 20
280.9649593085682
 30
0.0
 11
424.7783281057207
 21
280.9649593085682
 31
0.0
  0
ARC
  5
7943
330
18
100
AcDbEntity
  8
0
100
AcDbCircle
 10
424.1783281057207
 20
280.9649593085682
 30
0.0
 40
0.5999999999999944
100
AcDbArc
 50
0.0
 51
180.0
  0
LINE
  5
7944
330
18
100
AcDbEntity
  8
0
100
AcDbLine
 10
418.5783281057208
 20
280.9649593085682
 30
0.0
 11
419.7783281057207
 21
280.9649593085682
 31
0.0
  0
ARC
  5
7945
330
18
100
AcDbEntity
  8
0
100
AcDbCircle
 10
419.1783281057207
 20
280.9649593085682
 30
0.0
 40
0.5999999999999944
100
AcDbArc
 50
0.0
 51
180.0
  0
LINE
  5
7946
330
18
100
AcDbEntity
  8
0
100
AcDbLine
 10
419.8783281057208
 20
273.0649593085682
 30
0.0
 11
423.4783281057207
 21
273.0649593085682
 31
0.0
  0
LINE
  5
7947
330
18
100
AcDbEntity
  8
0
100
AcDbLine
 10
424.8783281057208
 20
273.0649593085682
 30
0.0
 11
428.4783281057205
 21
273.0649593085682
 31
0.0
  0
LINE
  5
7948
330
18
100
AcDbEntity
  8
0
100
AcDbLine
 10
428.5783281057208
 20
280.9649593085682
 30
0.0
 11
428.4783281057207
 21
273.0649593085682
 31
0.0
  0
LINE
  5
7949
330
18
100
AcDbEntity
  8
0
100
AcDbLine
 10
419.8783281057208
 20
273.0649593085682
 30
0.0
 11
419.7783281057207
 21
280.9649593085682
 31
0.0
  0
LINE
  5
794A
330
18
100
AcDbEntity
  8
0
100
AcDbLine
 10
424.8783281057208
 20
273.0649593085682
 30
0.0
 11
424.7783281057206
 21
280.9649593085682
 31
0.0
  0
LINE
  5
794B
330
18
100
AcDbEntity
  8
0
100
AcDbLine
 10
423.5783281057208
 20
280.9649593085682
 30
0.0
 11
423.4783281057207
 21
273.0649593085682
 31
0.0
  0
LINE
  5
794C
330
18
100
AcDbEntity
  8
0
100
AcDbLine
 10
418.5783281057208
 20
280.9649593085682
 30
0.0
 11
418.4783281057207
 21
273.0649593085682
 31
0.0
  0
LINE
  5
794D
330
18
100
AcDbEntity
  8
0
100
AcDbLine
 10
429.8783281057207
 20
273.0649593085682
 30
0.0
 11
429.7783281057206
 21
280.9649593085682
 31
0.0
  0
LINE
  5
794E
330
18
100
AcDbEntity
  8
0
100
AcDbLine
 10
414.8783281057208
 20
273.0649593085682
 30
0.0
 11
414.7783281057206
 21
280.9649593085682
 31
0.0
  0
LINE
  5
794F
330
18
100
AcDbEntity
  8
0
100
AcDbLine
 10
414.8783281057208
 20
273.0649593085682
 30
0.0
 11
418.4783281057205
 21
273.0649593085682
 31
0.0
  0
LINE
  5
7950
330
18
100
AcDbEntity
  8
0
100
AcDbLine
 10
443.5783281057206
 20
280.964959308568
 30
0.0
 11
444.6783281057205
 21
280.964959308568
 31
0.0
  0
ARC
  5
7951
330
18
100
AcDbEntity
  8
0
100
AcDbCircle
 10
444.1783281057205
 20
280.9649593085682
 30
0.0
 40
0.5999999999999944
100
AcDbArc
 50
33.5573097619112
 51
180.0
  0
LINE
  5
7952
330
18
100
AcDbEntity
  8
0
100
AcDbLine
 10
438.5783281057208
 20
280.9649593085682
 30
0.0
 11
439.7783281057207
 21
280.9649593085682
 31
0.0
  0
ARC
  5
7953
330
18
100
AcDbEntity
  8
0
100
AcDbCircle
 10
439.1783281057207
 20
280.9649593085682
 30
0.0
 40
0.5999999999999944
100
AcDbArc
 50
0.0
 51
180.0
  0
LINE
  5
7954
330
18
100
AcDbEntity
  8
0
100
AcDbLine
 10
439.8783281057208
 20
273.0649593085682
 30
0.0
 11
443.4783281057205
 21
273.0649593085682
 31
0.0
  0
LINE
  5
7955
330
18
100
AcDbEntity
  8
0
100
AcDbLine
 10
438.5783281057208
 20
280.9649593085682
 30
0.0
 11
438.4783281057207
 21
273.0649593085682
 31
0.0
  0
LINE
  5
7956
330
18
100
AcDbEntity
  8
0
100
AcDbLine
 10
439.8783281057208
 20
273.0649593085682
 30
0.0
 11
439.7783281057207
 21
280.9649593085682
 31
0.0
  0
LINE
  5
7957
330
18
100
AcDbEntity
  8
0
100
AcDbLine
 10
443.5783281057206
 20
280.964959308568
 30
0.0
 11
443.4783281057205
 21
273.0649593085682
 31
0.0
  0
LINE
  5
7958
330
18
100
AcDbEntity
  8
0
100
AcDbLine
 10
433.5783281057208
 20
280.9649593085682
 30
0.0
 11
434.7783281057206
 21
280.9649593085682
 31
0.0
  0
ARC
  5
7959
330
18
100
AcDbEntity
  8
0
100
AcDbCircle
 10
434.1783281057208
 20
280.9649593085682
 30
0.0
 40
0.5999999999999944
100
AcDbArc
 50
0.0
 51
180.0
  0
LINE
  5
795A
330
18
100
AcDbEntity
  8
0
100
AcDbLine
 10
433.5783281057208
 20
280.9649593085682
 30
0.0
 11
433.4783281057207
 21
273.0649593085682
 31
0.0
  0
LINE
  5
795B
330
18
100
AcDbEntity
  8
0
100
AcDbLine
 10
434.8783281057207
 20
273.0649593085682
 30
0.0
 11
434.7783281057206
 21
280.9649593085682
 31
0.0
  0
LINE
  5
795C
330
18
100
AcDbEntity
  8
0
100
AcDbLine
 10
434.878328105721
 20
273.0649593085682
 30
0.0
 11
438.4783281057204
 21
273.0649593085682
 31
0.0
  0
ARC
  5
795D
330
18
100
AcDbEntity
  8
0
100
AcDbCircle
 10
443.6783281057205
 20
268.5649593085681
 30
0.0
 40
1.0
100
AcDbArc
 50
0.0
 51
90.0
  0
LINE
  5
795E
330
18
100
AcDbEntity
  8
0
100
AcDbLine
 10
444.6783281057205
 20
281.2966217876034
 30
0.0
 11
444.6783281057205
 21
269.5649593085681
 31
0.0
  0
LINE
  5
7A8F
330
18
100
AcDbEntity
  8
0
100
AcDbLine
 10
175.0170338591212
 20
14.09101221861453
 30
0.0
 11
175.0170338591212
 21
16.00633444941957
 31
0.0
  0
LINE
  5
7A90
330
18
100
AcDbEntity
  8
0
100
AcDbLine
 10
173.6837005257879
 20
14.09101221861453
 30
0.0
 11
173.6837005257879
 21
16.00633444941957
 31
0.0
  0
CIRCLE
  5
7A91
330
18
100
AcDbEntity
  8
0
100
AcDbCircle
 10
174.3503671924545
 20
16.67300111608631
 30
0.0
 40
3.333333333333333
  0
CIRCLE
  5
7A92
330
18
100
AcDbEntity
  8
0
100
AcDbCircle
 10
174.3503671924545
 20
16.67300111608631
 30
0.0
 40
4.0
  0
ARC
  5
7A93
330
18
100
AcDbEntity
  8
0
100
AcDbCircle
 10
174.3503671924545
 20
16.67300111608631
 30
0.0
 40
2.666666666666666
100
AcDbArc
 50
255.52248781407
 51
284.4775121859298
  0
LINE
  5
7A94
330
18
100
AcDbEntity
  8
0
100
AcDbLine
 10
171.7683782949834
 20
16.00633444941957
 30
0.0
 11
173.6837005257879
 21
16.00633444941957
 31
0.0
  0
LINE
  5
7A95
330
18
100
AcDbEntity
  8
0
100
AcDbLine
 10
171.7683782949834
 20
17.33966778275305
 30
0.0
 11
173.6837005257879
 21
17.33966778275305
 31
0.0
  0
ARC
  5
7A96
330
18
100
AcDbEntity
  8
0
100
AcDbCircle
 10
174.3503671924545
 20
16.67300111608631
 30
0.0
 40
2.666666666666666
100
AcDbArc
 50
165.5224878140705
 51
194.4775121859294
  0
ARC
  5
7A97
330
18
100
AcDbEntity
  8
0
100
AcDbCircle
 10
174.3503671924545
 20
16.67300111608631
 30
0.0
 40
2.666666666666666
100
AcDbArc
 50
345.5224878140705
 51
14.47751218592947
  0
LINE
  5
7A98
330
18
100
AcDbEntity
  8
0
100
AcDbLine
 10
175.0170338591212
 20
16.00633444941957
 30
0.0
 11
176.9323560899263
 21
16.00633444941957
 31
0.0
  0
LINE
  5
7A99
330
18
100
AcDbEntity
  8
0
100
AcDbLine
 10
175.0170338591212
 20
17.33966778275305
 30
0.0
 11
175.0170338591212
 21
19.25499001355808
 31
0.0
  0
LINE
  5
7A9A
330
18
100
AcDbEntity
  8
0
100
AcDbLine
 10
175.0170338591212
 20
17.33966778275305
 30
0.0
 11
176.9323560899263
 21
17.33966778275305
 31
0.0
  0
LINE
  5
7A9B
330
18
100
AcDbEntity
  8
0
100
AcDbLine
 10
173.6837005257879
 20
17.33966778275305
 30
0.0
 11
173.6837005257879
 21
19.25499001355808
 31
0.0
  0
ARC
  5
7A9C
330
18
100
AcDbEntity
  8
0
100
AcDbCircle
 10
174.3503671924545
 20
16.67300111608631
 30
0.0
 40
2.666666666666666
100
AcDbArc
 50
75.52248781407008
 51
104.4775121859299
  0
LINE
  5
7A9D
330
18
100
AcDbEntity
  8
0
100
AcDbLine
 10
164.0170338591213
 20
14.09101221861453
 30
0.0
 11
164.0170338591213
 21
16.00633444941957
 31
0.0
  0
LINE
  5
7A9E
330
18
100
AcDbEntity
  8
0
100
AcDbLine
 10
162.6837005257879
 20
14.09101221861453
 30
0.0
 11
162.6837005257879
 21
16.00633444941957
 31
0.0
  0
CIRCLE
  5
7A9F
330
18
100
AcDbEntity
  8
0
100
AcDbCircle
 10
163.3503671924545
 20
16.67300111608631
 30
0.0
 40
3.333333333333333
  0
CIRCLE
  5
7AA0
330
18
100
AcDbEntity
  8
0
100
AcDbCircle
 10
163.3503671924545
 20
16.67300111608631
 30
0.0
 40
4.0
  0
ARC
  5
7AA1
330
18
100
AcDbEntity
  8
0
100
AcDbCircle
 10
163.3503671924545
 20
16.67300111608631
 30
0.0
 40
2.666666666666666
100
AcDbArc
 50
255.52248781407
 51
284.4775121859298
  0
LINE
  5
7AA2
330
18
100
AcDbEntity
  8
0
100
AcDbLine
 10
160.7683782949834
 20
16.00633444941957
 30
0.0
 11
162.6837005257879
 21
16.00633444941957
 31
0.0
  0
LINE
  5
7AA3
330
18
100
AcDbEntity
  8
0
100
AcDbLine
 10
160.7683782949834
 20
17.33966778275305
 30
0.0
 11
162.6837005257879
 21
17.33966778275305
 31
0.0
  0
ARC
  5
7AA4
330
18
100
AcDbEntity
  8
0
100
AcDbCircle
 10
163.3503671924545
 20
16.67300111608631
 30
0.0
 40
2.666666666666666
100
AcDbArc
 50
165.5224878140705
 51
194.4775121859294
  0
ARC
  5
7AA5
330
18
100
AcDbEntity
  8
0
100
AcDbCircle
 10
163.3503671924545
 20
16.67300111608631
 30
0.0
 40
2.666666666666666
100
AcDbArc
 50
345.5224878140705
 51
14.47751218592947
  0
LINE
  5
7AA6
330
18
100
AcDbEntity
  8
0
100
AcDbLine
 10
164.0170338591213
 20
16.00633444941957
 30
0.0
 11
165.9323560899263
 21
16.00633444941957
 31
0.0
  0
LINE
  5
7AA7
330
18
100
AcDbEntity
  8
0
100
AcDbLine
 10
164.0170338591213
 20
17.33966778275305
 30
0.0
 11
164.0170338591213
 21
19.25499001355808
 31
0.0
  0
LINE
  5
7AA8
330
18
100
AcDbEntity
  8
0
100
AcDbLine
 10
164.0170338591213
 20
17.33966778275305
 30
0.0
 11
165.9323560899263
 21
17.33966778275305
 31
0.0
  0
LINE
  5
7AA9
330
18
100
AcDbEntity
  8
0
100
AcDbLine
 10
162.6837005257879
 20
17.33966778275305
 30
0.0
 11
162.6837005257879
 21
19.25499001355808
 31
0.0
  0
ARC
  5
7AAA
330
18
100
AcDbEntity
  8
0
100
AcDbCircle
 10
163.3503671924545
 20
16.67300111608631
 30
0.0
 40
2.666666666666666
100
AcDbArc
 50
75.52248781407008
 51
104.4775121859299
  0
MTEXT
  5
7C34
330
18
100
AcDbEntity
  8
0
100
AcDbMText
 10
155.8890181457315
 20
126.0838388751046
 30
0.0
 40
4.0
 41
0.0
 71
     1
 72
     5
  1
AC100V
  7
MSｺﾞｼｯｸ
 73
     1
 44
1.0
  0
LWPOLYLINE
  5
7C69
330
18
100
AcDbEntity
  8
0
100
AcDbPolyline
 90
        4
 70
     1
 43
0.0
 10
154.4133626021609
 20
127.1067510357925
 10
172.72125897925
 20
127.1067510357925
 10
172.72125897925
 20
120.6687781642979
 10
154.4133626021609
 20
120.6687781642979
  0
LINE
  5
7CD8
330
18
100
AcDbEntity
  8
0
100
AcDbLine
 10
171.8503671924545
 20
114.173001116086
 30
0.0
 11
156.3503671924545
 21
114.173001116086
 31
0.0
  0
LINE
  5
7CD9
330
18
100
AcDbEntity
  8
0
100
AcDbLine
 10
171.8503671924545
 20
59.67300111608631
 30
0.0
 11
156.3503671924545
 21
59.67300111608631
 31
0.0
  0
INSERT
  5
7CDA
330
18
100
AcDbEntity
  8
0
100
AcDbBlockReference
  2
A$C5A3A0BB0
 10
157.2966498660193
 20
61.45447746838261
 30
0.0
  0
CIRCLE
  5
7CDB
330
18
100
AcDbEntity
  8
0
100
AcDbCircle
 10
174.3503671924545
 20
16.67300111608631
 30
0.0
 40
4.0
  0
MTEXT
  5
7CDC
330
18
100
AcDbEntity
  8
0
100
AcDbMText
 10
150.6553068327517
 20
91.28164493268071
 30
0.0
 40
3.0
 41
4.654799999999999
 71
     1
 72
     5
  1
B2
  7
MSｺﾞｼｯｸ
 73
     1
 44
1.0
  0
LINE
  5
7CDD
330
18
100
AcDbEntity
  8
0
100
AcDbLine
 10
156.3503671924545
 20
59.67300111608631
 30
0.0
 11
156.3503671924545
 21
114.173001116086
 31
0.0
  0
LINE
  5
7CDE
330
18
100
AcDbEntity
  8
0
100
AcDbLine
 10
156.3503671924545
 20
59.67300111608643
 30
0.0
 11
156.3503671924545
 21
114.173001116086
 31
0.0
  0
LINE
  5
7CDF
330
18
100
AcDbEntity
  8
0
370
    40
100
AcDbLine
 10
152.8503671924545
 20
14.67300111608625
 30
0.0
 11
151.8503671924545
 21
14.67300111608625
 31
0.0
  0
LINE
  5
7CE0
330
18
100
AcDbEntity
  8
0
370
    40
100
AcDbLine
 10
154.3503671924545
 20
17.07300111608617
 30
0.0
 11
150.3503671924545
 21
17.07300111608623
 31
0.0
  0
LINE
  5
7CE1
330
18
100
AcDbEntity
  8
0
370
    40
100
AcDbLine
 10
153.6003671924545
 20
15.87300111608624
 30
0.0
 11
151.1003671924545
 21
15.87300111608624
 31
0.0
  0
CIRCLE
  5
7CE2
330
18
100
AcDbEntity
  8
0
370
    40
100
AcDbCircle
 10
152.3503671924545
 20
16.67300111608631
 30
0.0
 40
3.0
  0
LINE
  5
7CE3
330
18
100
AcDbEntity
  8
0
370
    40
100
AcDbLine
 10
152.3503671924545
 20
18.67300111608637
 30
0.0
 11
152.3503671924545
 21
17.07300111608617
 31
0.0
  0
LINE
  5
7CE4
330
18
100
AcDbEntity
  8
0
100
AcDbLine
 10
164.0170338591213
 20
16.00633444941957
 30
0.0
 11
165.9323560899263
 21
16.00633444941957
 31
0.0
  0
LINE
  5
7CE5
330
18
100
AcDbEntity
  8
0
100
AcDbLine
 10
164.0170338591213
 20
17.33966778275305
 30
0.0
 11
165.9323560899263
 21
17.33966778275305
 31
0.0
  0
CIRCLE
  5
7CE6
330
18
100
AcDbEntity
  8
0
100
AcDbCircle
 10
163.3503671924545
 20
16.67300111608631
 30
0.0
 40
3.333333333333333
  0
CIRCLE
  5
7CE7
330
18
100
AcDbEntity
  8
0
100
AcDbCircle
 10
163.3503671924545
 20
16.67300111608631
 30
0.0
 40
4.0
  0
LINE
  5
7CE8
330
18
100
AcDbEntity
  8
0
100
AcDbLine
 10
164.0170338591213
 20
14.09101221861453
 30
0.0
 11
164.0170338591213
 21
16.00633444941957
 31
0.0
  0
LINE
  5
7CE9
330
18
100
AcDbEntity
  8
0
100
AcDbLine
 10
162.6837005257879
 20
14.09101221861453
 30
0.0
 11
162.6837005257879
 21
16.00633444941957
 31
0.0
  0
ARC
  5
7CEA
330
18
100
AcDbEntity
  8
0
100
AcDbCircle
 10
163.3503671924545
 20
16.67300111608631
 30
0.0
 40
2.666666666666666
100
AcDbArc
 50
255.52248781407
 51
284.4775121859298
  0
LINE
  5
7CEB
330
18
100
AcDbEntity
  8
0
100
AcDbLine
 10
164.0170338591213
 20
17.33966778275305
 30
0.0
 11
164.0170338591213
 21
19.25499001355808
 31
0.0
  0
LINE
  5
7CEC
330
18
100
AcDbEntity
  8
0
100
AcDbLine
 10
162.6837005257879
 20
17.33966778275305
 30
0.0
 11
162.6837005257879
 21
19.25499001355808
 31
0.0
  0
ARC
  5
7CED
330
18
100
AcDbEntity
  8
0
100
AcDbCircle
 10
163.3503671924545
 20
16.67300111608631
 30
0.0
 40
2.666666666666666
100
AcDbArc
 50
75.52248781407015
 51
104.4775121859298
  0
ARC
  5
7CEE
330
18
100
AcDbEntity
  8
0
100
AcDbCircle
 10
163.3503671924545
 20
16.67300111608631
 30
0.0
 40
2.666666666666666
100
AcDbArc
 50
165.5224878140701
 51
194.4775121859298
  0
LINE
  5
7CEF
330
18
100
AcDbEntity
  8
0
100
AcDbLine
 10
160.7683782949834
 20
16.00633444941957
 30
0.0
 11
162.6837005257879
 21
16.00633444941957
 31
0.0
  0
LINE
  5
7CF0
330
18
100
AcDbEntity
  8
0
100
AcDbLine
 10
160.7683782949834
 20
17.33966778275305
 30
0.0
 11
162.6837005257879
 21
17.33966778275305
 31
0.0
  0
ARC
  5
7CF1
330
18
100
AcDbEntity
  8
0
100
AcDbCircle
 10
163.3503671924545
 20
16.67300111608631
 30
0.0
 40
2.666666666666666
100
AcDbArc
 50
345.5224878140701
 51
14.47751218592986
  0
LINE
  5
7CF2
330
18
100
AcDbEntity
  8
0
100
AcDbLine
 10
169.8503671924545
 20
59.67300111608643
 30
0.0
 11
156.3503671924545
 21
59.67300111608643
 31
0.0
  0
MTEXT
  5
7CF3
330
18
100
AcDbEntity
  8
0
100
AcDbMText
 10
151.1683584188091
 20
74.5535036589705
 30
0.0
 40
3.0
 41
4.654799999999999
 71
     1
 72
     5
  1
W
  7
MSｺﾞｼｯｸ
 73
     1
 44
1.0
  0
MTEXT
  5
7CF4
330
18
100
AcDbEntity
  8
0
100
AcDbMText
 10
151.5348325267892
 20
79.74931655659304
 30
0.0
 40
3.0
 41
4.654799999999999
 71
     1
 72
     5
  1
V
  7
MSｺﾞｼｯｸ
 73
     1
 44
1.0
  0
MTEXT
  5
7CF5
330
18
100
AcDbEntity
  8
0
100
AcDbMText
 10
151.6081212658288
 20
85.24931655659305
 30
0.0
 40
3.0
 41
4.654799999999999
 71
     1
 72
     5
  1
U
  7
MSｺﾞｼｯｸ
 73
     1
 44
1.0
  0
LINE
  5
7CF6
330
18
100
AcDbEntity
  8
0
100
AcDbLine
 10
169.8503671924545
 20
114.173001116086
 30
0.0
 11
156.3503671924545
 21
114.173001116086
 31
0.0
  0
MTEXT
  5
7CF7
330
18
100
AcDbEntity
  8
0
100
AcDbMText
 10
151.6081212658288
 20
107.6295494876377
 30
0.0
 40
3.0
 41
4.654799999999999
 71
     1
 72
     5
  1
S
  7
MSｺﾞｼｯｸ
 73
     1
 44
1.0
  0
MTEXT
  5
7CF9
330
18
100
AcDbEntity
  8
0
100
AcDbMText
 10
150.5087232721167
 20
96.62954948763776
 30
0.0
 40
3.0
 41
4.654799999999999
 71
     1
 72
     5
  1
B1
  7
MSｺﾞｼｯｸ
 73
     1
 44
1.0
  0
MTEXT
  5
7CFA
330
18
100
AcDbEntity
  8
0
100
AcDbMText
 10
151.6081212658288
 20
112.9774578303032
 30
0.0
 40
3.0
 41
4.654799999999999
 71
     1
 72
     5
  1
R
  7
MSｺﾞｼｯｸ
 73
     1
 44
1.0
  0
MTEXT
  5
7CFB
330
18
100
AcDbEntity
  8
0
100
AcDbMText
 10
160.4244770994832
 20
119.5034996940252
 30
0.0
 40
4.0
 41
13.7408
 71
     1
 72
     5
  1
TB2
  7
MSｺﾞｼｯｸ
 73
     1
 44
1.0
  0
LINE
  5
7CFC
330
18
100
AcDbEntity
  8
0
100
AcDbLine
 10
177.3503671924545
 20
19.17300111608642
 30
0.0
 11
177.3503671924577
 21
97.17300111608631
 31
0.0
  0
INSERT
  5
7CFD
330
18
100
AcDbEntity
  8
0
100
AcDbBlockReference
  2
A$C57095CDF
 10
182.0253672184812
 20
65.24800120313523
 30
0.0
  0
INSERT
  5
7CFE
330
18
100
AcDbEntity
  8
0
100
AcDbBlockReference
  2
A$C3A6E1F00
 10
182.0253672184812
 20
21.27300159621416
 30
0.0
  0
LINE
  5
7CFF
330
18
100
AcDbEntity
  8
0
100
AcDbLine
 10
177.3503671924545
 20
19.17300111608642
 30
0.0
 11
194.8503671924545
 21
19.17300111608637
 31
0.0
  0
LINE
  5
7D00
330
18
100
AcDbEntity
  8
0
100
AcDbLine
 10
175.0170338591212
 20
16.00633444941957
 30
0.0
 11
176.9323560899263
 21
16.00633444941957
 31
0.0
  0
LINE
  5
7D01
330
18
100
AcDbEntity
  8
0
100
AcDbLine
 10
175.0170338591212
 20
17.33966778275305
 30
0.0
 11
176.9323560899263
 21
17.33966778275305
 31
0.0
  0
CIRCLE
  5
7D02
330
18
100
AcDbEntity
  8
0
100
AcDbCircle
 10
174.3503671924545
 20
16.67300111608631
 30
0.0
 40
3.333333333333333
  0
LINE
  5
7D03
330
18
100
AcDbEntity
  8
0
100
AcDbLine
 10
175.0170338591212
 20
14.09101221861453
 30
0.0
 11
175.0170338591212
 21
16.00633444941957
 31
0.0
  0
LINE
  5
7D04
330
18
100
AcDbEntity
  8
0
100
AcDbLine
 10
175.0170338591212
 20
17.33966778275305
 30
0.0
 11
175.0170338591212
 21
19.25499001355808
 31
0.0
  0
LINE
  5
7D05
330
18
100
AcDbEntity
  8
0
100
AcDbLine
 10
173.6837005257879
 20
14.09101221861453
 30
0.0
 11
173.6837005257879
 21
16.00633444941957
 31
0.0
  0
LINE
  5
7D06
330
18
100
AcDbEntity
  8
0
100
AcDbLine
 10
171.7683782949834
 20
16.00633444941957
 30
0.0
 11
173.6837005257879
 21
16.00633444941957
 31
0.0
  0
LINE
  5
7D07
330
18
100
AcDbEntity
  8
0
100
AcDbLine
 10
171.7683782949834
 20
17.33966778275305
 30
0.0
 11
173.6837005257879
 21
17.33966778275305
 31
0.0
  0
ARC
  5
7D08
330
18
100
AcDbEntity
  8
0
100
AcDbCircle
 10
174.3503671924545
 20
16.67300111608631
 30
0.0
 40
2.666666666666666
100
AcDbArc
 50
165.5224878140701
 51
194.4775121859298
  0
LINE
  5
7D09
330
18
100
AcDbEntity
  8
0
100
AcDbLine
 10
173.6837005257879
 20
17.33966778275305
 30
0.0
 11
173.6837005257879
 21
19.25499001355808
 31
0.0
  0
ARC
  5
7D0A
330
18
100
AcDbEntity
  8
0
100
AcDbCircle
 10
174.3503671924545
 20
16.67300111608631
 30
0.0
 40
2.666666666666666
100
AcDbArc
 50
255.52248781407
 51
284.4775121859298
  0
ARC
  5
7D0B
330
18
100
AcDbEntity
  8
0
100
AcDbCircle
 10
174.3503671924545
 20
16.67300111608631
 30
0.0
 40
2.666666666666666
100
AcDbArc
 50
75.52248781407015
 51
104.4775121859298
  0
ARC
  5
7D0C
330
18
100
AcDbEntity
  8
0
100
AcDbCircle
 10
174.3503671924545
 20
16.67300111608631
 30
0.0
 40
2.666666666666666
100
AcDbArc
 50
345.5224878140701
 51
14.47751218592986
  0
LINE
  5
7D0D
330
18
100
AcDbEntity
  8
0
100
AcDbLine
 10
191.3503671924545
 20
21.37300111608635
 30
0.0
 11
191.3503671924545
 21
19.17300111608637
 31
0.0
  0
MTEXT
  5
7D0E
330
18
100
AcDbEntity
  8
0
100
AcDbMText
 10
176.5521345120572
 20
43.87582538531126
 30
0.0
 40
2.399999999999999
 41
7.047999999999999
 71
     3
 72
     5
  1
CN1
  7
MSｺﾞｼｯｸ
 73
     1
 44
1.0
  0
LINE
  5
7D0F
330
18
100
AcDbEntity
  8
0
100
AcDbLine
 10
171.8503671924545
 20
61.55447744422088
 30
0.0
 11
171.8503671924545
 21
59.67300111608631
 31
0.0
  0
MTEXT
  5
7D10
330
18
100
AcDbEntity
  8
0
100
AcDbMText
 10
177.0632518447313
 20
81.9359211724128
 30
0.0
 40
2.399999999999999
 41
7.047999999999999
 71
     3
 72
     5
  1
CN2
  7
MSｺﾞｼｯｸ
 73
     1
 44
1.0
  0
INSERT
  5
7D11
330
18
100
AcDbEntity
  8
0
100
AcDbBlockReference
  2
A$C2F696F30
 10
174.9503664272904
 20
98.82300130946862
 30
0.0
  0
LINE
  5
7D12
330
18
100
AcDbEntity
  8
0
100
AcDbLine
 10
174.3503671924545
 20
114.1730011160865
 30
0.0
 11
174.3503671924524
 21
97.17300111608659
 31
0.0
  0
LINE
  5
7D13
330
18
100
AcDbEntity
  8
0
100
AcDbLine
 10
177.3503671924577
 20
97.17300111608631
 30
0.0
 11
174.3503671924524
 21
97.17300111608659
 31
0.0
  0
MTEXT
  5
7D14
330
18
100
AcDbEntity
  8
0
100
AcDbMText
 10
176.1086978001207
 20
95.49601695951389
 30
0.0
 40
2.399999999999999
 41
7.047999999999999
 71
     3
 72
     5
  1
J2
  7
MSｺﾞｼｯｸ
 73
     1
 44
1.0
  0
LINE
  5
7D15
330
18
100
AcDbEntity
  8
0
100
AcDbLine
 10
174.3503671924545
 20
114.1730011160865
 30
0.0
 11
177.3503671924545
 21
114.1730011160865
 31
0.0
  0
LINE
  5
7D16
330
18
100
AcDbEntity
  8
0
100
AcDbLine
 10
171.8503671924545
 20
114.173001116086
 30
0.0
 11
171.8503671924545
 21
112.5544774442208
 31
0.0
  0
INSERT
  5
7D17
330
18
100
AcDbEntity
  8
0
100
AcDbBlockReference
  2
A$C444F17A9
 10
183.7253665847572
 20
145.5730006300597
 30
0.0
  0
INSERT
  5
7D18
330
18
100
AcDbEntity
  8
0
100
AcDbBlockReference
  2
A$C6C1277F2
 10
182.0253672184812
 20
113.3980015986513
 30
0.0
  0
LINE
  5
7D19
330
18
100
AcDbEntity
  8
0
100
AcDbLine
 10
171.8503671924545
 20
148.6730011160865
 30
0.0
 11
156.3503671924545
 21
148.6730011160863
 31
0.0
  0
LINE
  5
7D1A
330
18
100
AcDbEntity
  8
0
100
AcDbLine
 10
171.8503671924545
 20
130.1730011160863
 30
0.0
 11
156.3503671924545
 21
130.1730011160863
 31
0.0
  0
INSERT
  5
7D1B
330
18
100
AcDbEntity
  8
0
100
AcDbBlockReference
  2
A$C3413120B
 10
157.2679648055334
 20
131.3162694862658
 30
0.0
  0
MTEXT
  5
7D1C
330
18
100
AcDbEntity
  8
0
100
AcDbMText
 10
149.0763487789473
 20
69.28076777942806
 30
0.0
 40
3.0
 41
4.654799999999999
 71
     1
 72
     5
  1
DBK
  7
MSｺﾞｼｯｸ
 73
     1
 44
1.0
  0
MTEXT
  5
7D1D
330
18
100
AcDbEntity
  8
0
100
AcDbMText
 10
149.0417133410566
 20
63.96455254937382
 30
0.0
 40
3.0
 41
4.654799999999999
 71
     1
 72
     5
  1
DBC
  7
MSｺﾞｼｯｸ
 73
     1
 44
1.0
  0
LINE
  5
7D1E
330
18
100
AcDbEntity
  8
0
100
AcDbLine
 10
169.8503671924545
 20
148.6730011160865
 30
0.0
 11
156.3503671924545
 21
148.6730011160863
 31
0.0
  0
LINE
  5
7D1F
330
18
100
AcDbEntity
  8
0
100
AcDbLine
 10
169.8503671924545
 20
130.1730011160863
 30
0.0
 11
156.3503671924545
 21
130.1730011160863
 31
0.0
  0
LINE
  5
7D20
330
18
100
AcDbEntity
  8
0
100
AcDbLine
 10
156.3503671924545
 20
148.6730011160863
 30
0.0
 11
156.3503671924545
 21
130.1730011160863
 31
0.0
  0
LINE
  5
7D21
330
18
100
AcDbEntity
  8
0
100
AcDbLine
 10
156.3503671924545
 20
148.6730011160863
 30
0.0
 11
156.3503671924545
 21
130.1730011160863
 31
0.0
  0
MTEXT
  5
7D22
330
18
100
AcDbEntity
  8
0
100
AcDbMText
 10
151.7547048264638
 20
141.2082241271148
 30
0.0
 40
3.299999999999999
 41
4.654799999999999
 71
     1
 72
     5
  1
s
  7
MSｺﾞｼｯｸ
 73
     1
 44
1.0
  0
MTEXT
  5
7D23
330
18
100
AcDbEntity
  8
0
100
AcDbMText
 10
151.9829528082397
 20
146.7082241271148
 30
0.0
 40
3.299999999999999
 41
4.654799999999999
 71
     1
 72
     5
  1
r
  7
MSｺﾞｼｯｸ
 73
     1
 44
1.0
  0
MTEXT
  5
7D24
330
18
100
AcDbEntity
  8
0
100
AcDbMText
 10
160.4244770994832
 20
154.0034996940252
 30
0.0
 40
4.0
 41
13.7408
 71
     1
 72
     5
  1
TB1
  7
MSｺﾞｼｯｸ
 73
     1
 44
1.0
  0
LINE
  5
7D25
330
18
100
AcDbEntity
  8
0
100
AcDbLine
 10
192.8503671924545
 20
164.1730011160863
 30
0.0
 11
192.8503671924545
 21
19.17300111608637
 31
0.0
  0
LINE
  5
7D26
330
18
100
AcDbEntity
  8
0
100
AcDbLine
 10
194.8503671924545
 20
165.1730011160863
 30
0.0
 11
194.8503671924545
 21
19.17300111608637
 31
0.0
  0
LINE
  5
7D27
330
18
100
AcDbEntity
  8
0
100
AcDbLine
 10
177.3503671924545
 20
165.1730011160863
 30
0.0
 11
177.3503671924545
 21
114.1730011160863
 31
0.0
  0
LINE
  5
7D28
330
18
100
AcDbEntity
  8
0
100
AcDbLine
 10
177.3503671924545
 20
156.9230011160863
 30
0.0
 11
183.8253671924545
 21
156.9230011160863
 31
0.0
  0
MTEXT
  5
7D2A
330
18
100
AcDbEntity
  8
0
100
AcDbMText
 10
175.5042983608895
 20
129.1955418117159
 30
0.0
 40
2.399999999999999
 41
7.047999999999999
 71
     3
 72
     5
  1
J1
  7
MSｺﾞｼｯｸ
 73
     1
 44
1.0
  0
LINE
  5
7D2B
330
18
100
AcDbEntity
  8
0
100
AcDbLine
 10
171.8503671924545
 20
130.1730011160863
 30
0.0
 11
171.8503671924545
 21
131.3162694862658
 31
0.0
  0
LINE
  5
7D2C
330
18
100
AcDbEntity
  8
0
100
AcDbLine
 10
171.8503671924545
 20
148.6730011160865
 30
0.0
 11
171.8503671924545
 21
147.3409314957336
 31
0.0
  0
LINE
  5
7D2D
330
18
100
AcDbEntity
  8
0
100
AcDbLine
 10
177.3503671924545
 20
159.6730011160863
 30
0.0
 11
191.3503671924545
 21
159.6730011160863
 31
0.0
  0
LINE
  5
7D2E
330
18
100
AcDbEntity
  8
0
100
AcDbLine
 10
177.3503671924545
 20
162.4230011160863
 30
0.0
 11
191.3503671924545
 21
162.4230011160863
 31
0.0
  0
LINE
  5
7D2F
330
18
100
AcDbEntity
  8
0
100
AcDbLine
 10
194.8503671924545
 20
165.1730011160863
 30
0.0
 11
177.3503671924545
 21
165.1730011160863
 31
0.0
  0
LINE
  5
7D30
330
18
100
AcDbEntity
  8
0
100
AcDbLine
 10
191.3503671924545
 20
164.1730011160863
 30
0.0
 11
192.8503671924545
 21
164.1730011160863
 31
0.0
  0
LINE
  5
7D31
330
18
100
AcDbEntity
  8
0
100
AcDbLine
 10
191.3503671924545
 20
158.6730011160863
 30
0.0
 11
191.3503671924545
 21
164.1730011160863
 31
0.0
  0
LWPOLYLINE
  5
7D4E
330
18
100
AcDbEntity
  8
0
100
AcDbPolyline
 90
        4
 70
     1
 43
0.0
 10
150.0992095227784
 20
102.9417810902015
 10
154.4842192731547
 20
102.9417810902015
 10
154.4842192731547
 20
98.55677133982517
 10
150.0992095227784
 20
98.55677133982517
  0
MTEXT
  5
7D69
330
18
100
AcDbEntity
  8
0
100
AcDbMText
 10
440.0022992644356
 20
-50.50660934655959
 30
0.0
 40
6.0
 41
39.7426
 71
     1
 72
     5
  1
VC外形図
  7
MSｺﾞｼｯｸ
 73
     1
 44
1.0
  0
TEXT
  5
7D6A
330
18
100
AcDbEntity
  8
0
100
AcDbText
 10
386.2263071557222
 20
-44.94706130758276
 30
0.0
 40
6.0
  1
ＮＣＲ－＊Ａ＊＊Ａ１Ｅ－２０１　＊（－Ｈ、－Ｓ＊＊）
 41
0.6
  7
MSｺﾞｼｯｸ
100
AcDbText
  0
TEXT
  5
7D6B
330
18
100
AcDbEntity
  8
0
100
AcDbText
 10
439.676111510102
 20
-67.37257327715702
 30
0.0
 40
7.0
  1
ＳＥ－４７７３１
 41
0.9529999999999999
  7
MSｺﾞｼｯｸ
100
AcDbText
  0
VIEWPORT
  5
7D74
330
7D6D
100
AcDbEntity
 67
     1
  8
0
100
AcDbViewport
 10
142.5892486572265
 20
99.11291408538819
 30
0.0
 40
314.1477025756835
 41
286.8463379254214
 68
     1
 69
     1
 12
142.5892486572265
 22
99.11291408538819
 13
0.0
 23
0.0
 14
10.0
 24
10.0
 15
10.0
 25
10.0
 16
0.0
 26
0.0
 36
1.0
 17
0.0
 27
0.0
 37
0.0
 42
50.0
 43
0.0
 44
0.0
 45
286.8463379254214
 50
0.0
 51
0.0
 72
   100
 90
    32800
  1

281
     0
 71
     1
 74
     0
110
0.0
120
0.0
130
0.0
111
1.0
121
0.0
131
0.0
112
0.0
122
1.0
132
0.0
 79
     0
146
0.0
  0
ENDSEC
  0
SECTION
  2
OBJECTS
  0
DICTIONARY
  5
C
330
0
100
AcDbDictionary
281
     1
  3
ACAD_GROUP
350
D
  3
ACAD_IMAGE_VARS
350
7DBD
  3
ACAD_LAYOUT
350
73F
  3
ACAD_MLINESTYLE
350
1B
  3
ACAD_PLOTSETTINGS
350
740
  3
ACAD_PLOTSTYLENAME
350
73D
  3
ACAD_SCALELIST
350
7D91
  3
AcadDim
350
61D4
  3
AcDbVariableDictionary
350
7046
  3
APPDATA
350
7DBB
  3
DWGPROPS
350
7DBE
  0
DICTIONARY
  5
D
102
{ACAD_REACTORS
330
C
102
}
330
C
100
AcDbDictionary
281
     1
  0
RASTERVARIABLES
  5
7DBD
102
{ACAD_REACTORS
330
C
102
}
330
C
100
AcDbRasterVariables
 90
        0
 70
     1
 71
     1
 72
     0
  0
DICTIONARY
  5
73F
102
{ACAD_REACTORS
330
C
102
}
330
C
100
AcDbDictionary
281
     1
  3
Model
350
741
  3
ﾚｲｱｳﾄ1
350
7D6E
  0
DICTIONARY
  5
1B
102
{ACAD_REACTORS
330
C
102
}
330
C
100
AcDbDictionary
281
     1
  3
STANDARD
350
1C
  0
DICTIONARY
  5
740
102
{ACAD_REACTORS
330
C
102
}
330
C
100
AcDbDictionary
281
     1
  0
ACDBDICTIONARYWDFLT
  5
73D
102
{ACAD_REACTORS
330
C
102
}
330
C
100
AcDbDictionary
281
     1
  3
Normal
350
73E
100
AcDbDictionaryWithDefault
340
73E
  0
DICTIONARY
  5
7D91
102
{ACAD_REACTORS
330
C
102
}
330
C
100
AcDbDictionary
281
     1
  3
A0
350
7D92
  3
A1
350
7D93
  3
A2
350
7D94
  3
A3
350
7D95
  3
A4
350
7D96
  3
A5
350
7D97
  3
A6
350
7D98
  3
A7
350
7D99
  3
A8
350
7D9A
  3
A9
350
7D9B
  3
B0
350
7D9C
  3
B1
350
7D9D
  3
B2
350
7D9E
  3
B3
350
7D9F
  3
B4
350
7DA0
  3
B5
350
7DA1
  3
B6
350
7DA2
  3
B7
350
7DA3
  3
B8
350
7DA4
  3
B9
350
7DA5
  3
C0
350
7DA6
  3
C1
350
7DA7
  3
C2
350
7DA8
  3
C3
350
7DA9
  3
C4
350
7DAA
  3
C5
350
7DAB
  3
C6
350
7DAC
  3
C7
350
7DAD
  3
C8
350
7DAE
  3
C9
350
7DAF
  3
D0
350
7DB0
  3
D1
350
7DB1
  3
D2
350
7DB2
  0
XRECORD
  5
61D4
102
{ACAD_REACTORS
330
C
102
}
330
C
100
AcDbXrecord
280
     1
 90
   990106
  3

 60
     0
 61
     0
 62
     1
 63
     3
 64
     0
 65
     0
 66
     0
 67
     3
 68
     1
 69
     0
 70
     0
 71
     0
 72
     0
 40
0.0
170
     0
  0
DICTIONARY
  5
7046
102
{ACAD_REACTORS
330
C
102
}
330
C
100
AcDbDictionary
281
     1
  3
DIMASSOC
350
7047
  0
DICTIONARY
  5
7DBB
102
{ACAD_REACTORS
330
C
102
}
330
C
100
AcDbDictionary
281
     1
  0
XRECORD
  5
7DBE
102
{ACAD_REACTORS
330
C
102
}
330
C
100
AcDbXrecord
280
     1
  1
DWGPROPS COOKIE
  2

  3

  4

  6

  7

  8
k-yoshida
  9

300
=
301
=
302
=
303
=
304
=
305
=
306
=
307
=
308
=
309
=
 40
0.0
 41
2451224.285162384
 42
2457315.077018541
  1

 90
        0
  0
LAYOUT
  5
741
102
{ACAD_REACTORS
330
73F
102
}
330
73F
100
AcDbPlotSettings
  1

  2
HP DesignJet 750C (D/A1) Color
  4

  6

 40
0.0
 41
0.0
 42
0.0
 43
0.0
 44
0.0
 45
0.0
 46
0.0
 47
0.0
 48
0.0
 49
0.0
140
0.0
141
0.0
142
1.0
143
1.0
 70
  1712
 72
     0
 73
     0
 74
     0
  7

 75
     0
147
1.0
148
0.0
149
0.0
100
AcDbLayout
  1
Model
 70
     1
 71
     0
 10
0.0
 20
0.0
 11
12.0
 21
9.0
 12
0.0
 22
0.0
 32
0.0
 14
133.3503671924545
 24
-67.37257327715702
 34
0.0
 15
505.632288510102
 25
281.5649593085682
 35
0.0
146
0.0
 13
0.0
 23
0.0
 33
0.0
 16
1.0
 26
0.0
 36
0.0
 17
0.0
 27
1.0
 37
0.0
 76
     0
330
18
  0
LAYOUT
  5
7D6E
102
{ACAD_REACTORS
330
73F
102
}
330
73F
100
AcDbPlotSettings
  1

  2
\\MANAMI\Canon LBP3900
  4
A4
  6

 40
5.873749732971191
 41
5.873747825622558
 42
5.873748779296875
 43
5.873748779296875
 44
209.9733276367187
 45
296.9259948730469
 46
0.0
 47
0.0
 48
0.0
 49
0.0
140
0.0
141
0.0
142
1.0
143
1.0
 70
   688
 72
     1
 73
     1
 74
     5
  7

 75
    16
147
1.0
148
0.0
149
0.0
100
AcDbLayout
  1
ﾚｲｱｳﾄ1
 70
     1
 71
     1
 10
-5.873748779296875
 20
-5.873749732971191
 11
291.05224609375
 21
204.0995779037475
 12
0.0
 22
0.0
 32
0.0
 14
28.51784982681273
 24
19.82258291244505
 34
0.0
 15
256.6606484413147
 25
178.4032462120056
 35
0.0
146
0.0
 13
0.0
 23
0.0
 33
0.0
 16
1.0
 26
0.0
 36
0.0
 17
0.0
 27
1.0
 37
0.0
 76
     0
330
7D6D
331
7D74
  0
MLINESTYLE
  5
1C
102
{ACAD_REACTORS
330
1B
102
}
330
1B
100
AcDbMlineStyle
  2
STANDARD
 70
     0
  3

 62
   256
 51
90.0
 52
90.0
 71
     2
 49
0.5
 62
   256
  6
BYLAYER
 49
-0.5
 62
   256
  6
BYLAYER
  0
ACDBPLACEHOLDER
  5
73E
102
{ACAD_REACTORS
330
73D
102
}
330
73D
  0
ACAD_PROXY_OBJECT
  5
7D92
102
{ACAD_REACTORS
330
7D91
102
}
330
7D91
100
AcDbProxyObject
 90
      499
 91
      507
 95
   655383
 70
     0
 93
       41
310
903313A31581
 94
        0
  0
ACAD_PROXY_OBJECT
  5
7D93
102
{ACAD_REACTORS
330
7D91
102
}
330
7D91
100
AcDbProxyObject
 90
      499
 91
      507
 95
   655383
 70
     0
 93
      105
310
903313A324000000000000004042
 94
        0
  0
ACAD_PROXY_OBJECT
  5
7D94
102
{ACAD_REACTORS
330
7D91
102
}
330
7D91
100
AcDbProxyObject
 90
      499
 91
      507
 95
   655383
 70
     0
 93
      105
310
903313A344000000000000104042
 94
        0
  0
ACAD_PROXY_OBJECT
  5
7D95
102
{ACAD_REACTORS
330
7D91
102
}
330
7D91
100
AcDbProxyObject
 90
      499
 91
      507
 95
   655383
 70
     0
 93
      105
310
903313A354000000000000144042
 94
        0
  0
ACAD_PROXY_OBJECT
  5
7D96
102
{ACAD_REACTORS
330
7D91
102
}
330
7D91
100
AcDbProxyObject
 90
      499
 91
      507
 95
   655383
 70
     0
 93
      105
310
903313A384000000000000204042
 94
        0
  0
ACAD_PROXY_OBJECT
  5
7D97
102
{ACAD_REACTORS
330
7D91
102
}
330
7D91
100
AcDbProxyObject
 90
      499
 91
      507
 95
   655383
 70
     0
 93
      113
310
904313A31304000000000000244027
 94
        0
  0
ACAD_PROXY_OBJECT
  5
7D98
102
{ACAD_REACTORS
330
7D91
102
}
330
7D91
100
AcDbProxyObject
 90
      499
 91
      507
 95
   655383
 70
     0
 93
      113
310
904313A31364000000000000304027
 94
        0
  0
ACAD_PROXY_OBJECT
  5
7D99
102
{ACAD_REACTORS
330
7D91
102
}
330
7D91
100
AcDbProxyObject
 90
      499
 91
      507
 95
   655383
 70
     0
 93
      113
310
904313A32304000000000000344027
 94
        0
  0
ACAD_PROXY_OBJECT
  5
7D9A
102
{ACAD_REACTORS
330
7D91
102
}
330
7D91
100
AcDbProxyObject
 90
      499
 91
      507
 95
   655383
 70
     0
 93
      113
310
904313A333040000000000003E4027
 94
        0
  0
ACAD_PROXY_OBJECT
  5
7D9B
102
{ACAD_REACTORS
330
7D91
102
}
330
7D91
100
AcDbProxyObject
 90
      499
 91
      507
 95
   655383
 70
     0
 93
      113
310
904313A34304000000000000444027
 94
        0
  0
ACAD_PROXY_OBJECT
  5
7D9C
102
{ACAD_REACTORS
330
7D91
102
}
330
7D91
100
AcDbProxyObject
 90
      499
 91
      507
 95
   655383
 70
     0
 93
      113
310
904313A35304000000000000494027
 94
        0
  0
ACAD_PROXY_OBJECT
  5
7D9D
102
{ACAD_REACTORS
330
7D91
102
}
330
7D91
100
AcDbProxyObject
 90
      499
 91
      507
 95
   655383
 70
     0
 93
      121
310
905313A313030400000000000059406D
 94
        0
  0
ACAD_PROXY_OBJECT
  5
7D9E
102
{ACAD_REACTORS
330
7D91
102
}
330
7D91
100
AcDbProxyObject
 90
      499
 91
      507
 95
   655383
 70
     0
 93
      105
310
903323A310000000000000010159
 94
        0
  0
ACAD_PROXY_OBJECT
  5
7D9F
102
{ACAD_REACTORS
330
7D91
102
}
330
7D91
100
AcDbProxyObject
 90
      499
 91
      507
 95
   655383
 70
     0
 93
      105
310
903343A310000000000000410159
 94
        0
  0
ACAD_PROXY_OBJECT
  5
7DA0
102
{ACAD_REACTORS
330
7D91
102
}
330
7D91
100
AcDbProxyObject
 90
      499
 91
      507
 95
   655383
 70
     0
 93
      105
310
903383A310000000000000810159
 94
        0
  0
ACAD_PROXY_OBJECT
  5
7DA1
102
{ACAD_REACTORS
330
7D91
102
}
330
7D91
100
AcDbProxyObject
 90
      499
 91
      507
 95
   655383
 70
     0
 93
      113
310
90431303A310000000000000910140
 94
        0
  0
ACAD_PROXY_OBJECT
  5
7DA2
102
{ACAD_REACTORS
330
7D91
102
}
330
7D91
100
AcDbProxyObject
 90
      499
 91
      507
 95
   655383
 70
     0
 93
      121
310
9053130303A31000000000000165016D
 94
        0
  0
ACAD_PROXY_OBJECT
  5
7DA3
102
{ACAD_REACTORS
330
7D91
102
}
330
7D91
100
AcDbProxyObject
 90
      499
 91
      507
 95
   655383
 70
     0
 93
      257
310
90E312F31323822203D2031272D3022000000000000200FC000000000000284000
 94
        0
  0
ACAD_PROXY_OBJECT
  5
7DA4
102
{ACAD_REACTORS
330
7D91
102
}
330
7D91
100
AcDbProxyObject
 90
      499
 91
      507
 95
   655383
 70
     0
 93
      249
310
90D312F363422203D2031272D3022000000000000240FC000000000000284040
 94
        0
  0
ACAD_PROXY_OBJECT
  5
7DA5
102
{ACAD_REACTORS
330
7D91
102
}
330
7D91
100
AcDbProxyObject
 90
      499
 91
      507
 95
   655383
 70
     0
 93
      249
310
90D312F333222203D2031272D3022000000000000280FC000000000000284040
 94
        0
  0
ACAD_PROXY_OBJECT
  5
7DA6
102
{ACAD_REACTORS
330
7D91
102
}
330
7D91
100
AcDbProxyObject
 90
      499
 91
      507
 95
   655383
 70
     0
 93
      249
310
90D312F313622203D2031272D30220000000000002C0FC000000000000284040
 94
        0
  0
ACAD_PROXY_OBJECT
  5
7DA7
102
{ACAD_REACTORS
330
7D91
102
}
330
7D91
100
AcDbProxyObject
 90
      499
 91
      507
 95
   655383
 70
     0
 93
      249
310
90D332F333222203D2031272D30220000000000002E0FC000000000000284040
 94
        0
  0
ACAD_PROXY_OBJECT
  5
7DA8
102
{ACAD_REACTORS
330
7D91
102
}
330
7D91
100
AcDbProxyObject
 90
      499
 91
      507
 95
   655383
 70
     0
 93
      241
310
90C312F3822203D2031272D3022000000000000300FC000000000000284040
 94
        0
  0
ACAD_PROXY_OBJECT
  5
7DA9
102
{ACAD_REACTORS
330
7D91
102
}
330
7D91
100
AcDbProxyObject
 90
      499
 91
      507
 95
   655383
 70
     0
 93
      249
310
90D332F313622203D2031272D3022000000000000320FC000000000000284040
 94
        0
  0
ACAD_PROXY_OBJECT
  5
7DAA
102
{ACAD_REACTORS
330
7D91
102
}
330
7D91
100
AcDbProxyObject
 90
      499
 91
      507
 95
   655383
 70
     0
 93
      241
310
90C312F3422203D2031272D3022000000000000340FC000000000000284040
 94
        0
  0
ACAD_PROXY_OBJECT
  5
7DAB
102
{ACAD_REACTORS
330
7D91
102
}
330
7D91
100
AcDbProxyObject
 90
      499
 91
      507
 95
   655383
 70
     0
 93
      241
310
90C332F3822203D2031272D3022000000000000360FC000000000000284040
 94
        0
  0
ACAD_PROXY_OBJECT
  5
7DAC
102
{ACAD_REACTORS
330
7D91
102
}
330
7D91
100
AcDbProxyObject
 90
      499
 91
      507
 95
   655383
 70
     0
 93
      241
310
90C312F3222203D2031272D3022000000000000380FC000000000000284040
 94
        0
  0
ACAD_PROXY_OBJECT
  5
7DAD
102
{ACAD_REACTORS
330
7D91
102
}
330
7D91
100
AcDbProxyObject
 90
      499
 91
      507
 95
   655383
 70
     0
 93
      241
310
90C332F3422203D2031272D30220000000000003A0FC000000000000284040
 94
        0
  0
ACAD_PROXY_OBJECT
  5
7DAE
102
{ACAD_REACTORS
330
7D91
102
}
330
7D91
100
AcDbProxyObject
 90
      499
 91
      507
 95
   655383
 70
     0
 93
      161
310
90A3122203D2031272D30224000000000000284020
 94
        0
  0
ACAD_PROXY_OBJECT
  5
7DAF
102
{ACAD_REACTORS
330
7D91
102
}
330
7D91
100
AcDbProxyObject
 90
      499
 91
      507
 95
   655383
 70
     0
 93
      257
310
90E312D312F3222203D2031272D30220000000000003E0FC000000000000284000
 94
        0
  0
ACAD_PROXY_OBJECT
  5
7DB0
102
{ACAD_REACTORS
330
7D91
102
}
330
7D91
100
AcDbProxyObject
 90
      499
 91
      507
 95
   655383
 70
     0
 93
      225
310
90A3322203D2031272D302200000000000002100000000000000284000
 94
        0
  0
ACAD_PROXY_OBJECT
  5
7DB1
102
{ACAD_REACTORS
330
7D91
102
}
330
7D91
100
AcDbProxyObject
 90
      499
 91
      507
 95
   655383
 70
     0
 93
      225
310
90A3622203D2031272D302200000000000006100000000000000284000
 94
        0
  0
ACAD_PROXY_OBJECT
  5
7DB2
102
{ACAD_REACTORS
330
7D91
102
}
330
7D91
100
AcDbProxyObject
 90
      499
 91
      507
 95
   655383
 70
     0
 93
      249
310
90D31272D3022203D2031272D30220000000000000A100000000000000284040
 94
        0
  0
DICTIONARYVAR
  5
7047
102
{ACAD_REACTORS
330
7046
102
}
330
7046
100
DictionaryVariables
280
     0
  1
1
  0
ENDSEC
  0
EOF
