  0
SECTION
  2
HEADER
  9
$ACADVER
  1
AC1015
  9
$ACADMAINTVER
 70
    10
  9
$DWGCODEPAGE
  3
ANSI_932
  9
$INSBASE
 10
0.0
 20
0.0
 30
0.0
  9
$EXTMIN
 10
133.3503671924545
 20
-116.0912323537749
 30
0.0
  9
$EXTMAX
 10
494.4050620751096
 20
184.6730011160865
 30
0.0
  9
$LIMMIN
 10
0.0
 20
0.0
  9
$LIMMAX
 10
420.0
 20
297.0
  9
$ORTHOMODE
 70
     1
  9
$REGENMODE
 70
     1
  9
$FILLMODE
 70
     1
  9
$QTEXTMODE
 70
     0
  9
$MIRRTEXT
 70
     1
  9
$LTSCALE
 40
1.0
  9
$ATTMODE
 70
     1
  9
$TEXTSIZE
 40
3.0
  9
$TRACEWID
 40
1.0
  9
$TEXTSTYLE
  7
STANDARD
  9
$CLAYER
  8
0
  9
$CELTYPE
  6
BYLAYER
  9
$CECOLOR
 62
   256
  9
$CELTSCALE
 40
1.0
  9
$DISPSILH
 70
     0
  9
$DIMSCALE
 40
1.0
  9
$DIMASZ
 40
3.0
  9
$DIMEXO
 40
1.0
  9
$DIMDLI
 40
6.0
  9
$DIMRND
 40
0.0
  9
$DIMDLE
 40
0.0
  9
$DIMEXE
 40
0.75
  9
$DIMTP
 40
0.0
  9
$DIMTM
 40
0.0
  9
$DIMTXT
 40
6.0
  9
$DIMCEN
 40
3.0
  9
$DIMTSZ
 40
0.0
  9
$DIMTOL
 70
     0
  9
$DIMLIM
 70
     0
  9
$DIMTIH
 70
     0
  9
$DIMTOH
 70
     0
  9
$DIMSE1
 70
     0
  9
$DIMSE2
 70
     0
  9
$DIMTAD
 70
     1
  9
$DIMZIN
 70
     9
  9
$DIMBLK
  1

  9
$DIMASO
 70
     1
  9
$DIMSHO
 70
     1
  9
$DIMPOST
  1

  9
$DIMAPOST
  1

  9
$DIMALT
 70
     0
  9
$DIMALTD
 70
     4
  9
$DIMALTF
 40
0.0394
  9
$DIMLFAC
 40
1.0
  9
$DIMTOFL
 70
     1
  9
$DIMTVP
 40
0.0
  9
$DIMTIX
 70
     0
  9
$DIMSOXD
 70
     0
  9
$DIMSAH
 70
     1
  9
$DIMBLK1
  1
OPEN
  9
$DIMBLK2
  1
OPEN
  9
$DIMSTYLE
  2
STANDARD
  9
$DIMCLRD
 70
     0
  9
$DIMCLRE
 70
     0
  9
$DIMCLRT
 70
     7
  9
$DIMTFAC
 40
1.0
  9
$DIMGAP
 40
1.0
  9
$DIMJUST
 70
     0
  9
$DIMSD1
 70
     0
  9
$DIMSD2
 70
     0
  9
$DIMTOLJ
 70
     1
  9
$DIMTZIN
 70
     9
  9
$DIMALTZ
 70
     0
  9
$DIMALTTZ
 70
     0
  9
$DIMUPT
 70
     0
  9
$DIMDEC
 70
     4
  9
$DIMTDEC
 70
     4
  9
$DIMALTU
 70
     8
  9
$DIMALTTD
 70
     4
  9
$DIMTXSTY
  7
STANDARD
  9
$DIMAUNIT
 70
     0
  9
$DIMADEC
 70
     0
  9
$DIMALTRND
 40
0.0
  9
$DIMAZIN
 70
     2
  9
$DIMDSEP
 70
    46
  9
$DIMATFIT
 70
     3
  9
$DIMFRAC
 70
     0
  9
$DIMLDRBLK
  1
OPEN
  9
$DIMLUNIT
 70
     2
  9
$DIMLWD
 70
    -2
  9
$DIMLWE
 70
    -2
  9
$DIMTMOVE
 70
     2
  9
$LUNITS
 70
     2
  9
$LUPREC
 70
     4
  9
$SKETCHINC
 40
1.0
  9
$FILLETRAD
 40
10.0
  9
$AUNITS
 70
     0
  9
$AUPREC
 70
     0
  9
$MENU
  1
.
  9
$ELEVATION
 40
0.0
  9
$PELEVATION
 40
0.0
  9
$THICKNESS
 40
0.0
  9
$LIMCHECK
 70
     0
  9
$CHAMFERA
 40
0.0
  9
$CHAMFERB
 40
0.0
  9
$CHAMFERC
 40
20.0
  9
$CHAMFERD
 40
0.0
  9
$SKPOLY
 70
     0
  9
$TDCREATE
 40
2451224.660162384
  9
$TDUCREATE
 40
2451224.285162384
  9
$TDUPDATE
 40
2457366.478318865
  9
$TDUUPDATE
 40
2457366.103318865
  9
$TDINDWG
 40
0.7879803704
  9
$TDUSRTIMER
 40
2457315.188847593
  9
$USRTIMER
 70
     1
  9
$ANGBASE
 50
0.0
  9
$ANGDIR
 70
     0
  9
$PDMODE
 70
     0
  9
$PDSIZE
 40
0.0
  9
$PLINEWID
 40
0.0
  9
$SPLFRAME
 70
     0
  9
$SPLINETYPE
 70
     6
  9
$SPLINESEGS
 70
     8
  9
$HANDSEED
  5
834F
  9
$SURFTAB1
 70
     6
  9
$SURFTAB2
 70
     6
  9
$SURFTYPE
 70
     6
  9
$SURFU
 70
     6
  9
$SURFV
 70
     6
  9
$UCSBASE
  2

  9
$UCSNAME
  2

  9
$UCSORG
 10
0.0
 20
0.0
 30
0.0
  9
$UCSXDIR
 10
1.0
 20
0.0
 30
0.0
  9
$UCSYDIR
 10
0.0
 20
1.0
 30
0.0
  9
$UCSORTHOREF
  2

  9
$UCSORTHOVIEW
 70
     0
  9
$UCSORGTOP
 10
0.0
 20
0.0
 30
0.0
  9
$UCSORGBOTTOM
 10
0.0
 20
0.0
 30
0.0
  9
$UCSORGLEFT
 10
0.0
 20
0.0
 30
0.0
  9
$UCSORGRIGHT
 10
0.0
 20
0.0
 30
0.0
  9
$UCSORGFRONT
 10
0.0
 20
0.0
 30
0.0
  9
$UCSORGBACK
 10
0.0
 20
0.0
 30
0.0
  9
$PUCSBASE
  2

  9
$PUCSNAME
  2

  9
$PUCSORG
 10
0.0
 20
0.0
 30
0.0
  9
$PUCSXDIR
 10
1.0
 20
0.0
 30
0.0
  9
$PUCSYDIR
 10
0.0
 20
1.0
 30
0.0
  9
$PUCSORTHOREF
  2

  9
$PUCSORTHOVIEW
 70
     0
  9
$PUCSORGTOP
 10
0.0
 20
0.0
 30
0.0
  9
$PUCSORGBOTTOM
 10
0.0
 20
0.0
 30
0.0
  9
$PUCSORGLEFT
 10
0.0
 20
0.0
 30
0.0
  9
$PUCSORGRIGHT
 10
0.0
 20
0.0
 30
0.0
  9
$PUCSORGFRONT
 10
0.0
 20
0.0
 30
0.0
  9
$PUCSORGBACK
 10
0.0
 20
0.0
 30
0.0
  9
$USERI1
 70
     0
  9
$USERI2
 70
     0
  9
$USERI3
 70
     0
  9
$USERI4
 70
     0
  9
$USERI5
 70
     0
  9
$USERR1
 40
0.0
  9
$USERR2
 40
0.0
  9
$USERR3
 40
0.0
  9
$USERR4
 40
0.0
  9
$USERR5
 40
0.0
  9
$WORLDVIEW
 70
     1
  9
$SHADEDGE
 70
     3
  9
$SHADEDIF
 70
    70
  9
$TILEMODE
 70
     1
  9
$MAXACTVP
 70
    48
  9
$PINSBASE
 10
0.0
 20
0.0
 30
0.0
  9
$PLIMCHECK
 70
     0
  9
$PEXTMIN
 10
40.49999999999999
 20
25.69999999999998
 30
0.0
  9
$PEXTMAX
 10
364.5
 20
231.3
 30
0.0
  9
$PLIMMIN
 10
0.0
 20
0.0
  9
$PLIMMAX
 10
0.0
 20
0.0
  9
$UNITMODE
 70
     0
  9
$VISRETAIN
 70
     1
  9
$PLINEGEN
 70
     0
  9
$PSLTSCALE
 70
     1
  9
$TREEDEPTH
 70
  3020
  9
$CMLSTYLE
  2
STANDARD
  9
$CMLJUST
 70
     0
  9
$CMLSCALE
 40
20.0
  9
$PROXYGRAPHICS
 70
     1
  9
$MEASUREMENT
 70
     1
  9
$CELWEIGHT
370
    -1
  9
$ENDCAPS
280
     0
  9
$JOINSTYLE
280
     0
  9
$LWDISPLAY
290
     1
  9
$INSUNITS
 70
     0
  9
$HYPERLINKBASE
  1

  9
$STYLESHEET
  1

  9
$XEDIT
290
     1
  9
$CEPSNTYPE
380
     0
  9
$PSTYLEMODE
290
     1
  9
$FINGERPRINTGUID
  2
{6B368F64-F7EB-11D4-BFBA-00004C030E53}
  9
$VERSIONGUID
  2
{54A5B33E-746B-4F07-81AC-334FBB1D5BA6}
  9
$EXTNAMES
290
     1
  9
$PSVPSCALE
 40
0.0
  9
$OLESTARTUP
290
     0
  0
ENDSEC
  0
SECTION
  2
CLASSES
  0
CLASS
  1
HATCH
  2
AcDbHatch
  3
AutoCAD 2000
 90
    32768
280
     0
281
     1
  0
CLASS
  1
LWPOLYLINE
  2
AcDbPolyline
  3
AutoCAD 2000
 90
    32768
280
     0
281
     1
  0
CLASS
  1
ACDBDICTIONARYWDFLT
  2
AcDbDictionaryWithDefault
  3
AutoCAD 2000
 90
        0
280
     0
281
     0
  0
CLASS
  1
ACDBPLACEHOLDER
  2
AcDbPlaceHolder
  3
AutoCAD 2000
 90
        0
280
     0
281
     0
  0
CLASS
  1
LAYOUT
  2
AcDbLayout
  3
AutoCAD 2000
 90
        0
280
     0
281
     0
  0
CLASS
  1
DICTIONARYVAR
  2
AcDbDictionaryVar
  3
AutoCAD 2000
 90
        0
280
     0
281
     0
  0
CLASS
  1
VISUALSTYLE
  2
AcDbVisualStyle
  3
ObjectDBX Classes
 90
    36863
280
     0
281
     0
  0
CLASS
  1
SCALE
  2
AcDbScale
  3
ObjectDBX Classes
 90
     1153
280
     0
281
     0
  0
CLASS
  1
MATERIAL
  2
AcDbMaterial
  3
ObjectDBX Classes
 90
    33921
280
     0
281
     0
  0
CLASS
  1
TABLESTYLE
  2
AcDbTableStyle
  3
ObjectDBX Classes
 90
    36863
280
     0
281
     0
  0
CLASS
  1
MLEADERSTYLE
  2
AcDbMLeaderStyle
  3
ACDB_MLEADERSTYLE_CLASS
 90
    36863
280
     0
281
     0
  0
CLASS
  1
SUN
  2
AcDbSun
  3
SCENEOE
 90
     1153
280
     0
281
     0
  0
CLASS
  1
RASTERVARIABLES
  2
AcDbRasterVariables
  3
ISM
 90
        0
280
     0
281
     0
  0
ENDSEC
  0
SECTION
  2
TABLES
  0
TABLE
  2
VPORT
  5
8
330
0
100
AcDbSymbolTable
 70
     2
  0
VPORT
  5
834E
330
8
100
AcDbSymbolTableRecord
100
AcDbViewportTableRecord
  2
*Active
 70
     0
 10
0.0
 20
0.0
 11
1.0
 21
1.0
 12
270.6504586424707
 22
44.49675931888186
 13
0.0
 23
0.0
 14
10.0
 24
10.0
 15
10.0
 25
10.0
 16
0.0
 26
0.0
 36
1.0
 17
0.0
 27
0.0
 37
0.0
 40
349.4914533312804
 41
1.562182741116751
 42
50.0
 43
0.0
 44
0.0
 50
0.0
 51
0.0
 71
    16
 72
   100
 73
     1
 74
     0
 75
     0
 76
     0
 77
     0
 78
     0
281
     0
 65
     1
110
0.0
120
0.0
130
0.0
111
1.0
121
0.0
131
0.0
112
0.0
122
1.0
132
0.0
 79
     0
146
0.0
  0
ENDTAB
  0
TABLE
  2
LTYPE
  5
5
330
0
100
AcDbSymbolTable
 70
     1
  0
LTYPE
  5
12
330
5
100
AcDbSymbolTableRecord
100
AcDbLinetypeTableRecord
  2
BYBLOCK
 70
     0
  3

 72
    65
 73
     0
 40
0.0
  0
LTYPE
  5
13
330
5
100
AcDbSymbolTableRecord
100
AcDbLinetypeTableRecord
  2
BYLAYER
 70
     0
  3

 72
    65
 73
     0
 40
0.0
  0
LTYPE
  5
14
330
5
100
AcDbSymbolTableRecord
100
AcDbLinetypeTableRecord
  2
CONTINUOUS
 70
     0
  3
Solid line
 72
    65
 73
     0
 40
0.0
  0
ENDTAB
  0
TABLE
  2
LAYER
  5
2
330
0
100
AcDbSymbolTable
 70
     1
  0
LAYER
  5
E
330
2
100
AcDbSymbolTableRecord
100
AcDbLayerTableRecord
  2
0
 70
     0
 62
     7
  6
CONTINUOUS
370
    -3
390
73E
  0
ENDTAB
  0
TABLE
  2
STYLE
  5
3
330
0
100
AcDbSymbolTable
 70
     2
  0
STYLE
  5
F
330
3
100
AcDbSymbolTableRecord
100
AcDbTextStyleTableRecord
  2
STANDARD
 70
     0
 40
0.0
 41
1.0
 50
0.0
 71
     0
 42
3.0
  3
isocp.shx
  4
bigfont.shx
  0
STYLE
  5
35
330
3
100
AcDbSymbolTableRecord
100
AcDbTextStyleTableRecord
  2
MSｺﾞｼｯｸ
 70
     0
 40
0.0
 41
1.0
 50
0.0
 71
     0
 42
5.0
  3
MS Gothic.ttf
  4

1001
ACAD
1000
MS Gothic
1071
    32817
  0
ENDTAB
  0
TABLE
  2
VIEW
  5
6
330
0
100
AcDbSymbolTable
 70
     0
  0
ENDTAB
  0
TABLE
  2
UCS
  5
7
330
0
100
AcDbSymbolTable
 70
     0
  0
ENDTAB
  0
TABLE
  2
APPID
  5
9
330
0
100
AcDbSymbolTable
 70
     1
  0
APPID
  5
10
330
9
100
AcDbSymbolTableRecord
100
AcDbRegAppTableRecord
  2
ACAD
 70
     0
  0
ENDTAB
  0
TABLE
  2
DIMSTYLE
  5
A
330
0
100
AcDbSymbolTable
 70
     1
100
AcDbDimStyleTable
 71
     0
  0
DIMSTYLE
105
1D
330
A
100
AcDbSymbolTableRecord
100
AcDbDimStyleTableRecord
  2
STANDARD
 70
     0
 78
     8
 79
     2
140
3.0
340
F
341
89E
342
89E
  0
ENDTAB
  0
TABLE
  2
BLOCK_RECORD
  5
1
330
0
100
AcDbSymbolTable
 70
     9
  0
BLOCK_RECORD
  5
18
330
1
100
AcDbSymbolTableRecord
100
AcDbBlockTableRecord
  2
*MODEL_SPACE
340
741
  0
BLOCK_RECORD
  5
8340
330
1
100
AcDbSymbolTableRecord
100
AcDbBlockTableRecord
  2
*Paper_Space
340
8341
  0
BLOCK_RECORD
  5
24
330
1
100
AcDbSymbolTableRecord
100
AcDbBlockTableRecord
  2
_OPEN
340
0
  0
BLOCK_RECORD
  5
89E
330
1
100
AcDbSymbolTableRecord
100
AcDbBlockTableRecord
  2
_Open30
340
0
  0
BLOCK_RECORD
  5
7058
330
1
100
AcDbSymbolTableRecord
100
AcDbBlockTableRecord
  2
A$C444F17A9
340
0
102
{BLKREFS
331
775B
102
}
  0
BLOCK_RECORD
  5
7064
330
1
100
AcDbSymbolTableRecord
100
AcDbBlockTableRecord
  2
A$C6C1277F2
340
0
102
{BLKREFS
331
75CB
102
}
  0
BLOCK_RECORD
  5
7091
330
1
100
AcDbSymbolTableRecord
100
AcDbBlockTableRecord
  2
A$C2F696F30
340
0
102
{BLKREFS
331
7610
102
}
  0
BLOCK_RECORD
  5
70A9
330
1
100
AcDbSymbolTableRecord
100
AcDbBlockTableRecord
  2
A$C57095CDF
340
0
102
{BLKREFS
331
7603
102
}
  0
BLOCK_RECORD
  5
70DC
330
1
100
AcDbSymbolTableRecord
100
AcDbBlockTableRecord
  2
A$C3A6E1F00
340
0
102
{BLKREFS
331
7605
102
}
  0
BLOCK_RECORD
  5
711F
330
1
100
AcDbSymbolTableRecord
100
AcDbBlockTableRecord
  2
A$C5A3A0BB0
340
0
102
{BLKREFS
331
75F3
102
}
  0
BLOCK_RECORD
  5
7160
330
1
100
AcDbSymbolTableRecord
100
AcDbBlockTableRecord
  2
A$C3413120B
340
0
102
{BLKREFS
331
75CA
102
}
  0
ENDTAB
  0
ENDSEC
  0
SECTION
  2
BLOCKS
  0
BLOCK
  5
19
330
18
100
AcDbEntity
  8
0
100
AcDbBlockBegin
  2
*MODEL_SPACE
 70
     0
 10
0.0
 20
0.0
 30
0.0
  3
*MODEL_SPACE
  1

  0
ENDBLK
  5
1A
330
18
100
AcDbEntity
  8
0
100
AcDbBlockEnd
  0
BLOCK
  5
8342
330
8340
100
AcDbEntity
 67
     1
  8
0
100
AcDbBlockBegin
  2
*Paper_Space
 70
     0
 10
0.0
 20
0.0
 30
0.0
  3
*Paper_Space
  1

  0
ENDBLK
  5
8343
330
8340
100
AcDbEntity
 67
     1
  8
0
100
AcDbBlockEnd
  0
BLOCK
  5
25
330
24
100
AcDbEntity
  8
0
100
AcDbBlockBegin
  2
_OPEN
 70
     0
 10
0.0
 20
0.0
 30
0.0
  3
_OPEN
  1

  0
LINE
  5
26
330
24
100
AcDbEntity
  8
0
  6
ByBlock
 62
     0
100
AcDbLine
 10
-1.0
 20
0.1666666666666666
 30
0.0
 11
0.0
 21
0.0
 31
0.0
  0
LINE
  5
27
330
24
100
AcDbEntity
  8
0
  6
ByBlock
 62
     0
100
AcDbLine
 10
0.0
 20
0.0
 30
0.0
 11
-1.0
 21
-0.1666666666666666
 31
0.0
  0
LINE
  5
28
330
24
100
AcDbEntity
  8
0
  6
ByBlock
 62
     0
100
AcDbLine
 10
0.0
 20
0.0
 30
0.0
 11
-1.0
 21
0.0
 31
0.0
  0
ENDBLK
  5
29
330
24
100
AcDbEntity
  8
0
100
AcDbBlockEnd
  0
BLOCK
  5
8A2
330
89E
100
AcDbEntity
  8
0
100
AcDbBlockBegin
  2
_Open30
 70
     0
 10
0.0
 20
0.0
 30
0.0
  3
_Open30
  1

  0
LINE
  5
89F
330
89E
100
AcDbEntity
  8
0
  6
ByBlock
 62
     0
370
    -2
100
AcDbLine
 10
-1.0
 20
0.26794919
 30
0.0
 11
0.0
 21
0.0
 31
0.0
  0
LINE
  5
8A0
330
89E
100
AcDbEntity
  8
0
  6
ByBlock
 62
     0
370
    -2
100
AcDbLine
 10
0.0
 20
0.0
 30
0.0
 11
-1.0
 21
-0.26794919
 31
0.0
  0
LINE
  5
8A1
330
89E
100
AcDbEntity
  8
0
  6
ByBlock
 62
     0
370
    -2
100
AcDbLine
 10
0.0
 20
0.0
 30
0.0
 11
-1.0
 21
0.0
 31
0.0
  0
ENDBLK
  5
8A3
330
89E
100
AcDbEntity
  8
0
100
AcDbBlockEnd
  0
BLOCK
  5
7062
330
7058
100
AcDbEntity
  8
0
100
AcDbBlockBegin
  2
A$C444F17A9
 70
     0
 10
0.0
 20
0.0
 30
0.0
  3
A$C444F17A9
  1

  0
LWPOLYLINE
  5
7059
330
7058
100
AcDbEntity
  8
0
100
AcDbPolyline
 90
        4
 70
     1
 43
0.2
 10
0.1000006076973037
 20
13.1000004860266
 10
7.625000607697302
 20
13.1000004860266
 10
7.625000607697302
 20
0.1000004860266017
 10
0.1000006076973037
 20
0.1000004860266017
  0
ELLIPSE
  5
705A
330
7058
100
AcDbEntity
  8
0
100
AcDbEllipse
 10
6.125000607697302
 20
3.07500048602651
 30
0.0
 11
0.5
 21
0.0
 31
0.0
210
0.0
220
0.0
230
1.0
 40
0.95
 41
0.0
 42
6.283184999999999
  0
LWPOLYLINE
  5
705B
330
7058
100
AcDbEntity
  8
0
100
AcDbPolyline
 90
        6
 70
     1
 43
0.2
 10
2.175000607697299
 20
3.525000486026556
 10
1.725000607697296
 20
3.100000486026601
 10
2.175000607697299
 20
2.70000048602651
 10
4.275000607697307
 20
2.70000048602651
 10
4.700000607697305
 20
3.100000486026601
 10
4.275000607697307
 20
3.525000486026556
  0
LWPOLYLINE
  5
705C
330
7058
100
AcDbEntity
  8
0
100
AcDbPolyline
 90
        6
 70
     1
 43
0.2
 10
3.250000607697302
 20
10.80000048602664
 10
2.825000607697305
 20
10.42500048602664
 10
3.250000607697302
 20
10.00000048602669
 10
5.375000607697302
 20
10.00000048602669
 10
5.775000607697307
 20
10.42500048602664
 10
5.375000607697302
 20
10.80000048602664
  0
LWPOLYLINE
  5
705D
330
7058
100
AcDbEntity
  8
0
100
AcDbPolyline
 90
        6
 70
     1
 43
0.2
 10
5.525000607697307
 20
6.70000048602651
 10
5.125000607697302
 20
6.275000486026556
 10
4.700000607697305
 20
3.500000486026692
 10
5.125000607697302
 20
3.100000486026601
 10
5.525000607697307
 20
3.500000486026692
 10
5.975000607697296
 20
6.275000486026556
  0
LWPOLYLINE
  5
705E
330
7058
100
AcDbEntity
  8
0
100
AcDbPolyline
 90
        6
 70
     1
 43
0.2
 10
6.100000607697296
 20
10.42500048602664
 10
5.675000607697299
 20
10.02500048602655
 10
5.275000607697307
 20
7.225000486026601
 10
5.675000607697299
 20
6.82500048602651
 10
6.100000607697296
 20
7.225000486026601
 10
6.525000607697307
 20
10.02500048602655
  0
LWPOLYLINE
  5
705F
330
7058
100
AcDbEntity
  8
0
100
AcDbPolyline
 90
        6
 70
     1
 43
0.2
 10
1.875000607697302
 20
6.70000048602651
 10
1.450000607697305
 20
6.275000486026556
 10
1.050000607697299
 20
3.500000486026692
 10
1.450000607697305
 20
3.100000486026601
 10
1.875000607697302
 20
3.500000486026692
 10
2.300000607697299
 20
6.275000486026556
  0
LWPOLYLINE
  5
7060
330
7058
100
AcDbEntity
  8
0
100
AcDbPolyline
 90
        6
 70
     1
 43
0.2
 10
2.725000607697296
 20
7.225000486026601
 10
2.275000607697307
 20
6.82500048602651
 10
2.725000607697296
 20
6.425000486026647
 10
4.825000607697305
 20
6.425000486026647
 10
5.225000607697296
 20
6.82500048602651
 10
4.825000607697305
 20
7.225000486026601
  0
LWPOLYLINE
  5
7061
330
7058
100
AcDbEntity
  8
0
100
AcDbPolyline
 90
        6
 70
     1
 43
0.2
 10
2.425000607697299
 20
10.42500048602664
 10
2.025000607697307
 20
10.02500048602655
 10
1.600000607697296
 20
7.225000486026601
 10
2.025000607697307
 20
6.82500048602651
 10
2.425000607697299
 20
7.225000486026601
 10
2.875000607697302
 20
10.02500048602655
  0
ENDBLK
  5
7063
330
7058
100
AcDbEntity
  8
0
100
AcDbBlockEnd
  0
BLOCK
  5
708F
330
7064
100
AcDbEntity
  8
0
100
AcDbBlockBegin
  2
A$C6C1277F2
 70
     0
 10
0.0
 20
0.0
 30
0.0
  3
A$C6C1277F2
  1

  0
ELLIPSE
  5
7065
330
7064
100
AcDbEntity
  8
0
100
AcDbEllipse
 10
4.724999973973268
 20
26.39999951743493
 30
0.0
 11
0.0
 21
0.775
 31
0.0
210
0.0
220
0.0
230
1.0
 40
0.9677419999999999
 41
0.0
 42
6.283184999999999
  0
LWPOLYLINE
  5
7066
330
7064
100
AcDbEntity
  8
0
100
AcDbPolyline
 90
        4
 70
     1
 43
0.2
 10
0.0999999739732616
 20
28.77499951743493
 10
0.0999999739732616
 20
0.0999995174349806
 10
9.324999973973262
 20
0.0999995174349806
 10
9.324999973973262
 20
28.77499951743493
  0
ELLIPSE
  5
7067
330
7064
100
AcDbEntity
  8
0
100
AcDbEllipse
 10
4.724999973973268
 20
3.399999517434935
 30
0.0
 11
0.0
 21
0.775
 31
0.0
210
0.0
220
0.0
230
1.0
 40
0.9677419999999999
 41
0.0
 42
6.283184999999999
  0
LINE
  5
7068
330
7064
100
AcDbEntity
  8
0
100
AcDbLine
 10
0.8999999739732658
 20
4.299999517435026
 30
0.0
 11
0.8999999739732658
 21
6.374999517434844
 31
0.0
  0
LINE
  5
7069
330
7064
100
AcDbEntity
  8
0
100
AcDbLine
 10
8.524999973973265
 20
4.299999517435026
 30
0.0
 11
8.524999973973265
 21
6.374999517434844
 31
0.0
  0
LINE
  5
706A
330
7064
100
AcDbEntity
  8
0
100
AcDbLine
 10
6.599999973973268
 20
4.274999517434935
 30
0.0
 11
6.599999973973268
 21
5.249999517434844
 31
0.0
  0
LINE
  5
706B
330
7064
100
AcDbEntity
  8
0
100
AcDbLine
 10
6.599999973973268
 20
5.274999517434935
 30
0.0
 11
3.024999973973265
 21
5.274999517434935
 31
0.0
  0
LINE
  5
706C
330
7064
100
AcDbEntity
  8
0
100
AcDbLine
 10
3.024999973973265
 20
4.299999517435026
 30
0.0
 11
3.024999973973265
 21
5.274999517434935
 31
0.0
  0
LINE
  5
706D
330
7064
100
AcDbEntity
  8
0
100
AcDbLine
 10
3.024999973973265
 20
4.299999517435026
 30
0.0
 11
0.8999999739732658
 21
4.299999517435026
 31
0.0
  0
LINE
  5
706E
330
7064
100
AcDbEntity
  8
0
100
AcDbLine
 10
8.524999973973265
 20
4.299999517435026
 30
0.0
 11
6.599999973973268
 21
4.299999517435026
 31
0.0
  0
LINE
  5
706F
330
7064
100
AcDbEntity
  8
0
100
AcDbLine
 10
8.524999973973265
 20
6.374999517434844
 30
0.0
 11
0.8999999739732658
 21
6.374999517434844
 31
0.0
  0
LINE
  5
7070
330
7064
100
AcDbEntity
  8
0
100
AcDbLine
 10
0.8999999739732658
 20
25.17499951743502
 30
0.0
 11
0.8999999739732658
 21
23.09999951743498
 31
0.0
  0
LINE
  5
7071
330
7064
100
AcDbEntity
  8
0
100
AcDbLine
 10
8.524999973973265
 20
25.17499951743502
 30
0.0
 11
8.524999973973265
 21
23.09999951743498
 31
0.0
  0
LINE
  5
7072
330
7064
100
AcDbEntity
  8
0
100
AcDbLine
 10
6.599999973973268
 20
25.19999951743489
 30
0.0
 11
6.599999973973268
 21
24.22499951743498
 31
0.0
  0
LINE
  5
7073
330
7064
100
AcDbEntity
  8
0
100
AcDbLine
 10
6.599999973973268
 20
24.19999951743489
 30
0.0
 11
3.024999973973265
 21
24.19999951743489
 31
0.0
  0
LINE
  5
7074
330
7064
100
AcDbEntity
  8
0
100
AcDbLine
 10
3.024999973973265
 20
25.17499951743502
 30
0.0
 11
3.024999973973265
 21
24.19999951743489
 31
0.0
  0
LINE
  5
7075
330
7064
100
AcDbEntity
  8
0
100
AcDbLine
 10
3.024999973973265
 20
25.17499951743502
 30
0.0
 11
0.8999999739732658
 21
25.17499951743502
 31
0.0
  0
LINE
  5
7076
330
7064
100
AcDbEntity
  8
0
100
AcDbLine
 10
8.524999973973265
 20
25.17499951743502
 30
0.0
 11
6.599999973973268
 21
25.17499951743502
 31
0.0
  0
LWPOLYLINE
  5
7077
330
7064
100
AcDbEntity
  8
0
100
AcDbPolyline
 90
        4
 70
     1
 43
0.0
 10
3.474999973973268
 20
11.29999951743502
 10
3.12499997397326
 20
11.29999951743502
 10
3.12499997397326
 20
10.32499951743488
 10
3.474999973973268
 20
10.32499951743488
  0
LWPOLYLINE
  5
7078
330
7064
100
AcDbEntity
  8
0
100
AcDbPolyline
 90
        4
 70
     1
 43
0.0
 10
3.474999973973268
 20
12.47499951743498
 10
3.12499997397326
 20
12.47499951743498
 10
3.12499997397326
 20
11.49999951743484
 10
3.474999973973268
 20
11.49999951743484
  0
LWPOLYLINE
  5
7079
330
7064
100
AcDbEntity
  8
0
100
AcDbPolyline
 90
        4
 70
     1
 43
0.0
 10
3.474999973973268
 20
13.74999951743484
 10
3.12499997397326
 20
13.74999951743484
 10
3.12499997397326
 20
12.77499951743493
 10
3.474999973973268
 20
12.77499951743493
  0
LWPOLYLINE
  5
707A
330
7064
100
AcDbEntity
  8
0
100
AcDbPolyline
 90
        4
 70
     1
 43
0.0
 10
3.474999973973268
 20
15.07499951743489
 10
3.12499997397326
 20
15.07499951743489
 10
3.12499997397326
 20
14.12499951743484
 10
3.474999973973268
 20
14.12499951743484
  0
LWPOLYLINE
  5
707B
330
7064
100
AcDbEntity
  8
0
100
AcDbPolyline
 90
        4
 70
     1
 43
0.0
 10
3.474999973973268
 20
16.34999951743498
 10
3.12499997397326
 20
16.34999951743498
 10
3.12499997397326
 20
15.37499951743484
 10
3.474999973973268
 20
15.37499951743484
  0
LWPOLYLINE
  5
707C
330
7064
100
AcDbEntity
  8
0
100
AcDbPolyline
 90
        4
 70
     1
 43
0.0
 10
3.474999973973268
 20
17.57499951743489
 10
3.12499997397326
 20
17.57499951743489
 10
3.12499997397326
 20
16.59999951743498
 10
3.474999973973268
 20
16.59999951743498
  0
LWPOLYLINE
  5
707D
330
7064
100
AcDbEntity
  8
0
100
AcDbPolyline
 90
        4
 70
     1
 43
0.0
 10
3.474999973973268
 20
18.84999951743498
 10
3.12499997397326
 20
18.84999951743498
 10
3.12499997397326
 20
17.84999951743498
 10
3.474999973973268
 20
17.84999951743498
  0
LWPOLYLINE
  5
707E
330
7064
100
AcDbEntity
  8
0
100
AcDbPolyline
 90
        4
 70
     1
 43
0.0
 10
6.24999997397326
 20
11.29999951743502
 10
5.899999973973265
 20
11.29999951743502
 10
5.899999973973265
 20
10.32499951743488
 10
6.24999997397326
 20
10.32499951743488
  0
LWPOLYLINE
  5
707F
330
7064
100
AcDbEntity
  8
0
100
AcDbPolyline
 90
        4
 70
     1
 43
0.0
 10
6.24999997397326
 20
12.47499951743498
 10
5.899999973973265
 20
12.47499951743498
 10
5.899999973973265
 20
11.49999951743484
 10
6.24999997397326
 20
11.49999951743484
  0
LWPOLYLINE
  5
7080
330
7064
100
AcDbEntity
  8
0
100
AcDbPolyline
 90
        4
 70
     1
 43
0.0
 10
6.24999997397326
 20
13.74999951743484
 10
5.899999973973265
 20
13.74999951743484
 10
5.899999973973265
 20
12.77499951743493
 10
6.24999997397326
 20
12.77499951743493
  0
LWPOLYLINE
  5
7081
330
7064
100
AcDbEntity
  8
0
100
AcDbPolyline
 90
        4
 70
     1
 43
0.0
 10
6.24999997397326
 20
15.07499951743489
 10
5.899999973973265
 20
15.07499951743489
 10
5.899999973973265
 20
14.12499951743484
 10
6.24999997397326
 20
14.12499951743484
  0
LWPOLYLINE
  5
7082
330
7064
100
AcDbEntity
  8
0
100
AcDbPolyline
 90
        4
 70
     1
 43
0.0
 10
6.24999997397326
 20
16.34999951743498
 10
5.899999973973265
 20
16.34999951743498
 10
5.899999973973265
 20
15.37499951743484
 10
6.24999997397326
 20
15.37499951743484
  0
LWPOLYLINE
  5
7083
330
7064
100
AcDbEntity
  8
0
100
AcDbPolyline
 90
        4
 70
     1
 43
0.0
 10
6.24999997397326
 20
17.57499951743489
 10
5.899999973973265
 20
17.57499951743489
 10
5.899999973973265
 20
16.59999951743498
 10
6.24999997397326
 20
16.59999951743498
  0
LWPOLYLINE
  5
7084
330
7064
100
AcDbEntity
  8
0
100
AcDbPolyline
 90
        4
 70
     1
 43
0.0
 10
6.24999997397326
 20
18.84999951743498
 10
5.899999973973265
 20
18.84999951743498
 10
5.899999973973265
 20
17.84999951743498
 10
6.24999997397326
 20
17.84999951743498
  0
LWPOLYLINE
  5
7085
330
7064
100
AcDbEntity
  8
0
100
AcDbPolyline
 90
        4
 70
     1
 43
0.0
 10
6.599999973973268
 20
19.69999951743488
 10
2.899999973973265
 20
19.69999951743488
 10
2.899999973973265
 20
9.47499951743498
 10
6.599999973973268
 20
9.47499951743498
  0
ELLIPSE
  5
7086
330
7064
100
AcDbEntity
  8
0
100
AcDbEllipse
 10
6.549999973973257
 20
10.02499951743493
 30
0.0
 11
0.0
 21
1.25
 31
0.0
210
0.0
220
0.0
230
1.0
 40
0.98
 41
3.380894
 42
4.528311
  0
ELLIPSE
  5
7087
330
7064
100
AcDbEntity
  8
0
100
AcDbEllipse
 10
6.549999973973257
 20
19.37499951743484
 30
0.0
 11
0.0
 21
1.25
 31
0.0
210
0.0
220
0.0
230
1.0
 40
0.98
 41
4.509903999999999
 42
6.059223999999999
  0
ELLIPSE
  5
7088
330
7064
100
AcDbEntity
  8
0
100
AcDbEllipse
 10
2.87499997397326
 20
9.049999517435026
 30
0.0
 11
0.0
 21
1.25
 31
0.0
210
0.0
220
0.0
230
1.0
 40
0.98
 41
1.708854999999999
 42
3.380894
  0
ELLIPSE
  5
7089
330
7064
100
AcDbEntity
  8
0
100
AcDbEllipse
 10
2.87499997397326
 20
20.29999951743502
 30
0.0
 11
0.0
 21
1.25
 31
0.0
210
0.0
220
0.0
230
1.0
 40
0.98
 41
6.03468
 42
8.053399307179585
  0
LINE
  5
708A
330
7064
100
AcDbEntity
  8
0
100
AcDbLine
 10
6.849999973973268
 20
20.54999951743502
 30
0.0
 11
3.149999973973265
 21
21.47499951743498
 31
0.0
  0
LINE
  5
708B
330
7064
100
AcDbEntity
  8
0
100
AcDbLine
 10
7.774999973973265
 20
10.02499951743493
 30
0.0
 11
7.774999973973265
 21
19.37499951743484
 31
0.0
  0
LINE
  5
708C
330
7064
100
AcDbEntity
  8
0
100
AcDbLine
 10
3.149999973973265
 20
7.799999517435026
 30
0.0
 11
6.849999973973268
 21
8.774999517434935
 31
0.0
  0
LINE
  5
708D
330
7064
100
AcDbEntity
  8
0
100
AcDbLine
 10
1.649999973973265
 20
20.29999951743502
 30
0.0
 11
1.649999973973265
 21
8.949999517434889
 31
0.0
  0
LINE
  5
708E
330
7064
100
AcDbEntity
  8
0
100
AcDbLine
 10
8.524999973973265
 20
23.09999951743498
 30
0.0
 11
0.8999999739732658
 21
23.09999951743498
 31
0.0
  0
ENDBLK
  5
7090
330
7064
100
AcDbEntity
  8
0
100
AcDbBlockEnd
  0
BLOCK
  5
70A7
330
7091
100
AcDbEntity
  8
0
100
AcDbBlockBegin
  2
A$C2F696F30
 70
     0
 10
0.0
 20
0.0
 30
0.0
  3
A$C2F696F30
  1

  0
LINE
  5
7092
330
7091
100
AcDbEntity
  8
0
100
AcDbLine
 10
1.400000765164122
 20
-0.0000001933823341
 30
0.0
 11
5.400000765164122
 21
-0.0000001933823341
 31
0.0
  0
LINE
  5
7093
330
7091
100
AcDbEntity
  8
0
100
AcDbLine
 10
1.400000765164122
 20
13.77499980661764
 30
0.0
 11
5.400000765164122
 21
13.77499980661764
 31
0.0
  0
LWPOLYLINE
  5
7094
330
7091
100
AcDbEntity
  8
0
100
AcDbPolyline
 90
        4
 70
     1
 43
0.2
 10
15.40000076516412
 20
13.34999980661768
 10
15.40000076516412
 20
0.3499998066176886
 10
0.4000007651641227
 20
0.3499998066176886
 10
0.4000007651641227
 20
13.34999980661768
  0
LWPOLYLINE
  5
7095
330
7091
100
AcDbEntity
  8
0
100
AcDbPolyline
 90
        4
 70
     1
 43
0.2
 10
1.400000765164122
 20
12.34999980661768
 10
3.400000765164122
 20
12.34999980661768
 10
3.400000765164122
 20
1.349999806617688
 10
1.400000765164122
 20
1.349999806617688
  0
LWPOLYLINE
  5
7096
330
7091
100
AcDbEntity
  8
0
100
AcDbPolyline
 90
        4
 70
     1
 43
0.2
 10
3.950000765164119
 20
3.349999806617688
 10
3.950000765164119
 20
2.349999806617688
 10
3.400000765164122
 20
2.349999806617688
 10
3.400000765164122
 20
3.349999806617688
  0
LWPOLYLINE
  5
7097
330
7091
100
AcDbEntity
  8
0
100
AcDbPolyline
 90
        4
 70
     1
 43
0.2
 10
3.950000765164119
 20
5.749999806617665
 10
3.950000765164119
 20
4.749999806617665
 10
3.400000765164122
 20
4.749999806617665
 10
3.400000765164122
 20
5.749999806617665
  0
LINE
  5
7098
330
7091
100
AcDbEntity
  8
0
100
AcDbLine
 10
0.0000007651641241
 20
1.349999806617688
 30
0.0
 11
0.0000007651641241
 21
5.349999806617688
 31
0.0
  0
LWPOLYLINE
  5
7099
330
7091
100
AcDbEntity
  8
0
100
AcDbPolyline
 90
        4
 70
     1
 43
0.2
 10
3.950000765164119
 20
8.949999806617711
 10
3.950000765164119
 20
7.949999806617711
 10
3.400000765164122
 20
7.949999806617711
 10
3.400000765164122
 20
8.949999806617711
  0
LWPOLYLINE
  5
709A
330
7091
100
AcDbEntity
  8
0
100
AcDbPolyline
 90
        4
 70
     1
 43
0.2
 10
3.950000765164119
 20
11.34999980661768
 10
3.950000765164119
 20
10.34999980661768
 10
3.400000765164122
 20
10.34999980661768
 10
3.400000765164122
 20
11.34999980661768
  0
LINE
  5
709B
330
7091
100
AcDbEntity
  8
0
100
AcDbLine
 10
0.0000007651641241
 20
12.34999980661768
 30
0.0
 11
0.0000007651641241
 21
8.349999806617688
 31
0.0
  0
LWPOLYLINE
  5
709C
330
7091
100
AcDbEntity
  8
0
100
AcDbPolyline
 90
        4
 70
     1
 43
0.2
 10
10.40000076516412
 20
12.34999980661768
 10
12.40000076516412
 20
12.34999980661768
 10
12.40000076516412
 20
1.349999806617688
 10
10.40000076516412
 20
1.349999806617688
  0
LINE
  5
709D
330
7091
100
AcDbEntity
  8
0
100
AcDbLine
 10
9.400000765164122
 20
13.34999980661768
 30
0.0
 11
9.400000765164122
 21
0.3499998066176886
 31
0.0
  0
LINE
  5
709E
330
7091
100
AcDbEntity
  8
0
100
AcDbLine
 10
6.400000765164122
 20
13.34999980661768
 30
0.0
 11
6.400000765164122
 21
0.3499998066176886
 31
0.0
  0
LWPOLYLINE
  5
709F
330
7091
100
AcDbEntity
  8
0
100
AcDbPolyline
 90
        4
 70
     1
 43
0.2
 10
12.95000076516412
 20
3.349999806617688
 10
12.95000076516412
 20
2.349999806617688
 10
12.40000076516412
 20
2.349999806617688
 10
12.40000076516412
 20
3.349999806617688
  0
LWPOLYLINE
  5
70A0
330
7091
100
AcDbEntity
  8
0
100
AcDbPolyline
 90
        4
 70
     1
 43
0.2
 10
12.95000076516412
 20
5.749999806617665
 10
12.95000076516412
 20
4.749999806617665
 10
12.40000076516412
 20
4.749999806617665
 10
12.40000076516412
 20
5.749999806617665
  0
LINE
  5
70A1
330
7091
100
AcDbEntity
  8
0
100
AcDbLine
 10
14.40000076516412
 20
-0.0000001933823341
 30
0.0
 11
10.40000076516412
 21
-0.0000001933823341
 31
0.0
  0
LINE
  5
70A2
330
7091
100
AcDbEntity
  8
0
100
AcDbLine
 10
15.80000076516412
 20
1.349999806617688
 30
0.0
 11
15.80000076516412
 21
5.349999806617688
 31
0.0
  0
LWPOLYLINE
  5
70A3
330
7091
100
AcDbEntity
  8
0
100
AcDbPolyline
 90
        4
 70
     1
 43
0.2
 10
12.95000076516412
 20
8.949999806617711
 10
12.95000076516412
 20
7.949999806617711
 10
12.40000076516412
 20
7.949999806617711
 10
12.40000076516412
 20
8.949999806617711
  0
LWPOLYLINE
  5
70A4
330
7091
100
AcDbEntity
  8
0
100
AcDbPolyline
 90
        4
 70
     1
 43
0.2
 10
12.95000076516412
 20
11.34999980661768
 10
12.95000076516412
 20
10.34999980661768
 10
12.40000076516412
 20
10.34999980661768
 10
12.40000076516412
 20
11.34999980661768
  0
LINE
  5
70A5
330
7091
100
AcDbEntity
  8
0
100
AcDbLine
 10
14.40000076516412
 20
13.77499980661764
 30
0.0
 11
10.40000076516412
 21
13.77499980661764
 31
0.0
  0
LINE
  5
70A6
330
7091
100
AcDbEntity
  8
0
100
AcDbLine
 10
15.80000076516412
 20
12.34999980661768
 30
0.0
 11
15.80000076516412
 21
8.349999806617688
 31
0.0
  0
ENDBLK
  5
70A8
330
7091
100
AcDbEntity
  8
0
100
AcDbBlockEnd
  0
BLOCK
  5
70DA
330
70A9
100
AcDbEntity
  8
0
100
AcDbBlockBegin
  2
A$C57095CDF
 70
     0
 10
0.0
 20
0.0
 30
0.0
  3
A$C57095CDF
  1

  0
LWPOLYLINE
  5
70AA
330
70A9
100
AcDbEntity
  8
0
100
AcDbPolyline
 90
        4
 70
     1
 43
0.0
 10
3.474999973973268
 20
16.69999991295117
 10
3.12499997397326
 20
16.69999991295117
 10
3.12499997397326
 20
15.72499991295103
 10
3.474999973973268
 20
15.72499991295103
  0
LWPOLYLINE
  5
70AB
330
70A9
100
AcDbEntity
  8
0
100
AcDbPolyline
 90
        4
 70
     1
 43
0.0
 10
6.24999997397326
 20
16.69999991295117
 10
5.899999973973265
 20
16.69999991295117
 10
5.899999973973265
 20
15.72499991295103
 10
6.24999997397326
 20
15.72499991295103
  0
LWPOLYLINE
  5
70AC
330
70A9
100
AcDbEntity
  8
0
100
AcDbPolyline
 90
        4
 70
     1
 43
0.0
 10
6.599999973973268
 20
24.09999991295103
 10
2.899999973973265
 20
24.09999991295103
 10
2.899999973973265
 20
9.94999991295117
 10
6.599999973973268
 20
9.94999991295117
  0
LINE
  5
70AD
330
70A9
100
AcDbEntity
  8
0
100
AcDbLine
 10
7.774999973973265
 20
9.899999912950988
 30
0.0
 11
7.774999973973265
 21
24.02499991295099
 31
0.0
  0
LINE
  5
70AE
330
70A9
100
AcDbEntity
  8
0
100
AcDbLine
 10
1.649999973973265
 20
24.94999991295117
 30
0.0
 11
1.649999973973265
 21
8.849999912951034
 31
0.0
  0
LWPOLYLINE
  5
70AF
330
70A9
100
AcDbEntity
  8
0
100
AcDbPolyline
 90
        4
 70
     1
 43
0.2
 10
0.0999999739732616
 20
33.42499991295108
 10
0.0999999739732616
 20
0.0999999129510343
 10
9.324999973973262
 20
0.0999999129510343
 10
9.324999973973262
 20
33.42499991295108
  0
LWPOLYLINE
  5
70B0
330
70A9
100
AcDbEntity
  8
0
100
AcDbPolyline
 90
        4
 70
     1
 43
0.0
 10
3.449999973973262
 20
11.87499991295112
 10
3.099999973973261
 20
11.87499991295112
 10
3.099999973973261
 20
10.89999991295098
 10
3.449999973973262
 20
10.89999991295098
  0
LWPOLYLINE
  5
70B1
330
70A9
100
AcDbEntity
  8
0
100
AcDbPolyline
 90
        4
 70
     1
 43
0.0
 10
6.224999973973268
 20
11.87499991295112
 10
5.87499997397326
 20
11.87499991295112
 10
5.87499997397326
 20
10.89999991295098
 10
6.224999973973268
 20
10.89999991295098
  0
LWPOLYLINE
  5
70B2
330
70A9
100
AcDbEntity
  8
0
100
AcDbPolyline
 90
        4
 70
     1
 43
0.0
 10
3.449999973973262
 20
13.07499991295117
 10
3.099999973973261
 20
13.07499991295117
 10
3.099999973973261
 20
12.09999991295103
 10
3.449999973973262
 20
12.09999991295103
  0
LWPOLYLINE
  5
70B3
330
70A9
100
AcDbEntity
  8
0
100
AcDbPolyline
 90
        4
 70
     1
 43
0.0
 10
6.224999973973268
 20
13.07499991295117
 10
5.87499997397326
 20
13.07499991295117
 10
5.87499997397326
 20
12.09999991295103
 10
6.224999973973268
 20
12.09999991295103
  0
LWPOLYLINE
  5
70B4
330
70A9
100
AcDbEntity
  8
0
100
AcDbPolyline
 90
        4
 70
     1
 43
0.0
 10
3.474999973973268
 20
14.27499991295098
 10
3.12499997397326
 20
14.27499991295098
 10
3.12499997397326
 20
13.29999991295108
 10
3.474999973973268
 20
13.29999991295108
  0
LWPOLYLINE
  5
70B5
330
70A9
100
AcDbEntity
  8
0
100
AcDbPolyline
 90
        4
 70
     1
 43
0.0
 10
6.24999997397326
 20
14.27499991295098
 10
5.899999973973265
 20
14.27499991295098
 10
5.899999973973265
 20
13.29999991295108
 10
6.24999997397326
 20
13.29999991295108
  0
LINE
  5
70B6
330
70A9
100
AcDbEntity
  8
0
100
AcDbLine
 10
0.8999999739732658
 20
4.274999912950988
 30
0.0
 11
0.8999999739732658
 21
6.349999912951034
 31
0.0
  0
LINE
  5
70B7
330
70A9
100
AcDbEntity
  8
0
100
AcDbLine
 10
8.524999973973265
 20
4.274999912950988
 30
0.0
 11
8.524999973973265
 21
6.349999912951034
 31
0.0
  0
LINE
  5
70B8
330
70A9
100
AcDbEntity
  8
0
100
AcDbLine
 10
6.599999973973268
 20
4.249999912951125
 30
0.0
 11
6.599999973973268
 21
5.224999912951034
 31
0.0
  0
LINE
  5
70B9
330
70A9
100
AcDbEntity
  8
0
100
AcDbLine
 10
6.599999973973268
 20
5.249999912951125
 30
0.0
 11
3.024999973973265
 21
5.249999912951125
 31
0.0
  0
LINE
  5
70BA
330
70A9
100
AcDbEntity
  8
0
100
AcDbLine
 10
3.024999973973265
 20
4.274999912950988
 30
0.0
 11
3.024999973973265
 21
5.249999912951125
 31
0.0
  0
LINE
  5
70BB
330
70A9
100
AcDbEntity
  8
0
100
AcDbLine
 10
3.024999973973265
 20
4.274999912950988
 30
0.0
 11
0.8999999739732658
 21
4.274999912950988
 31
0.0
  0
LINE
  5
70BC
330
70A9
100
AcDbEntity
  8
0
100
AcDbLine
 10
8.524999973973265
 20
4.274999912950988
 30
0.0
 11
6.599999973973268
 21
4.274999912950988
 31
0.0
  0
LINE
  5
70BD
330
70A9
100
AcDbEntity
  8
0
100
AcDbLine
 10
8.524999973973265
 20
6.349999912951034
 30
0.0
 11
0.8999999739732658
 21
6.349999912951034
 31
0.0
  0
LWPOLYLINE
  5
70BE
330
70A9
100
AcDbEntity
  8
0
100
AcDbPolyline
 90
        4
 70
     1
 43
0.0
 10
3.474999973973268
 20
15.52499991295098
 10
3.12499997397326
 20
15.52499991295098
 10
3.12499997397326
 20
14.54999991295108
 10
3.474999973973268
 20
14.54999991295108
  0
LWPOLYLINE
  5
70BF
330
70A9
100
AcDbEntity
  8
0
100
AcDbPolyline
 90
        4
 70
     1
 43
0.0
 10
6.24999997397326
 20
15.52499991295098
 10
5.899999973973265
 20
15.52499991295098
 10
5.899999973973265
 20
14.54999991295108
 10
6.24999997397326
 20
14.54999991295108
  0
ELLIPSE
  5
70C0
330
70A9
100
AcDbEntity
  8
0
100
AcDbEllipse
 10
6.549999973973257
 20
9.999999912951125
 30
0.0
 11
0.0
 21
1.25
 31
0.0
210
0.0
220
0.0
230
1.0
 40
0.98
 41
3.380894
 42
4.528311
  0
ELLIPSE
  5
70C1
330
70A9
100
AcDbEntity
  8
0
100
AcDbEllipse
 10
2.87499997397326
 20
9.024999912950988
 30
0.0
 11
0.0
 21
1.25
 31
0.0
210
0.0
220
0.0
230
1.0
 40
0.98
 41
1.708854999999999
 42
3.380894
  0
LINE
  5
70C2
330
70A9
100
AcDbEntity
  8
0
100
AcDbLine
 10
3.149999973973265
 20
7.774999912950988
 30
0.0
 11
6.849999973973268
 21
8.749999912951125
 31
0.0
  0
ELLIPSE
  5
70C3
330
70A9
100
AcDbEntity
  8
0
100
AcDbEllipse
 10
4.724999973973268
 20
3.374999912951125
 30
0.0
 11
0.0
 21
0.775
 31
0.0
210
0.0
220
0.0
230
1.0
 40
0.9677419999999999
 41
0.0
 42
6.283184999999999
  0
LINE
  5
70C4
330
70A9
100
AcDbEntity
  8
0
100
AcDbLine
 10
0.8999999739732658
 20
29.82499991295117
 30
0.0
 11
0.8999999739732658
 21
27.74999991295112
 31
0.0
  0
LINE
  5
70C5
330
70A9
100
AcDbEntity
  8
0
100
AcDbLine
 10
8.524999973973265
 20
29.82499991295117
 30
0.0
 11
8.524999973973265
 21
27.74999991295112
 31
0.0
  0
LINE
  5
70C6
330
70A9
100
AcDbEntity
  8
0
100
AcDbLine
 10
6.599999973973268
 20
29.84999991295103
 30
0.0
 11
6.599999973973268
 21
28.87499991295112
 31
0.0
  0
LINE
  5
70C7
330
70A9
100
AcDbEntity
  8
0
100
AcDbLine
 10
6.599999973973268
 20
28.84999991295103
 30
0.0
 11
3.024999973973265
 21
28.84999991295103
 31
0.0
  0
LINE
  5
70C8
330
70A9
100
AcDbEntity
  8
0
100
AcDbLine
 10
3.024999973973265
 20
29.82499991295117
 30
0.0
 11
3.024999973973265
 21
28.84999991295103
 31
0.0
  0
LINE
  5
70C9
330
70A9
100
AcDbEntity
  8
0
100
AcDbLine
 10
3.024999973973265
 20
29.82499991295117
 30
0.0
 11
0.8999999739732658
 21
29.82499991295117
 31
0.0
  0
LINE
  5
70CA
330
70A9
100
AcDbEntity
  8
0
100
AcDbLine
 10
8.524999973973265
 20
29.82499991295117
 30
0.0
 11
6.599999973973268
 21
29.82499991295117
 31
0.0
  0
LWPOLYLINE
  5
70CB
330
70A9
100
AcDbEntity
  8
0
100
AcDbPolyline
 90
        4
 70
     1
 43
0.0
 10
3.474999973973268
 20
17.97499991295103
 10
3.12499997397326
 20
17.97499991295103
 10
3.12499997397326
 20
16.99999991295112
 10
3.474999973973268
 20
16.99999991295112
  0
LWPOLYLINE
  5
70CC
330
70A9
100
AcDbEntity
  8
0
100
AcDbPolyline
 90
        4
 70
     1
 43
0.0
 10
3.474999973973268
 20
19.29999991295107
 10
3.12499997397326
 20
19.29999991295107
 10
3.12499997397326
 20
18.34999991295103
 10
3.474999973973268
 20
18.34999991295103
  0
LWPOLYLINE
  5
70CD
330
70A9
100
AcDbEntity
  8
0
100
AcDbPolyline
 90
        4
 70
     1
 43
0.0
 10
3.474999973973268
 20
20.57499991295117
 10
3.12499997397326
 20
20.57499991295117
 10
3.12499997397326
 20
19.59999991295103
 10
3.474999973973268
 20
19.59999991295103
  0
LWPOLYLINE
  5
70CE
330
70A9
100
AcDbEntity
  8
0
100
AcDbPolyline
 90
        4
 70
     1
 43
0.0
 10
3.474999973973268
 20
21.79999991295108
 10
3.12499997397326
 20
21.79999991295108
 10
3.12499997397326
 20
20.82499991295116
 10
3.474999973973268
 20
20.82499991295116
  0
LWPOLYLINE
  5
70CF
330
70A9
100
AcDbEntity
  8
0
100
AcDbPolyline
 90
        4
 70
     1
 43
0.0
 10
3.474999973973268
 20
23.07499991295117
 10
3.12499997397326
 20
23.07499991295117
 10
3.12499997397326
 20
22.07499991295116
 10
3.474999973973268
 20
22.07499991295116
  0
LWPOLYLINE
  5
70D0
330
70A9
100
AcDbEntity
  8
0
100
AcDbPolyline
 90
        4
 70
     1
 43
0.0
 10
6.24999997397326
 20
17.97499991295103
 10
5.899999973973265
 20
17.97499991295103
 10
5.899999973973265
 20
16.99999991295112
 10
6.24999997397326
 20
16.99999991295112
  0
LWPOLYLINE
  5
70D1
330
70A9
100
AcDbEntity
  8
0
100
AcDbPolyline
 90
        4
 70
     1
 43
0.0
 10
6.24999997397326
 20
19.29999991295107
 10
5.899999973973265
 20
19.29999991295107
 10
5.899999973973265
 20
18.34999991295103
 10
6.24999997397326
 20
18.34999991295103
  0
LWPOLYLINE
  5
70D2
330
70A9
100
AcDbEntity
  8
0
100
AcDbPolyline
 90
        4
 70
     1
 43
0.0
 10
6.24999997397326
 20
20.57499991295117
 10
5.899999973973265
 20
20.57499991295117
 10
5.899999973973265
 20
19.59999991295103
 10
6.24999997397326
 20
19.59999991295103
  0
LWPOLYLINE
  5
70D3
330
70A9
100
AcDbEntity
  8
0
100
AcDbPolyline
 90
        4
 70
     1
 43
0.0
 10
6.24999997397326
 20
21.79999991295108
 10
5.899999973973265
 20
21.79999991295108
 10
5.899999973973265
 20
20.82499991295116
 10
6.24999997397326
 20
20.82499991295116
  0
LWPOLYLINE
  5
70D4
330
70A9
100
AcDbEntity
  8
0
100
AcDbPolyline
 90
        4
 70
     1
 43
0.0
 10
6.24999997397326
 20
23.07499991295117
 10
5.899999973973265
 20
23.07499991295117
 10
5.899999973973265
 20
22.07499991295116
 10
6.24999997397326
 20
22.07499991295116
  0
ELLIPSE
  5
70D5
330
70A9
100
AcDbEntity
  8
0
100
AcDbEllipse
 10
6.549999973973257
 20
24.02499991295099
 30
0.0
 11
0.0
 21
1.25
 31
0.0
210
0.0
220
0.0
230
1.0
 40
0.98
 41
4.509903999999999
 42
6.059223999999999
  0
ELLIPSE
  5
70D6
330
70A9
100
AcDbEntity
  8
0
100
AcDbEllipse
 10
2.87499997397326
 20
24.94999991295117
 30
0.0
 11
0.0
 21
1.25
 31
0.0
210
0.0
220
0.0
230
1.0
 40
0.98
 41
6.03468
 42
8.053399307179585
  0
LINE
  5
70D7
330
70A9
100
AcDbEntity
  8
0
100
AcDbLine
 10
6.849999973973268
 20
25.19999991295117
 30
0.0
 11
3.149999973973265
 21
26.12499991295112
 31
0.0
  0
ELLIPSE
  5
70D8
330
70A9
100
AcDbEntity
  8
0
100
AcDbEllipse
 10
4.724999973973268
 20
31.04999991295108
 30
0.0
 11
0.0
 21
0.775
 31
0.0
210
0.0
220
0.0
230
1.0
 40
0.9677419999999999
 41
0.0
 42
6.283184999999999
  0
LINE
  5
70D9
330
70A9
100
AcDbEntity
  8
0
100
AcDbLine
 10
8.524999973973265
 20
27.74999991295112
 30
0.0
 11
0.8999999739732658
 21
27.74999991295112
 31
0.0
  0
ENDBLK
  5
70DB
330
70A9
100
AcDbEntity
  8
0
100
AcDbBlockEnd
  0
BLOCK
  5
711D
330
70DC
100
AcDbEntity
  8
0
100
AcDbBlockBegin
  2
A$C3A6E1F00
 70
     0
 10
0.0
 20
0.0
 30
0.0
  3
A$C3A6E1F00
  1

  0
LWPOLYLINE
  5
70DD
330
70DC
100
AcDbEntity
  8
0
100
AcDbPolyline
 90
        4
 70
     1
 43
0.0
 10
3.449999973973262
 20
15.9499995198721
 10
3.099999973973261
 20
15.9499995198721
 10
3.099999973973261
 20
14.9749995198722
 10
3.449999973973262
 20
14.9749995198722
  0
LWPOLYLINE
  5
70DE
330
70DC
100
AcDbEntity
  8
0
100
AcDbPolyline
 90
        4
 70
     1
 43
0.0
 10
6.224999973973268
 20
15.9499995198721
 10
5.87499997397326
 20
15.9499995198721
 10
5.87499997397326
 20
14.9749995198722
 10
6.224999973973268
 20
14.9749995198722
  0
LWPOLYLINE
  5
70DF
330
70DC
100
AcDbEntity
  8
0
100
AcDbPolyline
 90
        4
 70
     1
 43
0.0
 10
6.599999973973268
 20
34.0749995198721
 10
2.899999973973265
 20
34.0749995198721
 10
2.899999973973265
 20
10.27499951987215
 10
6.599999973973268
 20
10.27499951987215
  0
LINE
  5
70E0
330
70DC
100
AcDbEntity
  8
0
100
AcDbLine
 10
7.774999973973265
 20
9.824999519872108
 30
0.0
 11
7.774999973973265
 21
33.99999951987206
 31
0.0
  0
LINE
  5
70E1
330
70DC
100
AcDbEntity
  8
0
100
AcDbLine
 10
1.649999973973265
 20
34.92499951987224
 30
0.0
 11
1.649999973973265
 21
8.899999519872153
 31
0.0
  0
LWPOLYLINE
  5
70E2
330
70DC
100
AcDbEntity
  8
0
100
AcDbPolyline
 90
        4
 70
     1
 43
0.2
 10
0.0999999739732616
 20
43.39999951987215
 10
0.0999999739732616
 20
0.099999519872199
 10
9.324999973973262
 20
0.099999519872199
 10
9.324999973973262
 20
43.39999951987215
  0
LWPOLYLINE
  5
70E3
330
70DC
100
AcDbEntity
  8
0
100
AcDbPolyline
 90
        4
 70
     1
 43
0.0
 10
3.449999973973262
 20
12.29999951987224
 10
3.099999973973261
 20
12.29999951987224
 10
3.099999973973261
 20
11.3249995198721
 10
3.449999973973262
 20
11.3249995198721
  0
LWPOLYLINE
  5
70E4
330
70DC
100
AcDbEntity
  8
0
100
AcDbPolyline
 90
        4
 70
     1
 43
0.0
 10
6.224999973973268
 20
12.29999951987224
 10
5.87499997397326
 20
12.29999951987224
 10
5.87499997397326
 20
11.3249995198721
 10
6.224999973973268
 20
11.3249995198721
  0
LWPOLYLINE
  5
70E5
330
70DC
100
AcDbEntity
  8
0
100
AcDbPolyline
 90
        4
 70
     1
 43
0.0
 10
3.449999973973262
 20
13.52499951987215
 10
3.099999973973261
 20
13.52499951987215
 10
3.099999973973261
 20
12.54999951987224
 10
3.449999973973262
 20
12.54999951987224
  0
LWPOLYLINE
  5
70E6
330
70DC
100
AcDbEntity
  8
0
100
AcDbPolyline
 90
        4
 70
     1
 43
0.0
 10
6.224999973973268
 20
13.52499951987215
 10
5.87499997397326
 20
13.52499951987215
 10
5.87499997397326
 20
12.54999951987224
 10
6.224999973973268
 20
12.54999951987224
  0
LWPOLYLINE
  5
70E7
330
70DC
100
AcDbEntity
  8
0
100
AcDbPolyline
 90
        4
 70
     1
 43
0.0
 10
3.449999973973262
 20
14.74999951987206
 10
3.099999973973261
 20
14.74999951987206
 10
3.099999973973261
 20
13.77499951987215
 10
3.449999973973262
 20
13.77499951987215
  0
LWPOLYLINE
  5
70E8
330
70DC
100
AcDbEntity
  8
0
100
AcDbPolyline
 90
        4
 70
     1
 43
0.0
 10
6.224999973973268
 20
14.74999951987206
 10
5.87499997397326
 20
14.74999951987206
 10
5.87499997397326
 20
13.77499951987215
 10
6.224999973973268
 20
13.77499951987215
  0
LINE
  5
70E9
330
70DC
100
AcDbEntity
  8
0
100
AcDbLine
 10
0.8999999739732658
 20
4.374999519872176
 30
0.0
 11
0.8999999739732658
 21
6.449999519872108
 31
0.0
  0
LINE
  5
70EA
330
70DC
100
AcDbEntity
  8
0
100
AcDbLine
 10
8.524999973973265
 20
4.374999519872176
 30
0.0
 11
8.524999973973265
 21
6.449999519872108
 31
0.0
  0
LINE
  5
70EB
330
70DC
100
AcDbEntity
  8
0
100
AcDbLine
 10
6.599999973973268
 20
4.349999519872199
 30
0.0
 11
6.599999973973268
 21
5.324999519872108
 31
0.0
  0
LINE
  5
70EC
330
70DC
100
AcDbEntity
  8
0
100
AcDbLine
 10
6.599999973973268
 20
5.349999519872199
 30
0.0
 11
3.024999973973265
 21
5.349999519872199
 31
0.0
  0
LINE
  5
70ED
330
70DC
100
AcDbEntity
  8
0
100
AcDbLine
 10
3.024999973973265
 20
4.374999519872176
 30
0.0
 11
3.024999973973265
 21
5.349999519872199
 31
0.0
  0
LINE
  5
70EE
330
70DC
100
AcDbEntity
  8
0
100
AcDbLine
 10
3.024999973973265
 20
4.374999519872176
 30
0.0
 11
0.8999999739732658
 21
4.374999519872176
 31
0.0
  0
LINE
  5
70EF
330
70DC
100
AcDbEntity
  8
0
100
AcDbLine
 10
8.524999973973265
 20
4.374999519872176
 30
0.0
 11
6.599999973973268
 21
4.374999519872176
 31
0.0
  0
LINE
  5
70F0
330
70DC
100
AcDbEntity
  8
0
100
AcDbLine
 10
8.524999973973265
 20
6.449999519872108
 30
0.0
 11
0.8999999739732658
 21
6.449999519872108
 31
0.0
  0
ELLIPSE
  5
70F1
330
70DC
100
AcDbEntity
  8
0
100
AcDbEllipse
 10
6.549999973973257
 20
10.04999951987224
 30
0.0
 11
0.0
 21
1.25
 31
0.0
210
0.0
220
0.0
230
1.0
 40
0.98
 41
3.380894
 42
4.528311
  0
ELLIPSE
  5
70F2
330
70DC
100
AcDbEntity
  8
0
100
AcDbEllipse
 10
2.87499997397326
 20
9.074999519872108
 30
0.0
 11
0.0
 21
1.25
 31
0.0
210
0.0
220
0.0
230
1.0
 40
0.98
 41
1.708854999999999
 42
3.380894
  0
LINE
  5
70F3
330
70DC
100
AcDbEntity
  8
0
100
AcDbLine
 10
3.149999973973265
 20
7.824999519872108
 30
0.0
 11
6.849999973973268
 21
8.799999519872244
 31
0.0
  0
ELLIPSE
  5
70F4
330
70DC
100
AcDbEntity
  8
0
100
AcDbEllipse
 10
4.724999973973268
 20
3.474999519872199
 30
0.0
 11
0.0
 21
0.775
 31
0.0
210
0.0
220
0.0
230
1.0
 40
0.9677419999999999
 41
0.0
 42
6.283184999999999
  0
LINE
  5
70F5
330
70DC
100
AcDbEntity
  8
0
100
AcDbLine
 10
0.8999999739732658
 20
39.79999951987224
 30
0.0
 11
0.8999999739732658
 21
37.72499951987219
 31
0.0
  0
LINE
  5
70F6
330
70DC
100
AcDbEntity
  8
0
100
AcDbLine
 10
8.524999973973265
 20
39.79999951987224
 30
0.0
 11
8.524999973973265
 21
37.72499951987219
 31
0.0
  0
LWPOLYLINE
  5
70F7
330
70DC
100
AcDbEntity
  8
0
100
AcDbPolyline
 90
        4
 70
     1
 43
0.0
 10
3.449999973973262
 20
17.12499951987206
 10
3.099999973973261
 20
17.12499951987206
 10
3.099999973973261
 20
16.14999951987215
 10
3.449999973973262
 20
16.14999951987215
  0
LWPOLYLINE
  5
70F8
330
70DC
100
AcDbEntity
  8
0
100
AcDbPolyline
 90
        4
 70
     1
 43
0.0
 10
6.224999973973268
 20
17.12499951987206
 10
5.87499997397326
 20
17.12499951987206
 10
5.87499997397326
 20
16.14999951987215
 10
6.224999973973268
 20
16.14999951987215
  0
LWPOLYLINE
  5
70F9
330
70DC
100
AcDbEntity
  8
0
100
AcDbPolyline
 90
        4
 70
     1
 43
0.0
 10
3.449999973973262
 20
18.29999951987224
 10
3.099999973973261
 20
18.29999951987224
 10
3.099999973973261
 20
17.3249995198721
 10
3.449999973973262
 20
17.3249995198721
  0
LWPOLYLINE
  5
70FA
330
70DC
100
AcDbEntity
  8
0
100
AcDbPolyline
 90
        4
 70
     1
 43
0.0
 10
6.224999973973268
 20
18.29999951987224
 10
5.87499997397326
 20
18.29999951987224
 10
5.87499997397326
 20
17.3249995198721
 10
6.224999973973268
 20
17.3249995198721
  0
LWPOLYLINE
  5
70FB
330
70DC
100
AcDbEntity
  8
0
100
AcDbPolyline
 90
        4
 70
     1
 43
0.0
 10
3.449999973973262
 20
19.4749995198722
 10
3.099999973973261
 20
19.4749995198722
 10
3.099999973973261
 20
18.49999951987206
 10
3.449999973973262
 20
18.49999951987206
  0
LWPOLYLINE
  5
70FC
330
70DC
100
AcDbEntity
  8
0
100
AcDbPolyline
 90
        4
 70
     1
 43
0.0
 10
6.224999973973268
 20
19.4749995198722
 10
5.87499997397326
 20
19.4749995198722
 10
5.87499997397326
 20
18.49999951987206
 10
6.224999973973268
 20
18.49999951987206
  0
LWPOLYLINE
  5
70FD
330
70DC
100
AcDbEntity
  8
0
100
AcDbPolyline
 90
        4
 70
     1
 43
0.0
 10
3.449999973973262
 20
20.67499951987224
 10
3.099999973973261
 20
20.67499951987224
 10
3.099999973973261
 20
19.6999995198721
 10
3.449999973973262
 20
19.6999995198721
  0
LWPOLYLINE
  5
70FE
330
70DC
100
AcDbEntity
  8
0
100
AcDbPolyline
 90
        4
 70
     1
 43
0.0
 10
6.224999973973268
 20
20.67499951987224
 10
5.87499997397326
 20
20.67499951987224
 10
5.87499997397326
 20
19.6999995198721
 10
6.224999973973268
 20
19.6999995198721
  0
LWPOLYLINE
  5
70FF
330
70DC
100
AcDbEntity
  8
0
100
AcDbPolyline
 90
        4
 70
     1
 43
0.0
 10
3.449999973973262
 20
21.8499995198722
 10
3.099999973973261
 20
21.8499995198722
 10
3.099999973973261
 20
20.87499951987206
 10
3.449999973973262
 20
20.87499951987206
  0
LWPOLYLINE
  5
7100
330
70DC
100
AcDbEntity
  8
0
100
AcDbPolyline
 90
        4
 70
     1
 43
0.0
 10
6.224999973973268
 20
21.8499995198722
 10
5.87499997397326
 20
21.8499995198722
 10
5.87499997397326
 20
20.87499951987206
 10
6.224999973973268
 20
20.87499951987206
  0
LWPOLYLINE
  5
7101
330
70DC
100
AcDbEntity
  8
0
100
AcDbPolyline
 90
        4
 70
     1
 43
0.0
 10
3.449999973973262
 20
23.04999951987224
 10
3.099999973973261
 20
23.04999951987224
 10
3.099999973973261
 20
22.0749995198721
 10
3.449999973973262
 20
22.0749995198721
  0
LWPOLYLINE
  5
7102
330
70DC
100
AcDbEntity
  8
0
100
AcDbPolyline
 90
        4
 70
     1
 43
0.0
 10
6.224999973973268
 20
23.04999951987224
 10
5.87499997397326
 20
23.04999951987224
 10
5.87499997397326
 20
22.0749995198721
 10
6.224999973973268
 20
22.0749995198721
  0
LWPOLYLINE
  5
7103
330
70DC
100
AcDbEntity
  8
0
100
AcDbPolyline
 90
        4
 70
     1
 43
0.0
 10
3.474999973973268
 20
24.24999951987206
 10
3.12499997397326
 20
24.24999951987206
 10
3.12499997397326
 20
23.27499951987215
 10
3.474999973973268
 20
23.27499951987215
  0
LWPOLYLINE
  5
7104
330
70DC
100
AcDbEntity
  8
0
100
AcDbPolyline
 90
        4
 70
     1
 43
0.0
 10
6.24999997397326
 20
24.24999951987206
 10
5.899999973973265
 20
24.24999951987206
 10
5.899999973973265
 20
23.27499951987215
 10
6.24999997397326
 20
23.27499951987215
  0
LWPOLYLINE
  5
7105
330
70DC
100
AcDbEntity
  8
0
100
AcDbPolyline
 90
        4
 70
     1
 43
0.0
 10
3.474999973973268
 20
25.49999951987206
 10
3.12499997397326
 20
25.49999951987206
 10
3.12499997397326
 20
24.52499951987215
 10
3.474999973973268
 20
24.52499951987215
  0
LWPOLYLINE
  5
7106
330
70DC
100
AcDbEntity
  8
0
100
AcDbPolyline
 90
        4
 70
     1
 43
0.0
 10
3.474999973973268
 20
26.67499951987224
 10
3.12499997397326
 20
26.67499951987224
 10
3.12499997397326
 20
25.6999995198721
 10
3.474999973973268
 20
25.6999995198721
  0
LWPOLYLINE
  5
7107
330
70DC
100
AcDbEntity
  8
0
100
AcDbPolyline
 90
        4
 70
     1
 43
0.0
 10
3.474999973973268
 20
27.94999951987211
 10
3.12499997397326
 20
27.94999951987211
 10
3.12499997397326
 20
26.9749995198722
 10
3.474999973973268
 20
26.9749995198722
  0
LWPOLYLINE
  5
7108
330
70DC
100
AcDbEntity
  8
0
100
AcDbPolyline
 90
        4
 70
     1
 43
0.0
 10
3.474999973973268
 20
29.27499951987215
 10
3.12499997397326
 20
29.27499951987215
 10
3.12499997397326
 20
28.32499951987211
 10
3.474999973973268
 20
28.32499951987211
  0
LWPOLYLINE
  5
7109
330
70DC
100
AcDbEntity
  8
0
100
AcDbPolyline
 90
        4
 70
     1
 43
0.0
 10
3.474999973973268
 20
30.54999951987224
 10
3.12499997397326
 20
30.54999951987224
 10
3.12499997397326
 20
29.57499951987211
 10
3.474999973973268
 20
29.57499951987211
  0
LWPOLYLINE
  5
710A
330
70DC
100
AcDbEntity
  8
0
100
AcDbPolyline
 90
        4
 70
     1
 43
0.0
 10
3.474999973973268
 20
31.77499951987215
 10
3.12499997397326
 20
31.77499951987215
 10
3.12499997397326
 20
30.79999951987224
 10
3.474999973973268
 20
30.79999951987224
  0
LWPOLYLINE
  5
710B
330
70DC
100
AcDbEntity
  8
0
100
AcDbPolyline
 90
        4
 70
     1
 43
0.0
 10
3.474999973973268
 20
33.04999951987224
 10
3.12499997397326
 20
33.04999951987224
 10
3.12499997397326
 20
32.04999951987224
 10
3.474999973973268
 20
32.04999951987224
  0
LWPOLYLINE
  5
710C
330
70DC
100
AcDbEntity
  8
0
100
AcDbPolyline
 90
        4
 70
     1
 43
0.0
 10
6.24999997397326
 20
25.49999951987206
 10
5.899999973973265
 20
25.49999951987206
 10
5.899999973973265
 20
24.52499951987215
 10
6.24999997397326
 20
24.52499951987215
  0
LWPOLYLINE
  5
710D
330
70DC
100
AcDbEntity
  8
0
100
AcDbPolyline
 90
        4
 70
     1
 43
0.0
 10
6.24999997397326
 20
26.67499951987224
 10
5.899999973973265
 20
26.67499951987224
 10
5.899999973973265
 20
25.6999995198721
 10
6.24999997397326
 20
25.6999995198721
  0
LWPOLYLINE
  5
710E
330
70DC
100
AcDbEntity
  8
0
100
AcDbPolyline
 90
        4
 70
     1
 43
0.0
 10
6.24999997397326
 20
27.94999951987211
 10
5.899999973973265
 20
27.94999951987211
 10
5.899999973973265
 20
26.9749995198722
 10
6.24999997397326
 20
26.9749995198722
  0
LWPOLYLINE
  5
710F
330
70DC
100
AcDbEntity
  8
0
100
AcDbPolyline
 90
        4
 70
     1
 43
0.0
 10
6.24999997397326
 20
29.27499951987215
 10
5.899999973973265
 20
29.27499951987215
 10
5.899999973973265
 20
28.32499951987211
 10
6.24999997397326
 20
28.32499951987211
  0
LWPOLYLINE
  5
7110
330
70DC
100
AcDbEntity
  8
0
100
AcDbPolyline
 90
        4
 70
     1
 43
0.0
 10
6.24999997397326
 20
30.54999951987224
 10
5.899999973973265
 20
30.54999951987224
 10
5.899999973973265
 20
29.57499951987211
 10
6.24999997397326
 20
29.57499951987211
  0
LWPOLYLINE
  5
7111
330
70DC
100
AcDbEntity
  8
0
100
AcDbPolyline
 90
        4
 70
     1
 43
0.0
 10
6.24999997397326
 20
31.77499951987215
 10
5.899999973973265
 20
31.77499951987215
 10
5.899999973973265
 20
30.79999951987224
 10
6.24999997397326
 20
30.79999951987224
  0
LWPOLYLINE
  5
7112
330
70DC
100
AcDbEntity
  8
0
100
AcDbPolyline
 90
        4
 70
     1
 43
0.0
 10
6.24999997397326
 20
33.04999951987224
 10
5.899999973973265
 20
33.04999951987224
 10
5.899999973973265
 20
32.04999951987224
 10
6.24999997397326
 20
32.04999951987224
  0
ELLIPSE
  5
7113
330
70DC
100
AcDbEntity
  8
0
100
AcDbEllipse
 10
6.549999973973257
 20
33.99999951987206
 30
0.0
 11
0.0
 21
1.25
 31
0.0
210
0.0
220
0.0
230
1.0
 40
0.98
 41
4.509903999999999
 42
6.059223999999999
  0
ELLIPSE
  5
7114
330
70DC
100
AcDbEntity
  8
0
100
AcDbEllipse
 10
2.87499997397326
 20
34.92499951987224
 30
0.0
 11
0.0
 21
1.25
 31
0.0
210
0.0
220
0.0
230
1.0
 40
0.98
 41
6.03468
 42
8.053399307179585
  0
LINE
  5
7115
330
70DC
100
AcDbEntity
  8
0
100
AcDbLine
 10
6.849999973973268
 20
35.17499951987224
 30
0.0
 11
3.149999973973265
 21
36.09999951987219
 31
0.0
  0
LINE
  5
7116
330
70DC
100
AcDbEntity
  8
0
100
AcDbLine
 10
8.524999973973265
 20
37.72499951987219
 30
0.0
 11
0.8999999739732658
 21
37.72499951987219
 31
0.0
  0
LINE
  5
7117
330
70DC
100
AcDbEntity
  8
0
100
AcDbLine
 10
6.599999973973268
 20
39.82499951987211
 30
0.0
 11
6.599999973973268
 21
38.8499995198722
 31
0.0
  0
LINE
  5
7118
330
70DC
100
AcDbEntity
  8
0
100
AcDbLine
 10
6.599999973973268
 20
38.8249995198721
 30
0.0
 11
3.024999973973265
 21
38.8249995198721
 31
0.0
  0
LINE
  5
7119
330
70DC
100
AcDbEntity
  8
0
100
AcDbLine
 10
3.024999973973265
 20
39.79999951987224
 30
0.0
 11
3.024999973973265
 21
38.8249995198721
 31
0.0
  0
LINE
  5
711A
330
70DC
100
AcDbEntity
  8
0
100
AcDbLine
 10
3.024999973973265
 20
39.79999951987224
 30
0.0
 11
0.8999999739732658
 21
39.79999951987224
 31
0.0
  0
LINE
  5
711B
330
70DC
100
AcDbEntity
  8
0
100
AcDbLine
 10
8.524999973973265
 20
39.79999951987224
 30
0.0
 11
6.599999973973268
 21
39.79999951987224
 31
0.0
  0
ELLIPSE
  5
711C
330
70DC
100
AcDbEntity
  8
0
100
AcDbEllipse
 10
4.724999973973268
 20
41.02499951987215
 30
0.0
 11
0.0
 21
0.775
 31
0.0
210
0.0
220
0.0
230
1.0
 40
0.9677419999999999
 41
0.0
 42
6.283184999999999
  0
ENDBLK
  5
711E
330
70DC
100
AcDbEntity
  8
0
100
AcDbBlockEnd
  0
BLOCK
  5
715E
330
711F
100
AcDbEntity
  8
0
100
AcDbBlockBegin
  2
A$C5A3A0BB0
 70
     0
 10
0.0
 20
0.0
 30
0.0
  3
A$C5A3A0BB0
  1

  0
LWPOLYLINE
  5
7120
330
711F
100
AcDbEntity
  8
0
100
AcDbPolyline
 90
        4
 70
     1
 43
0.2
 10
0.0999993794071088
 20
51.09999997583827
 10
15.0999993794071
 20
51.09999997583827
 10
15.0999993794071
 20
0.0999999758382728
 10
0.0999993794071088
 20
0.0999999758382728
  0
LINE
  5
7121
330
711F
100
AcDbEntity
  8
0
100
AcDbLine
 10
5.099999379407108
 20
4.099999975838272
 30
0.0
 11
7.099999379407108
 21
5.099999975838272
 31
0.0
  0
LINE
  5
7122
330
711F
100
AcDbEntity
  8
0
100
AcDbLine
 10
3.099999379407108
 20
4.099999975838272
 30
0.0
 11
2.099999379407108
 21
5.099999975838272
 31
0.0
  0
LWPOLYLINE
  5
7123
330
711F
100
AcDbEntity
  8
0
100
AcDbPolyline
 90
        4
 70
     1
 43
0.2
 10
2.099999379407108
 20
5.099999975838272
 10
7.099999379407108
 20
5.099999975838272
 10
7.099999379407108
 20
1.099999975838272
 10
2.099999379407108
 20
1.099999975838272
  0
LINE
  5
7124
330
711F
100
AcDbEntity
  8
0
100
AcDbLine
 10
10.0999993794071
 20
51.09999997583827
 30
0.0
 11
10.0999993794071
 21
0.0999999758382728
 31
0.0
  0
LINE
  5
7125
330
711F
100
AcDbEntity
  8
0
100
AcDbLine
 10
5.099999379407108
 20
2.099999975838272
 30
0.0
 11
7.099999379407108
 21
1.099999975838272
 31
0.0
  0
LINE
  5
7126
330
711F
100
AcDbEntity
  8
0
100
AcDbLine
 10
3.099999379407108
 20
2.099999975838272
 30
0.0
 11
2.099999379407108
 21
1.099999975838272
 31
0.0
  0
LWPOLYLINE
  5
7127
330
711F
100
AcDbEntity
  8
0
100
AcDbPolyline
 90
        4
 70
     1
 43
0.2
 10
3.099999379407108
 20
4.099999975838272
 10
5.099999379407108
 20
4.099999975838272
 10
5.099999379407108
 20
2.099999975838272
 10
3.099999379407108
 20
2.099999975838272
  0
LINE
  5
7128
330
711F
100
AcDbEntity
  8
0
100
AcDbLine
 10
5.099999379407108
 20
49.09999997583827
 30
0.0
 11
7.099999379407108
 21
50.09999997583827
 31
0.0
  0
LINE
  5
7129
330
711F
100
AcDbEntity
  8
0
100
AcDbLine
 10
3.099999379407108
 20
49.09999997583827
 30
0.0
 11
2.099999379407108
 21
50.09999997583827
 31
0.0
  0
LWPOLYLINE
  5
712A
330
711F
100
AcDbEntity
  8
0
100
AcDbPolyline
 90
        4
 70
     1
 43
0.2
 10
2.099999379407108
 20
50.09999997583827
 10
7.099999379407108
 20
50.09999997583827
 10
7.099999379407108
 20
46.09999997583827
 10
2.099999379407108
 20
46.09999997583827
  0
LINE
  5
712B
330
711F
100
AcDbEntity
  8
0
100
AcDbLine
 10
5.099999379407108
 20
27.09999997583827
 30
0.0
 11
7.099999379407108
 21
26.09999997583827
 31
0.0
  0
LINE
  5
712C
330
711F
100
AcDbEntity
  8
0
100
AcDbLine
 10
3.099999379407108
 20
27.09999997583827
 30
0.0
 11
2.099999379407108
 21
26.09999997583827
 31
0.0
  0
LWPOLYLINE
  5
712D
330
711F
100
AcDbEntity
  8
0
100
AcDbPolyline
 90
        4
 70
     1
 43
0.2
 10
2.099999379407108
 20
30.09999997583827
 10
7.099999379407108
 20
30.09999997583827
 10
7.099999379407108
 20
26.09999997583827
 10
2.099999379407108
 20
26.09999997583827
  0
LINE
  5
712E
330
711F
100
AcDbEntity
  8
0
100
AcDbLine
 10
5.099999379407108
 20
9.099999975838272
 30
0.0
 11
7.099999379407108
 21
10.09999997583827
 31
0.0
  0
LINE
  5
712F
330
711F
100
AcDbEntity
  8
0
100
AcDbLine
 10
5.099999379407108
 20
7.099999975838272
 30
0.0
 11
7.099999379407108
 21
6.099999975838272
 31
0.0
  0
LINE
  5
7130
330
711F
100
AcDbEntity
  8
0
100
AcDbLine
 10
3.099999379407108
 20
7.099999975838272
 30
0.0
 11
2.099999379407108
 21
6.099999975838272
 31
0.0
  0
LINE
  5
7131
330
711F
100
AcDbEntity
  8
0
100
AcDbLine
 10
3.099999379407108
 20
9.099999975838272
 30
0.0
 11
2.099999379407108
 21
10.09999997583827
 31
0.0
  0
LWPOLYLINE
  5
7132
330
711F
100
AcDbEntity
  8
0
100
AcDbPolyline
 90
        4
 70
     1
 43
0.2
 10
3.099999379407108
 20
9.099999975838272
 10
5.099999379407108
 20
9.099999975838272
 10
5.099999379407108
 20
7.099999975838272
 10
3.099999379407108
 20
7.099999975838272
  0
LWPOLYLINE
  5
7133
330
711F
100
AcDbEntity
  8
0
100
AcDbPolyline
 90
        4
 70
     1
 43
0.2
 10
2.099999379407108
 20
10.09999997583827
 10
7.099999379407108
 20
10.09999997583827
 10
7.099999379407108
 20
6.099999975838272
 10
2.099999379407108
 20
6.099999975838272
  0
LINE
  5
7134
330
711F
100
AcDbEntity
  8
0
100
AcDbLine
 10
5.099999379407108
 20
14.09999997583827
 30
0.0
 11
7.099999379407108
 21
15.09999997583827
 31
0.0
  0
LINE
  5
7135
330
711F
100
AcDbEntity
  8
0
100
AcDbLine
 10
5.099999379407108
 20
12.09999997583827
 30
0.0
 11
7.099999379407108
 21
11.09999997583827
 31
0.0
  0
LINE
  5
7136
330
711F
100
AcDbEntity
  8
0
100
AcDbLine
 10
3.099999379407108
 20
12.09999997583827
 30
0.0
 11
2.099999379407108
 21
11.09999997583827
 31
0.0
  0
LINE
  5
7137
330
711F
100
AcDbEntity
  8
0
100
AcDbLine
 10
3.099999379407108
 20
14.09999997583827
 30
0.0
 11
2.099999379407108
 21
15.09999997583827
 31
0.0
  0
LWPOLYLINE
  5
7138
330
711F
100
AcDbEntity
  8
0
100
AcDbPolyline
 90
        4
 70
     1
 43
0.2
 10
3.099999379407108
 20
14.09999997583827
 10
5.099999379407108
 20
14.09999997583827
 10
5.099999379407108
 20
12.09999997583827
 10
3.099999379407108
 20
12.09999997583827
  0
LWPOLYLINE
  5
7139
330
711F
100
AcDbEntity
  8
0
100
AcDbPolyline
 90
        4
 70
     1
 43
0.2
 10
2.099999379407108
 20
15.09999997583827
 10
7.099999379407108
 20
15.09999997583827
 10
7.099999379407108
 20
11.09999997583827
 10
2.099999379407108
 20
11.09999997583827
  0
LINE
  5
713A
330
711F
100
AcDbEntity
  8
0
100
AcDbLine
 10
5.099999379407108
 20
19.09999997583827
 30
0.0
 11
7.099999379407108
 21
20.09999997583827
 31
0.0
  0
LINE
  5
713B
330
711F
100
AcDbEntity
  8
0
100
AcDbLine
 10
5.099999379407108
 20
17.09999997583827
 30
0.0
 11
7.099999379407108
 21
16.09999997583827
 31
0.0
  0
LINE
  5
713C
330
711F
100
AcDbEntity
  8
0
100
AcDbLine
 10
3.099999379407108
 20
17.09999997583827
 30
0.0
 11
2.099999379407108
 21
16.09999997583827
 31
0.0
  0
LINE
  5
713D
330
711F
100
AcDbEntity
  8
0
100
AcDbLine
 10
3.099999379407108
 20
19.09999997583827
 30
0.0
 11
2.099999379407108
 21
20.09999997583827
 31
0.0
  0
LWPOLYLINE
  5
713E
330
711F
100
AcDbEntity
  8
0
100
AcDbPolyline
 90
        4
 70
     1
 43
0.2
 10
3.099999379407108
 20
19.09999997583827
 10
5.099999379407108
 20
19.09999997583827
 10
5.099999379407108
 20
17.09999997583827
 10
3.099999379407108
 20
17.09999997583827
  0
LWPOLYLINE
  5
713F
330
711F
100
AcDbEntity
  8
0
100
AcDbPolyline
 90
        4
 70
     1
 43
0.2
 10
2.099999379407108
 20
20.09999997583827
 10
7.099999379407108
 20
20.09999997583827
 10
7.099999379407108
 20
16.09999997583827
 10
2.099999379407108
 20
16.09999997583827
  0
LINE
  5
7140
330
711F
100
AcDbEntity
  8
0
100
AcDbLine
 10
5.099999379407108
 20
24.09999997583827
 30
0.0
 11
7.099999379407108
 21
25.09999997583827
 31
0.0
  0
LINE
  5
7141
330
711F
100
AcDbEntity
  8
0
100
AcDbLine
 10
5.099999379407108
 20
22.09999997583827
 30
0.0
 11
7.099999379407108
 21
21.09999997583827
 31
0.0
  0
LINE
  5
7142
330
711F
100
AcDbEntity
  8
0
100
AcDbLine
 10
3.099999379407108
 20
22.09999997583827
 30
0.0
 11
2.099999379407108
 21
21.09999997583827
 31
0.0
  0
LINE
  5
7143
330
711F
100
AcDbEntity
  8
0
100
AcDbLine
 10
3.099999379407108
 20
24.09999997583827
 30
0.0
 11
2.099999379407108
 21
25.09999997583827
 31
0.0
  0
LWPOLYLINE
  5
7144
330
711F
100
AcDbEntity
  8
0
100
AcDbPolyline
 90
        4
 70
     1
 43
0.2
 10
3.099999379407108
 20
24.09999997583827
 10
5.099999379407108
 20
24.09999997583827
 10
5.099999379407108
 20
22.09999997583827
 10
3.099999379407108
 20
22.09999997583827
  0
LWPOLYLINE
  5
7145
330
711F
100
AcDbEntity
  8
0
100
AcDbPolyline
 90
        4
 70
     1
 43
0.2
 10
2.099999379407108
 20
25.09999997583827
 10
7.099999379407108
 20
25.09999997583827
 10
7.099999379407108
 20
21.09999997583827
 10
2.099999379407108
 20
21.09999997583827
  0
LINE
  5
7146
330
711F
100
AcDbEntity
  8
0
100
AcDbLine
 10
5.099999379407108
 20
29.09999997583827
 30
0.0
 11
7.099999379407108
 21
30.09999997583827
 31
0.0
  0
LINE
  5
7147
330
711F
100
AcDbEntity
  8
0
100
AcDbLine
 10
3.099999379407108
 20
29.09999997583827
 30
0.0
 11
2.099999379407108
 21
30.09999997583827
 31
0.0
  0
LWPOLYLINE
  5
7148
330
711F
100
AcDbEntity
  8
0
100
AcDbPolyline
 90
        4
 70
     1
 43
0.2
 10
3.099999379407108
 20
29.09999997583827
 10
5.099999379407108
 20
29.09999997583827
 10
5.099999379407108
 20
27.09999997583827
 10
3.099999379407108
 20
27.09999997583827
  0
LINE
  5
7149
330
711F
100
AcDbEntity
  8
0
100
AcDbLine
 10
5.099999379407108
 20
34.09999997583827
 30
0.0
 11
7.099999379407108
 21
35.09999997583827
 31
0.0
  0
LINE
  5
714A
330
711F
100
AcDbEntity
  8
0
100
AcDbLine
 10
5.099999379407108
 20
32.09999997583827
 30
0.0
 11
7.099999379407108
 21
31.09999997583827
 31
0.0
  0
LINE
  5
714B
330
711F
100
AcDbEntity
  8
0
100
AcDbLine
 10
3.099999379407108
 20
32.09999997583827
 30
0.0
 11
2.099999379407108
 21
31.09999997583827
 31
0.0
  0
LINE
  5
714C
330
711F
100
AcDbEntity
  8
0
100
AcDbLine
 10
3.099999379407108
 20
34.09999997583827
 30
0.0
 11
2.099999379407108
 21
35.09999997583827
 31
0.0
  0
LWPOLYLINE
  5
714D
330
711F
100
AcDbEntity
  8
0
100
AcDbPolyline
 90
        4
 70
     1
 43
0.2
 10
3.099999379407108
 20
34.09999997583827
 10
5.099999379407108
 20
34.09999997583827
 10
5.099999379407108
 20
32.09999997583827
 10
3.099999379407108
 20
32.09999997583827
  0
LWPOLYLINE
  5
714E
330
711F
100
AcDbEntity
  8
0
100
AcDbPolyline
 90
        4
 70
     1
 43
0.2
 10
2.099999379407108
 20
35.09999997583827
 10
7.099999379407108
 20
35.09999997583827
 10
7.099999379407108
 20
31.09999997583827
 10
2.099999379407108
 20
31.09999997583827
  0
LINE
  5
714F
330
711F
100
AcDbEntity
  8
0
100
AcDbLine
 10
5.099999379407108
 20
39.09999997583827
 30
0.0
 11
7.099999379407108
 21
40.09999997583827
 31
0.0
  0
LINE
  5
7150
330
711F
100
AcDbEntity
  8
0
100
AcDbLine
 10
5.099999379407108
 20
37.09999997583827
 30
0.0
 11
7.099999379407108
 21
36.09999997583827
 31
0.0
  0
LINE
  5
7151
330
711F
100
AcDbEntity
  8
0
100
AcDbLine
 10
3.099999379407108
 20
37.09999997583827
 30
0.0
 11
2.099999379407108
 21
36.09999997583827
 31
0.0
  0
LINE
  5
7152
330
711F
100
AcDbEntity
  8
0
100
AcDbLine
 10
3.099999379407108
 20
39.09999997583827
 30
0.0
 11
2.099999379407108
 21
40.09999997583827
 31
0.0
  0
LWPOLYLINE
  5
7153
330
711F
100
AcDbEntity
  8
0
100
AcDbPolyline
 90
        4
 70
     1
 43
0.2
 10
3.099999379407108
 20
39.09999997583827
 10
5.099999379407108
 20
39.09999997583827
 10
5.099999379407108
 20
37.09999997583827
 10
3.099999379407108
 20
37.09999997583827
  0
LWPOLYLINE
  5
7154
330
711F
100
AcDbEntity
  8
0
100
AcDbPolyline
 90
        4
 70
     1
 43
0.2
 10
2.099999379407108
 20
40.09999997583827
 10
7.099999379407108
 20
40.09999997583827
 10
7.099999379407108
 20
36.09999997583827
 10
2.099999379407108
 20
36.09999997583827
  0
LINE
  5
7155
330
711F
100
AcDbEntity
  8
0
100
AcDbLine
 10
5.099999379407108
 20
44.09999997583827
 30
0.0
 11
7.099999379407108
 21
45.09999997583827
 31
0.0
  0
LINE
  5
7156
330
711F
100
AcDbEntity
  8
0
100
AcDbLine
 10
5.099999379407108
 20
42.09999997583827
 30
0.0
 11
7.099999379407108
 21
41.09999997583827
 31
0.0
  0
LINE
  5
7157
330
711F
100
AcDbEntity
  8
0
100
AcDbLine
 10
3.099999379407108
 20
42.09999997583827
 30
0.0
 11
2.099999379407108
 21
41.09999997583827
 31
0.0
  0
LINE
  5
7158
330
711F
100
AcDbEntity
  8
0
100
AcDbLine
 10
3.099999379407108
 20
44.09999997583827
 30
0.0
 11
2.099999379407108
 21
45.09999997583827
 31
0.0
  0
LWPOLYLINE
  5
7159
330
711F
100
AcDbEntity
  8
0
100
AcDbPolyline
 90
        4
 70
     1
 43
0.2
 10
3.099999379407108
 20
44.09999997583827
 10
5.099999379407108
 20
44.09999997583827
 10
5.099999379407108
 20
42.09999997583827
 10
3.099999379407108
 20
42.09999997583827
  0
LWPOLYLINE
  5
715A
330
711F
100
AcDbEntity
  8
0
100
AcDbPolyline
 90
        4
 70
     1
 43
0.2
 10
2.099999379407108
 20
45.09999997583827
 10
7.099999379407108
 20
45.09999997583827
 10
7.099999379407108
 20
41.09999997583827
 10
2.099999379407108
 20
41.09999997583827
  0
LINE
  5
715B
330
711F
100
AcDbEntity
  8
0
100
AcDbLine
 10
5.099999379407108
 20
47.09999997583827
 30
0.0
 11
7.099999379407108
 21
46.09999997583827
 31
0.0
  0
LINE
  5
715C
330
711F
100
AcDbEntity
  8
0
100
AcDbLine
 10
3.099999379407108
 20
47.09999997583827
 30
0.0
 11
2.099999379407108
 21
46.09999997583827
 31
0.0
  0
LWPOLYLINE
  5
715D
330
711F
100
AcDbEntity
  8
0
100
AcDbPolyline
 90
        4
 70
     1
 43
0.2
 10
3.099999379407108
 20
49.09999997583827
 10
5.099999379407108
 20
49.09999997583827
 10
5.099999379407108
 20
47.09999997583827
 10
3.099999379407108
 20
47.09999997583827
  0
ENDBLK
  5
715F
330
711F
100
AcDbEntity
  8
0
100
AcDbBlockEnd
  0
BLOCK
  5
7175
330
7160
100
AcDbEntity
  8
0
100
AcDbBlockBegin
  2
A$C3413120B
 70
     0
 10
0.0
 20
0.0
 30
0.0
  3
A$C3413120B
  1

  0
LWPOLYLINE
  5
7161
330
7160
100
AcDbEntity
  8
0
100
AcDbPolyline
 90
        4
 70
     1
 43
0.0
 10
-0.0000002802582912
 20
16.02466200946787
 10
14.99999971974171
 20
16.02466200946787
 10
14.99999971974171
 20
0.0
 10
-0.0000002802582912
 20
0.0
  0
LINE
  5
7162
330
7160
100
AcDbEntity
  8
0
100
AcDbLine
 10
9.999999719741708
 20
16.02466200946787
 30
0.0
 11
9.999999719741708
 21
0.0
 31
0.0
  0
LINE
  5
7163
330
7160
100
AcDbEntity
  8
0
100
AcDbLine
 10
4.999999719741708
 20
14.02466200946787
 30
0.0
 11
6.999999719741708
 21
15.02466200946787
 31
0.0
  0
LINE
  5
7164
330
7160
100
AcDbEntity
  8
0
100
AcDbLine
 10
2.999999719741708
 20
14.02466200946787
 30
0.0
 11
1.999999719741708
 21
15.02466200946787
 31
0.0
  0
LWPOLYLINE
  5
7165
330
7160
100
AcDbEntity
  8
0
100
AcDbPolyline
 90
        4
 70
     1
 43
0.2
 10
1.999999719741708
 20
15.02466200946787
 10
6.999999719741708
 20
15.02466200946787
 10
6.999999719741708
 20
11.02466200946787
 10
1.999999719741708
 20
11.02466200946787
  0
LINE
  5
7166
330
7160
100
AcDbEntity
  8
0
100
AcDbLine
 10
4.999999719741708
 20
4.024662009467874
 30
0.0
 11
6.999999719741708
 21
5.024662009467874
 31
0.0
  0
LINE
  5
7167
330
7160
100
AcDbEntity
  8
0
100
AcDbLine
 10
4.999999719741708
 20
2.024662009467874
 30
0.0
 11
6.999999719741708
 21
1.024662009467874
 31
0.0
  0
LINE
  5
7168
330
7160
100
AcDbEntity
  8
0
100
AcDbLine
 10
2.999999719741708
 20
2.024662009467874
 30
0.0
 11
1.999999719741708
 21
1.024662009467874
 31
0.0
  0
LINE
  5
7169
330
7160
100
AcDbEntity
  8
0
100
AcDbLine
 10
2.999999719741708
 20
4.024662009467874
 30
0.0
 11
1.999999719741708
 21
5.024662009467874
 31
0.0
  0
LWPOLYLINE
  5
716A
330
7160
100
AcDbEntity
  8
0
100
AcDbPolyline
 90
        4
 70
     1
 43
0.2
 10
2.999999719741708
 20
4.024662009467874
 10
4.999999719741708
 20
4.024662009467874
 10
4.999999719741708
 20
2.024662009467874
 10
2.999999719741708
 20
2.024662009467874
  0
LWPOLYLINE
  5
716B
330
7160
100
AcDbEntity
  8
0
100
AcDbPolyline
 90
        4
 70
     1
 43
0.2
 10
1.999999719741708
 20
5.024662009467874
 10
6.999999719741708
 20
5.024662009467874
 10
6.999999719741708
 20
1.024662009467874
 10
1.999999719741708
 20
1.024662009467874
  0
LINE
  5
716C
330
7160
100
AcDbEntity
  8
0
100
AcDbLine
 10
4.999999719741708
 20
9.024662009467874
 30
0.0
 11
6.999999719741708
 21
10.02466200946787
 31
0.0
  0
LINE
  5
716D
330
7160
100
AcDbEntity
  8
0
100
AcDbLine
 10
4.999999719741708
 20
7.024662009467874
 30
0.0
 11
6.999999719741708
 21
6.024662009467874
 31
0.0
  0
LINE
  5
716E
330
7160
100
AcDbEntity
  8
0
100
AcDbLine
 10
2.999999719741708
 20
7.024662009467874
 30
0.0
 11
1.999999719741708
 21
6.024662009467874
 31
0.0
  0
LINE
  5
716F
330
7160
100
AcDbEntity
  8
0
100
AcDbLine
 10
2.999999719741708
 20
9.024662009467874
 30
0.0
 11
1.999999719741708
 21
10.02466200946787
 31
0.0
  0
LWPOLYLINE
  5
7170
330
7160
100
AcDbEntity
  8
0
100
AcDbPolyline
 90
        4
 70
     1
 43
0.2
 10
2.999999719741708
 20
9.024662009467874
 10
4.999999719741708
 20
9.024662009467874
 10
4.999999719741708
 20
7.024662009467874
 10
2.999999719741708
 20
7.024662009467874
  0
LWPOLYLINE
  5
7171
330
7160
100
AcDbEntity
  8
0
100
AcDbPolyline
 90
        4
 70
     1
 43
0.2
 10
1.999999719741708
 20
10.02466200946787
 10
6.999999719741708
 20
10.02466200946787
 10
6.999999719741708
 20
6.024662009467874
 10
1.999999719741708
 20
6.024662009467874
  0
LINE
  5
7172
330
7160
100
AcDbEntity
  8
0
100
AcDbLine
 10
4.999999719741708
 20
12.02466200946787
 30
0.0
 11
6.999999719741708
 21
11.02466200946787
 31
0.0
  0
LINE
  5
7173
330
7160
100
AcDbEntity
  8
0
100
AcDbLine
 10
2.999999719741708
 20
12.02466200946787
 30
0.0
 11
1.999999719741708
 21
11.02466200946787
 31
0.0
  0
LWPOLYLINE
  5
7174
330
7160
100
AcDbEntity
  8
0
100
AcDbPolyline
 90
        4
 70
     1
 43
0.2
 10
2.999999719741708
 20
14.02466200946787
 10
4.999999719741708
 20
14.02466200946787
 10
4.999999719741708
 20
12.02466200946787
 10
2.999999719741708
 20
12.02466200946787
  0
ENDBLK
  5
7176
330
7160
100
AcDbEntity
  8
0
100
AcDbBlockEnd
  0
ENDSEC
  0
SECTION
  2
ENTITIES
  0
MTEXT
  5
75BD
330
18
100
AcDbEntity
  8
0
100
AcDbMText
 10
151.7547048264638
 20
141.4082241271147
 30
0.0
 40
2.799999999999999
 41
4.654799999999999
 71
     1
 72
     5
  1
s
  7
MSｺﾞｼｯｸ
 73
     1
 44
1.0
  0
ARC
  5
75BE
330
18
100
AcDbEntity
  8
0
100
AcDbCircle
 10
423.4283281057205
 20
141.6730011160861
 30
0.0
 40
1.75
100
AcDbArc
 50
90.0
 51
270.0
  0
ARC
  5
75BF
330
18
100
AcDbEntity
  8
0
100
AcDbCircle
 10
434.9283281057205
 20
141.6730011160861
 30
0.0
 40
1.75
100
AcDbArc
 50
270.0
 51
90.0
  0
ARC
  5
75C0
330
18
100
AcDbEntity
  8
0
100
AcDbCircle
 10
410.9283281057205
 20
141.6730011160861
 30
0.0
 40
1.75
100
AcDbArc
 50
270.0
 51
90.0
  0
ARC
  5
75C1
330
18
100
AcDbEntity
  8
0
100
AcDbCircle
 10
399.4283281057205
 20
141.6730011160861
 30
0.0
 40
1.75
100
AcDbArc
 50
90.0
 51
270.0
  0
LINE
  5
75C2
330
18
100
AcDbEntity
  8
0
100
AcDbLine
 10
292.9783281057205
 20
147.2730011160863
 30
0.0
 11
292.9783281057205
 21
132.0730011160862
 31
0.0
  0
LINE
  5
75C3
330
18
100
AcDbEntity
  8
0
100
AcDbLine
 10
293.6783281057205
 20
147.2730011160863
 30
0.0
 11
293.6783281057205
 21
132.0730011160862
 31
0.0
  0
CIRCLE
  5
75C4
330
18
100
AcDbEntity
  8
0
100
AcDbCircle
 10
289.4783281057204
 20
139.6530011160863
 30
0.0
 40
2.0
  0
LINE
  5
75C5
330
18
100
AcDbEntity
  8
0
100
AcDbLine
 10
288.2922469946654
 20
138.0426559363194
 30
0.0
 11
291.0886732854874
 21
140.8390822271413
 31
0.0
  0
LINE
  5
75C6
330
18
100
AcDbEntity
  8
0
100
AcDbLine
 10
287.8679829259535
 20
138.4669200050312
 30
0.0
 11
290.6644092167752
 21
141.2633462958532
 31
0.0
  0
LINE
  5
75C7
330
18
100
AcDbEntity
  8
0
100
AcDbLine
 10
284.1783281057205
 20
147.2730011160864
 30
0.0
 11
284.1783281057205
 21
132.0730011160865
 31
0.0
  0
LINE
  5
75C8
330
18
100
AcDbEntity
  8
0
100
AcDbLine
 10
285.6783281057205
 20
147.2730011160864
 30
0.0
 11
285.6783281057207
 21
132.0730011160865
 31
0.0
  0
LINE
  5
75C9
330
18
100
AcDbEntity
  8
0
100
AcDbLine
 10
156.3503671924545
 20
148.6730011160863
 30
0.0
 11
156.3503671924545
 21
130.1730011160863
 31
0.0
  0
INSERT
  5
75CA
330
18
100
AcDbEntity
  8
0
100
AcDbBlockReference
  2
A$C3413120B
 10
157.2679648055334
 20
131.3162694862658
 30
0.0
  0
INSERT
  5
75CB
330
18
100
AcDbEntity
  8
0
100
AcDbBlockReference
  2
A$C6C1277F2
 10
184.0253672184812
 20
112.3980015986513
 30
0.0
  0
LINE
  5
75CC
330
18
100
AcDbEntity
  8
0
100
AcDbLine
 10
179.8503671924545
 20
112.6730011160863
 30
0.0
 11
179.8503671924545
 21
159.1730011160863
 31
0.0
  0
LINE
  5
75CD
330
18
100
AcDbEntity
  8
0
100
AcDbLine
 10
194.3503671924545
 20
159.1730011160863
 30
0.0
 11
194.3503671924545
 21
19.17300111608631
 31
0.0
  0
LINE
  5
75CE
330
18
100
AcDbEntity
  8
0
100
AcDbLine
 10
145.3503671924545
 20
169.6730011160863
 30
0.0
 11
145.3503671924545
 21
9.673001116086311
 31
0.0
  0
LINE
  5
75CF
330
18
100
AcDbEntity
  8
0
100
AcDbLine
 10
198.3503671924545
 20
168.6730011160863
 30
0.0
 11
198.3503671924545
 21
10.67300111608631
 31
0.0
  0
LINE
  5
75D0
330
18
100
AcDbEntity
  8
0
100
AcDbLine
 10
133.3503671924545
 20
169.6730011160863
 30
0.0
 11
133.3503671924545
 21
9.673001116086311
 31
0.0
  0
LINE
  5
75D4
330
18
100
AcDbEntity
  8
0
100
AcDbLine
 10
295.6783281057205
 20
10.67300111608619
 30
0.0
 11
295.6783281057205
 21
168.6730011160864
 31
0.0
  0
LINE
  5
75D5
330
18
100
AcDbEntity
  8
0
100
AcDbLine
 10
295.6783281057205
 20
169.6730011160863
 30
0.0
 11
295.6783281057205
 21
9.673001116086311
 31
0.0
  0
LINE
  5
75D6
330
18
100
AcDbEntity
  8
0
100
AcDbLine
 10
293.6783281057205
 20
169.6730011160863
 30
0.0
 11
293.6783281057205
 21
9.673001116086311
 31
0.0
  0
LINE
  5
75D7
330
18
100
AcDbEntity
  8
0
100
AcDbLine
 10
442.6783281057205
 20
168.6730011160864
 30
0.0
 11
442.6783281057205
 21
10.67300111608616
 31
0.0
  0
LINE
  5
75D8
330
18
100
AcDbEntity
  8
0
100
AcDbLine
 10
442.6783281057205
 20
184.6730011160862
 30
0.0
 11
442.6783281057205
 21
-5.326998883913745
 31
0.0
  0
LINE
  5
75D9
330
18
100
AcDbEntity
  8
0
100
AcDbLine
 10
444.6783281057205
 20
184.6730011160862
 30
0.0
 11
444.6783281057205
 21
-5.326998883913745
 31
0.0
  0
LINE
  5
75DA
330
18
100
AcDbEntity
  8
0
100
AcDbLine
 10
441.6783281057205
 20
9.673001116086169
 30
0.0
 11
296.6783281057205
 21
9.673001116086197
 31
0.0
  0
LINE
  5
75DB
330
18
100
AcDbEntity
  8
0
100
AcDbLine
 10
370.6783281057205
 20
9.673001116086027
 30
0.0
 11
442.6783281057205
 21
9.673001116086254
 31
0.0
  0
ARC
  5
75DC
330
18
100
AcDbEntity
  8
0
 48
0.2
100
AcDbCircle
 10
260.7783281057204
 20
89.32300111608624
 30
0.0
 40
3.100000000000022
100
AcDbArc
 50
40.87863514651568
 51
180.0
  0
LINE
  5
75DD
330
18
100
AcDbEntity
  8
0
 48
0.2
100
AcDbLine
 10
278.6783281057203
 20
89.32300111608617
 30
0.0
 11
257.6783281057203
 21
89.32300111608617
 31
0.0
  0
ARC
  5
75DE
330
18
100
AcDbEntity
  8
0
 48
0.2
100
AcDbCircle
 10
260.7783281057206
 20
73.52300111608653
 30
0.0
 40
3.100000000000022
100
AcDbArc
 50
180.0
 51
319.1213648534843
  0
LINE
  5
75DF
330
18
100
AcDbEntity
  8
0
 48
0.2
100
AcDbLine
 10
278.6783281057205
 20
73.52300111608645
 30
0.0
 11
257.6783281057205
 21
73.52300111608622
 31
0.0
  0
LINE
  5
75E0
330
18
100
AcDbEntity
  8
0
100
AcDbLine
 10
170.6003671924545
 20
-5.326998883913915
 30
0.0
 11
151.3503671924545
 21
-5.326998883913688
 31
0.0
  0
LINE
  5
75E1
330
18
100
AcDbEntity
  8
0
100
AcDbLine
 10
133.3503671924545
 20
9.673001116086311
 30
0.0
 11
197.3503671924545
 21
9.673001116086311
 31
0.0
  0
LINE
  5
75E3
330
18
100
AcDbEntity
  8
0
100
AcDbLine
 10
151.3503671924545
 20
-5.326998883913688
 30
0.0
 11
150.3503671924545
 21
-4.326998883913688
 31
0.0
  0
LINE
  5
75E4
330
18
100
AcDbEntity
  8
0
100
AcDbLine
 10
150.3503671924545
 20
8.014688720908679
 30
0.0
 11
150.3503671924545
 21
-4.326998883913688
 31
0.0
  0
ARC
  5
75E5
330
18
100
AcDbEntity
  8
0
100
AcDbCircle
 10
152.8503671924545
 20
9.673001116086311
 30
0.0
 40
3.0
100
AcDbArc
 50
180.0
 51
0.0
  0
LINE
  5
75E6
330
18
100
AcDbEntity
  8
0
100
AcDbLine
 10
197.3503671924545
 20
-5.326998883913915
 30
0.0
 11
178.1003671924545
 21
-5.326998883913915
 31
0.0
  0
LINE
  5
75E7
330
18
100
AcDbEntity
  8
0
100
AcDbLine
 10
178.1003671924545
 20
-5.326998883913915
 30
0.0
 11
177.1003671924545
 21
-4.326998883913915
 31
0.0
  0
LINE
  5
75E9
330
18
100
AcDbEntity
  8
0
100
AcDbLine
 10
177.1003671924545
 20
-0.3269988839136886
 30
0.0
 11
177.1003671924545
 21
-4.326998883913915
 31
0.0
  0
LINE
  5
75EA
330
18
100
AcDbEntity
  8
0
100
AcDbLine
 10
171.6003671924545
 20
-0.3269988839136886
 30
0.0
 11
171.6003671924545
 21
-4.326998883913915
 31
0.0
  0
LINE
  5
75EB
330
18
100
AcDbEntity
  8
0
100
AcDbLine
 10
171.6003671924545
 20
-4.326998883913915
 30
0.0
 11
170.6003671924545
 21
-5.326998883913915
 31
0.0
  0
ARC
  5
75EC
330
18
100
AcDbEntity
  8
0
100
AcDbCircle
 10
174.3503671924545
 20
-0.326998883913916
 30
0.0
 40
2.75
100
AcDbArc
 50
0.0
 51
180.0
  0
LINE
  5
75ED
330
18
100
AcDbEntity
  8
0
100
AcDbLine
 10
198.3503671924545
 20
10.67300111608631
 30
0.0
 11
197.3503671924545
 21
9.673001116086311
 31
0.0
  0
LINE
  5
75EE
330
18
100
AcDbEntity
  8
0
100
AcDbLine
 10
198.3503671924545
 20
-4.326998883913915
 30
0.0
 11
197.3503671924545
 21
-5.326998883913915
 31
0.0
  0
LINE
  5
75EF
330
18
100
AcDbEntity
  8
0
100
AcDbLine
 10
198.3503671924545
 20
10.67300111608631
 30
0.0
 11
198.3503671924545
 21
-4.326998883913915
 31
0.0
  0
LINE
  5
75F0
330
18
100
AcDbEntity
  8
0
100
AcDbLine
 10
169.8503671924545
 20
130.1730011160863
 30
0.0
 11
156.3503671924545
 21
130.1730011160863
 31
0.0
  0
LINE
  5
75F1
330
18
100
AcDbEntity
  8
0
100
AcDbLine
 10
169.8503671924545
 20
114.173001116086
 30
0.0
 11
156.3503671924545
 21
114.173001116086
 31
0.0
  0
LINE
  5
75F2
330
18
100
AcDbEntity
  8
0
100
AcDbLine
 10
169.8503671924545
 20
59.67300111608631
 30
0.0
 11
156.3503671924545
 21
59.67300111608631
 31
0.0
  0
INSERT
  5
75F3
330
18
100
AcDbEntity
  8
0
100
AcDbBlockReference
  2
A$C5A3A0BB0
 10
157.2966498660193
 20
61.45447746838261
 30
0.0
  0
LINE
  5
75F4
330
18
100
AcDbEntity
  8
0
100
AcDbLine
 10
156.3503671924545
 20
59.67300111608631
 30
0.0
 11
156.3503671924545
 21
114.173001116086
 31
0.0
  0
LINE
  5
75F5
330
18
100
AcDbEntity
  8
0
370
    40
100
AcDbLine
 10
152.3503671924545
 20
18.67300111608637
 30
0.0
 11
152.3503671924545
 21
17.07300111608617
 31
0.0
  0
LINE
  5
75F6
330
18
100
AcDbEntity
  8
0
370
    40
100
AcDbLine
 10
154.3503671924545
 20
17.07300111608617
 30
0.0
 11
150.3503671924545
 21
17.07300111608623
 31
0.0
  0
LINE
  5
75F7
330
18
100
AcDbEntity
  8
0
370
    40
100
AcDbLine
 10
153.6003671924545
 20
15.87300111608624
 30
0.0
 11
151.1003671924545
 21
15.87300111608624
 31
0.0
  0
LINE
  5
75F8
330
18
100
AcDbEntity
  8
0
370
    40
100
AcDbLine
 10
152.8503671924545
 20
14.67300111608625
 30
0.0
 11
151.8503671924545
 21
14.67300111608625
 31
0.0
  0
CIRCLE
  5
75F9
330
18
100
AcDbEntity
  8
0
370
    40
100
AcDbCircle
 10
152.3503671924545
 20
16.67300111608631
 30
0.0
 40
3.0
  0
MTEXT
  5
75FA
330
18
100
AcDbEntity
  8
0
100
AcDbMText
 10
151.5442969867395
 20
75.30350365897016
 30
0.0
 40
2.799999999999999
 41
4.654799999999999
 71
     1
 72
     5
  1
W
  7
MSｺﾞｼｯｸ
 73
     1
 44
1.0
  0
MTEXT
  5
75FB
330
18
100
AcDbEntity
  8
0
100
AcDbMText
 10
151.7430384805862
 20
111.6274578303032
 30
0.0
 40
2.799999999999999
 41
4.654799999999999
 71
     1
 72
     5
  1
R
  7
MSｺﾞｼｯｸ
 73
     1
 44
1.0
  0
MTEXT
  5
75FC
330
18
100
AcDbEntity
  8
0
100
AcDbMText
 10
151.5348325267892
 20
80.19931655659275
 30
0.0
 40
2.799999999999999
 41
4.654799999999999
 71
     1
 72
     5
  1
V
  7
MSｺﾞｼｯｸ
 73
     1
 44
1.0
  0
MTEXT
  5
75FD
330
18
100
AcDbEntity
  8
0
100
AcDbMText
 10
151.6081212658288
 20
85.39931655659279
 30
0.0
 40
2.799999999999999
 41
4.654799999999999
 71
     1
 72
     5
  1
U
  7
MSｺﾞｼｯｸ
 73
     1
 44
1.0
  0
MTEXT
  5
75FE
330
18
100
AcDbEntity
  8
0
100
AcDbMText
 10
150.7806257712869
 20
91.13164493268049
 30
0.0
 40
2.799999999999999
 41
4.654799999999999
 71
     1
 72
     5
  1
B2
  7
MSｺﾞｼｯｸ
 73
     1
 44
1.0
  0
MTEXT
  5
75FF
330
18
100
AcDbEntity
  8
0
100
AcDbMText
 10
150.7666784662311
 20
96.1795494876376
 30
0.0
 40
2.799999999999999
 41
4.654799999999999
 71
     1
 72
     5
  1
B1
  7
MSｺﾞｼｯｸ
 73
     1
 44
1.0
  0
MTEXT
  5
7600
330
18
100
AcDbEntity
  8
0
100
AcDbMText
 10
151.6686548811427
 20
101.3795456999287
 30
0.0
 40
2.799999999999999
 41
4.654799999999999
 71
     1
 72
     5
  1
T
  7
MSｺﾞｼｯｸ
 73
     1
 44
1.0
  0
MTEXT
  5
7601
330
18
100
AcDbEntity
  8
0
100
AcDbMText
 10
151.6081212658288
 20
106.5795494876376
 30
0.0
 40
2.799999999999999
 41
4.654799999999999
 71
     1
 72
     5
  1
S
  7
MSｺﾞｼｯｸ
 73
     1
 44
1.0
  0
LINE
  5
7602
330
18
100
AcDbEntity
  8
0
 48
0.2
100
AcDbLine
 10
257.6783281057205
 20
73.52300111608645
 30
0.0
 11
257.6783281057203
 21
89.32300111608617
 31
0.0
  0
INSERT
  5
7603
330
18
100
AcDbEntity
  8
0
100
AcDbBlockReference
  2
A$C57095CDF
 10
184.0253672184812
 20
64.24800120313523
 30
0.0
  0
LINE
  5
7604
330
18
100
AcDbEntity
  8
0
100
AcDbLine
 10
179.8503671924543
 20
97.17300111608631
 30
0.0
 11
179.8503671924543
 21
19.17300111608631
 31
0.0
  0
INSERT
  5
7605
330
18
100
AcDbEntity
  8
0
100
AcDbBlockReference
  2
A$C3A6E1F00
 10
184.0253672184812
 20
20.27300159621415
 30
0.0
  0
MTEXT
  5
7606
330
18
100
AcDbEntity
  8
0
100
AcDbMText
 10
178.0521345120572
 20
43.87582538531126
 30
0.0
 40
2.2
 41
7.047999999999999
 71
     3
 72
     5
  1
CN1
  7
MSｺﾞｼｯｸ
 73
     1
 44
1.0
  0
LINE
  5
760B
330
18
100
AcDbEntity
  8
0
100
AcDbLine
 10
194.3503671924545
 20
19.17300111608631
 30
0.0
 11
179.8503671924543
 21
19.17300111608631
 31
0.0
  0
LINE
  5
760E
330
18
100
AcDbEntity
  8
0
100
AcDbLine
 10
169.8503671924545
 20
61.55447744422088
 30
0.0
 11
169.8503671924545
 21
59.67300111608631
 31
0.0
  0
LINE
  5
760F
330
18
100
AcDbEntity
  8
0
100
AcDbLine
 10
173.8503671924545
 20
97.17300111608631
 30
0.0
 11
173.8503671924545
 21
112.6730011160863
 31
0.0
  0
INSERT
  5
7610
330
18
100
AcDbEntity
  8
0
100
AcDbBlockReference
  2
A$C2F696F30
 10
176.9503664272904
 20
97.82300130946863
 30
0.0
  0
MTEXT
  5
7611
330
18
100
AcDbEntity
  8
0
100
AcDbMText
 10
178.1086978001207
 20
95.49601695951389
 30
0.0
 40
2.2
 41
7.047999999999999
 71
     3
 72
     5
  1
J2
  7
MSｺﾞｼｯｸ
 73
     1
 44
1.0
  0
MTEXT
  5
7612
330
18
100
AcDbEntity
  8
0
100
AcDbMText
 10
178.5632518447313
 20
81.9359211724128
 30
0.0
 40
2.2
 41
7.047999999999999
 71
     3
 72
     5
  1
CN2
  7
MSｺﾞｼｯｸ
 73
     1
 44
1.0
  0
LINE
  5
7613
330
18
100
AcDbEntity
  8
0
100
AcDbLine
 10
179.8503671924543
 20
97.17300111608631
 30
0.0
 11
173.8503671924545
 21
97.17300111608631
 31
0.0
  0
LINE
  5
7614
330
18
100
AcDbEntity
  8
0
100
AcDbLine
 10
179.8503671924545
 20
112.6730011160863
 30
0.0
 11
173.8503671924545
 21
112.6730011160863
 31
0.0
  0
MTEXT
  5
7615
330
18
100
AcDbEntity
  8
0
100
AcDbMText
 10
159.8467740064757
 20
119.5034996940252
 30
0.0
 40
4.0
 41
13.7408
 71
     1
 72
     5
  1
TB2
  7
MSｺﾞｼｯｸ
 73
     1
 44
1.0
  0
MTEXT
  5
7616
330
18
100
AcDbEntity
  8
0
100
AcDbMText
 10
177.5042983608894
 20
129.1955418117159
 30
0.0
 40
2.2
 41
7.047999999999999
 71
     3
 72
     5
  1
J1
  7
MSｺﾞｼｯｸ
 73
     1
 44
1.0
  0
LINE
  5
7617
330
18
100
AcDbEntity
  8
0
100
AcDbLine
 10
169.8503671924545
 20
131.3162694862658
 30
0.0
 11
169.8503671924545
 21
130.1730011160863
 31
0.0
  0
LINE
  5
7618
330
18
100
AcDbEntity
  8
0
100
AcDbLine
 10
169.8503671924545
 20
114.173001116086
 30
0.0
 11
169.8503671924545
 21
112.5544774442208
 31
0.0
  0
LINE
  5
7619
330
18
100
AcDbEntity
  8
0
100
AcDbLine
 10
295.6783281057205
 20
9.673001116086311
 30
0.0
 11
356.6783281057205
 21
9.673001116086254
 31
0.0
  0
LINE
  5
761A
330
18
100
AcDbEntity
  8
0
100
AcDbLine
 10
296.6783281057205
 20
9.673001116086197
 30
0.0
 11
295.6783281057205
 21
10.67300111608619
 31
0.0
  0
LINE
  5
761B
330
18
100
AcDbEntity
  8
0
100
AcDbLine
 10
293.6783281057205
 20
9.673001116086311
 30
0.0
 11
295.6783281057205
 21
9.673001116086311
 31
0.0
  0
ARC
  5
761C
330
18
100
AcDbEntity
  8
0
100
AcDbCircle
 10
363.6783281057205
 20
9.673001116086311
 30
0.0
 40
3.0
100
AcDbArc
 50
180.0
 51
0.0
  0
LINE
  5
761D
330
18
100
AcDbEntity
  8
0
100
AcDbLine
 10
327.4283281057205
 20
32.92300111608642
 30
0.0
 11
338.9283281057205
 21
32.9230011160862
 31
0.0
  0
LINE
  5
761E
330
18
100
AcDbEntity
  8
0
100
AcDbLine
 10
327.4283281057205
 20
29.4230011160862
 30
0.0
 11
338.9283281057205
 21
29.4230011160862
 31
0.0
  0
LINE
  5
761F
330
18
100
AcDbEntity
  8
0
100
AcDbLine
 10
327.4283281057205
 20
22.92300111608619
 30
0.0
 11
338.9283281057205
 21
22.92300111608619
 31
0.0
  0
LINE
  5
7620
330
18
100
AcDbEntity
  8
0
100
AcDbLine
 10
327.4283281057205
 20
26.42300111608642
 30
0.0
 11
338.9283281057205
 21
26.42300111608619
 31
0.0
  0
LINE
  5
7621
330
18
100
AcDbEntity
  8
0
100
AcDbLine
 10
327.4283281057205
 20
19.92300111608642
 30
0.0
 11
338.9283281057205
 21
19.92300111608616
 31
0.0
  0
LINE
  5
7622
330
18
100
AcDbEntity
  8
0
100
AcDbLine
 10
327.4283281057205
 20
16.42300111608619
 30
0.0
 11
338.9283281057205
 21
16.42300111608617
 31
0.0
  0
LINE
  5
7623
330
18
100
AcDbEntity
  8
0
 48
0.2
100
AcDbLine
 10
273.6783281057205
 20
73.52300111608645
 30
0.0
 11
273.6783281057203
 21
89.32300111608617
 31
0.0
  0
LINE
  5
7624
330
18
100
AcDbEntity
  8
0
 48
0.2
100
AcDbLine
 10
278.6783281057205
 20
73.52300111608645
 30
0.0
 11
278.6783281057203
 21
89.32300111608617
 31
0.0
  0
LINE
  5
7626
330
18
100
AcDbEntity
  8
0
100
AcDbLine
 10
284.1783281057205
 20
112.5730011160864
 30
0.0
 11
284.1783281057205
 21
61.77300111608651
 31
0.0
  0
LINE
  5
7627
330
18
100
AcDbEntity
  8
0
100
AcDbLine
 10
285.6783281057205
 20
112.5730011160864
 30
0.0
 11
285.6783281057205
 21
61.77300111608651
 31
0.0
  0
LINE
  5
7628
330
18
100
AcDbEntity
  8
0
100
AcDbLine
 10
293.6783281057205
 20
112.5730011160863
 30
0.0
 11
293.6783281057205
 21
61.77300111608627
 31
0.0
  0
LINE
  5
7629
330
18
100
AcDbEntity
  8
0
100
AcDbLine
 10
292.9783281057205
 20
112.5730011160863
 30
0.0
 11
292.9783281057202
 21
61.77300111608627
 31
0.0
  0
LINE
  5
762A
330
18
100
AcDbEntity
  8
0
 48
0.2
100
AcDbLine
 10
280.9283281057205
 20
73.68806462554755
 30
0.0
 11
283.4283281057205
 21
73.68806462554755
 31
0.0
  0
LINE
  5
762B
330
18
100
AcDbEntity
  8
0
 48
0.2
100
AcDbLine
 10
280.783990538423
 20
73.93806462554755
 30
0.0
 11
283.572665673018
 21
73.93806462554755
 31
0.0
  0
CIRCLE
  5
762C
330
18
100
AcDbEntity
  8
0
 48
0.2
100
AcDbCircle
 10
282.1783281057205
 20
71.5230011160865
 30
0.0
 40
1.5
  0
LINE
  5
762D
330
18
100
AcDbEntity
  8
0
 48
0.2
100
AcDbLine
 10
280.9283281057205
 20
69.35793760662534
 30
0.0
 11
283.4283281057205
 21
69.35793760662534
 31
0.0
  0
LINE
  5
762E
330
18
100
AcDbEntity
  8
0
 48
0.2
100
AcDbLine
 10
280.783990538423
 20
69.10793760662534
 30
0.0
 11
283.572665673018
 21
69.10793760662534
 31
0.0
  0
LINE
  5
762F
330
18
100
AcDbEntity
  8
0
 48
0.2
100
AcDbLine
 10
293.6783281057205
 20
64.77300111608625
 30
0.0
 11
272.8783281057203
 21
64.77300111608645
 31
0.0
  0
LINE
  5
7630
330
18
100
AcDbEntity
  8
0
 48
0.2
100
AcDbLine
 10
279.6783281057205
 20
71.52300111608645
 30
0.0
 11
280.9283281057205
 21
69.35793760662534
 31
0.0
  0
LINE
  5
7631
330
18
100
AcDbEntity
  8
0
 48
0.2
100
AcDbLine
 10
279.3896529711257
 20
71.52300111608645
 30
0.0
 11
280.783990538423
 21
69.10793760662534
 31
0.0
  0
LINE
  5
7632
330
18
100
AcDbEntity
  8
0
 48
0.2
100
AcDbLine
 10
279.6783281057205
 20
71.52300111608645
 30
0.0
 11
280.9283281057205
 21
73.68806462554755
 31
0.0
  0
LINE
  5
7633
330
18
100
AcDbEntity
  8
0
 48
0.2
100
AcDbLine
 10
279.3896529711257
 20
71.52300111608645
 30
0.0
 11
280.783990538423
 21
73.93806462554755
 31
0.0
  0
LINE
  5
7634
330
18
100
AcDbEntity
  8
0
 48
0.2
100
AcDbLine
 10
264.8783281057205
 20
73.52300111608645
 30
0.0
 11
263.1222305447449
 21
71.49417846333051
 31
0.0
  0
LINE
  5
7635
330
18
100
AcDbEntity
  8
0
 48
0.2
100
AcDbLine
 10
268.8783281057205
 20
73.52300111608645
 30
0.0
 11
272.8783281057205
 21
70.42300111608631
 31
0.0
  0
ARC
  5
7636
330
18
100
AcDbEntity
  8
0
 48
0.2
100
AcDbCircle
 10
274.0483281057204
 20
67.37300111608641
 30
0.0
 40
2.669999999999886
100
AcDbArc
 50
115.9892335838278
 51
244.0107664161721
  0
LINE
  5
7637
330
18
100
AcDbEntity
  8
0
 48
0.2
100
AcDbLine
 10
272.8783281057203
 20
64.77300111608645
 30
0.0
 11
272.8783281057203
 21
70.42300111608631
 31
0.0
  0
LINE
  5
7638
330
18
100
AcDbEntity
  8
0
100
AcDbLine
 10
287.8679829259533
 20
68.2069200050314
 30
0.0
 11
290.6644092167752
 21
71.00334629585336
 31
0.0
  0
LINE
  5
7639
330
18
100
AcDbEntity
  8
0
100
AcDbLine
 10
288.2922469946652
 20
67.78265593631954
 30
0.0
 11
291.0886732854871
 21
70.57908222714144
 31
0.0
  0
CIRCLE
  5
763A
330
18
100
AcDbEntity
  8
0
100
AcDbCircle
 10
289.4783281057202
 20
69.39300111608645
 30
0.0
 40
2.0
  0
CIRCLE
  5
763B
330
18
100
AcDbEntity
  8
0
100
AcDbCircle
 10
289.4783281057202
 20
74.47300111608644
 30
0.0
 40
2.0
  0
LINE
  5
763C
330
18
100
AcDbEntity
  8
0
100
AcDbLine
 10
288.2922469946652
 20
72.86265593631952
 30
0.0
 11
291.0886732854871
 21
75.65908222714142
 31
0.0
  0
LINE
  5
763D
330
18
100
AcDbEntity
  8
0
100
AcDbLine
 10
287.8679829259533
 20
73.28692000503139
 30
0.0
 11
290.6644092167752
 21
76.08334629585335
 31
0.0
  0
LINE
  5
763E
330
18
100
AcDbEntity
  8
0
100
AcDbLine
 10
288.2922469946652
 20
62.70265593631956
 30
0.0
 11
291.0886732854871
 21
65.49908222714146
 31
0.0
  0
LINE
  5
763F
330
18
100
AcDbEntity
  8
0
100
AcDbLine
 10
287.8679829259533
 20
63.12692000503142
 30
0.0
 11
290.6644092167752
 21
65.92334629585337
 31
0.0
  0
CIRCLE
  5
7641
330
18
100
AcDbEntity
  8
0
100
AcDbCircle
 10
289.4783281057202
 20
64.31300111608647
 30
0.0
 40
2.0
  0
LINE
  5
7642
330
18
100
AcDbEntity
  8
0
 48
0.2
100
AcDbLine
 10
283.4283281057205
 20
69.35793760662534
 30
0.0
 11
284.6783281057205
 21
71.52300111608645
 31
0.0
  0
LINE
  5
7643
330
18
100
AcDbEntity
  8
0
 48
0.2
100
AcDbLine
 10
283.572665673018
 20
69.10793760662534
 30
0.0
 11
284.9670032403153
 21
71.52300111608645
 31
0.0
  0
LINE
  5
7644
330
18
100
AcDbEntity
  8
0
 48
0.2
100
AcDbLine
 10
284.6783281057205
 20
71.52300111608645
 30
0.0
 11
283.4283281057205
 21
73.68806462554755
 31
0.0
  0
LINE
  5
7645
330
18
100
AcDbEntity
  8
0
 48
0.2
100
AcDbLine
 10
284.9670032403153
 20
71.52300111608645
 30
0.0
 11
283.572665673018
 21
73.93806462554755
 31
0.0
  0
LINE
  5
7646
330
18
100
AcDbEntity
  8
0
100
AcDbLine
 10
293.6783281057205
 20
61.77300111608627
 30
0.0
 11
284.1783281057205
 21
61.77300111608651
 31
0.0
  0
LINE
  5
7647
330
18
100
AcDbEntity
  8
0
100
AcDbLine
 10
303.4283281057205
 20
32.92300111608642
 30
0.0
 11
314.9283281057205
 21
32.9230011160862
 31
0.0
  0
ARC
  5
7648
330
18
100
AcDbEntity
  8
0
100
AcDbCircle
 10
314.9283281057205
 20
24.67300111608617
 30
0.0
 40
1.75
100
AcDbArc
 50
270.0
 51
90.0
  0
LINE
  5
7649
330
18
100
AcDbEntity
  8
0
100
AcDbLine
 10
303.4283281057205
 20
29.4230011160862
 30
0.0
 11
314.9283281057205
 21
29.4230011160862
 31
0.0
  0
LINE
  5
764A
330
18
100
AcDbEntity
  8
0
100
AcDbLine
 10
303.4283281057205
 20
22.92300111608619
 30
0.0
 11
314.9283281057205
 21
22.92300111608619
 31
0.0
  0
LINE
  5
764B
330
18
100
AcDbEntity
  8
0
100
AcDbLine
 10
303.4283281057205
 20
26.42300111608642
 30
0.0
 11
314.9283281057205
 21
26.42300111608619
 31
0.0
  0
ARC
  5
764C
330
18
100
AcDbEntity
  8
0
100
AcDbCircle
 10
314.9283281057205
 20
31.17300111608617
 30
0.0
 40
1.75
100
AcDbArc
 50
270.0
 51
90.0
  0
ARC
  5
764D
330
18
100
AcDbEntity
  8
0
100
AcDbCircle
 10
303.4283281057205
 20
24.67300111608617
 30
0.0
 40
1.75
100
AcDbArc
 50
90.0
 51
270.0
  0
ARC
  5
764E
330
18
100
AcDbEntity
  8
0
100
AcDbCircle
 10
303.4283281057205
 20
31.17300111608617
 30
0.0
 40
1.75
100
AcDbArc
 50
90.0
 51
270.0
  0
ARC
  5
764F
330
18
100
AcDbEntity
  8
0
100
AcDbCircle
 10
314.9283281057205
 20
18.17300111608616
 30
0.0
 40
1.75
100
AcDbArc
 50
270.0
 51
90.0
  0
LINE
  5
7650
330
18
100
AcDbEntity
  8
0
100
AcDbLine
 10
303.4283281057205
 20
19.92300111608642
 30
0.0
 11
314.9283281057205
 21
19.92300111608619
 31
0.0
  0
LINE
  5
7651
330
18
100
AcDbEntity
  8
0
100
AcDbLine
 10
303.4283281057205
 20
16.42300111608619
 30
0.0
 11
314.9283281057205
 21
16.42300111608619
 31
0.0
  0
ARC
  5
7652
330
18
100
AcDbEntity
  8
0
100
AcDbCircle
 10
303.4283281057205
 20
18.17300111608616
 30
0.0
 40
1.75
100
AcDbArc
 50
90.0
 51
270.0
  0
ARC
  5
7653
330
18
100
AcDbEntity
  8
0
100
AcDbCircle
 10
327.4283281057205
 20
24.67300111608617
 30
0.0
 40
1.75
100
AcDbArc
 50
90.0
 51
270.0
  0
ARC
  5
7654
330
18
100
AcDbEntity
  8
0
100
AcDbCircle
 10
327.4283281057205
 20
31.17300111608617
 30
0.0
 40
1.75
100
AcDbArc
 50
90.0
 51
270.0
  0
ARC
  5
7655
330
18
100
AcDbEntity
  8
0
100
AcDbCircle
 10
327.4283281057205
 20
18.17300111608616
 30
0.0
 40
1.75
100
AcDbArc
 50
90.0
 51
270.0
  0
LINE
  5
7656
330
18
100
AcDbEntity
  8
0
100
AcDbLine
 10
288.2922469946654
 20
108.4226559363194
 30
0.0
 11
291.0886732854874
 21
111.2190822271413
 31
0.0
  0
CIRCLE
  5
7657
330
18
100
AcDbEntity
  8
0
100
AcDbCircle
 10
289.4783281057204
 20
110.0330011160863
 30
0.0
 40
2.0
  0
LINE
  5
7658
330
18
100
AcDbEntity
  8
0
 48
0.2
100
AcDbLine
 10
293.6783281057205
 20
98.07300111608618
 30
0.0
 11
272.8783281057203
 21
98.07300111608618
 31
0.0
  0
LINE
  5
7659
330
18
100
AcDbEntity
  8
0
 48
0.2
100
AcDbLine
 10
280.783990538423
 20
93.73806462554728
 30
0.0
 11
283.572665673018
 21
93.73806462554728
 31
0.0
  0
LINE
  5
765A
330
18
100
AcDbEntity
  8
0
 48
0.2
100
AcDbLine
 10
280.9283281057205
 20
93.48806462554728
 30
0.0
 11
283.4283281057205
 21
93.48806462554728
 31
0.0
  0
LINE
  5
765B
330
18
100
AcDbEntity
  8
0
 48
0.2
100
AcDbLine
 10
280.783990538423
 20
88.90793760662507
 30
0.0
 11
283.572665673018
 21
88.90793760662507
 31
0.0
  0
LINE
  5
765C
330
18
100
AcDbEntity
  8
0
 48
0.2
100
AcDbLine
 10
280.9283281057205
 20
89.15793760662507
 30
0.0
 11
283.4283281057205
 21
89.15793760662507
 31
0.0
  0
CIRCLE
  5
765D
330
18
100
AcDbEntity
  8
0
 48
0.2
100
AcDbCircle
 10
282.1783281057205
 20
91.32300111608623
 30
0.0
 40
1.5
  0
LINE
  5
765E
330
18
100
AcDbEntity
  8
0
 48
0.2
100
AcDbLine
 10
279.3896529711257
 20
91.32300111608618
 30
0.0
 11
280.783990538423
 21
88.90793760662507
 31
0.0
  0
LINE
  5
765F
330
18
100
AcDbEntity
  8
0
 48
0.2
100
AcDbLine
 10
279.6783281057205
 20
91.32300111608618
 30
0.0
 11
280.9283281057205
 21
89.15793760662507
 31
0.0
  0
LINE
  5
7660
330
18
100
AcDbEntity
  8
0
 48
0.2
100
AcDbLine
 10
279.3896529711257
 20
91.32300111608618
 30
0.0
 11
280.783990538423
 21
93.73806462554728
 31
0.0
  0
LINE
  5
7661
330
18
100
AcDbEntity
  8
0
 48
0.2
100
AcDbLine
 10
279.6783281057205
 20
91.32300111608618
 30
0.0
 11
280.9283281057205
 21
93.48806462554728
 31
0.0
  0
LINE
  5
7662
330
18
100
AcDbEntity
  8
0
 48
0.2
100
AcDbLine
 10
264.8783281057203
 20
89.32300111608617
 30
0.0
 11
263.1222305447449
 21
91.35182376884211
 31
0.0
  0
LINE
  5
7663
330
18
100
AcDbEntity
  8
0
 48
0.2
100
AcDbLine
 10
268.8783281057203
 20
89.32300111608617
 30
0.0
 11
272.8783281057203
 21
92.42300111608608
 31
0.0
  0
ARC
  5
7664
330
18
100
AcDbEntity
  8
0
 48
0.2
100
AcDbCircle
 10
274.0483281057202
 20
95.47300111608633
 30
0.0
 40
2.669999999999886
100
AcDbArc
 50
115.9892335838278
 51
244.0107664161721
  0
LINE
  5
7665
330
18
100
AcDbEntity
  8
0
 48
0.2
100
AcDbLine
 10
272.8783281057203
 20
92.42300111608631
 30
0.0
 11
272.8783281057203
 21
98.07300111608618
 31
0.0
  0
LINE
  5
7666
330
18
100
AcDbEntity
  8
0
100
AcDbLine
 10
287.8679829259535
 20
103.7669200050312
 30
0.0
 11
290.6644092167752
 21
106.5633462958532
 31
0.0
  0
LINE
  5
7667
330
18
100
AcDbEntity
  8
0
100
AcDbLine
 10
288.2922469946654
 20
103.3426559363194
 30
0.0
 11
291.0886732854874
 21
106.1390822271413
 31
0.0
  0
CIRCLE
  5
7668
330
18
100
AcDbEntity
  8
0
100
AcDbCircle
 10
289.4783281057204
 20
104.9530011160863
 30
0.0
 40
2.0
  0
LINE
  5
7669
330
18
100
AcDbEntity
  8
0
100
AcDbLine
 10
287.8679829259535
 20
98.68692000503131
 30
0.0
 11
290.6644092167752
 21
101.4833462958532
 31
0.0
  0
LINE
  5
766A
330
18
100
AcDbEntity
  8
0
100
AcDbLine
 10
288.2922469946654
 20
98.26265593631944
 30
0.0
 11
291.0886732854874
 21
101.0590822271413
 31
0.0
  0
CIRCLE
  5
766B
330
18
100
AcDbEntity
  8
0
100
AcDbCircle
 10
289.4783281057204
 20
99.87300111608636
 30
0.0
 40
2.0
  0
LINE
  5
766C
330
18
100
AcDbEntity
  8
0
100
AcDbLine
 10
288.2922469946654
 20
88.10265593631948
 30
0.0
 11
291.0886732854874
 21
90.89908222714138
 31
0.0
  0
LINE
  5
766D
330
18
100
AcDbEntity
  8
0
100
AcDbLine
 10
287.8679829259535
 20
88.52692000503134
 30
0.0
 11
290.6644092167752
 21
91.32334629585329
 31
0.0
  0
LINE
  5
766E
330
18
100
AcDbEntity
  8
0
100
AcDbLine
 10
287.8679829259533
 20
83.44692000503135
 30
0.0
 11
290.6644092167752
 21
86.24334629585332
 31
0.0
  0
LINE
  5
766F
330
18
100
AcDbEntity
  8
0
100
AcDbLine
 10
288.2922469946652
 20
83.02265593631949
 30
0.0
 11
291.0886732854871
 21
85.81908222714139
 31
0.0
  0
CIRCLE
  5
7670
330
18
100
AcDbEntity
  8
0
100
AcDbCircle
 10
289.4783281057202
 20
84.6330011160864
 30
0.0
 40
2.0
  0
CIRCLE
  5
7671
330
18
100
AcDbEntity
  8
0
100
AcDbCircle
 10
289.4783281057204
 20
89.71300111608639
 30
0.0
 40
2.0
  0
LINE
  5
7672
330
18
100
AcDbEntity
  8
0
100
AcDbLine
 10
288.2922469946652
 20
77.94265593631951
 30
0.0
 11
291.0886732854871
 21
80.73908222714141
 31
0.0
  0
LINE
  5
7673
330
18
100
AcDbEntity
  8
0
100
AcDbLine
 10
287.8679829259533
 20
78.36692000503138
 30
0.0
 11
290.6644092167752
 21
81.16334629585333
 31
0.0
  0
CIRCLE
  5
7674
330
18
100
AcDbEntity
  8
0
100
AcDbCircle
 10
289.4783281057202
 20
79.55300111608642
 30
0.0
 40
2.0
  0
LINE
  5
7675
330
18
100
AcDbEntity
  8
0
 48
0.2
100
AcDbLine
 10
284.9670032403153
 20
91.32300111608618
 30
0.0
 11
283.572665673018
 21
88.90793760662507
 31
0.0
  0
LINE
  5
7676
330
18
100
AcDbEntity
  8
0
 48
0.2
100
AcDbLine
 10
284.6783281057205
 20
91.32300111608618
 30
0.0
 11
283.4283281057205
 21
89.15793760662507
 31
0.0
  0
LINE
  5
7677
330
18
100
AcDbEntity
  8
0
 48
0.2
100
AcDbLine
 10
283.572665673018
 20
93.73806462554728
 30
0.0
 11
284.9670032403153
 21
91.32300111608618
 31
0.0
  0
LINE
  5
7678
330
18
100
AcDbEntity
  8
0
 48
0.2
100
AcDbLine
 10
283.4283281057205
 20
93.48806462554728
 30
0.0
 11
284.6783281057205
 21
91.32300111608618
 31
0.0
  0
LINE
  5
7679
330
18
100
AcDbEntity
  8
0
100
AcDbLine
 10
287.8679829259535
 20
93.60692000503133
 30
0.0
 11
290.6644092167752
 21
96.40334629585328
 31
0.0
  0
LINE
  5
767A
330
18
100
AcDbEntity
  8
0
100
AcDbLine
 10
288.2922469946654
 20
93.18265593631947
 30
0.0
 11
291.0886732854874
 21
95.97908222714137
 31
0.0
  0
CIRCLE
  5
767B
330
18
100
AcDbEntity
  8
0
100
AcDbCircle
 10
289.4783281057204
 20
94.79300111608637
 30
0.0
 40
2.0
  0
CIRCLE
  5
767C
330
18
100
AcDbEntity
  8
0
100
AcDbCircle
 10
289.4783281057204
 20
134.5730011160864
 30
0.0
 40
2.0
  0
LINE
  5
767D
330
18
100
AcDbEntity
  8
0
100
AcDbLine
 10
288.2922469946654
 20
132.9626559363194
 30
0.0
 11
291.0886732854874
 21
135.7590822271413
 31
0.0
  0
LINE
  5
767E
330
18
100
AcDbEntity
  8
0
100
AcDbLine
 10
287.8679829259535
 20
133.3869200050313
 30
0.0
 11
290.6644092167752
 21
136.1833462958533
 31
0.0
  0
LINE
  5
767F
330
18
100
AcDbEntity
  8
0
100
AcDbLine
 10
287.8679829259535
 20
108.8469200050312
 30
0.0
 11
290.6644092167752
 21
111.6433462958532
 31
0.0
  0
LINE
  5
7680
330
18
100
AcDbEntity
  8
0
100
AcDbLine
 10
293.6783281057205
 20
112.5730011160863
 30
0.0
 11
284.1783281057205
 21
112.5730011160864
 31
0.0
  0
LINE
  5
7681
330
18
100
AcDbEntity
  8
0
100
AcDbLine
 10
293.6783281057202
 20
132.0730011160862
 30
0.0
 11
284.1783281057203
 21
132.0730011160865
 31
0.0
  0
ARC
  5
7682
330
18
100
AcDbEntity
  8
0
100
AcDbCircle
 10
410.9283281057205
 20
76.67300111608617
 30
0.0
 40
1.75
100
AcDbArc
 50
270.0
 51
90.0
  0
ARC
  5
7683
330
18
100
AcDbEntity
  8
0
100
AcDbCircle
 10
399.4283281057205
 20
76.67300111608617
 30
0.0
 40
1.75
100
AcDbArc
 50
90.0
 51
270.0
  0
LINE
  5
7684
330
18
100
AcDbEntity
  8
0
100
AcDbLine
 10
375.4283281057205
 20
29.42300111608616
 30
0.0
 11
386.9283281057205
 21
29.42300111608616
 31
0.0
  0
LINE
  5
7685
330
18
100
AcDbEntity
  8
0
100
AcDbLine
 10
375.4283281057205
 20
32.92300111608639
 30
0.0
 11
386.9283281057205
 21
32.92300111608617
 31
0.0
  0
LINE
  5
7686
330
18
100
AcDbEntity
  8
0
100
AcDbLine
 10
375.4283281057205
 20
19.92300111608639
 30
0.0
 11
386.9283281057205
 21
19.92300111608616
 31
0.0
  0
LINE
  5
7687
330
18
100
AcDbEntity
  8
0
100
AcDbLine
 10
375.4283281057205
 20
16.42300111608617
 30
0.0
 11
386.9283281057205
 21
16.42300111608617
 31
0.0
  0
LINE
  5
7688
330
18
100
AcDbEntity
  8
0
100
AcDbLine
 10
375.4283281057205
 20
22.92300111608617
 30
0.0
 11
386.9283281057205
 21
22.92300111608617
 31
0.0
  0
LINE
  5
7689
330
18
100
AcDbEntity
  8
0
100
AcDbLine
 10
375.4283281057205
 20
26.42300111608639
 30
0.0
 11
386.9283281057205
 21
26.42300111608617
 31
0.0
  0
LINE
  5
768A
330
18
100
AcDbEntity
  8
0
100
AcDbLine
 10
351.4283281057205
 20
32.92300111608639
 30
0.0
 11
362.9283281057205
 21
32.92300111608617
 31
0.0
  0
LINE
  5
768B
330
18
100
AcDbEntity
  8
0
100
AcDbLine
 10
351.4283281057205
 20
29.42300111608616
 30
0.0
 11
362.9283281057205
 21
29.42300111608616
 31
0.0
  0
LINE
  5
768C
330
18
100
AcDbEntity
  8
0
100
AcDbLine
 10
351.4283281057205
 20
19.92300111608639
 30
0.0
 11
362.9283281057205
 21
19.92300111608616
 31
0.0
  0
LINE
  5
768D
330
18
100
AcDbEntity
  8
0
100
AcDbLine
 10
351.4283281057205
 20
16.42300111608617
 30
0.0
 11
362.9283281057205
 21
16.42300111608617
 31
0.0
  0
LINE
  5
768E
330
18
100
AcDbEntity
  8
0
100
AcDbLine
 10
351.4283281057205
 20
22.92300111608617
 30
0.0
 11
362.9283281057205
 21
22.92300111608617
 31
0.0
  0
LINE
  5
768F
330
18
100
AcDbEntity
  8
0
100
AcDbLine
 10
351.4283281057205
 20
26.42300111608639
 30
0.0
 11
362.9283281057205
 21
26.42300111608617
 31
0.0
  0
ARC
  5
7690
330
18
100
AcDbEntity
  8
0
100
AcDbCircle
 10
351.4283281057205
 20
24.67300111608617
 30
0.0
 40
1.75
100
AcDbArc
 50
90.0
 51
270.0
  0
ARC
  5
7691
330
18
100
AcDbEntity
  8
0
100
AcDbCircle
 10
338.9283281057205
 20
24.67300111608617
 30
0.0
 40
1.75
100
AcDbArc
 50
270.0
 51
90.0
  0
ARC
  5
7692
330
18
100
AcDbEntity
  8
0
100
AcDbCircle
 10
338.9283281057205
 20
31.17300111608617
 30
0.0
 40
1.75
100
AcDbArc
 50
270.0
 51
90.0
  0
ARC
  5
7693
330
18
100
AcDbEntity
  8
0
100
AcDbCircle
 10
351.4283281057205
 20
31.17300111608617
 30
0.0
 40
1.75
100
AcDbArc
 50
90.0
 51
270.0
  0
ARC
  5
7694
330
18
100
AcDbEntity
  8
0
100
AcDbCircle
 10
351.4283281057205
 20
18.17300111608616
 30
0.0
 40
1.75
100
AcDbArc
 50
90.0
 51
270.0
  0
ARC
  5
7695
330
18
100
AcDbEntity
  8
0
100
AcDbCircle
 10
338.9283281057205
 20
18.17300111608616
 30
0.0
 40
1.75
100
AcDbArc
 50
270.0
 51
90.0
  0
ARC
  5
7696
330
18
100
AcDbEntity
  8
0
100
AcDbCircle
 10
375.4283281057205
 20
24.67300111608617
 30
0.0
 40
1.75
100
AcDbArc
 50
90.0
 51
270.0
  0
ARC
  5
7697
330
18
100
AcDbEntity
  8
0
100
AcDbCircle
 10
375.4283281057205
 20
31.17300111608617
 30
0.0
 40
1.75
100
AcDbArc
 50
90.0
 51
270.0
  0
ARC
  5
7698
330
18
100
AcDbEntity
  8
0
100
AcDbCircle
 10
362.9283281057205
 20
24.67300111608617
 30
0.0
 40
1.75
100
AcDbArc
 50
270.0
 51
90.0
  0
ARC
  5
7699
330
18
100
AcDbEntity
  8
0
100
AcDbCircle
 10
362.9283281057205
 20
31.17300111608617
 30
0.0
 40
1.75
100
AcDbArc
 50
270.0
 51
90.0
  0
ARC
  5
769A
330
18
100
AcDbEntity
  8
0
100
AcDbCircle
 10
375.4283281057205
 20
18.17300111608616
 30
0.0
 40
1.75
100
AcDbArc
 50
90.0
 51
270.0
  0
ARC
  5
769B
330
18
100
AcDbEntity
  8
0
100
AcDbCircle
 10
362.9283281057205
 20
18.17300111608616
 30
0.0
 40
1.75
100
AcDbArc
 50
270.0
 51
90.0
  0
ARC
  5
769C
330
18
100
AcDbEntity
  8
0
100
AcDbCircle
 10
410.9283281057205
 20
44.17300111608617
 30
0.0
 40
1.75
100
AcDbArc
 50
270.0
 51
90.0
  0
ARC
  5
769D
330
18
100
AcDbEntity
  8
0
100
AcDbCircle
 10
399.4283281057205
 20
44.17300111608617
 30
0.0
 40
1.75
100
AcDbArc
 50
90.0
 51
270.0
  0
ARC
  5
769E
330
18
100
AcDbEntity
  8
0
100
AcDbCircle
 10
386.9283281057205
 20
24.67300111608617
 30
0.0
 40
1.75
100
AcDbArc
 50
270.0
 51
90.0
  0
ARC
  5
769F
330
18
100
AcDbEntity
  8
0
100
AcDbCircle
 10
386.9283281057205
 20
31.17300111608617
 30
0.0
 40
1.75
100
AcDbArc
 50
270.0
 51
90.0
  0
ARC
  5
76A0
330
18
100
AcDbEntity
  8
0
100
AcDbCircle
 10
386.9283281057205
 20
18.17300111608616
 30
0.0
 40
1.75
100
AcDbArc
 50
270.0
 51
90.0
  0
LINE
  5
76A1
330
18
100
AcDbEntity
  8
0
100
AcDbLine
 10
399.4283281057205
 20
39.4230011160864
 30
0.0
 11
410.9283281057205
 21
39.42300111608616
 31
0.0
  0
LINE
  5
76A2
330
18
100
AcDbEntity
  8
0
100
AcDbLine
 10
399.4283281057205
 20
42.42300111608616
 30
0.0
 11
410.9283281057205
 21
42.42300111608616
 31
0.0
  0
ARC
  5
76A3
330
18
100
AcDbEntity
  8
0
100
AcDbCircle
 10
410.9283281057205
 20
24.67300111608617
 30
0.0
 40
1.75
100
AcDbArc
 50
270.0
 51
90.0
  0
ARC
  5
76A4
330
18
100
AcDbEntity
  8
0
100
AcDbCircle
 10
410.9283281057205
 20
31.17300111608617
 30
0.0
 40
1.75
100
AcDbArc
 50
270.0
 51
90.0
  0
ARC
  5
76A5
330
18
100
AcDbEntity
  8
0
100
AcDbCircle
 10
399.4283281057205
 20
24.67300111608617
 30
0.0
 40
1.75
100
AcDbArc
 50
90.0
 51
270.0
  0
ARC
  5
76A6
330
18
100
AcDbEntity
  8
0
100
AcDbCircle
 10
399.4283281057205
 20
31.17300111608617
 30
0.0
 40
1.75
100
AcDbArc
 50
90.0
 51
270.0
  0
LINE
  5
76A7
330
18
100
AcDbEntity
  8
0
100
AcDbLine
 10
399.4283281057205
 20
29.42300111608616
 30
0.0
 11
410.9283281057205
 21
29.42300111608616
 31
0.0
  0
LINE
  5
76A8
330
18
100
AcDbEntity
  8
0
100
AcDbLine
 10
399.4283281057205
 20
32.92300111608639
 30
0.0
 11
410.9283281057205
 21
32.92300111608617
 31
0.0
  0
LINE
  5
76A9
330
18
100
AcDbEntity
  8
0
100
AcDbLine
 10
399.4283281057205
 20
35.92300111608617
 30
0.0
 11
410.9283281057205
 21
35.92300111608617
 31
0.0
  0
LINE
  5
76AA
330
18
100
AcDbEntity
  8
0
100
AcDbLine
 10
399.4283281057205
 20
22.92300111608617
 30
0.0
 11
410.9283281057205
 21
22.92300111608617
 31
0.0
  0
LINE
  5
76AB
330
18
100
AcDbEntity
  8
0
100
AcDbLine
 10
399.4283281057205
 20
26.42300111608639
 30
0.0
 11
410.9283281057205
 21
26.42300111608617
 31
0.0
  0
ARC
  5
76AC
330
18
100
AcDbEntity
  8
0
100
AcDbCircle
 10
410.9283281057205
 20
18.17300111608616
 30
0.0
 40
1.75
100
AcDbArc
 50
270.0
 51
90.0
  0
ARC
  5
76AD
330
18
100
AcDbEntity
  8
0
100
AcDbCircle
 10
399.4283281057205
 20
18.17300111608616
 30
0.0
 40
1.75
100
AcDbArc
 50
90.0
 51
270.0
  0
LINE
  5
76AE
330
18
100
AcDbEntity
  8
0
100
AcDbLine
 10
399.4283281057205
 20
19.92300111608639
 30
0.0
 11
410.9283281057205
 21
19.92300111608616
 31
0.0
  0
LINE
  5
76AF
330
18
100
AcDbEntity
  8
0
100
AcDbLine
 10
399.4283281057205
 20
16.42300111608617
 30
0.0
 11
410.9283281057205
 21
16.42300111608617
 31
0.0
  0
ARC
  5
76B0
330
18
100
AcDbEntity
  8
0
100
AcDbCircle
 10
399.4283281057205
 20
37.67300111608617
 30
0.0
 40
1.75
100
AcDbArc
 50
90.0
 51
270.0
  0
ARC
  5
76B1
330
18
100
AcDbEntity
  8
0
100
AcDbCircle
 10
410.9283281057205
 20
37.67300111608617
 30
0.0
 40
1.75
100
AcDbArc
 50
270.0
 51
90.0
  0
ARC
  5
76B2
330
18
100
AcDbEntity
  8
0
100
AcDbCircle
 10
410.9283281057205
 20
70.17300111608617
 30
0.0
 40
1.75
100
AcDbArc
 50
270.0
 51
90.0
  0
ARC
  5
76B3
330
18
100
AcDbEntity
  8
0
100
AcDbCircle
 10
399.4283281057205
 20
70.17300111608617
 30
0.0
 40
1.75
100
AcDbArc
 50
90.0
 51
270.0
  0
LINE
  5
76B4
330
18
100
AcDbEntity
  8
0
100
AcDbLine
 10
399.4283281057205
 20
71.9230011160864
 30
0.0
 11
410.9283281057205
 21
71.92300111608616
 31
0.0
  0
LINE
  5
76B5
330
18
100
AcDbEntity
  8
0
100
AcDbLine
 10
399.4283281057205
 20
68.42300111608617
 30
0.0
 11
410.9283281057205
 21
68.42300111608617
 31
0.0
  0
LINE
  5
76B6
330
18
100
AcDbEntity
  8
0
100
AcDbLine
 10
399.4283281057205
 20
74.92300111608617
 30
0.0
 11
410.9283281057205
 21
74.92300111608617
 31
0.0
  0
ARC
  5
76B7
330
18
100
AcDbEntity
  8
0
100
AcDbCircle
 10
410.9283281057205
 20
63.67300111608617
 30
0.0
 40
1.75
100
AcDbArc
 50
270.0
 51
90.0
  0
ARC
  5
76B8
330
18
100
AcDbEntity
  8
0
100
AcDbCircle
 10
410.9283281057205
 20
57.17300111608617
 30
0.0
 40
1.75
100
AcDbArc
 50
270.0
 51
90.0
  0
ARC
  5
76B9
330
18
100
AcDbEntity
  8
0
100
AcDbCircle
 10
399.4283281057205
 20
63.67300111608617
 30
0.0
 40
1.75
100
AcDbArc
 50
90.0
 51
270.0
  0
ARC
  5
76BA
330
18
100
AcDbEntity
  8
0
100
AcDbCircle
 10
399.4283281057205
 20
57.17300111608617
 30
0.0
 40
1.75
100
AcDbArc
 50
90.0
 51
270.0
  0
LINE
  5
76BB
330
18
100
AcDbEntity
  8
0
100
AcDbLine
 10
399.4283281057205
 20
58.92300111608642
 30
0.0
 11
410.9283281057205
 21
58.92300111608617
 31
0.0
  0
LINE
  5
76BC
330
18
100
AcDbEntity
  8
0
100
AcDbLine
 10
399.4283281057205
 20
65.42300111608639
 30
0.0
 11
410.9283281057205
 21
65.42300111608617
 31
0.0
  0
LINE
  5
76BD
330
18
100
AcDbEntity
  8
0
100
AcDbLine
 10
399.4283281057205
 20
61.9230011160862
 30
0.0
 11
410.9283281057205
 21
61.92300111608616
 31
0.0
  0
LINE
  5
76BE
330
18
100
AcDbEntity
  8
0
100
AcDbLine
 10
399.4283281057205
 20
52.42300111608639
 30
0.0
 11
410.9283281057205
 21
52.42300111608617
 31
0.0
  0
LINE
  5
76BF
330
18
100
AcDbEntity
  8
0
100
AcDbLine
 10
399.4283281057205
 20
55.4230011160862
 30
0.0
 11
410.9283281057205
 21
55.42300111608617
 31
0.0
  0
LINE
  5
76C0
330
18
100
AcDbEntity
  8
0
100
AcDbLine
 10
399.4283281057205
 20
45.92300111608639
 30
0.0
 11
410.9283281057205
 21
45.92300111608617
 31
0.0
  0
LINE
  5
76C1
330
18
100
AcDbEntity
  8
0
100
AcDbLine
 10
399.4283281057205
 20
48.92300111608617
 30
0.0
 11
410.9283281057205
 21
48.92300111608617
 31
0.0
  0
ARC
  5
76C2
330
18
100
AcDbEntity
  8
0
100
AcDbCircle
 10
399.4283281057205
 20
50.67300111608616
 30
0.0
 40
1.75
100
AcDbArc
 50
90.0
 51
270.0
  0
ARC
  5
76C3
330
18
100
AcDbEntity
  8
0
100
AcDbCircle
 10
410.9283281057205
 20
50.67300111608616
 30
0.0
 40
1.75
100
AcDbArc
 50
270.0
 51
90.0
  0
ARC
  5
76C4
330
18
100
AcDbEntity
  8
0
100
AcDbCircle
 10
399.4283281057205
 20
109.1730011160861
 30
0.0
 40
1.75
100
AcDbArc
 50
90.0
 51
270.0
  0
ARC
  5
76C5
330
18
100
AcDbEntity
  8
0
100
AcDbCircle
 10
410.9283281057205
 20
109.1730011160861
 30
0.0
 40
1.75
100
AcDbArc
 50
270.0
 51
90.0
  0
ARC
  5
76C6
330
18
100
AcDbEntity
  8
0
100
AcDbCircle
 10
410.9283281057205
 20
102.6730011160861
 30
0.0
 40
1.75
100
AcDbArc
 50
270.0
 51
90.0
  0
ARC
  5
76C7
330
18
100
AcDbEntity
  8
0
100
AcDbCircle
 10
399.4283281057205
 20
102.6730011160861
 30
0.0
 40
1.75
100
AcDbArc
 50
90.0
 51
270.0
  0
LINE
  5
76C8
330
18
100
AcDbEntity
  8
0
100
AcDbLine
 10
399.4283281057205
 20
97.92300111608639
 30
0.0
 11
410.9283281057205
 21
97.92300111608618
 31
0.0
  0
LINE
  5
76C9
330
18
100
AcDbEntity
  8
0
100
AcDbLine
 10
399.4283281057205
 20
100.9230011160861
 30
0.0
 11
410.9283281057205
 21
100.9230011160861
 31
0.0
  0
LINE
  5
76CA
330
18
100
AcDbEntity
  8
0
100
AcDbLine
 10
399.4283281057205
 20
104.4230011160864
 30
0.0
 11
410.9283281057205
 21
104.4230011160861
 31
0.0
  0
LINE
  5
76CB
330
18
100
AcDbEntity
  8
0
100
AcDbLine
 10
399.4283281057205
 20
107.4230011160861
 30
0.0
 11
410.9283281057205
 21
107.4230011160861
 31
0.0
  0
ARC
  5
76CC
330
18
100
AcDbEntity
  8
0
100
AcDbCircle
 10
410.9283281057205
 20
83.17300111608616
 30
0.0
 40
1.75
100
AcDbArc
 50
270.0
 51
90.0
  0
ARC
  5
76CD
330
18
100
AcDbEntity
  8
0
100
AcDbCircle
 10
410.9283281057205
 20
89.67300111608617
 30
0.0
 40
1.75
100
AcDbArc
 50
270.0
 51
90.0
  0
ARC
  5
76CE
330
18
100
AcDbEntity
  8
0
100
AcDbCircle
 10
399.4283281057205
 20
83.17300111608616
 30
0.0
 40
1.75
100
AcDbArc
 50
90.0
 51
270.0
  0
ARC
  5
76CF
330
18
100
AcDbEntity
  8
0
100
AcDbCircle
 10
399.4283281057205
 20
89.67300111608617
 30
0.0
 40
1.75
100
AcDbArc
 50
90.0
 51
270.0
  0
LINE
  5
76D0
330
18
100
AcDbEntity
  8
0
100
AcDbLine
 10
399.4283281057205
 20
91.42300111608639
 30
0.0
 11
410.9283281057205
 21
91.42300111608617
 31
0.0
  0
LINE
  5
76D1
330
18
100
AcDbEntity
  8
0
100
AcDbLine
 10
399.4283281057205
 20
94.42300111608616
 30
0.0
 11
410.9283281057205
 21
94.42300111608616
 31
0.0
  0
LINE
  5
76D2
330
18
100
AcDbEntity
  8
0
100
AcDbLine
 10
399.4283281057205
 20
84.9230011160864
 30
0.0
 11
410.9283281057205
 21
84.92300111608617
 31
0.0
  0
LINE
  5
76D3
330
18
100
AcDbEntity
  8
0
100
AcDbLine
 10
399.4283281057205
 20
81.42300111608617
 30
0.0
 11
410.9283281057205
 21
81.42300111608617
 31
0.0
  0
LINE
  5
76D4
330
18
100
AcDbEntity
  8
0
100
AcDbLine
 10
399.4283281057205
 20
87.92300111608616
 30
0.0
 11
410.9283281057205
 21
87.92300111608616
 31
0.0
  0
LINE
  5
76D5
330
18
100
AcDbEntity
  8
0
100
AcDbLine
 10
399.4283281057205
 20
78.4230011160864
 30
0.0
 11
410.9283281057205
 21
78.42300111608617
 31
0.0
  0
ARC
  5
76D6
330
18
100
AcDbEntity
  8
0
100
AcDbCircle
 10
399.4283281057205
 20
96.17300111608617
 30
0.0
 40
1.75
100
AcDbArc
 50
90.0
 51
270.0
  0
ARC
  5
76D7
330
18
100
AcDbEntity
  8
0
100
AcDbCircle
 10
410.9283281057205
 20
96.17300111608617
 30
0.0
 40
1.75
100
AcDbArc
 50
270.0
 51
90.0
  0
LINE
  5
76D8
330
18
100
AcDbEntity
  8
0
100
AcDbLine
 10
399.4283281057205
 20
139.9230011160861
 30
0.0
 11
410.9283281057205
 21
139.9230011160861
 31
0.0
  0
ARC
  5
76D9
330
18
100
AcDbEntity
  8
0
100
AcDbCircle
 10
410.9283281057205
 20
135.1730011160861
 30
0.0
 40
1.75
100
AcDbArc
 50
270.0
 51
90.0
  0
ARC
  5
76DA
330
18
100
AcDbEntity
  8
0
100
AcDbCircle
 10
410.9283281057205
 20
128.6730011160861
 30
0.0
 40
1.75
100
AcDbArc
 50
270.0
 51
90.0
  0
ARC
  5
76DB
330
18
100
AcDbEntity
  8
0
100
AcDbCircle
 10
399.4283281057205
 20
135.1730011160861
 30
0.0
 40
1.75
100
AcDbArc
 50
90.0
 51
270.0
  0
ARC
  5
76DC
330
18
100
AcDbEntity
  8
0
100
AcDbCircle
 10
399.4283281057205
 20
128.6730011160861
 30
0.0
 40
1.75
100
AcDbArc
 50
90.0
 51
270.0
  0
LINE
  5
76DD
330
18
100
AcDbEntity
  8
0
100
AcDbLine
 10
399.4283281057205
 20
130.4230011160864
 30
0.0
 11
410.9283281057205
 21
130.4230011160861
 31
0.0
  0
LINE
  5
76DE
330
18
100
AcDbEntity
  8
0
100
AcDbLine
 10
399.4283281057205
 20
126.9230011160861
 30
0.0
 11
410.9283281057205
 21
126.9230011160861
 31
0.0
  0
LINE
  5
76DF
330
18
100
AcDbEntity
  8
0
100
AcDbLine
 10
399.4283281057205
 20
133.4230011160861
 30
0.0
 11
410.9283281057205
 21
133.4230011160861
 31
0.0
  0
LINE
  5
76E0
330
18
100
AcDbEntity
  8
0
100
AcDbLine
 10
399.4283281057205
 20
136.9230011160863
 30
0.0
 11
410.9283281057205
 21
136.9230011160861
 31
0.0
  0
ARC
  5
76E1
330
18
100
AcDbEntity
  8
0
100
AcDbCircle
 10
410.9283281057205
 20
122.1730011160861
 30
0.0
 40
1.75
100
AcDbArc
 50
270.0
 51
90.0
  0
ARC
  5
76E2
330
18
100
AcDbEntity
  8
0
100
AcDbCircle
 10
410.9283281057205
 20
115.6730011160861
 30
0.0
 40
1.75
100
AcDbArc
 50
270.0
 51
90.0
  0
ARC
  5
76E3
330
18
100
AcDbEntity
  8
0
100
AcDbCircle
 10
399.4283281057205
 20
122.1730011160861
 30
0.0
 40
1.75
100
AcDbArc
 50
90.0
 51
270.0
  0
ARC
  5
76E4
330
18
100
AcDbEntity
  8
0
100
AcDbCircle
 10
399.4283281057205
 20
115.6730011160861
 30
0.0
 40
1.75
100
AcDbArc
 50
90.0
 51
270.0
  0
LINE
  5
76E5
330
18
100
AcDbEntity
  8
0
100
AcDbLine
 10
399.4283281057205
 20
120.4230011160861
 30
0.0
 11
410.9283281057205
 21
120.4230011160861
 31
0.0
  0
LINE
  5
76E6
330
18
100
AcDbEntity
  8
0
100
AcDbLine
 10
399.4283281057205
 20
123.9230011160864
 30
0.0
 11
410.9283281057205
 21
123.9230011160861
 31
0.0
  0
LINE
  5
76E7
330
18
100
AcDbEntity
  8
0
100
AcDbLine
 10
399.4283281057205
 20
110.9230011160863
 30
0.0
 11
410.9283281057205
 21
110.9230011160861
 31
0.0
  0
LINE
  5
76E8
330
18
100
AcDbEntity
  8
0
100
AcDbLine
 10
399.4283281057205
 20
117.4230011160863
 30
0.0
 11
410.9283281057205
 21
117.4230011160861
 31
0.0
  0
LINE
  5
76E9
330
18
100
AcDbEntity
  8
0
100
AcDbLine
 10
399.4283281057205
 20
113.9230011160861
 30
0.0
 11
410.9283281057205
 21
113.9230011160861
 31
0.0
  0
LINE
  5
76EA
330
18
100
AcDbEntity
  8
0
100
AcDbLine
 10
441.6783281057205
 20
9.673001116086169
 30
0.0
 11
442.6783281057205
 21
10.67300111608616
 31
0.0
  0
LINE
  5
76EB
330
18
100
AcDbEntity
  8
0
100
AcDbLine
 10
442.6783281057205
 20
-5.326998883913745
 30
0.0
 11
444.6783281057205
 21
-5.326998883913745
 31
0.0
  0
ARC
  5
76EC
330
18
100
AcDbEntity
  8
0
100
AcDbCircle
 10
423.4283281057205
 20
76.67300111608617
 30
0.0
 40
1.75
100
AcDbArc
 50
90.0
 51
270.0
  0
ARC
  5
76ED
330
18
100
AcDbEntity
  8
0
100
AcDbCircle
 10
434.9283281057205
 20
76.67300111608617
 30
0.0
 40
1.75
100
AcDbArc
 50
270.0
 51
90.0
  0
ARC
  5
76EE
330
18
100
AcDbEntity
  8
0
100
AcDbCircle
 10
423.4283281057205
 20
44.17300111608617
 30
0.0
 40
1.75
100
AcDbArc
 50
90.0
 51
270.0
  0
ARC
  5
76EF
330
18
100
AcDbEntity
  8
0
100
AcDbCircle
 10
434.9283281057205
 20
44.17300111608613
 30
0.0
 40
1.75
100
AcDbArc
 50
270.0
 51
90.0
  0
LINE
  5
76F0
330
18
100
AcDbEntity
  8
0
100
AcDbLine
 10
423.4283281057205
 20
39.4230011160864
 30
0.0
 11
434.9283281057205
 21
39.42300111608616
 31
0.0
  0
LINE
  5
76F1
330
18
100
AcDbEntity
  8
0
100
AcDbLine
 10
423.4283281057205
 20
42.42300111608616
 30
0.0
 11
434.9283281057205
 21
42.42300111608616
 31
0.0
  0
LINE
  5
76F2
330
18
100
AcDbEntity
  8
0
100
AcDbLine
 10
423.4283281057205
 20
32.92300111608639
 30
0.0
 11
434.9283281057205
 21
32.92300111608617
 31
0.0
  0
LINE
  5
76F3
330
18
100
AcDbEntity
  8
0
100
AcDbLine
 10
423.4283281057205
 20
35.92300111608617
 30
0.0
 11
434.9283281057205
 21
35.92300111608617
 31
0.0
  0
LINE
  5
76F4
330
18
100
AcDbEntity
  8
0
100
AcDbLine
 10
423.4283281057205
 20
29.42300111608616
 30
0.0
 11
434.9283281057205
 21
29.42300111608616
 31
0.0
  0
LINE
  5
76F5
330
18
100
AcDbEntity
  8
0
100
AcDbLine
 10
423.4283281057205
 20
22.92300111608617
 30
0.0
 11
434.9283281057205
 21
22.92300111608617
 31
0.0
  0
LINE
  5
76F6
330
18
100
AcDbEntity
  8
0
100
AcDbLine
 10
423.4283281057205
 20
26.42300111608639
 30
0.0
 11
434.9283281057205
 21
26.42300111608617
 31
0.0
  0
LINE
  5
76F7
330
18
100
AcDbEntity
  8
0
100
AcDbLine
 10
423.4283281057205
 20
19.92300111608639
 30
0.0
 11
434.9283281057205
 21
19.92300111608616
 31
0.0
  0
LINE
  5
76F8
330
18
100
AcDbEntity
  8
0
100
AcDbLine
 10
423.4283281057205
 20
16.42300111608617
 30
0.0
 11
434.9283281057205
 21
16.42300111608617
 31
0.0
  0
ARC
  5
76F9
330
18
100
AcDbEntity
  8
0
100
AcDbCircle
 10
423.4283281057205
 20
24.67300111608617
 30
0.0
 40
1.75
100
AcDbArc
 50
90.0
 51
270.0
  0
ARC
  5
76FA
330
18
100
AcDbEntity
  8
0
100
AcDbCircle
 10
423.4283281057205
 20
31.17300111608617
 30
0.0
 40
1.75
100
AcDbArc
 50
90.0
 51
270.0
  0
ARC
  5
76FB
330
18
100
AcDbEntity
  8
0
100
AcDbCircle
 10
423.4283281057205
 20
18.17300111608616
 30
0.0
 40
1.75
100
AcDbArc
 50
90.0
 51
270.0
  0
ARC
  5
76FC
330
18
100
AcDbEntity
  8
0
100
AcDbCircle
 10
423.4283281057205
 20
37.67300111608617
 30
0.0
 40
1.75
100
AcDbArc
 50
90.0
 51
270.0
  0
ARC
  5
76FD
330
18
100
AcDbEntity
  8
0
100
AcDbCircle
 10
434.9283281057205
 20
24.67300111608617
 30
0.0
 40
1.75
100
AcDbArc
 50
270.0
 51
90.0
  0
ARC
  5
76FE
330
18
100
AcDbEntity
  8
0
100
AcDbCircle
 10
434.9283281057205
 20
31.17300111608617
 30
0.0
 40
1.75
100
AcDbArc
 50
270.0
 51
90.0
  0
ARC
  5
76FF
330
18
100
AcDbEntity
  8
0
100
AcDbCircle
 10
434.9283281057205
 20
18.17300111608616
 30
0.0
 40
1.75
100
AcDbArc
 50
270.0
 51
90.0
  0
ARC
  5
7700
330
18
100
AcDbEntity
  8
0
100
AcDbCircle
 10
434.9283281057205
 20
37.67300111608617
 30
0.0
 40
1.75
100
AcDbArc
 50
270.0
 51
90.0
  0
LINE
  5
7701
330
18
100
AcDbEntity
  8
0
100
AcDbLine
 10
423.4283281057205
 20
74.92300111608617
 30
0.0
 11
434.9283281057205
 21
74.92300111608617
 31
0.0
  0
LINE
  5
7702
330
18
100
AcDbEntity
  8
0
100
AcDbLine
 10
423.4283281057205
 20
71.9230011160864
 30
0.0
 11
434.9283281057205
 21
71.92300111608616
 31
0.0
  0
LINE
  5
7703
330
18
100
AcDbEntity
  8
0
100
AcDbLine
 10
423.4283281057205
 20
68.42300111608617
 30
0.0
 11
434.9283281057205
 21
68.42300111608617
 31
0.0
  0
LINE
  5
7704
330
18
100
AcDbEntity
  8
0
100
AcDbLine
 10
423.4283281057205
 20
65.42300111608639
 30
0.0
 11
434.9283281057205
 21
65.42300111608617
 31
0.0
  0
LINE
  5
7705
330
18
100
AcDbEntity
  8
0
100
AcDbLine
 10
423.4283281057205
 20
61.92300111608616
 30
0.0
 11
434.9283281057205
 21
61.92300111608616
 31
0.0
  0
LINE
  5
7706
330
18
100
AcDbEntity
  8
0
100
AcDbLine
 10
423.4283281057205
 20
58.9230011160864
 30
0.0
 11
434.9283281057205
 21
58.92300111608617
 31
0.0
  0
LINE
  5
7707
330
18
100
AcDbEntity
  8
0
100
AcDbLine
 10
423.4283281057205
 20
52.42300111608639
 30
0.0
 11
434.9283281057205
 21
52.42300111608617
 31
0.0
  0
LINE
  5
7708
330
18
100
AcDbEntity
  8
0
100
AcDbLine
 10
423.4283281057205
 20
55.42300111608617
 30
0.0
 11
434.9283281057205
 21
55.42300111608617
 31
0.0
  0
LINE
  5
7709
330
18
100
AcDbEntity
  8
0
100
AcDbLine
 10
423.4283281057205
 20
45.92300111608639
 30
0.0
 11
434.9283281057205
 21
45.92300111608617
 31
0.0
  0
LINE
  5
770A
330
18
100
AcDbEntity
  8
0
100
AcDbLine
 10
423.4283281057205
 20
48.92300111608617
 30
0.0
 11
434.9283281057205
 21
48.92300111608617
 31
0.0
  0
ARC
  5
770B
330
18
100
AcDbEntity
  8
0
100
AcDbCircle
 10
423.4283281057205
 20
70.17300111608617
 30
0.0
 40
1.75
100
AcDbArc
 50
90.0
 51
270.0
  0
ARC
  5
770C
330
18
100
AcDbEntity
  8
0
100
AcDbCircle
 10
423.4283281057205
 20
63.67300111608617
 30
0.0
 40
1.75
100
AcDbArc
 50
90.0
 51
270.0
  0
ARC
  5
770D
330
18
100
AcDbEntity
  8
0
100
AcDbCircle
 10
423.4283281057205
 20
57.17300111608617
 30
0.0
 40
1.75
100
AcDbArc
 50
90.0
 51
270.0
  0
ARC
  5
770E
330
18
100
AcDbEntity
  8
0
100
AcDbCircle
 10
423.4283281057205
 20
50.67300111608616
 30
0.0
 40
1.75
100
AcDbArc
 50
90.0
 51
270.0
  0
ARC
  5
770F
330
18
100
AcDbEntity
  8
0
100
AcDbCircle
 10
434.9283281057205
 20
70.17300111608617
 30
0.0
 40
1.75
100
AcDbArc
 50
270.0
 51
90.0
  0
ARC
  5
7710
330
18
100
AcDbEntity
  8
0
100
AcDbCircle
 10
434.9283281057205
 20
57.17300111608614
 30
0.0
 40
1.75
100
AcDbArc
 50
270.0
 51
90.0
  0
ARC
  5
7711
330
18
100
AcDbEntity
  8
0
100
AcDbCircle
 10
434.9283281057205
 20
63.67300111608614
 30
0.0
 40
1.75
100
AcDbArc
 50
270.0
 51
90.0
  0
ARC
  5
7712
330
18
100
AcDbEntity
  8
0
100
AcDbCircle
 10
434.9283281057205
 20
50.67300111608614
 30
0.0
 40
1.75
100
AcDbArc
 50
270.0
 51
90.0
  0
ARC
  5
7713
330
18
100
AcDbEntity
  8
0
100
AcDbCircle
 10
423.4283281057205
 20
109.1730011160861
 30
0.0
 40
1.75
100
AcDbArc
 50
90.0
 51
270.0
  0
ARC
  5
7714
330
18
100
AcDbEntity
  8
0
100
AcDbCircle
 10
434.9283281057205
 20
109.1730011160861
 30
0.0
 40
1.75
100
AcDbArc
 50
270.0
 51
90.0
  0
LINE
  5
7715
330
18
100
AcDbEntity
  8
0
100
AcDbLine
 10
423.4283281057205
 20
107.4230011160861
 30
0.0
 11
434.9283281057205
 21
107.4230011160861
 31
0.0
  0
LINE
  5
7716
330
18
100
AcDbEntity
  8
0
100
AcDbLine
 10
423.4283281057205
 20
104.4230011160864
 30
0.0
 11
434.9283281057205
 21
104.4230011160861
 31
0.0
  0
LINE
  5
7717
330
18
100
AcDbEntity
  8
0
100
AcDbLine
 10
423.4283281057205
 20
97.92300111608639
 30
0.0
 11
434.9283281057205
 21
97.92300111608618
 31
0.0
  0
LINE
  5
7718
330
18
100
AcDbEntity
  8
0
100
AcDbLine
 10
423.4283281057205
 20
100.9230011160861
 30
0.0
 11
434.9283281057205
 21
100.9230011160861
 31
0.0
  0
LINE
  5
7719
330
18
100
AcDbEntity
  8
0
100
AcDbLine
 10
423.4283281057205
 20
91.42300111608639
 30
0.0
 11
434.9283281057205
 21
91.42300111608617
 31
0.0
  0
LINE
  5
771A
330
18
100
AcDbEntity
  8
0
100
AcDbLine
 10
423.4283281057205
 20
94.42300111608616
 30
0.0
 11
434.9283281057205
 21
94.42300111608616
 31
0.0
  0
LINE
  5
771B
330
18
100
AcDbEntity
  8
0
100
AcDbLine
 10
423.4283281057205
 20
84.9230011160864
 30
0.0
 11
434.9283281057205
 21
84.92300111608617
 31
0.0
  0
LINE
  5
771C
330
18
100
AcDbEntity
  8
0
100
AcDbLine
 10
423.4283281057205
 20
87.92300111608616
 30
0.0
 11
434.9283281057205
 21
87.92300111608616
 31
0.0
  0
LINE
  5
771D
330
18
100
AcDbEntity
  8
0
100
AcDbLine
 10
423.4283281057205
 20
81.42300111608617
 30
0.0
 11
434.9283281057205
 21
81.42300111608617
 31
0.0
  0
LINE
  5
771E
330
18
100
AcDbEntity
  8
0
100
AcDbLine
 10
423.4283281057205
 20
78.4230011160864
 30
0.0
 11
434.9283281057205
 21
78.42300111608617
 31
0.0
  0
ARC
  5
771F
330
18
100
AcDbEntity
  8
0
100
AcDbCircle
 10
423.4283281057205
 20
102.6730011160861
 30
0.0
 40
1.75
100
AcDbArc
 50
90.0
 51
270.0
  0
ARC
  5
7720
330
18
100
AcDbEntity
  8
0
100
AcDbCircle
 10
423.4283281057205
 20
83.17300111608616
 30
0.0
 40
1.75
100
AcDbArc
 50
90.0
 51
270.0
  0
ARC
  5
7721
330
18
100
AcDbEntity
  8
0
100
AcDbCircle
 10
423.4283281057205
 20
89.67300111608617
 30
0.0
 40
1.75
100
AcDbArc
 50
90.0
 51
270.0
  0
ARC
  5
7722
330
18
100
AcDbEntity
  8
0
100
AcDbCircle
 10
423.4283281057205
 20
96.17300111608617
 30
0.0
 40
1.75
100
AcDbArc
 50
90.0
 51
270.0
  0
ARC
  5
7723
330
18
100
AcDbEntity
  8
0
100
AcDbCircle
 10
434.9283281057205
 20
102.6730011160861
 30
0.0
 40
1.75
100
AcDbArc
 50
270.0
 51
90.0
  0
ARC
  5
7724
330
18
100
AcDbEntity
  8
0
100
AcDbCircle
 10
434.9283281057205
 20
89.67300111608617
 30
0.0
 40
1.75
100
AcDbArc
 50
270.0
 51
90.0
  0
ARC
  5
7725
330
18
100
AcDbEntity
  8
0
100
AcDbCircle
 10
434.9283281057205
 20
83.17300111608616
 30
0.0
 40
1.75
100
AcDbArc
 50
270.0
 51
90.0
  0
ARC
  5
7726
330
18
100
AcDbEntity
  8
0
100
AcDbCircle
 10
434.9283281057205
 20
96.17300111608617
 30
0.0
 40
1.75
100
AcDbArc
 50
270.0
 51
90.0
  0
LINE
  5
7727
330
18
100
AcDbEntity
  8
0
100
AcDbLine
 10
423.4283281057205
 20
139.9230011160861
 30
0.0
 11
434.9283281057205
 21
139.9230011160861
 31
0.0
  0
LINE
  5
7728
330
18
100
AcDbEntity
  8
0
100
AcDbLine
 10
423.4283281057205
 20
133.4230011160861
 30
0.0
 11
434.9283281057205
 21
133.4230011160861
 31
0.0
  0
LINE
  5
7729
330
18
100
AcDbEntity
  8
0
100
AcDbLine
 10
423.4283281057205
 20
136.9230011160863
 30
0.0
 11
434.9283281057205
 21
136.9230011160861
 31
0.0
  0
LINE
  5
772A
330
18
100
AcDbEntity
  8
0
100
AcDbLine
 10
423.4283281057205
 20
130.4230011160864
 30
0.0
 11
434.9283281057205
 21
130.4230011160861
 31
0.0
  0
LINE
  5
772B
330
18
100
AcDbEntity
  8
0
100
AcDbLine
 10
423.4283281057205
 20
126.9230011160861
 30
0.0
 11
434.9283281057205
 21
126.9230011160861
 31
0.0
  0
LINE
  5
772C
330
18
100
AcDbEntity
  8
0
100
AcDbLine
 10
423.4283281057205
 20
120.4230011160861
 30
0.0
 11
434.9283281057205
 21
120.4230011160861
 31
0.0
  0
LINE
  5
772D
330
18
100
AcDbEntity
  8
0
100
AcDbLine
 10
423.4283281057205
 20
123.9230011160864
 30
0.0
 11
434.9283281057205
 21
123.9230011160861
 31
0.0
  0
LINE
  5
772E
330
18
100
AcDbEntity
  8
0
100
AcDbLine
 10
423.4283281057205
 20
117.4230011160863
 30
0.0
 11
434.9283281057205
 21
117.4230011160861
 31
0.0
  0
LINE
  5
772F
330
18
100
AcDbEntity
  8
0
100
AcDbLine
 10
423.4283281057205
 20
110.9230011160863
 30
0.0
 11
434.9283281057205
 21
110.9230011160861
 31
0.0
  0
LINE
  5
7730
330
18
100
AcDbEntity
  8
0
100
AcDbLine
 10
423.4283281057205
 20
113.9230011160861
 30
0.0
 11
434.9283281057205
 21
113.9230011160861
 31
0.0
  0
ARC
  5
7731
330
18
100
AcDbEntity
  8
0
100
AcDbCircle
 10
423.4283281057205
 20
135.1730011160861
 30
0.0
 40
1.75
100
AcDbArc
 50
90.0
 51
270.0
  0
ARC
  5
7732
330
18
100
AcDbEntity
  8
0
100
AcDbCircle
 10
423.4283281057205
 20
128.6730011160861
 30
0.0
 40
1.75
100
AcDbArc
 50
90.0
 51
270.0
  0
ARC
  5
7733
330
18
100
AcDbEntity
  8
0
100
AcDbCircle
 10
423.4283281057205
 20
122.1730011160861
 30
0.0
 40
1.75
100
AcDbArc
 50
90.0
 51
270.0
  0
ARC
  5
7734
330
18
100
AcDbEntity
  8
0
100
AcDbCircle
 10
423.4283281057205
 20
115.6730011160861
 30
0.0
 40
1.75
100
AcDbArc
 50
90.0
 51
270.0
  0
ARC
  5
7735
330
18
100
AcDbEntity
  8
0
100
AcDbCircle
 10
434.9283281057205
 20
135.1730011160861
 30
0.0
 40
1.75
100
AcDbArc
 50
270.0
 51
90.0
  0
ARC
  5
7736
330
18
100
AcDbEntity
  8
0
100
AcDbCircle
 10
434.9283281057205
 20
128.6730011160861
 30
0.0
 40
1.75
100
AcDbArc
 50
270.0
 51
90.0
  0
ARC
  5
7737
330
18
100
AcDbEntity
  8
0
100
AcDbCircle
 10
434.9283281057205
 20
115.6730011160861
 30
0.0
 40
1.75
100
AcDbArc
 50
270.0
 51
90.0
  0
ARC
  5
7738
330
18
100
AcDbEntity
  8
0
100
AcDbCircle
 10
434.9283281057205
 20
122.1730011160861
 30
0.0
 40
1.75
100
AcDbArc
 50
270.0
 51
90.0
  0
LINE
  5
7744
330
18
100
AcDbEntity
  8
0
100
AcDbLine
 10
296.6783281057205
 20
169.6730011160864
 30
0.0
 11
441.6783281057205
 21
169.6730011160864
 31
0.0
  0
LINE
  5
7746
330
18
100
AcDbEntity
  8
0
100
AcDbLine
 10
376.1783281057205
 20
169.6730011160863
 30
0.0
 11
442.6783281057205
 21
169.6730011160862
 31
0.0
  0
LINE
  5
774B
330
18
100
AcDbEntity
  8
0
100
AcDbLine
 10
170.6003671924545
 20
184.6730011160863
 30
0.0
 11
151.3503671924546
 21
184.6730011160865
 31
0.0
  0
LINE
  5
774D
330
18
100
AcDbEntity
  8
0
100
AcDbLine
 10
133.3503671924545
 20
169.6730011160863
 30
0.0
 11
222.3503671924545
 21
169.6730011160863
 31
0.0
  0
LINE
  5
774E
330
18
100
AcDbEntity
  8
0
100
AcDbLine
 10
169.8503671924545
 20
148.6730011160865
 30
0.0
 11
156.3503671924545
 21
148.6730011160863
 31
0.0
  0
ARC
  5
7752
330
18
100
AcDbEntity
  8
0
100
AcDbCircle
 10
152.8503671924545
 20
169.6730011160863
 30
0.0
 40
3.0
100
AcDbArc
 50
0.0
 51
180.0
  0
LINE
  5
7753
330
18
100
AcDbEntity
  8
0
100
AcDbLine
 10
150.3503671924545
 20
171.331313511264
 30
0.0
 11
150.3503671924546
 21
183.6730011160865
 31
0.0
  0
MTEXT
  5
7754
330
18
100
AcDbEntity
  8
0
100
AcDbMText
 10
151.9829528082397
 20
146.6082241271148
 30
0.0
 40
2.799999999999999
 41
4.654799999999999
 71
     1
 72
     5
  1
r
  7
MSｺﾞｼｯｸ
 73
     1
 44
1.0
  0
LINE
  5
7755
330
18
100
AcDbEntity
  8
0
100
AcDbLine
 10
151.3503671924546
 20
184.6730011160865
 30
0.0
 11
150.3503671924546
 21
183.6730011160865
 31
0.0
  0
LINE
  5
7757
330
18
100
AcDbEntity
  8
0
100
AcDbLine
 10
197.3503671924545
 20
184.6730011160863
 30
0.0
 11
178.1003671924545
 21
184.6730011160863
 31
0.0
  0
MTEXT
  5
7758
330
18
100
AcDbEntity
  8
0
100
AcDbMText
 10
159.8467740064757
 20
154.0034996940252
 30
0.0
 40
4.0
 41
13.7408
 71
     1
 72
     5
  1
TB1
  7
MSｺﾞｼｯｸ
 73
     1
 44
1.0
  0
LINE
  5
7759
330
18
100
AcDbEntity
  8
0
100
AcDbLine
 10
169.8503671924545
 20
148.6730011160865
 30
0.0
 11
169.8503671924545
 21
147.3409314957336
 31
0.0
  0
LINE
  5
775A
330
18
100
AcDbEntity
  8
0
100
AcDbLine
 10
194.3503671924545
 20
159.1730011160863
 30
0.0
 11
179.8503671924545
 21
159.1730011160865
 31
0.0
  0
INSERT
  5
775B
330
18
100
AcDbEntity
  8
0
100
AcDbBlockReference
  2
A$C444F17A9
 10
185.7253665847572
 20
144.5730006300597
 30
0.0
  0
LINE
  5
775C
330
18
100
AcDbEntity
  8
0
100
AcDbLine
 10
178.1003671924545
 20
184.6730011160863
 30
0.0
 11
177.1003671924545
 21
183.6730011160863
 31
0.0
  0
LINE
  5
775D
330
18
100
AcDbEntity
  8
0
100
AcDbLine
 10
171.6003671924545
 20
183.6730011160863
 30
0.0
 11
170.6003671924545
 21
184.6730011160863
 31
0.0
  0
ARC
  5
775E
330
18
100
AcDbEntity
  8
0
100
AcDbCircle
 10
174.3503671924545
 20
179.6730011160865
 30
0.0
 40
2.75
100
AcDbArc
 50
180.0
 51
0.0
  0
LINE
  5
775F
330
18
100
AcDbEntity
  8
0
100
AcDbLine
 10
177.1003671924545
 20
179.6730011160863
 30
0.0
 11
177.1003671924545
 21
183.6730011160863
 31
0.0
  0
LINE
  5
7760
330
18
100
AcDbEntity
  8
0
100
AcDbLine
 10
171.6003671924545
 20
179.6730011160863
 30
0.0
 11
171.6003671924545
 21
183.6730011160863
 31
0.0
  0
LINE
  5
7761
330
18
100
AcDbEntity
  8
0
100
AcDbLine
 10
198.3503671924545
 20
168.6730011160863
 30
0.0
 11
198.3503671924545
 21
183.6730011160863
 31
0.0
  0
LINE
  5
7762
330
18
100
AcDbEntity
  8
0
100
AcDbLine
 10
198.3503671924545
 20
168.6730011160863
 30
0.0
 11
197.3503671924545
 21
169.6730011160863
 31
0.0
  0
LINE
  5
7763
330
18
100
AcDbEntity
  8
0
100
AcDbLine
 10
198.3503671924545
 20
183.6730011160863
 30
0.0
 11
197.3503671924545
 21
184.6730011160863
 31
0.0
  0
LINE
  5
776B
330
18
100
AcDbEntity
  8
0
100
AcDbLine
 10
327.4283281057205
 20
156.4230011160864
 30
0.0
 11
338.9283281057205
 21
156.4230011160861
 31
0.0
  0
LINE
  5
776C
330
18
100
AcDbEntity
  8
0
100
AcDbLine
 10
327.4283281057205
 20
162.9230011160864
 30
0.0
 11
338.9283281057205
 21
162.9230011160862
 31
0.0
  0
LINE
  5
776D
330
18
100
AcDbEntity
  8
0
100
AcDbLine
 10
327.4283281057205
 20
159.4230011160862
 30
0.0
 11
338.9283281057205
 21
159.4230011160862
 31
0.0
  0
LINE
  5
776E
330
18
100
AcDbEntity
  8
0
100
AcDbLine
 10
293.6783281057205
 20
169.6730011160865
 30
0.0
 11
362.1783281057205
 21
169.6730011160863
 31
0.0
  0
LINE
  5
776F
330
18
100
AcDbEntity
  8
0
100
AcDbLine
 10
327.4283281057205
 20
149.9230011160864
 30
0.0
 11
338.9283281057205
 21
149.9230011160862
 31
0.0
  0
LINE
  5
7770
330
18
100
AcDbEntity
  8
0
100
AcDbLine
 10
327.4283281057205
 20
152.9230011160862
 30
0.0
 11
338.9283281057205
 21
152.9230011160862
 31
0.0
  0
LINE
  5
7771
330
18
100
AcDbEntity
  8
0
100
AcDbLine
 10
327.4283281057205
 20
146.4230011160861
 30
0.0
 11
338.9283281057205
 21
146.4230011160861
 31
0.0
  0
LINE
  5
7772
330
18
100
AcDbEntity
  8
0
100
AcDbLine
 10
295.6783281057205
 20
168.6730011160864
 30
0.0
 11
296.6783281057205
 21
169.6730011160864
 31
0.0
  0
LINE
  5
7773
330
18
100
AcDbEntity
  8
0
100
AcDbLine
 10
293.6783281057205
 20
169.6730011160863
 30
0.0
 11
295.6783281057205
 21
169.6730011160863
 31
0.0
  0
LINE
  5
7774
330
18
100
AcDbEntity
  8
0
100
AcDbLine
 10
288.2922469946654
 20
143.1226559363194
 30
0.0
 11
291.0886732854874
 21
145.9190822271412
 31
0.0
  0
CIRCLE
  5
7775
330
18
100
AcDbEntity
  8
0
100
AcDbCircle
 10
289.4783281057204
 20
144.7330011160863
 30
0.0
 40
2.0
  0
LINE
  5
7776
330
18
100
AcDbEntity
  8
0
100
AcDbLine
 10
287.8679829259535
 20
143.5469200050313
 30
0.0
 11
290.6644092167752
 21
146.3433462958532
 31
0.0
  0
LINE
  5
7777
330
18
100
AcDbEntity
  8
0
100
AcDbLine
 10
293.6783281057205
 20
147.2730011160863
 30
0.0
 11
284.1783281057205
 21
147.2730011160864
 31
0.0
  0
LINE
  5
7778
330
18
100
AcDbEntity
  8
0
100
AcDbLine
 10
303.4283281057205
 20
162.9230011160864
 30
0.0
 11
314.9283281057205
 21
162.9230011160862
 31
0.0
  0
LINE
  5
7779
330
18
100
AcDbEntity
  8
0
100
AcDbLine
 10
303.4283281057205
 20
156.4230011160864
 30
0.0
 11
314.9283281057205
 21
156.4230011160861
 31
0.0
  0
LINE
  5
777A
330
18
100
AcDbEntity
  8
0
100
AcDbLine
 10
303.4283281057205
 20
159.4230011160862
 30
0.0
 11
314.9283281057205
 21
159.4230011160862
 31
0.0
  0
ARC
  5
777B
330
18
100
AcDbEntity
  8
0
100
AcDbCircle
 10
314.9283281057205
 20
161.1730011160862
 30
0.0
 40
1.75
100
AcDbArc
 50
270.0
 51
90.0
  0
ARC
  5
777C
330
18
100
AcDbEntity
  8
0
100
AcDbCircle
 10
303.4283281057205
 20
161.1730011160862
 30
0.0
 40
1.75
100
AcDbArc
 50
90.0
 51
270.0
  0
ARC
  5
777D
330
18
100
AcDbEntity
  8
0
100
AcDbCircle
 10
314.9283281057205
 20
148.1730011160862
 30
0.0
 40
1.75
100
AcDbArc
 50
270.0
 51
90.0
  0
LINE
  5
777E
330
18
100
AcDbEntity
  8
0
100
AcDbLine
 10
303.4283281057205
 20
152.9230011160862
 30
0.0
 11
314.9283281057205
 21
152.9230011160862
 31
0.0
  0
LINE
  5
777F
330
18
100
AcDbEntity
  8
0
100
AcDbLine
 10
303.4283281057205
 20
149.9230011160864
 30
0.0
 11
314.9283281057205
 21
149.9230011160862
 31
0.0
  0
LINE
  5
7780
330
18
100
AcDbEntity
  8
0
100
AcDbLine
 10
303.4283281057205
 20
146.4230011160861
 30
0.0
 11
314.9283281057205
 21
146.4230011160861
 31
0.0
  0
ARC
  5
7781
330
18
100
AcDbEntity
  8
0
100
AcDbCircle
 10
303.4283281057205
 20
148.1730011160862
 30
0.0
 40
1.75
100
AcDbArc
 50
90.0
 51
270.0
  0
ARC
  5
7782
330
18
100
AcDbEntity
  8
0
100
AcDbCircle
 10
303.4283281057205
 20
154.6730011160861
 30
0.0
 40
1.75
100
AcDbArc
 50
90.0
 51
270.0
  0
ARC
  5
7783
330
18
100
AcDbEntity
  8
0
100
AcDbCircle
 10
314.9283281057205
 20
154.6730011160861
 30
0.0
 40
1.75
100
AcDbArc
 50
270.0
 51
90.0
  0
ARC
  5
7784
330
18
100
AcDbEntity
  8
0
100
AcDbCircle
 10
327.4283281057205
 20
161.1730011160861
 30
0.0
 40
1.75
100
AcDbArc
 50
90.0
 51
270.0
  0
ARC
  5
7785
330
18
100
AcDbEntity
  8
0
100
AcDbCircle
 10
327.4283281057205
 20
148.1730011160861
 30
0.0
 40
1.75
100
AcDbArc
 50
90.0
 51
270.0
  0
ARC
  5
7786
330
18
100
AcDbEntity
  8
0
100
AcDbCircle
 10
327.4283281057205
 20
154.6730011160861
 30
0.0
 40
1.75
100
AcDbArc
 50
90.0
 51
270.0
  0
LINE
  5
77E6
330
18
100
AcDbEntity
  8
0
100
AcDbLine
 10
375.4283281057205
 20
156.4230011160864
 30
0.0
 11
386.9283281057205
 21
156.4230011160861
 31
0.0
  0
LINE
  5
77E7
330
18
100
AcDbEntity
  8
0
100
AcDbLine
 10
375.4283281057205
 20
162.9230011160863
 30
0.0
 11
386.9283281057205
 21
162.9230011160861
 31
0.0
  0
LINE
  5
77E8
330
18
100
AcDbEntity
  8
0
100
AcDbLine
 10
375.4283281057205
 20
159.4230011160861
 30
0.0
 11
386.9283281057205
 21
159.4230011160861
 31
0.0
  0
LINE
  5
77E9
330
18
100
AcDbEntity
  8
0
100
AcDbLine
 10
375.4283281057205
 20
149.9230011160864
 30
0.0
 11
386.9283281057205
 21
149.9230011160861
 31
0.0
  0
LINE
  5
77EA
330
18
100
AcDbEntity
  8
0
100
AcDbLine
 10
375.4283281057205
 20
152.9230011160861
 30
0.0
 11
386.9283281057205
 21
152.9230011160861
 31
0.0
  0
LINE
  5
77EB
330
18
100
AcDbEntity
  8
0
100
AcDbLine
 10
375.4283281057205
 20
146.4230011160861
 30
0.0
 11
386.9283281057205
 21
146.4230011160861
 31
0.0
  0
ARC
  5
77EC
330
18
100
AcDbEntity
  8
0
100
AcDbCircle
 10
369.1783281057205
 20
169.6730011160863
 30
0.0
 40
3.0
100
AcDbArc
 50
0.0
 51
180.0
  0
LINE
  5
77ED
330
18
100
AcDbEntity
  8
0
100
AcDbLine
 10
351.4283281057205
 20
156.4230011160864
 30
0.0
 11
362.9283281057205
 21
156.4230011160861
 31
0.0
  0
LINE
  5
77EE
330
18
100
AcDbEntity
  8
0
100
AcDbLine
 10
351.4283281057205
 20
162.9230011160864
 30
0.0
 11
362.9283281057205
 21
162.9230011160862
 31
0.0
  0
LINE
  5
77EF
330
18
100
AcDbEntity
  8
0
100
AcDbLine
 10
351.4283281057205
 20
159.4230011160862
 30
0.0
 11
362.9283281057205
 21
159.4230011160862
 31
0.0
  0
LINE
  5
77F0
330
18
100
AcDbEntity
  8
0
100
AcDbLine
 10
351.4283281057205
 20
152.9230011160862
 30
0.0
 11
362.9283281057205
 21
152.9230011160862
 31
0.0
  0
LINE
  5
77F1
330
18
100
AcDbEntity
  8
0
100
AcDbLine
 10
351.4283281057205
 20
149.9230011160864
 30
0.0
 11
362.9283281057205
 21
149.9230011160862
 31
0.0
  0
LINE
  5
77F2
330
18
100
AcDbEntity
  8
0
100
AcDbLine
 10
351.4283281057205
 20
146.4230011160861
 30
0.0
 11
362.9283281057205
 21
146.4230011160861
 31
0.0
  0
ARC
  5
77F3
330
18
100
AcDbEntity
  8
0
100
AcDbCircle
 10
338.9283281057205
 20
161.1730011160861
 30
0.0
 40
1.75
100
AcDbArc
 50
270.0
 51
90.0
  0
ARC
  5
77F4
330
18
100
AcDbEntity
  8
0
100
AcDbCircle
 10
351.4283281057205
 20
161.1730011160861
 30
0.0
 40
1.75
100
AcDbArc
 50
90.0
 51
270.0
  0
ARC
  5
77F5
330
18
100
AcDbEntity
  8
0
100
AcDbCircle
 10
351.4283281057205
 20
148.1730011160861
 30
0.0
 40
1.75
100
AcDbArc
 50
90.0
 51
270.0
  0
ARC
  5
77F6
330
18
100
AcDbEntity
  8
0
100
AcDbCircle
 10
338.9283281057205
 20
148.1730011160861
 30
0.0
 40
1.75
100
AcDbArc
 50
270.0
 51
90.0
  0
ARC
  5
77F7
330
18
100
AcDbEntity
  8
0
100
AcDbCircle
 10
338.9283281057205
 20
154.6730011160861
 30
0.0
 40
1.75
100
AcDbArc
 50
270.0
 51
90.0
  0
ARC
  5
77F8
330
18
100
AcDbEntity
  8
0
100
AcDbCircle
 10
351.4283281057205
 20
154.6730011160861
 30
0.0
 40
1.75
100
AcDbArc
 50
90.0
 51
270.0
  0
ARC
  5
77F9
330
18
100
AcDbEntity
  8
0
100
AcDbCircle
 10
375.4283281057205
 20
161.1730011160861
 30
0.0
 40
1.75
100
AcDbArc
 50
90.0
 51
270.0
  0
ARC
  5
77FA
330
18
100
AcDbEntity
  8
0
100
AcDbCircle
 10
362.9283281057205
 20
161.1730011160861
 30
0.0
 40
1.75
100
AcDbArc
 50
270.0
 51
90.0
  0
ARC
  5
77FB
330
18
100
AcDbEntity
  8
0
100
AcDbCircle
 10
375.4283281057205
 20
148.1730011160861
 30
0.0
 40
1.75
100
AcDbArc
 50
90.0
 51
270.0
  0
ARC
  5
77FC
330
18
100
AcDbEntity
  8
0
100
AcDbCircle
 10
362.9283281057205
 20
148.1730011160861
 30
0.0
 40
1.75
100
AcDbArc
 50
270.0
 51
90.0
  0
ARC
  5
77FD
330
18
100
AcDbEntity
  8
0
100
AcDbCircle
 10
362.9283281057205
 20
154.6730011160861
 30
0.0
 40
1.75
100
AcDbArc
 50
270.0
 51
90.0
  0
ARC
  5
77FE
330
18
100
AcDbEntity
  8
0
100
AcDbCircle
 10
375.4283281057205
 20
154.6730011160861
 30
0.0
 40
1.75
100
AcDbArc
 50
90.0
 51
270.0
  0
ARC
  5
77FF
330
18
100
AcDbEntity
  8
0
100
AcDbCircle
 10
386.9283281057205
 20
161.1730011160861
 30
0.0
 40
1.75
100
AcDbArc
 50
270.0
 51
90.0
  0
ARC
  5
7800
330
18
100
AcDbEntity
  8
0
100
AcDbCircle
 10
386.9283281057205
 20
148.1730011160861
 30
0.0
 40
1.75
100
AcDbArc
 50
270.0
 51
90.0
  0
ARC
  5
7801
330
18
100
AcDbEntity
  8
0
100
AcDbCircle
 10
386.9283281057205
 20
154.6730011160861
 30
0.0
 40
1.75
100
AcDbArc
 50
270.0
 51
90.0
  0
ARC
  5
7802
330
18
100
AcDbEntity
  8
0
100
AcDbCircle
 10
410.9283281057205
 20
161.1730011160861
 30
0.0
 40
1.75
100
AcDbArc
 50
270.0
 51
90.0
  0
ARC
  5
7803
330
18
100
AcDbEntity
  8
0
100
AcDbCircle
 10
399.4283281057205
 20
161.1730011160861
 30
0.0
 40
1.75
100
AcDbArc
 50
90.0
 51
270.0
  0
LINE
  5
7804
330
18
100
AcDbEntity
  8
0
100
AcDbLine
 10
399.4283281057205
 20
156.4230011160864
 30
0.0
 11
410.9283281057205
 21
156.4230011160861
 31
0.0
  0
LINE
  5
7805
330
18
100
AcDbEntity
  8
0
100
AcDbLine
 10
399.4283281057205
 20
162.9230011160863
 30
0.0
 11
410.9283281057205
 21
162.9230011160861
 31
0.0
  0
LINE
  5
7806
330
18
100
AcDbEntity
  8
0
100
AcDbLine
 10
399.4283281057205
 20
159.4230011160861
 30
0.0
 11
410.9283281057205
 21
159.4230011160861
 31
0.0
  0
ARC
  5
7807
330
18
100
AcDbEntity
  8
0
100
AcDbCircle
 10
410.9283281057205
 20
148.1730011160861
 30
0.0
 40
1.75
100
AcDbArc
 50
270.0
 51
90.0
  0
ARC
  5
7808
330
18
100
AcDbEntity
  8
0
100
AcDbCircle
 10
399.4283281057205
 20
148.1730011160861
 30
0.0
 40
1.75
100
AcDbArc
 50
90.0
 51
270.0
  0
LINE
  5
7809
330
18
100
AcDbEntity
  8
0
100
AcDbLine
 10
399.4283281057205
 20
152.9230011160861
 30
0.0
 11
410.9283281057205
 21
152.9230011160861
 31
0.0
  0
LINE
  5
780A
330
18
100
AcDbEntity
  8
0
100
AcDbLine
 10
399.4283281057205
 20
149.9230011160864
 30
0.0
 11
410.9283281057205
 21
149.9230011160861
 31
0.0
  0
LINE
  5
780B
330
18
100
AcDbEntity
  8
0
100
AcDbLine
 10
399.4283281057205
 20
143.4230011160863
 30
0.0
 11
410.9283281057205
 21
143.4230011160861
 31
0.0
  0
LINE
  5
780C
330
18
100
AcDbEntity
  8
0
100
AcDbLine
 10
399.4283281057205
 20
146.4230011160861
 30
0.0
 11
410.9283281057205
 21
146.4230011160861
 31
0.0
  0
ARC
  5
780D
330
18
100
AcDbEntity
  8
0
100
AcDbCircle
 10
399.4283281057205
 20
154.6730011160861
 30
0.0
 40
1.75
100
AcDbArc
 50
90.0
 51
270.0
  0
ARC
  5
780E
330
18
100
AcDbEntity
  8
0
100
AcDbCircle
 10
410.9283281057205
 20
154.6730011160861
 30
0.0
 40
1.75
100
AcDbArc
 50
270.0
 51
90.0
  0
LINE
  5
7903
330
18
100
AcDbEntity
  8
0
100
AcDbLine
 10
423.4283281057205
 20
162.9230011160863
 30
0.0
 11
434.9283281057205
 21
162.9230011160861
 31
0.0
  0
LINE
  5
7904
330
18
100
AcDbEntity
  8
0
100
AcDbLine
 10
423.4283281057205
 20
156.4230011160864
 30
0.0
 11
434.9283281057205
 21
156.4230011160861
 31
0.0
  0
LINE
  5
7905
330
18
100
AcDbEntity
  8
0
100
AcDbLine
 10
423.4283281057205
 20
159.4230011160861
 30
0.0
 11
434.9283281057205
 21
159.4230011160861
 31
0.0
  0
LINE
  5
7906
330
18
100
AcDbEntity
  8
0
100
AcDbLine
 10
423.4283281057205
 20
149.9230011160864
 30
0.0
 11
434.9283281057205
 21
149.9230011160861
 31
0.0
  0
LINE
  5
7907
330
18
100
AcDbEntity
  8
0
100
AcDbLine
 10
423.4283281057205
 20
152.9230011160861
 30
0.0
 11
434.9283281057205
 21
152.9230011160861
 31
0.0
  0
LINE
  5
7908
330
18
100
AcDbEntity
  8
0
100
AcDbLine
 10
423.4283281057205
 20
146.4230011160861
 30
0.0
 11
434.9283281057205
 21
146.4230011160861
 31
0.0
  0
LINE
  5
7909
330
18
100
AcDbEntity
  8
0
100
AcDbLine
 10
423.4283281057205
 20
143.4230011160863
 30
0.0
 11
434.9283281057205
 21
143.4230011160861
 31
0.0
  0
ARC
  5
790A
330
18
100
AcDbEntity
  8
0
100
AcDbCircle
 10
423.4283281057205
 20
161.1730011160861
 30
0.0
 40
1.75
100
AcDbArc
 50
90.0
 51
270.0
  0
ARC
  5
790B
330
18
100
AcDbEntity
  8
0
100
AcDbCircle
 10
423.4283281057205
 20
148.1730011160861
 30
0.0
 40
1.75
100
AcDbArc
 50
90.0
 51
270.0
  0
ARC
  5
790C
330
18
100
AcDbEntity
  8
0
100
AcDbCircle
 10
423.4283281057205
 20
154.6730011160861
 30
0.0
 40
1.75
100
AcDbArc
 50
90.0
 51
270.0
  0
LINE
  5
790D
330
18
100
AcDbEntity
  8
0
100
AcDbLine
 10
441.6783281057205
 20
169.6730011160864
 30
0.0
 11
442.6783281057205
 21
168.6730011160864
 31
0.0
  0
ARC
  5
790E
330
18
100
AcDbEntity
  8
0
100
AcDbCircle
 10
434.9283281057205
 20
161.1730011160861
 30
0.0
 40
1.75
100
AcDbArc
 50
270.0
 51
90.0
  0
ARC
  5
790F
330
18
100
AcDbEntity
  8
0
100
AcDbCircle
 10
434.9283281057205
 20
148.1730011160861
 30
0.0
 40
1.75
100
AcDbArc
 50
270.0
 51
90.0
  0
ARC
  5
7910
330
18
100
AcDbEntity
  8
0
100
AcDbCircle
 10
434.9283281057205
 20
154.6730011160861
 30
0.0
 40
1.75
100
AcDbArc
 50
270.0
 51
90.0
  0
LINE
  5
7911
330
18
100
AcDbEntity
  8
0
100
AcDbLine
 10
442.6783281057205
 20
184.6730011160862
 30
0.0
 11
444.6783281057205
 21
184.6730011160862
 31
0.0
  0
LINE
  5
7A8F
330
18
100
AcDbEntity
  8
0
100
AcDbLine
 10
175.0170338591212
 20
14.09101221861453
 30
0.0
 11
175.0170338591212
 21
16.00633444941957
 31
0.0
  0
LINE
  5
7A90
330
18
100
AcDbEntity
  8
0
100
AcDbLine
 10
173.6837005257879
 20
14.09101221861453
 30
0.0
 11
173.6837005257879
 21
16.00633444941957
 31
0.0
  0
CIRCLE
  5
7A91
330
18
100
AcDbEntity
  8
0
100
AcDbCircle
 10
174.3503671924545
 20
16.67300111608631
 30
0.0
 40
3.333333333333333
  0
CIRCLE
  5
7A92
330
18
100
AcDbEntity
  8
0
100
AcDbCircle
 10
174.3503671924545
 20
16.67300111608631
 30
0.0
 40
4.0
  0
ARC
  5
7A93
330
18
100
AcDbEntity
  8
0
100
AcDbCircle
 10
174.3503671924545
 20
16.67300111608631
 30
0.0
 40
2.666666666666666
100
AcDbArc
 50
255.52248781407
 51
284.4775121859298
  0
LINE
  5
7A94
330
18
100
AcDbEntity
  8
0
100
AcDbLine
 10
171.7683782949834
 20
16.00633444941957
 30
0.0
 11
173.6837005257879
 21
16.00633444941957
 31
0.0
  0
LINE
  5
7A95
330
18
100
AcDbEntity
  8
0
100
AcDbLine
 10
171.7683782949834
 20
17.33966778275305
 30
0.0
 11
173.6837005257879
 21
17.33966778275305
 31
0.0
  0
ARC
  5
7A96
330
18
100
AcDbEntity
  8
0
100
AcDbCircle
 10
174.3503671924545
 20
16.67300111608631
 30
0.0
 40
2.666666666666666
100
AcDbArc
 50
165.5224878140705
 51
194.4775121859294
  0
ARC
  5
7A97
330
18
100
AcDbEntity
  8
0
100
AcDbCircle
 10
174.3503671924545
 20
16.67300111608631
 30
0.0
 40
2.666666666666666
100
AcDbArc
 50
345.5224878140705
 51
14.47751218592947
  0
LINE
  5
7A98
330
18
100
AcDbEntity
  8
0
100
AcDbLine
 10
175.0170338591212
 20
16.00633444941957
 30
0.0
 11
176.9323560899263
 21
16.00633444941957
 31
0.0
  0
LINE
  5
7A99
330
18
100
AcDbEntity
  8
0
100
AcDbLine
 10
175.0170338591212
 20
17.33966778275305
 30
0.0
 11
175.0170338591212
 21
19.25499001355808
 31
0.0
  0
LINE
  5
7A9A
330
18
100
AcDbEntity
  8
0
100
AcDbLine
 10
175.0170338591212
 20
17.33966778275305
 30
0.0
 11
176.9323560899263
 21
17.33966778275305
 31
0.0
  0
LINE
  5
7A9B
330
18
100
AcDbEntity
  8
0
100
AcDbLine
 10
173.6837005257879
 20
17.33966778275305
 30
0.0
 11
173.6837005257879
 21
19.25499001355808
 31
0.0
  0
ARC
  5
7A9C
330
18
100
AcDbEntity
  8
0
100
AcDbCircle
 10
174.3503671924545
 20
16.67300111608631
 30
0.0
 40
2.666666666666666
100
AcDbArc
 50
75.52248781407008
 51
104.4775121859299
  0
LINE
  5
7A9D
330
18
100
AcDbEntity
  8
0
100
AcDbLine
 10
164.0170338591213
 20
14.09101221861453
 30
0.0
 11
164.0170338591213
 21
16.00633444941957
 31
0.0
  0
LINE
  5
7A9E
330
18
100
AcDbEntity
  8
0
100
AcDbLine
 10
162.6837005257879
 20
14.09101221861453
 30
0.0
 11
162.6837005257879
 21
16.00633444941957
 31
0.0
  0
CIRCLE
  5
7A9F
330
18
100
AcDbEntity
  8
0
100
AcDbCircle
 10
163.3503671924545
 20
16.67300111608631
 30
0.0
 40
3.333333333333333
  0
CIRCLE
  5
7AA0
330
18
100
AcDbEntity
  8
0
100
AcDbCircle
 10
163.3503671924545
 20
16.67300111608631
 30
0.0
 40
4.0
  0
ARC
  5
7AA1
330
18
100
AcDbEntity
  8
0
100
AcDbCircle
 10
163.3503671924545
 20
16.67300111608631
 30
0.0
 40
2.666666666666666
100
AcDbArc
 50
255.52248781407
 51
284.4775121859298
  0
LINE
  5
7AA2
330
18
100
AcDbEntity
  8
0
100
AcDbLine
 10
160.7683782949834
 20
16.00633444941957
 30
0.0
 11
162.6837005257879
 21
16.00633444941957
 31
0.0
  0
LINE
  5
7AA3
330
18
100
AcDbEntity
  8
0
100
AcDbLine
 10
160.7683782949834
 20
17.33966778275305
 30
0.0
 11
162.6837005257879
 21
17.33966778275305
 31
0.0
  0
ARC
  5
7AA4
330
18
100
AcDbEntity
  8
0
100
AcDbCircle
 10
163.3503671924545
 20
16.67300111608631
 30
0.0
 40
2.666666666666666
100
AcDbArc
 50
165.5224878140705
 51
194.4775121859294
  0
ARC
  5
7AA5
330
18
100
AcDbEntity
  8
0
100
AcDbCircle
 10
163.3503671924545
 20
16.67300111608631
 30
0.0
 40
2.666666666666666
100
AcDbArc
 50
345.5224878140705
 51
14.47751218592947
  0
LINE
  5
7AA6
330
18
100
AcDbEntity
  8
0
100
AcDbLine
 10
164.0170338591213
 20
16.00633444941957
 30
0.0
 11
165.9323560899263
 21
16.00633444941957
 31
0.0
  0
LINE
  5
7AA7
330
18
100
AcDbEntity
  8
0
100
AcDbLine
 10
164.0170338591213
 20
17.33966778275305
 30
0.0
 11
164.0170338591213
 21
19.25499001355808
 31
0.0
  0
LINE
  5
7AA8
330
18
100
AcDbEntity
  8
0
100
AcDbLine
 10
164.0170338591213
 20
17.33966778275305
 30
0.0
 11
165.9323560899263
 21
17.33966778275305
 31
0.0
  0
LINE
  5
7AA9
330
18
100
AcDbEntity
  8
0
100
AcDbLine
 10
162.6837005257879
 20
17.33966778275305
 30
0.0
 11
162.6837005257879
 21
19.25499001355808
 31
0.0
  0
ARC
  5
7AAA
330
18
100
AcDbEntity
  8
0
100
AcDbCircle
 10
163.3503671924545
 20
16.67300111608631
 30
0.0
 40
2.666666666666666
100
AcDbArc
 50
75.52248781407008
 51
104.4775121859299
  0
LINE
  5
7F9C
330
18
100
AcDbEntity
  8
0
100
AcDbLine
 10
200.5503671924545
 20
14.67300111608631
 30
0.0
 11
200.5503671924545
 21
115.6730011160863
 31
0.0
  0
LINE
  5
7F9D
330
18
100
AcDbEntity
  8
0
100
AcDbLine
 10
199.5503671924545
 20
115.6730011160863
 30
0.0
 11
199.5503671924545
 21
14.67300111608631
 31
0.0
  0
LINE
  5
7F9E
330
18
100
AcDbEntity
  8
0
100
AcDbLine
 10
207.1503671924545
 20
14.67300111608631
 30
0.0
 11
207.1503671924545
 21
115.6730011160863
 31
0.0
  0
LINE
  5
7F9F
330
18
100
AcDbEntity
  8
0
100
AcDbLine
 10
205.5503671924546
 20
115.6730011160863
 30
0.0
 11
205.5503671924546
 21
14.67300111608631
 31
0.0
  0
LINE
  5
7FA1
330
18
100
AcDbEntity
  8
0
100
AcDbLine
 10
197.3503671924545
 20
9.673001116086311
 30
0.0
 11
222.3503671924545
 21
9.673001116086309
 31
0.0
  0
LINE
  5
7FA2
330
18
100
AcDbEntity
  8
0
100
AcDbLine
 10
199.5503671924545
 20
14.67300111608631
 30
0.0
 11
200.5503671924545
 21
14.67300111608631
 31
0.0
  0
LINE
  5
7FA3
330
18
100
AcDbEntity
  8
0
100
AcDbLine
 10
205.5503671924546
 20
14.67300111608631
 30
0.0
 11
207.1503671924545
 21
14.67300111608631
 31
0.0
  0
LINE
  5
7FA4
330
18
100
AcDbEntity
  8
0
100
AcDbLine
 10
199.5503671924545
 20
22.67300111608631
 30
0.0
 11
198.3503671924545
 21
22.67300111608631
 31
0.0
  0
LINE
  5
7FA5
330
18
100
AcDbEntity
  8
0
100
AcDbLine
 10
199.5503671924545
 20
16.67300111608631
 30
0.0
 11
198.3503671924545
 21
16.67300111608631
 31
0.0
  0
LINE
  5
7FA6
330
18
100
AcDbEntity
  8
0
100
AcDbLine
 10
205.5503671924546
 20
21.67300111608631
 30
0.0
 11
200.5503671924545
 21
21.67300111608631
 31
0.0
  0
LINE
  5
7FA7
330
18
100
AcDbEntity
  8
0
100
AcDbLine
 10
205.5503671924546
 20
15.67300111608631
 30
0.0
 11
200.5503671924545
 21
15.67300111608631
 31
0.0
  0
LINE
  5
7FA8
330
18
100
AcDbEntity
  8
0
100
AcDbLine
 10
219.8503671924545
 20
48.37300111608641
 30
0.0
 11
219.8503671924545
 21
10.67300111608631
 31
0.0
  0
LINE
  5
7FAA
330
18
100
AcDbEntity
  8
0
100
AcDbLine
 10
219.8503671924545
 20
10.67300111608631
 30
0.0
 11
220.8503671924545
 21
9.673001116086311
 31
0.0
  0
LINE
  5
7FAB
330
18
100
AcDbEntity
  8
0
100
AcDbLine
 10
198.3503671924545
 20
115.6730011160863
 30
0.0
 11
219.8503671924545
 21
115.6730011160863
 31
0.0
  0
LINE
  5
7FAC
330
18
100
AcDbEntity
  8
0
100
AcDbLine
 10
211.3503671924545
 20
103.6130011160863
 30
0.0
 11
211.3503671924545
 21
102.3130011160862
 31
0.0
  0
LINE
  5
7FAD
330
18
100
AcDbEntity
  8
0
100
AcDbLine
 10
213.5503671924545
 20
103.6130011160863
 30
0.0
 11
213.5503671924545
 21
102.3130011160862
 31
0.0
  0
LINE
  5
7FAE
330
18
100
AcDbEntity
  8
0
100
AcDbLine
 10
213.0503671924545
 20
103.6130011160863
 30
0.0
 11
213.0503671924545
 21
102.3130011160862
 31
0.0
  0
LINE
  5
7FAF
330
18
100
AcDbEntity
  8
0
100
AcDbLine
 10
212.5003671924546
 20
103.4630011160862
 30
0.0
 11
212.5003671924546
 21
102.4630011160862
 31
0.0
  0
LINE
  5
7FB0
330
18
100
AcDbEntity
  8
0
100
AcDbLine
 10
211.5003671924546
 20
102.4630011160862
 30
0.0
 11
211.5003671924546
 21
103.4630011160862
 31
0.0
  0
LINE
  5
7FB1
330
18
100
AcDbEntity
  8
0
100
AcDbLine
 10
214.5503671924545
 20
105.2730011160863
 30
0.0
 11
214.5503671924545
 21
82.87300111608635
 31
0.0
  0
TEXT
  5
7FB2
330
18
100
AcDbEntity
  8
0
100
AcDbText
 10
208.515849425957
 20
103.6127473089796
 30
0.0
 40
2.0
  1
1
 50
270.0
  7
MSｺﾞｼｯｸ
 72
     1
 11
208.1503671924544
 21
102.9630011160862
 31
0.0
100
AcDbText
 73
     1
  0
LINE
  5
7FB3
330
18
100
AcDbEntity
  8
0
100
AcDbLine
 10
208.1503671924544
 20
82.87300111608635
 30
0.0
 11
208.1503671924544
 21
105.2730011160863
 31
0.0
  0
LINE
  5
7FB4
330
18
100
AcDbEntity
  8
0
100
AcDbLine
 10
211.3503671924545
 20
88.37300111608636
 30
0.0
 11
211.3503671924545
 21
87.0730011160864
 31
0.0
  0
LINE
  5
7FB5
330
18
100
AcDbEntity
  8
0
100
AcDbLine
 10
213.5503671924545
 20
88.37300111608636
 30
0.0
 11
213.5503671924545
 21
87.0730011160864
 31
0.0
  0
LINE
  5
7FB6
330
18
100
AcDbEntity
  8
0
100
AcDbLine
 10
213.0503671924545
 20
88.37300111608636
 30
0.0
 11
213.0503671924545
 21
87.0730011160864
 31
0.0
  0
LINE
  5
7FB7
330
18
100
AcDbEntity
  8
0
100
AcDbLine
 10
212.5003671924546
 20
88.22300111608639
 30
0.0
 11
212.5003671924546
 21
87.22300111608637
 31
0.0
  0
LINE
  5
7FB8
330
18
100
AcDbEntity
  8
0
100
AcDbLine
 10
211.5003671924546
 20
87.22300111608637
 30
0.0
 11
211.5003671924546
 21
88.22300111608639
 31
0.0
  0
LINE
  5
7FB9
330
18
100
AcDbEntity
  8
0
100
AcDbLine
 10
214.5503671924545
 20
82.87300111608635
 30
0.0
 11
208.1503671924544
 21
82.87300111608635
 31
0.0
  0
LINE
  5
7FBA
330
18
100
AcDbEntity
  8
0
100
AcDbLine
 10
207.1503671924545
 20
87.12300111608636
 30
0.0
 11
208.1503671924544
 21
87.12300111608636
 31
0.0
  0
LINE
  5
7FBB
330
18
100
AcDbEntity
  8
0
100
AcDbLine
 10
207.1503671924545
 20
85.78300111608632
 30
0.0
 11
208.1503671924544
 21
85.78300111608632
 31
0.0
  0
LINE
  5
7FBC
330
18
100
AcDbEntity
  8
0
100
AcDbLine
 10
207.1503671924545
 20
84.5830011160864
 30
0.0
 11
208.1503671924544
 21
84.5830011160864
 31
0.0
  0
LINE
  5
7FBD
330
18
100
AcDbEntity
  8
0
100
AcDbLine
 10
211.3503671924545
 20
87.0730011160864
 30
0.0
 11
214.5503671924545
 21
87.0730011160864
 31
0.0
  0
LINE
  5
7FBE
330
18
100
AcDbEntity
  8
0
100
AcDbLine
 10
214.5503671924545
 20
85.8330011160864
 30
0.0
 11
211.3503671924545
 21
85.8330011160864
 31
0.0
  0
LINE
  5
7FBF
330
18
100
AcDbEntity
  8
0
100
AcDbLine
 10
211.3503671924545
 20
84.53300111608632
 30
0.0
 11
214.5503671924545
 21
84.53300111608632
 31
0.0
  0
LINE
  5
7FC0
330
18
100
AcDbEntity
  8
0
100
AcDbLine
 10
211.3503671924545
 20
85.8330011160864
 30
0.0
 11
211.3503671924545
 21
84.53300111608632
 31
0.0
  0
LINE
  5
7FC1
330
18
100
AcDbEntity
  8
0
100
AcDbLine
 10
211.5003671924546
 20
85.6830011160863
 30
0.0
 11
212.5003671924546
 21
85.6830011160863
 31
0.0
  0
LINE
  5
7FC2
330
18
100
AcDbEntity
  8
0
100
AcDbLine
 10
212.5003671924546
 20
85.6830011160863
 30
0.0
 11
212.5003671924546
 21
84.6830011160863
 31
0.0
  0
LINE
  5
7FC3
330
18
100
AcDbEntity
  8
0
100
AcDbLine
 10
212.5003671924546
 20
84.6830011160863
 30
0.0
 11
211.5003671924546
 21
84.6830011160863
 31
0.0
  0
LINE
  5
7FC4
330
18
100
AcDbEntity
  8
0
100
AcDbLine
 10
211.5003671924546
 20
84.6830011160863
 30
0.0
 11
211.5003671924546
 21
85.6830011160863
 31
0.0
  0
LINE
  5
7FC5
330
18
100
AcDbEntity
  8
0
100
AcDbLine
 10
212.5003671924546
 20
87.22300111608637
 30
0.0
 11
211.5003671924546
 21
87.22300111608637
 31
0.0
  0
TEXT
  5
7FC6
330
18
100
AcDbEntity
  8
0
100
AcDbText
 10
208.515849425957
 20
88.37274730897979
 30
0.0
 40
2.0
  1
7
 50
270.0
  7
MSｺﾞｼｯｸ
 72
     1
 11
208.1503671924544
 21
87.72300111608638
 31
0.0
100
AcDbText
 73
     1
  0
TEXT
  5
7FC7
330
18
100
AcDbEntity
  8
0
100
AcDbText
 10
208.515849425957
 20
85.8327473089797
 30
0.0
 40
2.0
  1
8
 50
270.0
  7
MSｺﾞｼｯｸ
 72
     1
 11
208.1503671924544
 21
85.18300111608629
 31
0.0
100
AcDbText
 73
     1
  0
LINE
  5
7FC8
330
18
100
AcDbEntity
  8
0
100
AcDbLine
 10
213.5503671924545
 20
85.8330011160864
 30
0.0
 11
213.5503671924545
 21
84.53300111608632
 31
0.0
  0
LINE
  5
7FC9
330
18
100
AcDbEntity
  8
0
100
AcDbLine
 10
213.0503671924545
 20
85.8330011160864
 30
0.0
 11
213.0503671924545
 21
84.53300111608632
 31
0.0
  0
LINE
  5
7FCA
330
18
100
AcDbEntity
  8
0
100
AcDbLine
 10
207.1503671924545
 20
94.74300111608636
 30
0.0
 11
208.1503671924544
 21
94.74300111608636
 31
0.0
  0
LINE
  5
7FCB
330
18
100
AcDbEntity
  8
0
100
AcDbLine
 10
207.1503671924545
 20
93.40300111608632
 30
0.0
 11
208.1503671924544
 21
93.40300111608632
 31
0.0
  0
LINE
  5
7FCC
330
18
100
AcDbEntity
  8
0
100
AcDbLine
 10
207.1503671924545
 20
92.20300111608628
 30
0.0
 11
208.1503671924544
 21
92.20300111608628
 31
0.0
  0
LINE
  5
7FCD
330
18
100
AcDbEntity
  8
0
100
AcDbLine
 10
207.1503671924545
 20
90.86300111608636
 30
0.0
 11
208.1503671924544
 21
90.86300111608636
 31
0.0
  0
LINE
  5
7FCE
330
18
100
AcDbEntity
  8
0
100
AcDbLine
 10
207.1503671924545
 20
89.66300111608632
 30
0.0
 11
208.1503671924544
 21
89.66300111608632
 31
0.0
  0
LINE
  5
7FCF
330
18
100
AcDbEntity
  8
0
100
AcDbLine
 10
207.1503671924545
 20
88.3230011160864
 30
0.0
 11
208.1503671924544
 21
88.3230011160864
 31
0.0
  0
LINE
  5
7FD0
330
18
100
AcDbEntity
  8
0
100
AcDbLine
 10
207.1503671924545
 20
102.3630011160863
 30
0.0
 11
208.1503671924544
 21
102.3630011160863
 31
0.0
  0
LINE
  5
7FD1
330
18
100
AcDbEntity
  8
0
100
AcDbLine
 10
207.1503671924545
 20
101.0230011160863
 30
0.0
 11
208.1503671924544
 21
101.0230011160863
 31
0.0
  0
LINE
  5
7FD2
330
18
100
AcDbEntity
  8
0
100
AcDbLine
 10
207.1503671924545
 20
99.8230011160863
 30
0.0
 11
208.1503671924544
 21
99.8230011160863
 31
0.0
  0
LINE
  5
7FD3
330
18
100
AcDbEntity
  8
0
100
AcDbLine
 10
207.1503671924545
 20
98.48300111608626
 30
0.0
 11
208.1503671924544
 21
98.48300111608626
 31
0.0
  0
LINE
  5
7FD4
330
18
100
AcDbEntity
  8
0
100
AcDbLine
 10
207.1503671924545
 20
97.28300111608632
 30
0.0
 11
208.1503671924544
 21
97.28300111608632
 31
0.0
  0
LINE
  5
7FD5
330
18
100
AcDbEntity
  8
0
100
AcDbLine
 10
207.1503671924545
 20
95.9430011160863
 30
0.0
 11
208.1503671924544
 21
95.9430011160863
 31
0.0
  0
LINE
  5
7FD6
330
18
100
AcDbEntity
  8
0
100
AcDbLine
 10
211.3503671924545
 20
95.99300111608636
 30
0.0
 11
211.3503671924545
 21
94.6930011160863
 31
0.0
  0
LINE
  5
7FD7
330
18
100
AcDbEntity
  8
0
100
AcDbLine
 10
213.5503671924545
 20
95.99300111608636
 30
0.0
 11
213.5503671924545
 21
94.6930011160863
 31
0.0
  0
LINE
  5
7FD8
330
18
100
AcDbEntity
  8
0
100
AcDbLine
 10
213.0503671924545
 20
95.99300111608636
 30
0.0
 11
213.0503671924545
 21
94.6930011160863
 31
0.0
  0
LINE
  5
7FD9
330
18
100
AcDbEntity
  8
0
100
AcDbLine
 10
212.5003671924546
 20
95.84300111608639
 30
0.0
 11
212.5003671924546
 21
94.84300111608638
 31
0.0
  0
LINE
  5
7FDA
330
18
100
AcDbEntity
  8
0
100
AcDbLine
 10
211.5003671924546
 20
94.84300111608638
 30
0.0
 11
211.5003671924546
 21
95.84300111608639
 31
0.0
  0
TEXT
  5
7FDB
330
18
100
AcDbEntity
  8
0
100
AcDbText
 10
208.515849425957
 20
95.99274730897979
 30
0.0
 40
2.0
  1
4
 50
270.0
  7
MSｺﾞｼｯｸ
 72
     1
 11
208.1503671924544
 21
95.34300111608638
 31
0.0
100
AcDbText
 73
     1
  0
LINE
  5
7FDC
330
18
100
AcDbEntity
  8
0
100
AcDbLine
 10
214.5503671924545
 20
93.45300111608628
 30
0.0
 11
211.3503671924545
 21
93.45300111608628
 31
0.0
  0
LINE
  5
7FDD
330
18
100
AcDbEntity
  8
0
100
AcDbLine
 10
211.3503671924545
 20
94.6930011160863
 30
0.0
 11
214.5503671924545
 21
94.6930011160863
 31
0.0
  0
LINE
  5
7FDE
330
18
100
AcDbEntity
  8
0
100
AcDbLine
 10
211.3503671924545
 20
92.15300111608632
 30
0.0
 11
214.5503671924545
 21
92.15300111608632
 31
0.0
  0
LINE
  5
7FDF
330
18
100
AcDbEntity
  8
0
100
AcDbLine
 10
214.5503671924545
 20
90.91300111608632
 30
0.0
 11
211.3503671924545
 21
90.91300111608632
 31
0.0
  0
LINE
  5
7FE0
330
18
100
AcDbEntity
  8
0
100
AcDbLine
 10
211.3503671924545
 20
89.61300111608636
 30
0.0
 11
214.5503671924545
 21
89.61300111608636
 31
0.0
  0
LINE
  5
7FE1
330
18
100
AcDbEntity
  8
0
100
AcDbLine
 10
214.5503671924545
 20
88.37300111608636
 30
0.0
 11
211.3503671924545
 21
88.37300111608636
 31
0.0
  0
LINE
  5
7FE2
330
18
100
AcDbEntity
  8
0
100
AcDbLine
 10
212.5003671924546
 20
94.84300111608638
 30
0.0
 11
211.5003671924546
 21
94.84300111608638
 31
0.0
  0
LINE
  5
7FE3
330
18
100
AcDbEntity
  8
0
100
AcDbLine
 10
211.3503671924545
 20
90.91300111608632
 30
0.0
 11
211.3503671924545
 21
89.61300111608636
 31
0.0
  0
LINE
  5
7FE4
330
18
100
AcDbEntity
  8
0
100
AcDbLine
 10
211.5003671924546
 20
88.22300111608639
 30
0.0
 11
212.5003671924546
 21
88.22300111608639
 31
0.0
  0
LINE
  5
7FE5
330
18
100
AcDbEntity
  8
0
100
AcDbLine
 10
211.5003671924546
 20
90.76300111608635
 30
0.0
 11
212.5003671924546
 21
90.76300111608635
 31
0.0
  0
LINE
  5
7FE6
330
18
100
AcDbEntity
  8
0
100
AcDbLine
 10
212.5003671924546
 20
90.76300111608635
 30
0.0
 11
212.5003671924546
 21
89.76300111608635
 31
0.0
  0
LINE
  5
7FE7
330
18
100
AcDbEntity
  8
0
100
AcDbLine
 10
212.5003671924546
 20
89.76300111608635
 30
0.0
 11
211.5003671924546
 21
89.76300111608635
 31
0.0
  0
LINE
  5
7FE8
330
18
100
AcDbEntity
  8
0
100
AcDbLine
 10
211.5003671924546
 20
89.76300111608635
 30
0.0
 11
211.5003671924546
 21
90.76300111608635
 31
0.0
  0
LINE
  5
7FE9
330
18
100
AcDbEntity
  8
0
100
AcDbLine
 10
211.5003671924546
 20
93.30300111608631
 30
0.0
 11
212.5003671924546
 21
93.30300111608631
 31
0.0
  0
LINE
  5
7FEA
330
18
100
AcDbEntity
  8
0
100
AcDbLine
 10
212.5003671924546
 20
93.30300111608631
 30
0.0
 11
212.5003671924546
 21
92.30300111608631
 31
0.0
  0
LINE
  5
7FEB
330
18
100
AcDbEntity
  8
0
100
AcDbLine
 10
212.5003671924546
 20
92.30300111608631
 30
0.0
 11
211.5003671924546
 21
92.30300111608631
 31
0.0
  0
LINE
  5
7FEC
330
18
100
AcDbEntity
  8
0
100
AcDbLine
 10
211.5003671924546
 20
92.30300111608631
 30
0.0
 11
211.5003671924546
 21
93.30300111608631
 31
0.0
  0
LINE
  5
7FED
330
18
100
AcDbEntity
  8
0
100
AcDbLine
 10
211.3503671924545
 20
93.45300111608628
 30
0.0
 11
211.3503671924545
 21
92.15300111608632
 31
0.0
  0
TEXT
  5
7FEE
330
18
100
AcDbEntity
  8
0
100
AcDbText
 10
208.515849425957
 20
93.45274730897971
 30
0.0
 40
2.0
  1
5
 50
270.0
  7
MSｺﾞｼｯｸ
 72
     1
 11
208.1503671924544
 21
92.8030011160863
 31
0.0
100
AcDbText
 73
     1
  0
TEXT
  5
7FEF
330
18
100
AcDbEntity
  8
0
100
AcDbText
 10
208.515849425957
 20
90.91274730897975
 30
0.0
 40
2.0
  1
6
 50
270.0
  7
MSｺﾞｼｯｸ
 72
     1
 11
208.1503671924544
 21
90.26300111608634
 31
0.0
100
AcDbText
 73
     1
  0
LINE
  5
7FF0
330
18
100
AcDbEntity
  8
0
100
AcDbLine
 10
213.5503671924545
 20
90.91300111608632
 30
0.0
 11
213.5503671924545
 21
89.61300111608636
 31
0.0
  0
LINE
  5
7FF1
330
18
100
AcDbEntity
  8
0
100
AcDbLine
 10
213.0503671924545
 20
90.91300111608632
 30
0.0
 11
213.0503671924545
 21
89.61300111608636
 31
0.0
  0
LINE
  5
7FF2
330
18
100
AcDbEntity
  8
0
100
AcDbLine
 10
213.5503671924545
 20
93.45300111608628
 30
0.0
 11
213.5503671924545
 21
92.15300111608632
 31
0.0
  0
LINE
  5
7FF3
330
18
100
AcDbEntity
  8
0
100
AcDbLine
 10
213.0503671924545
 20
93.45300111608628
 30
0.0
 11
213.0503671924545
 21
92.15300111608632
 31
0.0
  0
LINE
  5
7FF4
330
18
100
AcDbEntity
  8
0
100
AcDbLine
 10
211.3503671924545
 20
102.3130011160862
 30
0.0
 11
214.5503671924545
 21
102.3130011160862
 31
0.0
  0
LINE
  5
7FF5
330
18
100
AcDbEntity
  8
0
100
AcDbLine
 10
214.5503671924545
 20
101.0730011160862
 30
0.0
 11
211.3503671924545
 21
101.0730011160862
 31
0.0
  0
LINE
  5
7FF6
330
18
100
AcDbEntity
  8
0
100
AcDbLine
 10
211.3503671924545
 20
99.77300111608634
 30
0.0
 11
214.5503671924545
 21
99.77300111608634
 31
0.0
  0
LINE
  5
7FF7
330
18
100
AcDbEntity
  8
0
100
AcDbLine
 10
214.5503671924545
 20
98.53300111608632
 30
0.0
 11
211.3503671924545
 21
98.53300111608632
 31
0.0
  0
LINE
  5
7FF8
330
18
100
AcDbEntity
  8
0
100
AcDbLine
 10
211.3503671924545
 20
97.23300111608626
 30
0.0
 11
214.5503671924545
 21
97.23300111608626
 31
0.0
  0
LINE
  5
7FF9
330
18
100
AcDbEntity
  8
0
100
AcDbLine
 10
214.5503671924545
 20
95.99300111608636
 30
0.0
 11
211.3503671924545
 21
95.99300111608636
 31
0.0
  0
LINE
  5
7FFA
330
18
100
AcDbEntity
  8
0
100
AcDbLine
 10
211.3503671924545
 20
101.0730011160862
 30
0.0
 11
211.3503671924545
 21
99.77300111608634
 31
0.0
  0
LINE
  5
7FFB
330
18
100
AcDbEntity
  8
0
100
AcDbLine
 10
211.3503671924545
 20
98.53300111608632
 30
0.0
 11
211.3503671924545
 21
97.23300111608626
 31
0.0
  0
LINE
  5
7FFC
330
18
100
AcDbEntity
  8
0
100
AcDbLine
 10
211.5003671924546
 20
95.84300111608639
 30
0.0
 11
212.5003671924546
 21
95.84300111608639
 31
0.0
  0
LINE
  5
7FFD
330
18
100
AcDbEntity
  8
0
100
AcDbLine
 10
211.5003671924546
 20
98.38300111608635
 30
0.0
 11
212.5003671924546
 21
98.38300111608635
 31
0.0
  0
LINE
  5
7FFE
330
18
100
AcDbEntity
  8
0
100
AcDbLine
 10
212.5003671924546
 20
98.38300111608635
 30
0.0
 11
212.5003671924546
 21
97.38300111608635
 31
0.0
  0
LINE
  5
7FFF
330
18
100
AcDbEntity
  8
0
100
AcDbLine
 10
212.5003671924546
 20
97.38300111608635
 30
0.0
 11
211.5003671924546
 21
97.38300111608635
 31
0.0
  0
LINE
  5
8000
330
18
100
AcDbEntity
  8
0
100
AcDbLine
 10
211.5003671924546
 20
97.38300111608635
 30
0.0
 11
211.5003671924546
 21
98.38300111608635
 31
0.0
  0
LINE
  5
8001
330
18
100
AcDbEntity
  8
0
100
AcDbLine
 10
211.5003671924546
 20
100.9230011160863
 30
0.0
 11
212.5003671924546
 21
100.9230011160863
 31
0.0
  0
LINE
  5
8002
330
18
100
AcDbEntity
  8
0
100
AcDbLine
 10
212.5003671924546
 20
100.9230011160863
 30
0.0
 11
212.5003671924546
 21
99.92300111608631
 31
0.0
  0
LINE
  5
8003
330
18
100
AcDbEntity
  8
0
100
AcDbLine
 10
212.5003671924546
 20
99.92300111608631
 30
0.0
 11
211.5003671924546
 21
99.92300111608631
 31
0.0
  0
LINE
  5
8004
330
18
100
AcDbEntity
  8
0
100
AcDbLine
 10
211.5003671924546
 20
99.92300111608631
 30
0.0
 11
211.5003671924546
 21
100.9230011160863
 31
0.0
  0
LINE
  5
8005
330
18
100
AcDbEntity
  8
0
100
AcDbLine
 10
212.5003671924546
 20
102.4630011160862
 30
0.0
 11
211.5003671924546
 21
102.4630011160862
 31
0.0
  0
TEXT
  5
8006
330
18
100
AcDbEntity
  8
0
100
AcDbText
 10
208.515849425957
 20
101.0727473089797
 30
0.0
 40
2.0
  1
2
 50
270.0
  7
MSｺﾞｼｯｸ
 72
     1
 11
208.1503671924544
 21
100.4230011160863
 31
0.0
100
AcDbText
 73
     1
  0
TEXT
  5
8007
330
18
100
AcDbEntity
  8
0
100
AcDbText
 10
208.515849425957
 20
98.53274730897975
 30
0.0
 40
2.0
  1
3
 50
270.0
  7
MSｺﾞｼｯｸ
 72
     1
 11
208.1503671924544
 21
97.88300111608634
 31
0.0
100
AcDbText
 73
     1
  0
LINE
  5
8008
330
18
100
AcDbEntity
  8
0
100
AcDbLine
 10
213.5503671924545
 20
101.0730011160862
 30
0.0
 11
213.5503671924545
 21
99.77300111608634
 31
0.0
  0
LINE
  5
8009
330
18
100
AcDbEntity
  8
0
100
AcDbLine
 10
213.5503671924545
 20
98.53300111608632
 30
0.0
 11
213.5503671924545
 21
97.23300111608626
 31
0.0
  0
LINE
  5
800A
330
18
100
AcDbEntity
  8
0
100
AcDbLine
 10
213.0503671924545
 20
101.0730011160862
 30
0.0
 11
213.0503671924545
 21
99.77300111608634
 31
0.0
  0
LINE
  5
800B
330
18
100
AcDbEntity
  8
0
100
AcDbLine
 10
213.0503671924545
 20
98.53300111608632
 30
0.0
 11
213.0503671924545
 21
97.23300111608626
 31
0.0
  0
LINE
  5
800C
330
18
100
AcDbEntity
  8
0
100
AcDbLine
 10
208.1503671924544
 20
105.2730011160863
 30
0.0
 11
214.5503671924545
 21
105.2730011160863
 31
0.0
  0
LINE
  5
800D
330
18
100
AcDbEntity
  8
0
100
AcDbLine
 10
207.1503671924545
 20
103.5630011160862
 30
0.0
 11
208.1503671924544
 21
103.5630011160862
 31
0.0
  0
LINE
  5
800E
330
18
100
AcDbEntity
  8
0
100
AcDbLine
 10
214.5503671924545
 20
103.6130011160863
 30
0.0
 11
211.3503671924545
 21
103.6130011160863
 31
0.0
  0
LWPOLYLINE
  5
800F
330
18
100
AcDbEntity
  8
0
100
AcDbPolyline
 90
        2
 70
     0
 43
0.0
 10
211.8899522479812
 20
104.477647485691
 10
213.0109837952848
 20
104.477647485691
1001
ACAD
1000
DSTYLE
1002
{
1070
    41
1040
1.0
1070
    40
1040
0.5
1002
}
  0
SOLID
  5
8010
330
18
100
AcDbEntity
  8
0
100
AcDbTrace
 10
211.8899522479812
 20
104.3943141523576
 30
0.0
 11
211.3899522479812
 21
104.477647485691
 31
0.0
 12
211.8899522479812
 22
104.5609808190243
 32
0.0
 13
211.8899522479812
 23
104.5609808190243
 33
0.0
1001
ACAD
1000
DSTYLE
1002
{
1070
    41
1040
1.0
1070
    40
1040
0.5
1002
}
  0
LINE
  5
8011
330
18
100
AcDbEntity
  8
0
100
AcDbLine
 10
211.5003671924546
 20
103.4630011160862
 30
0.0
 11
212.5003671924546
 21
103.4630011160862
 31
0.0
  0
TEXT
  5
8012
330
18
100
AcDbEntity
  8
0
100
AcDbText
 10
208.8381121880472
 20
103.9489251739014
 30
0.0
 40
1.0
  1
ＯＮ
  7
MSｺﾞｼｯｸ
100
AcDbText
  0
LINE
  5
8013
330
18
100
AcDbEntity
  8
0
100
AcDbLine
 10
219.8503671924545
 20
115.6730011160863
 30
0.0
 11
219.8503671924545
 21
73.77300111608611
 31
0.0
  0
LINE
  5
8014
330
18
100
AcDbEntity
  8
0
100
AcDbLine
 10
222.3503671924545
 20
169.6730011160863
 30
0.0
 11
222.3503671924545
 21
9.673001116086309
 31
0.0
  0
MTEXT
  5
807E
330
18
100
AcDbEntity
  8
0
100
AcDbMText
 10
154.5032904946168
 20
127.5993629686895
 30
0.0
 40
4.0
 41
0.0
 71
     1
 72
     5
  1
AC100V
  7
MSｺﾞｼｯｸ
 73
     1
 44
1.0
  0
LINE
  5
808F
330
18
100
AcDbEntity
  8
0
100
AcDbLine
 10
293.6783281057205
 20
9.673001116086311
 30
0.0
 11
295.6783281057205
 21
9.673001116086311
 31
0.0
  0
LINE
  5
8090
330
18
100
AcDbEntity
  8
0
100
AcDbLine
 10
293.6783281057205
 20
9.673001116086311
 30
0.0
 11
295.6783281057205
 21
9.673001116086311
 31
0.0
  0
LINE
  5
8091
330
18
100
AcDbEntity
  8
0
100
AcDbLine
 10
293.6783281057205
 20
9.673001116086311
 30
0.0
 11
295.6783281057205
 21
9.673001116086311
 31
0.0
  0
LWPOLYLINE
  5
8092
330
18
100
AcDbEntity
  8
0
100
AcDbPolyline
 90
        4
 70
     1
 43
0.0
 10
293.0116614390539
 20
20.6730011160862
 10
293.0116614390539
 20
12.67300111608619
 10
293.6783281057205
 20
12.67300111608619
 10
293.6783281057205
 20
20.6730011160862
  0
ARC
  5
8093
330
18
100
AcDbEntity
  8
0
100
AcDbCircle
 10
291.2783281057203
 20
18.4063344494195
 30
0.0
 40
1.599999999999999
100
AcDbArc
 50
90.0
 51
180.0
  0
LWPOLYLINE
  5
8094
330
18
100
AcDbEntity
  8
0
100
AcDbPolyline
 90
        4
 70
     1
 43
0.0
 10
292.3449947723872
 20
20.00633444941951
 10
292.3449947723872
 20
13.33966778275282
 10
293.0116614390539
 20
13.33966778275282
 10
293.0116614390539
 20
20.00633444941951
  0
ARC
  5
8095
330
18
100
AcDbEntity
  8
0
100
AcDbCircle
 10
291.2783281057203
 20
14.93966778275292
 30
0.0
 40
1.599999999999999
100
AcDbArc
 50
180.0
 51
270.0
  0
LINE
  5
8096
330
18
100
AcDbEntity
  8
0
100
AcDbLine
 10
291.2783281057203
 20
13.33966778275288
 30
0.0
 11
292.3449947723872
 21
13.33966778275288
 31
0.0
  0
LINE
  5
8097
330
18
100
AcDbEntity
  8
0
100
AcDbLine
 10
289.6783281057205
 20
18.40633444941977
 30
0.0
 11
289.6783281057205
 21
14.93966778275324
 31
0.0
  0
LINE
  5
8098
330
18
100
AcDbEntity
  8
0
100
AcDbLine
 10
292.3449947723872
 20
20.00633444941951
 30
0.0
 11
291.2783281057203
 21
20.00633444941951
 31
0.0
  0
LINE
  5
8099
330
18
100
AcDbEntity
  8
0
100
AcDbLine
 10
296.6783281057205
 20
9.673001116086197
 30
0.0
 11
295.6783281057205
 21
10.67300111608619
 31
0.0
  0
TEXT
  5
80B3
330
18
100
AcDbEntity
  8
0
100
AcDbText
 10
203.8373691389333
 20
157.0719635049393
 30
0.0
 40
3.5
  1
D-NET
  7
MSｺﾞｼｯｸ
100
AcDbText
  0
TEXT
  5
80B4
330
18
100
AcDbEntity
  8
0
100
AcDbText
 10
205.4065644790763
 20
146.8185491227447
 30
0.0
 40
2.5
  1
NS LED
  7
MSｺﾞｼｯｸ
100
AcDbText
  0
TEXT
  5
80B5
330
18
100
AcDbEntity
  8
0
100
AcDbText
 10
205.4716840701776
 20
142.5899282916138
 30
0.0
 40
2.5
  1
MS LED
  7
MSｺﾞｼｯｸ
100
AcDbText
  0
TEXT
  5
80B6
330
18
100
AcDbEntity
  8
0
100
AcDbText
 10
204.1628227763369
 20
137.4866716844472
 30
0.0
 40
2.5
  1
NODE No.
  7
MSｺﾞｼｯｸ
100
AcDbText
  0
TEXT
  5
80B7
330
18
100
AcDbEntity
  8
0
100
AcDbText
 10
206.161553740804
 20
133.3200050177806
 30
0.0
 40
2.5
  1
SW1-6
  7
MSｺﾞｼｯｸ
100
AcDbText
  0
TEXT
  5
80B8
330
18
100
AcDbEntity
  8
0
100
AcDbText
 10
206.3497156747478
 20
127.5665204344703
 30
0.0
 40
2.5
  1
RATE
  7
MSｺﾞｼｯｸ
100
AcDbText
  0
TEXT
  5
80B9
330
18
100
AcDbEntity
  8
0
100
AcDbText
 10
207.8136779018498
 20
117.9210511855758
 30
0.0
 40
2.5
  1
TB8
  7
MSｺﾞｼｯｸ
100
AcDbText
  0
TEXT
  5
80BA
330
18
100
AcDbEntity
  8
0
100
AcDbText
 10
205.562913644291
 20
123.3998537678037
 30
0.0
 40
2.5
  1
SW7.8
  7
MSｺﾞｼｯｸ
100
AcDbText
  0
MTEXT
  5
81FD
330
18
100
AcDbEntity
  8
0
100
AcDbMText
 10
150.0561540454429
 20
70.30350365897016
 30
0.0
 40
2.799999999999999
 41
4.654799999999999
 71
     1
 72
     5
  1
DBK
  7
MSｺﾞｼｯｸ
 73
     1
 44
1.0
  0
MTEXT
  5
81FE
330
18
100
AcDbEntity
  8
0
100
AcDbMText
 10
150.0561540454429
 20
65.30350365897016
 30
0.0
 40
2.799999999999999
 41
4.654799999999999
 71
     1
 72
     5
  1
DBC
  7
MSｺﾞｼｯｸ
 73
     1
 44
1.0
  0
TEXT
  5
8247
330
18
100
AcDbEntity
  8
0
100
AcDbText
 10
403.3397507232264
 20
-103.3144993037438
 30
0.0
 40
6.0
  1
VC外形図　DeviceNet付
  7
MSｺﾞｼｯｸ
100
AcDbText
  0
TEXT
  5
8248
330
18
100
AcDbEntity
  8
0
100
AcDbText
 10
377.4507473542974
 20
-73.7895235794697
 30
0.0
 40
6.0
  1
ＮＣＲ－＊ＡＥ＊Ａ１Ｄ－２０１（－Ｈ、－Ｓ＊＊）
 41
0.6
  7
MSｺﾞｼｯｸ
100
AcDbText
  0
TEXT
  5
8249
330
18
100
AcDbEntity
  8
0
100
AcDbText
 10
377.4507473542974
 20
-65.51665568453781
 30
0.0
 40
6.0
  1
ＮＣＲ－＊ＡＤ＊Ａ１Ｄ－２０１＊（－Ｈ、－Ｓ＊＊）
 41
0.6
  7
MSｺﾞｼｯｸ
100
AcDbText
  0
TEXT
  5
824A
330
18
100
AcDbEntity
  8
0
100
AcDbText
 10
377.4507473542974
 20
-58.61826915133873
 30
0.0
 40
6.0
  1
ＮＣＲ－＊ＡＣ＊Ａ１Ｄ－２０１（－Ｈ、－Ｓ＊＊）
 41
0.6
  7
MSｺﾞｼｯｸ
100
AcDbText
  0
TEXT
  5
824B
330
18
100
AcDbEntity
  8
0
100
AcDbText
 10
377.4507473542974
 20
-51.29581700351515
 30
0.0
 40
6.0
  1
ＮＣＲ－＊ＡＢ＊Ａ１Ｄ－２０１＊（－Ｈ、－Ｓ＊＊）
 41
0.6
  7
MSｺﾞｼｯｸ
100
AcDbText
  0
TEXT
  5
824C
330
18
100
AcDbEntity
  8
0
100
AcDbText
 10
389.3373790273543
 20
-90.49588922406567
 30
0.0
 40
6.0
  1
ＮＣＲ－ＸＡＢ６Ｄ１＊－２０１／４０１
 41
0.6
  7
MSｺﾞｼｯｸ
100
AcDbText
  0
TEXT
  5
824D
330
18
100
AcDbEntity
  8
0
100
AcDbText
 10
377.4507473542974
 20
-33.97327000860311
 30
0.0
 40
6.0
  1
ＮＣＲ－＊ＡＥ＊Ａ２Ｄ－４０１（－Ｈ、－Ｓ＊＊）
 41
0.6
  7
MSｺﾞｼｯｸ
100
AcDbText
  0
TEXT
  5
824E
330
18
100
AcDbEntity
  8
0
100
AcDbText
 10
377.4507473542974
 20
-27.60123291194385
 30
0.0
 40
6.0
  1
ＮＣＲ－＊ＡＤ＊Ａ２Ｄ－４０１＊（－Ｈ、－Ｓ＊＊）
 41
0.6
  7
MSｺﾞｼｯｸ
100
AcDbText
  0
TEXT
  5
824F
330
18
100
AcDbEntity
  8
0
100
AcDbText
 10
377.4507473542974
 20
-14.48440718866335
 30
0.0
 40
6.0
  1
ＮＣＲ－＊ＡＢ＊Ａ２Ｄ－４０１＊（－Ｈ、－Ｓ＊＊）
 41
0.6
  7
MSｺﾞｼｯｸ
100
AcDbText
  0
TEXT
  5
8250
330
18
100
AcDbEntity
  8
0
100
AcDbText
 10
377.4507473542974
 20
-21.33165146293278
 30
0.0
 40
6.0
  1
ＮＣＲ－＊ＡＣ＊Ａ２Ｄ－４０１（－Ｈ、－Ｓ＊＊）
 41
0.6
  7
MSｺﾞｼｯｸ
100
AcDbText
  0
TEXT
  5
8251
330
18
100
AcDbEntity
  8
0
100
AcDbText
 10
377.4507473542974
 20
-40.59379025452837
 30
0.0
 40
6.0
  1
ＮＣＲ－＊Ａ＊＊Ａ２Ｃ－４０１－ＵＬ
 41
0.6
  7
MSｺﾞｼｯｸ
100
AcDbText
  0
TEXT
  5
8252
330
18
100
AcDbEntity
  8
0
100
AcDbText
 10
414.4660036811343
 20
-114.812044536516
 30
0.0
 40
7.0
  1
ＳＥ－３１８５１Ｂ
 41
0.9530000000000001
  7
MSｺﾞｼｯｸ
100
AcDbText
  0
ARC
  5
8253
330
18
100
AcDbEntity
  8
0
100
AcDbCircle
 10
394.6248523804583
 20
-59.25069210674201
 30
0.0
 40
24.55034146029509
100
AcDbArc
 50
145.450439025591
 51
216.4605086334526
  0
TEXT
  5
8254
330
18
100
AcDbEntity
  8
0
100
AcDbText
 10
417.8765426132049
 20
-82.73875109233371
 30
0.0
 40
6.0
  1
＋
 41
0.6
  7
MSｺﾞｼｯｸ
100
AcDbText
  0
ARC
  5
8255
330
18
100
AcDbEntity
  8
0
100
AcDbCircle
 10
397.1451928944736
 20
-25.9681648153082
 30
0.0
 40
27.51915776612168
100
AcDbArc
 50
140.7621253388456
 51
217.6453771597418
  0
TEXT
  5
8256
330
18
100
AcDbEntity
  8
0
100
AcDbText
 10
361.0097715874353
 20
-28.09311952825943
 30
0.0
 40
5.0
  1
Ａ
  7
MSｺﾞｼｯｸ
100
AcDbText
  0
TEXT
  5
8257
330
18
100
AcDbEntity
  8
0
100
AcDbText
 10
360.6141577900705
 20
-60.53437455839442
 30
0.0
 40
5.0
  1
Ｂ
  7
MSｺﾞｼｯｸ
100
AcDbText
  0
LINE
  5
8263
330
18
100
AcDbEntity
  8
0
 62
     7
100
AcDbLine
 10
207.1503671924545
 20
73.77300111608604
 30
0.0
 11
207.1503671924545
 21
48.37300111608631
 31
0.0
  0
LINE
  5
8264
330
18
100
AcDbEntity
  8
0
100
AcDbLine
 10
207.1503671924545
 20
43.29300111608631
 30
0.0
 11
207.1503671924545
 21
78.85300111608632
 31
0.0
  0
LINE
  5
8265
330
18
100
AcDbEntity
  8
0
 62
     7
100
AcDbLine
 10
221.6503671924545
 20
73.77300111608616
 30
0.0
 11
221.6503671924543
 21
48.37300111608643
 31
0.0
  0
LINE
  5
8266
330
18
100
AcDbEntity
  8
0
 62
     7
100
AcDbLine
 10
216.6503671924544
 20
73.77300111608604
 30
0.0
 11
216.6503671924544
 21
48.37300111608643
 31
0.0
  0
LINE
  5
8267
330
18
100
AcDbEntity
  8
0
 62
     7
100
AcDbLine
 10
222.1503671924545
 20
73.77300111608616
 30
0.0
 11
222.1503671924543
 21
48.37300111608643
 31
0.0
  0
LINE
  5
8268
330
18
100
AcDbEntity
  8
0
 62
     7
100
AcDbLine
 10
207.1503671924545
 20
48.37300111608631
 30
0.0
 11
222.1503671924543
 21
48.37300111608643
 31
0.0
  0
LINE
  5
8269
330
18
100
AcDbEntity
  8
0
100
AcDbLine
 10
215.1503671924544
 20
43.29300111608631
 30
0.0
 11
207.1503671924545
 21
43.29300111608631
 31
0.0
  0
LINE
  5
826A
330
18
100
AcDbEntity
  8
0
100
AcDbLine
 10
207.1503671924545
 20
48.37300111608631
 30
0.0
 11
215.1503671924544
 21
48.37300111608631
 31
0.0
  0
LINE
  5
826B
330
18
100
AcDbEntity
  8
0
 62
     7
100
AcDbLine
 10
209.1503671924544
 20
48.87300111608586
 30
0.0
 11
216.1503671924545
 21
48.87300111608597
 31
0.0
  0
LINE
  5
826C
330
18
100
AcDbEntity
  8
0
 62
     7
100
AcDbLine
 10
209.1503671924544
 20
52.95300111608601
 30
0.0
 11
216.1503671924545
 21
52.95300111608601
 31
0.0
  0
LINE
  5
826D
330
18
100
AcDbEntity
  8
0
 62
     7
100
AcDbLine
 10
209.1503671924544
 20
48.87300111608586
 30
0.0
 11
216.1503671924545
 21
48.87300111608597
 31
0.0
  0
LINE
  5
826E
330
18
100
AcDbEntity
  8
0
 62
     7
100
AcDbLine
 10
209.1503671924544
 20
52.95300111608601
 30
0.0
 11
216.1503671924545
 21
52.95300111608601
 31
0.0
  0
LINE
  5
826F
330
18
100
AcDbEntity
  8
0
 62
     7
100
AcDbLine
 10
213.5503671924543
 20
49.61300111608576
 30
0.0
 11
216.1503671924545
 21
48.87300111608597
 31
0.0
  0
LINE
  5
8270
330
18
100
AcDbEntity
  8
0
 62
     7
100
AcDbLine
 10
213.5503671924543
 20
52.21300111608577
 30
0.0
 11
216.1503671924545
 21
52.95300111608601
 31
0.0
  0
LINE
  5
8271
330
18
100
AcDbEntity
  8
0
 62
     7
100
AcDbLine
 10
213.5503671924543
 20
52.21300111608577
 30
0.0
 11
216.1503671924545
 21
52.95300111608601
 31
0.0
  0
LINE
  5
8272
330
18
100
AcDbEntity
  8
0
 62
     7
100
AcDbLine
 10
213.5503671924543
 20
49.61300111608576
 30
0.0
 11
216.1503671924545
 21
48.87300111608597
 31
0.0
  0
CIRCLE
  5
8273
330
18
100
AcDbEntity
  8
0
100
AcDbCircle
 10
211.1503671924544
 20
45.83300111608635
 30
0.0
 40
2.0
  0
LINE
  5
8274
330
18
100
AcDbEntity
  8
0
 62
     7
100
AcDbLine
 10
209.6503671924545
 20
49.61300111608586
 30
0.0
 11
209.1503671924544
 21
48.87300111608586
 31
0.0
  0
LINE
  5
8275
330
18
100
AcDbEntity
  8
0
 62
     7
100
AcDbLine
 10
209.1503671924544
 20
52.9530011160859
 30
0.0
 11
209.6503671924543
 21
52.21300111608555
 31
0.0
  0
LINE
  5
8276
330
18
100
AcDbEntity
  8
0
 62
     7
100
AcDbLine
 10
209.1503671924544
 20
52.9530011160859
 30
0.0
 11
209.6503671924543
 21
52.21300111608555
 31
0.0
  0
LINE
  5
8277
330
18
100
AcDbEntity
  8
0
 62
     7
100
AcDbLine
 10
209.6503671924545
 20
49.61300111608586
 30
0.0
 11
209.1503671924544
 21
48.87300111608586
 31
0.0
  0
LINE
  5
8278
330
18
100
AcDbEntity
  8
0
100
AcDbLine
 10
208.6503671924545
 20
43.29300111608631
 30
0.0
 11
208.6503671924545
 21
48.37300111608631
 31
0.0
  0
LINE
  5
8279
330
18
100
AcDbEntity
  8
0
 62
     7
100
AcDbLine
 10
209.1503671924544
 20
52.95300111608601
 30
0.0
 11
209.1503671924544
 21
48.87300111608586
 31
0.0
  0
LINE
  5
827A
330
18
100
AcDbEntity
  8
0
 62
     7
100
AcDbLine
 10
209.1503671924544
 20
52.95300111608601
 30
0.0
 11
209.1503671924544
 21
48.87300111608586
 31
0.0
  0
ARC
  5
827B
330
18
100
AcDbEntity
  8
0
100
AcDbCircle
 10
212.5619671924545
 20
45.83300111608635
 30
0.0
 40
4.411600000000065
100
AcDbArc
 50
152.4568005658357
 51
207.5431994341642
  0
LINE
  5
827C
330
18
100
AcDbEntity
  8
0
100
AcDbLine
 10
212.3491910655498
 20
44.23211969596282
 30
0.0
 11
209.5306596809296
 21
47.00626475956545
 31
0.0
  0
LINE
  5
827D
330
18
100
AcDbEntity
  8
0
100
AcDbLine
 10
212.7700747039793
 20
44.65973747260725
 30
0.0
 11
209.9515433193591
 21
47.43388253620987
 31
0.0
  0
LINE
  5
827E
330
18
100
AcDbEntity
  8
0
100
AcDbLine
 10
213.6503671924545
 20
48.37300111608631
 30
0.0
 11
213.6503671924545
 21
43.29300111608631
 31
0.0
  0
LINE
  5
827F
330
18
100
AcDbEntity
  8
0
 62
     7
100
AcDbLine
 10
213.5503671924543
 20
52.21300111608577
 30
0.0
 11
213.5503671924543
 21
49.61300111608586
 31
0.0
  0
LINE
  5
8280
330
18
100
AcDbEntity
  8
0
 62
     7
100
AcDbLine
 10
209.6503671924543
 20
52.21300111608555
 30
0.0
 11
209.6503671924545
 21
49.61300111608586
 31
0.0
  0
LINE
  5
8281
330
18
100
AcDbEntity
  8
0
 62
     7
100
AcDbLine
 10
209.6503671924545
 20
49.61300111608586
 30
0.0
 11
213.5503671924543
 21
49.61300111608576
 31
0.0
  0
LINE
  5
8282
330
18
100
AcDbEntity
  8
0
 62
     7
100
AcDbLine
 10
209.6503671924543
 20
52.21300111608555
 30
0.0
 11
213.5503671924543
 21
52.21300111608589
 31
0.0
  0
LINE
  5
8283
330
18
100
AcDbEntity
  8
0
 62
     7
100
AcDbLine
 10
213.5503671924543
 20
52.21300111608577
 30
0.0
 11
213.5503671924543
 21
49.61300111608586
 31
0.0
  0
LINE
  5
8284
330
18
100
AcDbEntity
  8
0
 62
     7
100
AcDbLine
 10
209.6503671924543
 20
52.21300111608555
 30
0.0
 11
209.6503671924545
 21
49.61300111608586
 31
0.0
  0
LINE
  5
8285
330
18
100
AcDbEntity
  8
0
 62
     7
100
AcDbLine
 10
209.6503671924543
 20
52.21300111608555
 30
0.0
 11
213.5503671924543
 21
52.21300111608589
 31
0.0
  0
LINE
  5
8286
330
18
100
AcDbEntity
  8
0
 62
     7
100
AcDbLine
 10
209.6503671924545
 20
49.61300111608586
 30
0.0
 11
213.5503671924543
 21
49.61300111608576
 31
0.0
  0
ARC
  5
8287
330
18
100
AcDbEntity
  8
0
100
AcDbCircle
 10
209.7387671924544
 20
45.83300111608635
 30
0.0
 40
4.411600000000065
100
AcDbArc
 50
332.4568005658357
 51
27.54319943416428
  0
LINE
  5
8288
330
18
100
AcDbEntity
  8
0
100
AcDbLine
 10
215.1503671924544
 20
43.29300111608631
 30
0.0
 11
215.1503671924544
 21
48.37300111608638
 31
0.0
  0
LINE
  5
8289
330
18
100
AcDbEntity
  8
0
 62
     7
100
AcDbLine
 10
216.1503671924545
 20
52.95300111608601
 30
0.0
 11
216.1503671924545
 21
48.87300111608597
 31
0.0
  0
LINE
  5
828A
330
18
100
AcDbEntity
  8
0
 62
     7
100
AcDbLine
 10
216.1503671924545
 20
52.95300111608601
 30
0.0
 11
216.1503671924545
 21
48.87300111608597
 31
0.0
  0
LINE
  5
828B
330
18
100
AcDbEntity
  8
0
 62
     7
100
AcDbLine
 10
209.1503671924544
 20
63.11300111608609
 30
0.0
 11
216.1503671924545
 21
63.11300111608609
 31
0.0
  0
LINE
  5
828C
330
18
100
AcDbEntity
  8
0
 62
     7
100
AcDbLine
 10
209.1503671924544
 20
58.03300111608606
 30
0.0
 11
216.1503671924545
 21
58.03300111608606
 31
0.0
  0
LINE
  5
828D
330
18
100
AcDbEntity
  8
0
 62
     7
100
AcDbLine
 10
209.1503671924544
 20
59.03300111608594
 30
0.0
 11
216.1503671924545
 21
59.03300111608605
 31
0.0
  0
LINE
  5
828E
330
18
100
AcDbEntity
  8
0
 62
     7
100
AcDbLine
 10
209.1503671924544
 20
53.9530011160859
 30
0.0
 11
216.1503671924545
 21
53.95300111608602
 31
0.0
  0
LINE
  5
828F
330
18
100
AcDbEntity
  8
0
 62
     7
100
AcDbLine
 10
209.1503671924544
 20
63.11300111608609
 30
0.0
 11
216.1503671924545
 21
63.11300111608609
 31
0.0
  0
LINE
  5
8290
330
18
100
AcDbEntity
  8
0
 62
     7
100
AcDbLine
 10
209.1503671924544
 20
58.03300111608606
 30
0.0
 11
216.1503671924545
 21
58.03300111608606
 31
0.0
  0
LINE
  5
8291
330
18
100
AcDbEntity
  8
0
 62
     7
100
AcDbLine
 10
209.1503671924544
 20
59.03300111608594
 30
0.0
 11
216.1503671924545
 21
59.03300111608605
 31
0.0
  0
LINE
  5
8292
330
18
100
AcDbEntity
  8
0
 62
     7
100
AcDbLine
 10
209.1503671924544
 20
53.9530011160859
 30
0.0
 11
216.1503671924545
 21
53.95300111608602
 31
0.0
  0
LINE
  5
8293
330
18
100
AcDbEntity
  8
0
 62
     7
100
AcDbLine
 10
213.5503671924543
 20
62.37300111608586
 30
0.0
 11
216.1503671924545
 21
63.11300111608609
 31
0.0
  0
LINE
  5
8294
330
18
100
AcDbEntity
  8
0
 62
     7
100
AcDbLine
 10
213.5503671924543
 20
57.29300111608582
 30
0.0
 11
216.1503671924545
 21
58.03300111608606
 31
0.0
  0
LINE
  5
8295
330
18
100
AcDbEntity
  8
0
 62
     7
100
AcDbLine
 10
213.5503671924543
 20
59.77300111608584
 30
0.0
 11
216.1503671924545
 21
59.03300111608605
 31
0.0
  0
LINE
  5
8296
330
18
100
AcDbEntity
  8
0
 62
     7
100
AcDbLine
 10
213.5503671924543
 20
54.69300111608579
 30
0.0
 11
216.1503671924545
 21
53.95300111608602
 31
0.0
  0
LINE
  5
8297
330
18
100
AcDbEntity
  8
0
 62
     7
100
AcDbLine
 10
213.5503671924543
 20
62.37300111608586
 30
0.0
 11
216.1503671924545
 21
63.11300111608609
 31
0.0
  0
LINE
  5
8298
330
18
100
AcDbEntity
  8
0
 62
     7
100
AcDbLine
 10
213.5503671924543
 20
57.29300111608582
 30
0.0
 11
216.1503671924545
 21
58.03300111608606
 31
0.0
  0
LINE
  5
8299
330
18
100
AcDbEntity
  8
0
 62
     7
100
AcDbLine
 10
213.5503671924543
 20
59.77300111608584
 30
0.0
 11
216.1503671924545
 21
59.03300111608605
 31
0.0
  0
LINE
  5
829A
330
18
100
AcDbEntity
  8
0
 62
     7
100
AcDbLine
 10
213.5503671924543
 20
54.69300111608579
 30
0.0
 11
216.1503671924545
 21
53.95300111608602
 31
0.0
  0
LINE
  5
829B
330
18
100
AcDbEntity
  8
0
 62
     7
100
AcDbLine
 10
209.1503671924544
 20
58.03300111608594
 30
0.0
 11
209.6503671924543
 21
57.29300111608559
 31
0.0
  0
LINE
  5
829C
330
18
100
AcDbEntity
  8
0
 62
     7
100
AcDbLine
 10
209.6503671924545
 20
59.77300111608595
 30
0.0
 11
209.1503671924544
 21
59.03300111608594
 31
0.0
  0
LINE
  5
829D
330
18
100
AcDbEntity
  8
0
 62
     7
100
AcDbLine
 10
209.1503671924544
 20
63.11300111608598
 30
0.0
 11
209.6503671924543
 21
62.37300111608563
 31
0.0
  0
LINE
  5
829E
330
18
100
AcDbEntity
  8
0
 62
     7
100
AcDbLine
 10
209.6503671924545
 20
54.69300111608591
 30
0.0
 11
209.1503671924544
 21
53.9530011160859
 31
0.0
  0
LINE
  5
829F
330
18
100
AcDbEntity
  8
0
 62
     7
100
AcDbLine
 10
209.1503671924544
 20
63.11300111608598
 30
0.0
 11
209.6503671924543
 21
62.37300111608563
 31
0.0
  0
LINE
  5
82A0
330
18
100
AcDbEntity
  8
0
 62
     7
100
AcDbLine
 10
209.1503671924544
 20
58.03300111608594
 30
0.0
 11
209.6503671924543
 21
57.29300111608559
 31
0.0
  0
LINE
  5
82A1
330
18
100
AcDbEntity
  8
0
 62
     7
100
AcDbLine
 10
209.6503671924545
 20
54.69300111608591
 30
0.0
 11
209.1503671924544
 21
53.9530011160859
 31
0.0
  0
LINE
  5
82A2
330
18
100
AcDbEntity
  8
0
 62
     7
100
AcDbLine
 10
209.6503671924545
 20
59.77300111608595
 30
0.0
 11
209.1503671924544
 21
59.03300111608594
 31
0.0
  0
LINE
  5
82A3
330
18
100
AcDbEntity
  8
0
 62
     7
100
AcDbLine
 10
209.1503671924544
 20
63.11300111608609
 30
0.0
 11
209.1503671924544
 21
59.03300111608594
 31
0.0
  0
LINE
  5
82A4
330
18
100
AcDbEntity
  8
0
 62
     7
100
AcDbLine
 10
209.1503671924544
 20
58.03300111608606
 30
0.0
 11
209.1503671924544
 21
53.9530011160859
 31
0.0
  0
LINE
  5
82A5
330
18
100
AcDbEntity
  8
0
 62
     7
100
AcDbLine
 10
209.1503671924544
 20
58.03300111608606
 30
0.0
 11
209.1503671924544
 21
53.9530011160859
 31
0.0
  0
LINE
  5
82A6
330
18
100
AcDbEntity
  8
0
 62
     7
100
AcDbLine
 10
209.1503671924544
 20
63.11300111608609
 30
0.0
 11
209.1503671924544
 21
59.03300111608594
 31
0.0
  0
LINE
  5
82A7
330
18
100
AcDbEntity
  8
0
 62
     7
100
AcDbLine
 10
213.5503671924543
 20
62.37300111608586
 30
0.0
 11
213.5503671924543
 21
59.77300111608595
 31
0.0
  0
LINE
  5
82A8
330
18
100
AcDbEntity
  8
0
 62
     7
100
AcDbLine
 10
213.5503671924543
 20
57.29300111608582
 30
0.0
 11
213.5503671924543
 21
54.69300111608591
 31
0.0
  0
LINE
  5
82A9
330
18
100
AcDbEntity
  8
0
 62
     7
100
AcDbLine
 10
209.6503671924543
 20
62.37300111608563
 30
0.0
 11
209.6503671924545
 21
59.77300111608595
 31
0.0
  0
LINE
  5
82AA
330
18
100
AcDbEntity
  8
0
 62
     7
100
AcDbLine
 10
209.6503671924543
 20
57.29300111608559
 30
0.0
 11
209.6503671924545
 21
54.69300111608591
 31
0.0
  0
LINE
  5
82AB
330
18
100
AcDbEntity
  8
0
 62
     7
100
AcDbLine
 10
209.6503671924543
 20
57.29300111608559
 30
0.0
 11
213.5503671924543
 21
57.29300111608593
 31
0.0
  0
LINE
  5
82AC
330
18
100
AcDbEntity
  8
0
 62
     7
100
AcDbLine
 10
209.6503671924545
 20
59.77300111608595
 30
0.0
 11
213.5503671924543
 21
59.77300111608584
 31
0.0
  0
LINE
  5
82AD
330
18
100
AcDbEntity
  8
0
 62
     7
100
AcDbLine
 10
209.6503671924545
 20
54.69300111608591
 30
0.0
 11
213.5503671924543
 21
54.69300111608579
 31
0.0
  0
LINE
  5
82AE
330
18
100
AcDbEntity
  8
0
 62
     7
100
AcDbLine
 10
209.6503671924543
 20
62.37300111608563
 30
0.0
 11
213.5503671924543
 21
62.37300111608597
 31
0.0
  0
LINE
  5
82AF
330
18
100
AcDbEntity
  8
0
 62
     7
100
AcDbLine
 10
213.5503671924543
 20
57.29300111608582
 30
0.0
 11
213.5503671924543
 21
54.69300111608591
 31
0.0
  0
LINE
  5
82B0
330
18
100
AcDbEntity
  8
0
 62
     7
100
AcDbLine
 10
213.5503671924543
 20
62.37300111608586
 30
0.0
 11
213.5503671924543
 21
59.77300111608595
 31
0.0
  0
LINE
  5
82B1
330
18
100
AcDbEntity
  8
0
 62
     7
100
AcDbLine
 10
209.6503671924543
 20
57.29300111608559
 30
0.0
 11
209.6503671924545
 21
54.69300111608591
 31
0.0
  0
LINE
  5
82B2
330
18
100
AcDbEntity
  8
0
 62
     7
100
AcDbLine
 10
209.6503671924543
 20
62.37300111608563
 30
0.0
 11
209.6503671924545
 21
59.77300111608595
 31
0.0
  0
LINE
  5
82B3
330
18
100
AcDbEntity
  8
0
 62
     7
100
AcDbLine
 10
209.6503671924543
 20
57.29300111608559
 30
0.0
 11
213.5503671924543
 21
57.29300111608593
 31
0.0
  0
LINE
  5
82B4
330
18
100
AcDbEntity
  8
0
 62
     7
100
AcDbLine
 10
209.6503671924545
 20
54.69300111608591
 30
0.0
 11
213.5503671924543
 21
54.69300111608579
 31
0.0
  0
LINE
  5
82B5
330
18
100
AcDbEntity
  8
0
 62
     7
100
AcDbLine
 10
209.6503671924543
 20
62.37300111608563
 30
0.0
 11
213.5503671924543
 21
62.37300111608597
 31
0.0
  0
LINE
  5
82B6
330
18
100
AcDbEntity
  8
0
 62
     7
100
AcDbLine
 10
209.6503671924545
 20
59.77300111608595
 30
0.0
 11
213.5503671924543
 21
59.77300111608584
 31
0.0
  0
LINE
  5
82B7
330
18
100
AcDbEntity
  8
0
 62
     7
100
AcDbLine
 10
216.1503671924545
 20
63.11300111608609
 30
0.0
 11
216.1503671924545
 21
59.03300111608605
 31
0.0
  0
LINE
  5
82B8
330
18
100
AcDbEntity
  8
0
 62
     7
100
AcDbLine
 10
216.1503671924545
 20
58.03300111608606
 30
0.0
 11
216.1503671924545
 21
53.95300111608602
 31
0.0
  0
LINE
  5
82B9
330
18
100
AcDbEntity
  8
0
 62
     7
100
AcDbLine
 10
216.1503671924545
 20
58.03300111608606
 30
0.0
 11
216.1503671924545
 21
53.95300111608602
 31
0.0
  0
LINE
  5
82BA
330
18
100
AcDbEntity
  8
0
 62
     7
100
AcDbLine
 10
216.1503671924545
 20
63.11300111608609
 30
0.0
 11
216.1503671924545
 21
59.03300111608605
 31
0.0
  0
LINE
  5
82BB
330
18
100
AcDbEntity
  8
0
 62
     7
100
AcDbLine
 10
207.1503671924545
 20
73.77300111608604
 30
0.0
 11
222.1503671924545
 21
73.77300111608616
 31
0.0
  0
LINE
  5
82BC
330
18
100
AcDbEntity
  8
0
100
AcDbLine
 10
207.1503671924545
 20
73.7730011160863
 30
0.0
 11
215.1503671924544
 21
73.7730011160863
 31
0.0
  0
LINE
  5
82BD
330
18
100
AcDbEntity
  8
0
100
AcDbLine
 10
207.1503671924545
 20
78.85300111608632
 30
0.0
 11
215.1503671924544
 21
78.85300111608632
 31
0.0
  0
LINE
  5
82BE
330
18
100
AcDbEntity
  8
0
100
AcDbLine
 10
213.6503671924545
 20
73.7730011160863
 30
0.0
 11
213.6503671924545
 21
78.85300111608632
 31
0.0
  0
LINE
  5
82BF
330
18
100
AcDbEntity
  8
0
100
AcDbLine
 10
208.6503671924544
 20
73.7730011160863
 30
0.0
 11
208.6503671924544
 21
78.85300111608632
 31
0.0
  0
LINE
  5
82C0
330
18
100
AcDbEntity
  8
0
100
AcDbLine
 10
215.1503671924544
 20
78.85300111608632
 30
0.0
 11
215.1503671924544
 21
73.7730011160863
 31
0.0
  0
LINE
  5
82C1
330
18
100
AcDbEntity
  8
0
 62
     7
100
AcDbLine
 10
209.1503671924544
 20
64.11300111608598
 30
0.0
 11
216.1503671924545
 21
64.1130011160861
 31
0.0
  0
LINE
  5
82C2
330
18
100
AcDbEntity
  8
0
 62
     7
100
AcDbLine
 10
209.1503671924544
 20
69.19300111608603
 30
0.0
 11
216.1503671924545
 21
69.19300111608613
 31
0.0
  0
LINE
  5
82C3
330
18
100
AcDbEntity
  8
0
 62
     7
100
AcDbLine
 10
209.1503671924544
 20
73.27300111608616
 30
0.0
 11
216.1503671924545
 21
73.27300111608616
 31
0.0
  0
LINE
  5
82C4
330
18
100
AcDbEntity
  8
0
 62
     7
100
AcDbLine
 10
209.1503671924544
 20
64.11300111608598
 30
0.0
 11
216.1503671924545
 21
64.1130011160861
 31
0.0
  0
LINE
  5
82C5
330
18
100
AcDbEntity
  8
0
 62
     7
100
AcDbLine
 10
209.1503671924544
 20
68.19300111608614
 30
0.0
 11
216.1503671924545
 21
68.19300111608614
 31
0.0
  0
LINE
  5
82C6
330
18
100
AcDbEntity
  8
0
 62
     7
100
AcDbLine
 10
209.1503671924544
 20
69.19300111608603
 30
0.0
 11
216.1503671924545
 21
69.19300111608613
 31
0.0
  0
LINE
  5
82C7
330
18
100
AcDbEntity
  8
0
 62
     7
100
AcDbLine
 10
213.5503671924543
 20
72.53300111608594
 30
0.0
 11
216.1503671924545
 21
73.27300111608616
 31
0.0
  0
LINE
  5
82C8
330
18
100
AcDbEntity
  8
0
 62
     7
100
AcDbLine
 10
213.5503671924543
 20
67.4530011160859
 30
0.0
 11
216.1503671924545
 21
68.19300111608614
 31
0.0
  0
LINE
  5
82C9
330
18
100
AcDbEntity
  8
0
 62
     7
100
AcDbLine
 10
213.5503671924543
 20
69.93300111608592
 30
0.0
 11
216.1503671924545
 21
69.19300111608613
 31
0.0
  0
LINE
  5
82CA
330
18
100
AcDbEntity
  8
0
 62
     7
100
AcDbLine
 10
213.5503671924543
 20
64.85300111608587
 30
0.0
 11
216.1503671924545
 21
64.1130011160861
 31
0.0
  0
LINE
  5
82CB
330
18
100
AcDbEntity
  8
0
 62
     7
100
AcDbLine
 10
213.5503671924543
 20
72.53300111608594
 30
0.0
 11
216.1503671924545
 21
73.27300111608616
 31
0.0
  0
LINE
  5
82CC
330
18
100
AcDbEntity
  8
0
 62
     7
100
AcDbLine
 10
213.5503671924543
 20
64.85300111608587
 30
0.0
 11
216.1503671924545
 21
64.1130011160861
 31
0.0
  0
LINE
  5
82CD
330
18
100
AcDbEntity
  8
0
 62
     7
100
AcDbLine
 10
213.5503671924543
 20
67.4530011160859
 30
0.0
 11
216.1503671924545
 21
68.19300111608614
 31
0.0
  0
LINE
  5
82CE
330
18
100
AcDbEntity
  8
0
 62
     7
100
AcDbLine
 10
213.5503671924543
 20
69.93300111608592
 30
0.0
 11
216.1503671924545
 21
69.19300111608613
 31
0.0
  0
LINE
  5
82CF
330
18
100
AcDbEntity
  8
0
 62
     7
100
AcDbLine
 10
209.1503671924544
 20
73.27300111608616
 30
0.0
 11
216.1503671924545
 21
73.27300111608616
 31
0.0
  0
LINE
  5
82D0
330
18
100
AcDbEntity
  8
0
 62
     7
100
AcDbLine
 10
209.1503671924544
 20
68.19300111608614
 30
0.0
 11
216.1503671924545
 21
68.19300111608614
 31
0.0
  0
LINE
  5
82D1
330
18
100
AcDbEntity
  8
0
 62
     7
100
AcDbLine
 10
209.1503671924544
 20
68.19300111608602
 30
0.0
 11
209.6503671924543
 21
67.45300111608568
 31
0.0
  0
LINE
  5
82D2
330
18
100
AcDbEntity
  8
0
 62
     7
100
AcDbLine
 10
209.6503671924545
 20
69.93300111608603
 30
0.0
 11
209.1503671924544
 21
69.19300111608603
 31
0.0
  0
LINE
  5
82D3
330
18
100
AcDbEntity
  8
0
 62
     7
100
AcDbLine
 10
209.1503671924544
 20
73.27300111608605
 30
0.0
 11
209.6503671924543
 21
72.53300111608571
 31
0.0
  0
LINE
  5
82D4
330
18
100
AcDbEntity
  8
0
 62
     7
100
AcDbLine
 10
209.6503671924545
 20
64.85300111608599
 30
0.0
 11
209.1503671924544
 21
64.11300111608598
 31
0.0
  0
LINE
  5
82D5
330
18
100
AcDbEntity
  8
0
 62
     7
100
AcDbLine
 10
209.1503671924544
 20
73.27300111608605
 30
0.0
 11
209.6503671924543
 21
72.53300111608571
 31
0.0
  0
LINE
  5
82D6
330
18
100
AcDbEntity
  8
0
 62
     7
100
AcDbLine
 10
209.6503671924545
 20
64.85300111608599
 30
0.0
 11
209.1503671924544
 21
64.11300111608598
 31
0.0
  0
LINE
  5
82D7
330
18
100
AcDbEntity
  8
0
 62
     7
100
AcDbLine
 10
209.1503671924544
 20
68.19300111608602
 30
0.0
 11
209.6503671924543
 21
67.45300111608568
 31
0.0
  0
LINE
  5
82D8
330
18
100
AcDbEntity
  8
0
 62
     7
100
AcDbLine
 10
209.6503671924545
 20
69.93300111608603
 30
0.0
 11
209.1503671924544
 21
69.19300111608603
 31
0.0
  0
LINE
  5
82D9
330
18
100
AcDbEntity
  8
0
 62
     7
100
AcDbLine
 10
209.1503671924544
 20
73.27300111608616
 30
0.0
 11
209.1503671924544
 21
69.19300111608603
 31
0.0
  0
LINE
  5
82DA
330
18
100
AcDbEntity
  8
0
 62
     7
100
AcDbLine
 10
209.1503671924544
 20
68.19300111608614
 30
0.0
 11
209.1503671924544
 21
64.11300111608598
 31
0.0
  0
LINE
  5
82DB
330
18
100
AcDbEntity
  8
0
 62
     7
100
AcDbLine
 10
209.1503671924544
 20
68.19300111608614
 30
0.0
 11
209.1503671924544
 21
64.11300111608598
 31
0.0
  0
LINE
  5
82DC
330
18
100
AcDbEntity
  8
0
 62
     7
100
AcDbLine
 10
209.1503671924544
 20
73.27300111608616
 30
0.0
 11
209.1503671924544
 21
69.19300111608603
 31
0.0
  0
LINE
  5
82DD
330
18
100
AcDbEntity
  8
0
 62
     7
100
AcDbLine
 10
213.5503671924543
 20
72.53300111608594
 30
0.0
 11
213.5503671924543
 21
69.93300111608603
 31
0.0
  0
LINE
  5
82DE
330
18
100
AcDbEntity
  8
0
 62
     7
100
AcDbLine
 10
213.5503671924543
 20
67.4530011160859
 30
0.0
 11
213.5503671924543
 21
64.85300111608599
 31
0.0
  0
LINE
  5
82DF
330
18
100
AcDbEntity
  8
0
 62
     7
100
AcDbLine
 10
209.6503671924543
 20
72.53300111608571
 30
0.0
 11
209.6503671924545
 21
69.93300111608603
 31
0.0
  0
LINE
  5
82E0
330
18
100
AcDbEntity
  8
0
 62
     7
100
AcDbLine
 10
209.6503671924543
 20
67.45300111608568
 30
0.0
 11
209.6503671924545
 21
64.85300111608599
 31
0.0
  0
LINE
  5
82E1
330
18
100
AcDbEntity
  8
0
 62
     7
100
AcDbLine
 10
209.6503671924543
 20
72.53300111608571
 30
0.0
 11
213.5503671924543
 21
72.53300111608606
 31
0.0
  0
LINE
  5
82E2
330
18
100
AcDbEntity
  8
0
 62
     7
100
AcDbLine
 10
209.6503671924545
 20
69.93300111608603
 30
0.0
 11
213.5503671924543
 21
69.93300111608592
 31
0.0
  0
LINE
  5
82E3
330
18
100
AcDbEntity
  8
0
 62
     7
100
AcDbLine
 10
209.6503671924545
 20
64.85300111608599
 30
0.0
 11
213.5503671924543
 21
64.85300111608587
 31
0.0
  0
LINE
  5
82E4
330
18
100
AcDbEntity
  8
0
 62
     7
100
AcDbLine
 10
209.6503671924543
 20
67.45300111608568
 30
0.0
 11
213.5503671924543
 21
67.45300111608601
 31
0.0
  0
LINE
  5
82E5
330
18
100
AcDbEntity
  8
0
 62
     7
100
AcDbLine
 10
209.6503671924543
 20
72.53300111608571
 30
0.0
 11
213.5503671924543
 21
72.53300111608606
 31
0.0
  0
LINE
  5
82E6
330
18
100
AcDbEntity
  8
0
 62
     7
100
AcDbLine
 10
213.5503671924543
 20
67.4530011160859
 30
0.0
 11
213.5503671924543
 21
64.85300111608599
 31
0.0
  0
LINE
  5
82E7
330
18
100
AcDbEntity
  8
0
 62
     7
100
AcDbLine
 10
209.6503671924543
 20
67.45300111608568
 30
0.0
 11
209.6503671924545
 21
64.85300111608599
 31
0.0
  0
LINE
  5
82E8
330
18
100
AcDbEntity
  8
0
 62
     7
100
AcDbLine
 10
209.6503671924545
 20
64.85300111608599
 30
0.0
 11
213.5503671924543
 21
64.85300111608587
 31
0.0
  0
LINE
  5
82E9
330
18
100
AcDbEntity
  8
0
 62
     7
100
AcDbLine
 10
209.6503671924543
 20
67.45300111608568
 30
0.0
 11
213.5503671924543
 21
67.45300111608601
 31
0.0
  0
LINE
  5
82EA
330
18
100
AcDbEntity
  8
0
 62
     7
100
AcDbLine
 10
209.6503671924545
 20
69.93300111608603
 30
0.0
 11
213.5503671924543
 21
69.93300111608592
 31
0.0
  0
LINE
  5
82EB
330
18
100
AcDbEntity
  8
0
 62
     7
100
AcDbLine
 10
209.6503671924543
 20
72.53300111608571
 30
0.0
 11
209.6503671924545
 21
69.93300111608603
 31
0.0
  0
LINE
  5
82EC
330
18
100
AcDbEntity
  8
0
 62
     7
100
AcDbLine
 10
213.5503671924543
 20
72.53300111608594
 30
0.0
 11
213.5503671924543
 21
69.93300111608603
 31
0.0
  0
LINE
  5
82ED
330
18
100
AcDbEntity
  8
0
 62
     7
100
AcDbLine
 10
216.1503671924545
 20
73.27300111608616
 30
0.0
 11
216.1503671924545
 21
69.19300111608613
 31
0.0
  0
LINE
  5
82EE
330
18
100
AcDbEntity
  8
0
 62
     7
100
AcDbLine
 10
216.1503671924545
 20
68.19300111608614
 30
0.0
 11
216.1503671924545
 21
64.1130011160861
 31
0.0
  0
LINE
  5
82EF
330
18
100
AcDbEntity
  8
0
 62
     7
100
AcDbLine
 10
216.1503671924545
 20
68.19300111608614
 30
0.0
 11
216.1503671924545
 21
64.1130011160861
 31
0.0
  0
LINE
  5
82F0
330
18
100
AcDbEntity
  8
0
 62
     7
100
AcDbLine
 10
216.1503671924545
 20
73.27300111608616
 30
0.0
 11
216.1503671924545
 21
69.19300111608613
 31
0.0
  0
CIRCLE
  5
82F1
330
18
100
AcDbEntity
  8
0
100
AcDbCircle
 10
211.1503671924544
 20
76.31300111608632
 30
0.0
 40
2.0
  0
ARC
  5
82F2
330
18
100
AcDbEntity
  8
0
100
AcDbCircle
 10
212.5619671924545
 20
76.31300111608632
 30
0.0
 40
4.411600000000065
100
AcDbArc
 50
152.4568005658357
 51
207.5431994341642
  0
LINE
  5
82F3
330
18
100
AcDbEntity
  8
0
100
AcDbLine
 10
212.7700747039793
 20
75.13973747260724
 30
0.0
 11
209.9515433193591
 21
77.91388253620985
 31
0.0
  0
LINE
  5
82F4
330
18
100
AcDbEntity
  8
0
100
AcDbLine
 10
212.3491910655498
 20
74.71211969596279
 30
0.0
 11
209.5306596809296
 21
77.48626475956541
 31
0.0
  0
ARC
  5
82F5
330
18
100
AcDbEntity
  8
0
100
AcDbCircle
 10
209.7387671924544
 20
76.31300111608632
 30
0.0
 40
4.411600000000065
100
AcDbArc
 50
332.4568005658357
 51
27.54319943416428
  0
LWPOLYLINE
  5
82F6
330
18
100
AcDbEntity
  8
0
100
AcDbPolyline
 90
        4
 70
     1
 43
0.0
 10
207.1503671924545
 20
108.7730011160862
 10
208.3732167997389
 20
108.7730011160862
 10
208.3732167997389
 20
106.7730011160863
 10
207.1503671924545
 20
106.7730011160863
  0
LWPOLYLINE
  5
82F7
330
18
100
AcDbEntity
  8
0
100
AcDbPolyline
 90
        4
 70
     1
 43
0.0
 10
207.1503671924545
 20
111.7730011160863
 10
208.3732167997389
 20
111.7730011160863
 10
208.3732167997389
 20
109.7730011160862
 10
207.1503671924545
 20
109.7730011160862
  0
VIEWPORT
  5
8344
330
8340
100
AcDbEntity
 67
     1
  8
0
100
AcDbViewport
 10
202.4999999999999
 20
128.4999999999999
 30
0.0
 40
486.0
 41
308.3999999999999
 68
     1
 69
     1
 12
202.4999999999999
 22
128.4999999999999
 13
0.0
 23
0.0
 14
0.5
 24
0.5
 15
0.0
 25
0.0
 16
0.0
 26
0.0
 36
1.0
 17
0.0
 27
0.0
 37
0.0
 42
50.0
 43
0.0
 44
0.0
 45
308.3999999999999
 50
0.0
 51
0.0
 72
   100
 90
    32864
  1

281
     0
 71
     1
 74
     0
110
0.0
120
0.0
130
0.0
111
1.0
121
0.0
131
0.0
112
0.0
122
1.0
132
0.0
 79
     0
146
0.0
  0
VIEWPORT
  5
8345
330
8340
100
AcDbEntity
 67
     1
  8
0
100
AcDbViewport
 10
202.4999999999999
 20
128.4999999999999
 30
0.0
 40
324.0
 41
205.6
 68
     2
 69
     2
 12
312.2197384367944
 22
34.93047828978524
 13
0.0
 23
0.0
 14
0.5
 24
0.5
 15
0.0
 25
0.0
 16
0.0
 26
0.0
 36
1.0
 17
0.0
 27
0.0
 37
0.0
 42
50.0
 43
0.0
 44
0.0
 45
305.4747465656546
 50
0.0
 51
0.0
 72
   100
 90
    32864
  1

281
     0
 71
     1
 74
     0
110
0.0
120
0.0
130
0.0
111
1.0
121
0.0
131
0.0
112
0.0
122
1.0
132
0.0
 79
     0
146
0.0
  0
ENDSEC
  0
SECTION
  2
OBJECTS
  0
DICTIONARY
  5
C
330
0
100
AcDbDictionary
281
     1
  3
ACAD_GROUP
350
D
  3
ACAD_IMAGE_VARS
350
833E
  3
ACAD_LAYOUT
350
73F
  3
ACAD_MLINESTYLE
350
1B
  3
ACAD_PLOTSETTINGS
350
740
  3
ACAD_PLOTSTYLENAME
350
73D
  3
ACAD_SCALELIST
350
8312
  3
AcadDim
350
61D4
  3
AcDbVariableDictionary
350
7046
  3
APPDATA
350
833C
  3
DWGPROPS
350
8348
  0
DICTIONARY
  5
D
102
{ACAD_REACTORS
330
C
102
}
330
C
100
AcDbDictionary
281
     1
  0
RASTERVARIABLES
  5
833E
102
{ACAD_REACTORS
330
C
102
}
330
C
100
AcDbRasterVariables
 90
        0
 70
     1
 71
     1
 72
     0
  0
DICTIONARY
  5
73F
102
{ACAD_REACTORS
330
C
102
}
330
C
100
AcDbDictionary
281
     1
  3
Model
350
741
  3
Sheet1
350
8341
  0
DICTIONARY
  5
1B
102
{ACAD_REACTORS
330
C
102
}
330
C
100
AcDbDictionary
281
     1
  3
STANDARD
350
1C
  0
DICTIONARY
  5
740
102
{ACAD_REACTORS
330
C
102
}
330
C
100
AcDbDictionary
281
     1
  0
ACDBDICTIONARYWDFLT
  5
73D
102
{ACAD_REACTORS
330
C
102
}
330
C
100
AcDbDictionary
281
     1
  3
Normal
350
73E
100
AcDbDictionaryWithDefault
340
73E
  0
DICTIONARY
  5
8312
102
{ACAD_REACTORS
330
C
102
}
330
C
100
AcDbDictionary
281
     1
  3
A0
350
8313
  3
A1
350
8314
  3
A2
350
8315
  3
A3
350
8316
  3
A4
350
8317
  3
A5
350
8318
  3
A6
350
8319
  3
A7
350
831A
  3
A8
350
831B
  3
A9
350
831C
  3
B0
350
831D
  3
B1
350
831E
  3
B2
350
831F
  3
B3
350
8320
  3
B4
350
8321
  3
B5
350
8322
  3
B6
350
8323
  3
B7
350
8324
  3
B8
350
8325
  3
B9
350
8326
  3
C0
350
8327
  3
C1
350
8328
  3
C2
350
8329
  3
C3
350
832A
  3
C4
350
832B
  3
C5
350
832C
  3
C6
350
832D
  3
C7
350
832E
  3
C8
350
832F
  3
C9
350
8330
  3
D0
350
8331
  3
D1
350
8332
  3
D2
350
8333
  0
XRECORD
  5
61D4
102
{ACAD_REACTORS
330
C
102
}
330
C
100
AcDbXrecord
280
     1
 90
   990106
  3

 60
     0
 61
     0
 62
     1
 63
     3
 64
     0
 65
     0
 66
     0
 67
     3
 68
     1
 69
     0
 70
     0
 71
     0
 72
     0
 40
0.0
170
     0
  0
DICTIONARY
  5
7046
102
{ACAD_REACTORS
330
C
102
}
330
C
100
AcDbDictionary
281
     1
  3
DIMASSOC
350
7047
  0
DICTIONARY
  5
833C
102
{ACAD_REACTORS
330
C
102
}
330
C
100
AcDbDictionary
281
     1
  0
XRECORD
  5
8348
102
{ACAD_REACTORS
330
C
102
}
330
C
100
AcDbXrecord
280
     1
  1
DWGPROPS COOKIE
  2

  3

  4

  6

  7

  8
k-yoshida
  9

300
=
301
=
302
=
303
=
304
=
305
=
306
=
307
=
308
=
309
=
 40
0.0
 41
2451224.285162384
 42
2457315.191558079
  1

 90
        0
  0
LAYOUT
  5
741
102
{ACAD_REACTORS
330
73F
102
}
330
73F
100
AcDbPlotSettings
  1

  2
HP DesignJet 750C (D/A1) Color
  4
ISO_A3_(420.00_x_297.00_MM)
  6

 40
7.5
 41
20.0
 42
7.5
 43
20.0
 44
420.0
 45
297.0
 46
0.0
 47
0.0
 48
0.0
 49
0.0
140
0.0
141
0.0
142
1.0
143
1.25885119692632
 70
  1712
 72
     1
 73
     0
 74
     0
  7

 75
     0
147
0.7943750639008441
148
-132.1278528767739
149
126.595234823832
100
AcDbLayout
  1
Model
 70
     1
 71
     0
 10
0.0
 20
0.0
 11
12.0
 21
9.0
 12
0.0
 22
0.0
 32
0.0
 14
133.3503671924545
 24
-114.812044536516
 34
0.0
 15
491.2503473542974
 25
184.6730011160865
 35
0.0
146
0.0
 13
0.0
 23
0.0
 33
0.0
 16
1.0
 26
0.0
 36
0.0
 17
0.0
 27
1.0
 37
0.0
 76
     0
330
18
  0
LAYOUT
  5
8341
102
{ACAD_REACTORS
330
73F
102
}
330
73F
100
AcDbPlotSettings
  1

  2
none_device
  4
ISO_A3_(420.00_x_297.00_MM)
  6

 40
7.5
 41
20.0
 42
7.5
 43
20.0
 44
420.0
 45
297.0
 46
0.0
 47
0.0
 48
0.0
 49
0.0
140
0.0
141
0.0
142
1.0
143
1.0
 70
   688
 72
     1
 73
     0
 74
     5
  7

 75
    16
147
1.0
148
0.0
149
0.0
100
AcDbLayout
  1
Sheet1
 70
     1
 71
     1
 10
0.0
 20
0.0
 11
0.0
 21
0.0
 12
0.0
 22
0.0
 32
0.0
 14
40.49999999999999
 24
25.69999999999998
 34
0.0
 15
364.5
 25
231.3
 35
0.0
146
0.0
 13
0.0
 23
0.0
 33
0.0
 16
1.0
 26
0.0
 36
0.0
 17
0.0
 27
1.0
 37
0.0
 76
     0
330
8340
331
8344
  0
MLINESTYLE
  5
1C
102
{ACAD_REACTORS
330
1B
102
}
330
1B
100
AcDbMlineStyle
  2
STANDARD
 70
     0
  3

 62
   256
 51
90.0
 52
90.0
 71
     2
 49
0.5
 62
   256
  6
BYLAYER
 49
-0.5
 62
   256
  6
BYLAYER
  0
ACDBPLACEHOLDER
  5
73E
102
{ACAD_REACTORS
330
73D
102
}
330
73D
  0
ACAD_PROXY_OBJECT
  5
8313
102
{ACAD_REACTORS
330
8312
102
}
330
8312
100
AcDbProxyObject
 90
      499
 91
      507
 95
   655383
 70
     0
 93
       41
310
903313A31581
 94
        0
  0
ACAD_PROXY_OBJECT
  5
8314
102
{ACAD_REACTORS
330
8312
102
}
330
8312
100
AcDbProxyObject
 90
      499
 91
      507
 95
   655383
 70
     0
 93
      105
310
903313A324000000000000004000
 94
        0
  0
ACAD_PROXY_OBJECT
  5
8315
102
{ACAD_REACTORS
330
8312
102
}
330
8312
100
AcDbProxyObject
 90
      499
 91
      507
 95
   655383
 70
     0
 93
      105
310
903313A344000000000000104000
 94
        0
  0
ACAD_PROXY_OBJECT
  5
8316
102
{ACAD_REACTORS
330
8312
102
}
330
8312
100
AcDbProxyObject
 90
      499
 91
      507
 95
   655383
 70
     0
 93
      105
310
903313A354000000000000144000
 94
        0
  0
ACAD_PROXY_OBJECT
  5
8317
102
{ACAD_REACTORS
330
8312
102
}
330
8312
100
AcDbProxyObject
 90
      499
 91
      507
 95
   655383
 70
     0
 93
      105
310
903313A384000000000000204000
 94
        0
  0
ACAD_PROXY_OBJECT
  5
8318
102
{ACAD_REACTORS
330
8312
102
}
330
8312
100
AcDbProxyObject
 90
      499
 91
      507
 95
   655383
 70
     0
 93
      113
310
904313A31304000000000000244009
 94
        0
  0
ACAD_PROXY_OBJECT
  5
8319
102
{ACAD_REACTORS
330
8312
102
}
330
8312
100
AcDbProxyObject
 90
      499
 91
      507
 95
   655383
 70
     0
 93
      113
310
904313A31364000000000000304009
 94
        0
  0
ACAD_PROXY_OBJECT
  5
831A
102
{ACAD_REACTORS
330
8312
102
}
330
8312
100
AcDbProxyObject
 90
      499
 91
      507
 95
   655383
 70
     0
 93
      113
310
904313A32304000000000000344009
 94
        0
  0
ACAD_PROXY_OBJECT
  5
831B
102
{ACAD_REACTORS
330
8312
102
}
330
8312
100
AcDbProxyObject
 90
      499
 91
      507
 95
   655383
 70
     0
 93
      113
310
904313A333040000000000003E4009
 94
        0
  0
ACAD_PROXY_OBJECT
  5
831C
102
{ACAD_REACTORS
330
8312
102
}
330
8312
100
AcDbProxyObject
 90
      499
 91
      507
 95
   655383
 70
     0
 93
      113
310
904313A34304000000000000444009
 94
        0
  0
ACAD_PROXY_OBJECT
  5
831D
102
{ACAD_REACTORS
330
8312
102
}
330
8312
100
AcDbProxyObject
 90
      499
 91
      507
 95
   655383
 70
     0
 93
      113
310
904313A35304000000000000494009
 94
        0
  0
ACAD_PROXY_OBJECT
  5
831E
102
{ACAD_REACTORS
330
8312
102
}
330
8312
100
AcDbProxyObject
 90
      499
 91
      507
 95
   655383
 70
     0
 93
      121
310
905313A3130304000000000000594000
 94
        0
  0
ACAD_PROXY_OBJECT
  5
831F
102
{ACAD_REACTORS
330
8312
102
}
330
8312
100
AcDbProxyObject
 90
      499
 91
      507
 95
   655383
 70
     0
 93
      105
310
903323A310000000000000010159
 94
        0
  0
ACAD_PROXY_OBJECT
  5
8320
102
{ACAD_REACTORS
330
8312
102
}
330
8312
100
AcDbProxyObject
 90
      499
 91
      507
 95
   655383
 70
     0
 93
      105
310
903343A310000000000000410159
 94
        0
  0
ACAD_PROXY_OBJECT
  5
8321
102
{ACAD_REACTORS
330
8312
102
}
330
8312
100
AcDbProxyObject
 90
      499
 91
      507
 95
   655383
 70
     0
 93
      105
310
903383A310000000000000810159
 94
        0
  0
ACAD_PROXY_OBJECT
  5
8322
102
{ACAD_REACTORS
330
8312
102
}
330
8312
100
AcDbProxyObject
 90
      499
 91
      507
 95
   655383
 70
     0
 93
      113
310
90431303A310000000000000910140
 94
        0
  0
ACAD_PROXY_OBJECT
  5
8323
102
{ACAD_REACTORS
330
8312
102
}
330
8312
100
AcDbProxyObject
 90
      499
 91
      507
 95
   655383
 70
     0
 93
      121
310
9053130303A310000000000001650100
 94
        0
  0
ACAD_PROXY_OBJECT
  5
8324
102
{ACAD_REACTORS
330
8312
102
}
330
8312
100
AcDbProxyObject
 90
      499
 91
      507
 95
   655383
 70
     0
 93
      257
310
90E312F31323822203D2031272D3022000000000000200FC000000000000284000
 94
        0
  0
ACAD_PROXY_OBJECT
  5
8325
102
{ACAD_REACTORS
330
8312
102
}
330
8312
100
AcDbProxyObject
 90
      499
 91
      507
 95
   655383
 70
     0
 93
      249
310
90D312F363422203D2031272D3022000000000000240FC000000000000284040
 94
        0
  0
ACAD_PROXY_OBJECT
  5
8326
102
{ACAD_REACTORS
330
8312
102
}
330
8312
100
AcDbProxyObject
 90
      499
 91
      507
 95
   655383
 70
     0
 93
      249
310
90D312F333222203D2031272D3022000000000000280FC000000000000284040
 94
        0
  0
ACAD_PROXY_OBJECT
  5
8327
102
{ACAD_REACTORS
330
8312
102
}
330
8312
100
AcDbProxyObject
 90
      499
 91
      507
 95
   655383
 70
     0
 93
      249
310
90D312F313622203D2031272D30220000000000002C0FC000000000000284040
 94
        0
  0
ACAD_PROXY_OBJECT
  5
8328
102
{ACAD_REACTORS
330
8312
102
}
330
8312
100
AcDbProxyObject
 90
      499
 91
      507
 95
   655383
 70
     0
 93
      249
310
90D332F333222203D2031272D30220000000000002E0FC000000000000284040
 94
        0
  0
ACAD_PROXY_OBJECT
  5
8329
102
{ACAD_REACTORS
330
8312
102
}
330
8312
100
AcDbProxyObject
 90
      499
 91
      507
 95
   655383
 70
     0
 93
      241
310
90C312F3822203D2031272D3022000000000000300FC000000000000284040
 94
        0
  0
ACAD_PROXY_OBJECT
  5
832A
102
{ACAD_REACTORS
330
8312
102
}
330
8312
100
AcDbProxyObject
 90
      499
 91
      507
 95
   655383
 70
     0
 93
      249
310
90D332F313622203D2031272D3022000000000000320FC000000000000284040
 94
        0
  0
ACAD_PROXY_OBJECT
  5
832B
102
{ACAD_REACTORS
330
8312
102
}
330
8312
100
AcDbProxyObject
 90
      499
 91
      507
 95
   655383
 70
     0
 93
      241
310
90C312F3422203D2031272D3022000000000000340FC000000000000284040
 94
        0
  0
ACAD_PROXY_OBJECT
  5
832C
102
{ACAD_REACTORS
330
8312
102
}
330
8312
100
AcDbProxyObject
 90
      499
 91
      507
 95
   655383
 70
     0
 93
      241
310
90C332F3822203D2031272D3022000000000000360FC000000000000284040
 94
        0
  0
ACAD_PROXY_OBJECT
  5
832D
102
{ACAD_REACTORS
330
8312
102
}
330
8312
100
AcDbProxyObject
 90
      499
 91
      507
 95
   655383
 70
     0
 93
      241
310
90C312F3222203D2031272D3022000000000000380FC000000000000284040
 94
        0
  0
ACAD_PROXY_OBJECT
  5
832E
102
{ACAD_REACTORS
330
8312
102
}
330
8312
100
AcDbProxyObject
 90
      499
 91
      507
 95
   655383
 70
     0
 93
      241
310
90C332F3422203D2031272D30220000000000003A0FC000000000000284040
 94
        0
  0
ACAD_PROXY_OBJECT
  5
832F
102
{ACAD_REACTORS
330
8312
102
}
330
8312
100
AcDbProxyObject
 90
      499
 91
      507
 95
   655383
 70
     0
 93
      161
310
90A3122203D2031272D30224000000000000284020
 94
        0
  0
ACAD_PROXY_OBJECT
  5
8330
102
{ACAD_REACTORS
330
8312
102
}
330
8312
100
AcDbProxyObject
 90
      499
 91
      507
 95
   655383
 70
     0
 93
      257
310
90E312D312F3222203D2031272D30220000000000003E0FC000000000000284000
 94
        0
  0
ACAD_PROXY_OBJECT
  5
8331
102
{ACAD_REACTORS
330
8312
102
}
330
8312
100
AcDbProxyObject
 90
      499
 91
      507
 95
   655383
 70
     0
 93
      225
310
90A3322203D2031272D302200000000000002100000000000000284000
 94
        0
  0
ACAD_PROXY_OBJECT
  5
8332
102
{ACAD_REACTORS
330
8312
102
}
330
8312
100
AcDbProxyObject
 90
      499
 91
      507
 95
   655383
 70
     0
 93
      225
310
90A3622203D2031272D302200000000000006100000000000000284000
 94
        0
  0
ACAD_PROXY_OBJECT
  5
8333
102
{ACAD_REACTORS
330
8312
102
}
330
8312
100
AcDbProxyObject
 90
      499
 91
      507
 95
   655383
 70
     0
 93
      249
310
90D31272D3022203D2031272D30220000000000000A100000000000000284040
 94
        0
  0
DICTIONARYVAR
  5
7047
102
{ACAD_REACTORS
330
7046
102
}
330
7046
100
DictionaryVariables
280
     0
  1
1
  0
ENDSEC
  0
EOF
