  0
SECTION
  2
HEADER
  9
$ACADVER
  1
AC1015
  9
$ACADMAINTVER
 70
    10
  9
$DWGCODEPAGE
  3
ANSI_932
  9
$INSBASE
 10
0.0
 20
0.0
 30
0.0
  9
$EXTMIN
 10
12.92602254473149
 20
-571.3488871063709
 30
0.0
  9
$EXTMAX
 10
504.6170471371273
 20
-183.5700768259671
 30
0.0
  9
$LIMMIN
 10
0.0
 20
0.0
  9
$LIMMAX
 10
420.0
 20
297.0
  9
$ORTHOMODE
 70
     0
  9
$REGENMODE
 70
     1
  9
$FILLMODE
 70
     1
  9
$QTEXTMODE
 70
     0
  9
$MIRRTEXT
 70
     1
  9
$LTSCALE
 40
1.0
  9
$ATTMODE
 70
     1
  9
$TEXTSIZE
 40
3.0
  9
$TRACEWID
 40
1.0
  9
$TEXTSTYLE
  7
STANDARD
  9
$CLAYER
  8
0
  9
$CELTYPE
  6
BYLAYER
  9
$CECOLOR
 62
   256
  9
$CELTSCALE
 40
1.0
  9
$DISPSILH
 70
     0
  9
$DIMSCALE
 40
1.0
  9
$DIMASZ
 40
1.5
  9
$DIMEXO
 40
0.5
  9
$DIMDLI
 40
5.0
  9
$DIMRND
 40
0.0
  9
$DIMDLE
 40
0.0
  9
$DIMEXE
 40
0.75
  9
$DIMTP
 40
0.0
  9
$DIMTM
 40
0.0
  9
$DIMTXT
 40
3.0
  9
$DIMCEN
 40
2.5
  9
$DIMTSZ
 40
0.0
  9
$DIMTOL
 70
     0
  9
$DIMLIM
 70
     0
  9
$DIMTIH
 70
     0
  9
$DIMTOH
 70
     0
  9
$DIMSE1
 70
     0
  9
$DIMSE2
 70
     0
  9
$DIMTAD
 70
     1
  9
$DIMZIN
 70
     9
  9
$DIMBLK
  1

  9
$DIMASO
 70
     1
  9
$DIMSHO
 70
     1
  9
$DIMPOST
  1

  9
$DIMAPOST
  1

  9
$DIMALT
 70
     0
  9
$DIMALTD
 70
     4
  9
$DIMALTF
 40
0.0394
  9
$DIMLFAC
 40
1.0
  9
$DIMTOFL
 70
     1
  9
$DIMTVP
 40
0.0
  9
$DIMTIX
 70
     0
  9
$DIMSOXD
 70
     0
  9
$DIMSAH
 70
     1
  9
$DIMBLK1
  1
OPEN
  9
$DIMBLK2
  1
OPEN
  9
$DIMSTYLE
  2
STANDARD
  9
$DIMCLRD
 70
     0
  9
$DIMCLRE
 70
     0
  9
$DIMCLRT
 70
     7
  9
$DIMTFAC
 40
1.0
  9
$DIMGAP
 40
0.5
  9
$DIMJUST
 70
     0
  9
$DIMSD1
 70
     0
  9
$DIMSD2
 70
     0
  9
$DIMTOLJ
 70
     1
  9
$DIMTZIN
 70
     9
  9
$DIMALTZ
 70
     0
  9
$DIMALTTZ
 70
     0
  9
$DIMUPT
 70
     0
  9
$DIMDEC
 70
     4
  9
$DIMTDEC
 70
     4
  9
$DIMALTU
 70
     8
  9
$DIMALTTD
 70
     4
  9
$DIMTXSTY
  7
STANDARD
  9
$DIMAUNIT
 70
     0
  9
$DIMADEC
 70
     0
  9
$DIMALTRND
 40
0.0
  9
$DIMAZIN
 70
     2
  9
$DIMDSEP
 70
    46
  9
$DIMATFIT
 70
     3
  9
$DIMFRAC
 70
     0
  9
$DIMLDRBLK
  1
OPEN
  9
$DIMLUNIT
 70
     2
  9
$DIMLWD
 70
    -2
  9
$DIMLWE
 70
    -2
  9
$DIMTMOVE
 70
     2
  9
$LUNITS
 70
     2
  9
$LUPREC
 70
     4
  9
$SKETCHINC
 40
1.0
  9
$FILLETRAD
 40
10.0
  9
$AUNITS
 70
     0
  9
$AUPREC
 70
     0
  9
$MENU
  1
.
  9
$ELEVATION
 40
0.0
  9
$PELEVATION
 40
0.0
  9
$THICKNESS
 40
0.0
  9
$LIMCHECK
 70
     0
  9
$CHAMFERA
 40
10.0
  9
$CHAMFERB
 40
10.0
  9
$CHAMFERC
 40
20.0
  9
$CHAMFERD
 40
0.0
  9
$SKPOLY
 70
     0
  9
$TDCREATE
 40
2451224.660162384
  9
$TDUCREATE
 40
2451224.285162384
  9
$TDUPDATE
 40
2457366.476306053
  9
$TDUUPDATE
 40
2457366.101306053
  9
$TDINDWG
 40
1.8472395023
  9
$TDUSRTIMER
 40
2457315.112269861
  9
$USRTIMER
 70
     1
  9
$ANGBASE
 50
0.0
  9
$ANGDIR
 70
     0
  9
$PDMODE
 70
     0
  9
$PDSIZE
 40
0.0
  9
$PLINEWID
 40
0.0
  9
$SPLFRAME
 70
     0
  9
$SPLINETYPE
 70
     6
  9
$SPLINESEGS
 70
     8
  9
$HANDSEED
  5
9BC4
  9
$SURFTAB1
 70
     6
  9
$SURFTAB2
 70
     6
  9
$SURFTYPE
 70
     6
  9
$SURFU
 70
     6
  9
$SURFV
 70
     6
  9
$UCSBASE
  2

  9
$UCSNAME
  2

  9
$UCSORG
 10
0.0
 20
0.0
 30
0.0
  9
$UCSXDIR
 10
1.0
 20
0.0
 30
0.0
  9
$UCSYDIR
 10
0.0
 20
1.0
 30
0.0
  9
$UCSORTHOREF
  2

  9
$UCSORTHOVIEW
 70
     0
  9
$UCSORGTOP
 10
0.0
 20
0.0
 30
0.0
  9
$UCSORGBOTTOM
 10
0.0
 20
0.0
 30
0.0
  9
$UCSORGLEFT
 10
0.0
 20
0.0
 30
0.0
  9
$UCSORGRIGHT
 10
0.0
 20
0.0
 30
0.0
  9
$UCSORGFRONT
 10
0.0
 20
0.0
 30
0.0
  9
$UCSORGBACK
 10
0.0
 20
0.0
 30
0.0
  9
$PUCSBASE
  2

  9
$PUCSNAME
  2

  9
$PUCSORG
 10
0.0
 20
0.0
 30
0.0
  9
$PUCSXDIR
 10
1.0
 20
0.0
 30
0.0
  9
$PUCSYDIR
 10
0.0
 20
1.0
 30
0.0
  9
$PUCSORTHOREF
  2

  9
$PUCSORTHOVIEW
 70
     0
  9
$PUCSORGTOP
 10
0.0
 20
0.0
 30
0.0
  9
$PUCSORGBOTTOM
 10
0.0
 20
0.0
 30
0.0
  9
$PUCSORGLEFT
 10
0.0
 20
0.0
 30
0.0
  9
$PUCSORGRIGHT
 10
0.0
 20
0.0
 30
0.0
  9
$PUCSORGFRONT
 10
0.0
 20
0.0
 30
0.0
  9
$PUCSORGBACK
 10
0.0
 20
0.0
 30
0.0
  9
$USERI1
 70
     0
  9
$USERI2
 70
     0
  9
$USERI3
 70
     0
  9
$USERI4
 70
     0
  9
$USERI5
 70
     0
  9
$USERR1
 40
0.0
  9
$USERR2
 40
0.0
  9
$USERR3
 40
0.0
  9
$USERR4
 40
0.0
  9
$USERR5
 40
0.0
  9
$WORLDVIEW
 70
     1
  9
$SHADEDGE
 70
     3
  9
$SHADEDIF
 70
    70
  9
$TILEMODE
 70
     1
  9
$MAXACTVP
 70
    48
  9
$PINSBASE
 10
0.0
 20
0.0
 30
0.0
  9
$PLIMCHECK
 70
     0
  9
$PEXTMIN
 10
40.49999999999999
 20
25.69999999999998
 30
0.0
  9
$PEXTMAX
 10
364.5
 20
231.3
 30
0.0
  9
$PLIMMIN
 10
0.0
 20
0.0
  9
$PLIMMAX
 10
0.0
 20
0.0
  9
$UNITMODE
 70
     0
  9
$VISRETAIN
 70
     1
  9
$PLINEGEN
 70
     0
  9
$PSLTSCALE
 70
     1
  9
$TREEDEPTH
 70
  3020
  9
$CMLSTYLE
  2
STANDARD
  9
$CMLJUST
 70
     0
  9
$CMLSCALE
 40
20.0
  9
$PROXYGRAPHICS
 70
     1
  9
$MEASUREMENT
 70
     1
  9
$CELWEIGHT
370
    -1
  9
$ENDCAPS
280
     0
  9
$JOINSTYLE
280
     0
  9
$LWDISPLAY
290
     0
  9
$INSUNITS
 70
     0
  9
$HYPERLINKBASE
  1

  9
$STYLESHEET
  1

  9
$XEDIT
290
     1
  9
$CEPSNTYPE
380
     0
  9
$PSTYLEMODE
290
     1
  9
$FINGERPRINTGUID
  2
{6B368F64-F7EB-11D4-BFBA-00004C030E53}
  9
$VERSIONGUID
  2
{810D875B-964B-4C93-8E99-BE7F6EBBCDBC}
  9
$EXTNAMES
290
     1
  9
$PSVPSCALE
 40
0.0
  9
$OLESTARTUP
290
     0
  0
ENDSEC
  0
SECTION
  2
CLASSES
  0
CLASS
  1
HATCH
  2
AcDbHatch
  3
AutoCAD 2000
 90
    32768
280
     0
281
     1
  0
CLASS
  1
LWPOLYLINE
  2
AcDbPolyline
  3
AutoCAD 2000
 90
    32768
280
     0
281
     1
  0
CLASS
  1
ACDBDICTIONARYWDFLT
  2
AcDbDictionaryWithDefault
  3
AutoCAD 2000
 90
        0
280
     0
281
     0
  0
CLASS
  1
ACDBPLACEHOLDER
  2
AcDbPlaceHolder
  3
AutoCAD 2000
 90
        0
280
     0
281
     0
  0
CLASS
  1
LAYOUT
  2
AcDbLayout
  3
AutoCAD 2000
 90
        0
280
     0
281
     0
  0
CLASS
  1
DICTIONARYVAR
  2
AcDbDictionaryVar
  3
AutoCAD 2000
 90
        0
280
     0
281
     0
  0
CLASS
  1
VISUALSTYLE
  2
AcDbVisualStyle
  3
ObjectDBX Classes
 90
    36863
280
     0
281
     0
  0
CLASS
  1
SCALE
  2
AcDbScale
  3
ObjectDBX Classes
 90
     1153
280
     0
281
     0
  0
CLASS
  1
MATERIAL
  2
AcDbMaterial
  3
ObjectDBX Classes
 90
    33921
280
     0
281
     0
  0
CLASS
  1
TABLESTYLE
  2
AcDbTableStyle
  3
ObjectDBX Classes
 90
    36863
280
     0
281
     0
  0
CLASS
  1
MLEADERSTYLE
  2
AcDbMLeaderStyle
  3
ACDB_MLEADERSTYLE_CLASS
 90
    36863
280
     0
281
     0
  0
CLASS
  1
SUN
  2
AcDbSun
  3
SCENEOE
 90
     1153
280
     0
281
     0
  0
CLASS
  1
RASTERVARIABLES
  2
AcDbRasterVariables
  3
ISM
 90
        0
280
     0
281
     0
  0
ENDSEC
  0
SECTION
  2
TABLES
  0
TABLE
  2
VPORT
  5
8
330
0
100
AcDbSymbolTable
 70
     2
  0
VPORT
  5
9BC3
330
8
100
AcDbSymbolTableRecord
100
AcDbViewportTableRecord
  2
*Active
 70
     0
 10
0.0
 20
0.0
 11
1.0
 21
1.0
 12
266.6681017309522
 22
-357.5115470252091
 13
0.0
 23
0.0
 14
10.0
 24
10.0
 15
10.0
 25
10.0
 16
0.0
 26
0.0
 36
1.0
 17
0.0
 27
0.0
 37
0.0
 40
390.8464492941985
 41
1.562182741116751
 42
50.0
 43
0.0
 44
0.0
 50
0.0
 51
0.0
 71
    16
 72
   100
 73
     1
 74
     0
 75
     0
 76
     0
 77
     0
 78
     0
281
     0
 65
     1
110
0.0
120
0.0
130
0.0
111
1.0
121
0.0
131
0.0
112
0.0
122
1.0
132
0.0
 79
     0
146
0.0
  0
ENDTAB
  0
TABLE
  2
LTYPE
  5
5
330
0
100
AcDbSymbolTable
 70
     1
  0
LTYPE
  5
12
330
5
100
AcDbSymbolTableRecord
100
AcDbLinetypeTableRecord
  2
BYBLOCK
 70
     0
  3

 72
    65
 73
     0
 40
0.0
  0
LTYPE
  5
13
330
5
100
AcDbSymbolTableRecord
100
AcDbLinetypeTableRecord
  2
BYLAYER
 70
     0
  3

 72
    65
 73
     0
 40
0.0
  0
LTYPE
  5
14
330
5
100
AcDbSymbolTableRecord
100
AcDbLinetypeTableRecord
  2
CONTINUOUS
 70
     0
  3
Solid line
 72
    65
 73
     0
 40
0.0
  0
ENDTAB
  0
TABLE
  2
LAYER
  5
2
102
{ACAD_XDICTIONARY
360
9533
102
}
330
0
100
AcDbSymbolTable
 70
     1
  0
LAYER
  5
E
330
2
100
AcDbSymbolTableRecord
100
AcDbLayerTableRecord
  2
0
 70
     0
 62
     7
  6
CONTINUOUS
370
    -3
390
73E
  0
ENDTAB
  0
TABLE
  2
STYLE
  5
3
330
0
100
AcDbSymbolTable
 70
     2
  0
STYLE
  5
F
330
3
100
AcDbSymbolTableRecord
100
AcDbTextStyleTableRecord
  2
STANDARD
 70
     0
 40
0.0
 41
1.0
 50
0.0
 71
     0
 42
3.0
  3
isocp.shx
  4
bigfont.shx
  0
STYLE
  5
35
330
3
100
AcDbSymbolTableRecord
100
AcDbTextStyleTableRecord
  2
MSｺﾞｼｯｸ
 70
     0
 40
0.0
 41
1.0
 50
0.0
 71
     0
 42
5.0
  3
MS Gothic.ttf
  4

1001
ACAD
1000
MS Gothic
1071
    32817
  0
ENDTAB
  0
TABLE
  2
VIEW
  5
6
330
0
100
AcDbSymbolTable
 70
     0
  0
ENDTAB
  0
TABLE
  2
UCS
  5
7
330
0
100
AcDbSymbolTable
 70
     0
  0
ENDTAB
  0
TABLE
  2
APPID
  5
9
330
0
100
AcDbSymbolTable
 70
     1
  0
APPID
  5
10
330
9
100
AcDbSymbolTableRecord
100
AcDbRegAppTableRecord
  2
ACAD
 70
     0
  0
ENDTAB
  0
TABLE
  2
DIMSTYLE
  5
A
330
0
100
AcDbSymbolTable
 70
     1
100
AcDbDimStyleTable
 71
     0
  0
DIMSTYLE
105
1D
330
A
100
AcDbSymbolTableRecord
100
AcDbDimStyleTableRecord
  2
STANDARD
 70
     0
 78
     8
 79
     2
140
3.0
340
F
341
89E
342
89E
  0
ENDTAB
  0
TABLE
  2
BLOCK_RECORD
  5
1
330
0
100
AcDbSymbolTable
 70
     9
  0
BLOCK_RECORD
  5
18
330
1
100
AcDbSymbolTableRecord
100
AcDbBlockTableRecord
  2
*MODEL_SPACE
340
741
  0
BLOCK_RECORD
  5
9BB4
330
1
100
AcDbSymbolTableRecord
100
AcDbBlockTableRecord
  2
*Paper_Space
340
9BB5
  0
BLOCK_RECORD
  5
24
330
1
100
AcDbSymbolTableRecord
100
AcDbBlockTableRecord
  2
_OPEN
340
0
  0
BLOCK_RECORD
  5
89E
330
1
100
AcDbSymbolTableRecord
100
AcDbBlockTableRecord
  2
_Open30
340
0
  0
BLOCK_RECORD
  5
7058
330
1
100
AcDbSymbolTableRecord
100
AcDbBlockTableRecord
  2
A$C444F17A9
340
0
102
{BLKREFS
331
8275
102
}
  0
BLOCK_RECORD
  5
7064
330
1
100
AcDbSymbolTableRecord
100
AcDbBlockTableRecord
  2
A$C6C1277F2
340
0
102
{BLKREFS
331
821C
102
}
  0
BLOCK_RECORD
  5
7091
330
1
100
AcDbSymbolTableRecord
100
AcDbBlockTableRecord
  2
A$C2F696F30
340
0
102
{BLKREFS
331
825F
102
}
  0
BLOCK_RECORD
  5
70A9
330
1
100
AcDbSymbolTableRecord
100
AcDbBlockTableRecord
  2
A$C57095CDF
340
0
102
{BLKREFS
331
8260
102
}
  0
BLOCK_RECORD
  5
70DC
330
1
100
AcDbSymbolTableRecord
100
AcDbBlockTableRecord
  2
A$C3A6E1F00
340
0
102
{BLKREFS
331
823D
102
}
  0
BLOCK_RECORD
  5
711F
330
1
100
AcDbSymbolTableRecord
100
AcDbBlockTableRecord
  2
A$C5A3A0BB0
340
0
102
{BLKREFS
331
8261
102
}
  0
BLOCK_RECORD
  5
7160
330
1
100
AcDbSymbolTableRecord
100
AcDbBlockTableRecord
  2
A$C3413120B
340
0
102
{BLKREFS
331
8277
102
}
  0
ENDTAB
  0
ENDSEC
  0
SECTION
  2
BLOCKS
  0
BLOCK
  5
19
330
18
100
AcDbEntity
  8
0
100
AcDbBlockBegin
  2
*MODEL_SPACE
 70
     0
 10
0.0
 20
0.0
 30
0.0
  3
*MODEL_SPACE
  1

  0
ENDBLK
  5
1A
330
18
100
AcDbEntity
  8
0
100
AcDbBlockEnd
  0
BLOCK
  5
9BB6
330
9BB4
100
AcDbEntity
 67
     1
  8
0
100
AcDbBlockBegin
  2
*Paper_Space
 70
     0
 10
0.0
 20
0.0
 30
0.0
  3
*Paper_Space
  1

  0
ENDBLK
  5
9BB7
330
9BB4
100
AcDbEntity
 67
     1
  8
0
100
AcDbBlockEnd
  0
BLOCK
  5
25
330
24
100
AcDbEntity
  8
0
100
AcDbBlockBegin
  2
_OPEN
 70
     0
 10
0.0
 20
0.0
 30
0.0
  3
_OPEN
  1

  0
LINE
  5
26
330
24
100
AcDbEntity
  8
0
  6
ByBlock
 62
     0
100
AcDbLine
 10
-1.0
 20
0.1666666666666666
 30
0.0
 11
0.0
 21
0.0
 31
0.0
  0
LINE
  5
27
330
24
100
AcDbEntity
  8
0
  6
ByBlock
 62
     0
100
AcDbLine
 10
0.0
 20
0.0
 30
0.0
 11
-1.0
 21
-0.1666666666666666
 31
0.0
  0
LINE
  5
28
330
24
100
AcDbEntity
  8
0
  6
ByBlock
 62
     0
100
AcDbLine
 10
0.0
 20
0.0
 30
0.0
 11
-1.0
 21
0.0
 31
0.0
  0
ENDBLK
  5
29
330
24
100
AcDbEntity
  8
0
100
AcDbBlockEnd
  0
BLOCK
  5
8A2
330
89E
100
AcDbEntity
  8
0
100
AcDbBlockBegin
  2
_Open30
 70
     0
 10
0.0
 20
0.0
 30
0.0
  3
_Open30
  1

  0
LINE
  5
89F
330
89E
100
AcDbEntity
  8
0
  6
ByBlock
 62
     0
370
    -2
100
AcDbLine
 10
-1.0
 20
0.26794919
 30
0.0
 11
0.0
 21
0.0
 31
0.0
  0
LINE
  5
8A0
330
89E
100
AcDbEntity
  8
0
  6
ByBlock
 62
     0
370
    -2
100
AcDbLine
 10
0.0
 20
0.0
 30
0.0
 11
-1.0
 21
-0.26794919
 31
0.0
  0
LINE
  5
8A1
330
89E
100
AcDbEntity
  8
0
  6
ByBlock
 62
     0
370
    -2
100
AcDbLine
 10
0.0
 20
0.0
 30
0.0
 11
-1.0
 21
0.0
 31
0.0
  0
ENDBLK
  5
8A3
330
89E
100
AcDbEntity
  8
0
100
AcDbBlockEnd
  0
BLOCK
  5
7062
330
7058
100
AcDbEntity
  8
0
100
AcDbBlockBegin
  2
A$C444F17A9
 70
     0
 10
0.0
 20
0.0
 30
0.0
  3
A$C444F17A9
  1

  0
LWPOLYLINE
  5
7059
330
7058
100
AcDbEntity
  8
0
100
AcDbPolyline
 90
        4
 70
     1
 43
0.2
 10
0.1000006076973037
 20
13.1000004860266
 10
7.625000607697302
 20
13.1000004860266
 10
7.625000607697302
 20
0.1000004860266017
 10
0.1000006076973037
 20
0.1000004860266017
  0
ELLIPSE
  5
705A
330
7058
100
AcDbEntity
  8
0
100
AcDbEllipse
 10
6.125000607697302
 20
3.07500048602651
 30
0.0
 11
0.5
 21
0.0
 31
0.0
210
0.0
220
0.0
230
1.0
 40
0.95
 41
0.0
 42
6.283184999999999
  0
LWPOLYLINE
  5
705B
330
7058
100
AcDbEntity
  8
0
100
AcDbPolyline
 90
        6
 70
     1
 43
0.2
 10
2.175000607697299
 20
3.525000486026556
 10
1.725000607697296
 20
3.100000486026601
 10
2.175000607697299
 20
2.70000048602651
 10
4.275000607697307
 20
2.70000048602651
 10
4.700000607697305
 20
3.100000486026601
 10
4.275000607697307
 20
3.525000486026556
  0
LWPOLYLINE
  5
705C
330
7058
100
AcDbEntity
  8
0
100
AcDbPolyline
 90
        6
 70
     1
 43
0.2
 10
3.250000607697302
 20
10.80000048602664
 10
2.825000607697305
 20
10.42500048602664
 10
3.250000607697302
 20
10.00000048602669
 10
5.375000607697302
 20
10.00000048602669
 10
5.775000607697307
 20
10.42500048602664
 10
5.375000607697302
 20
10.80000048602664
  0
LWPOLYLINE
  5
705D
330
7058
100
AcDbEntity
  8
0
100
AcDbPolyline
 90
        6
 70
     1
 43
0.2
 10
5.525000607697307
 20
6.70000048602651
 10
5.125000607697302
 20
6.275000486026556
 10
4.700000607697305
 20
3.500000486026692
 10
5.125000607697302
 20
3.100000486026601
 10
5.525000607697307
 20
3.500000486026692
 10
5.975000607697296
 20
6.275000486026556
  0
LWPOLYLINE
  5
705E
330
7058
100
AcDbEntity
  8
0
100
AcDbPolyline
 90
        6
 70
     1
 43
0.2
 10
6.100000607697296
 20
10.42500048602664
 10
5.675000607697299
 20
10.02500048602655
 10
5.275000607697307
 20
7.225000486026601
 10
5.675000607697299
 20
6.82500048602651
 10
6.100000607697296
 20
7.225000486026601
 10
6.525000607697307
 20
10.02500048602655
  0
LWPOLYLINE
  5
705F
330
7058
100
AcDbEntity
  8
0
100
AcDbPolyline
 90
        6
 70
     1
 43
0.2
 10
1.875000607697302
 20
6.70000048602651
 10
1.450000607697305
 20
6.275000486026556
 10
1.050000607697299
 20
3.500000486026692
 10
1.450000607697305
 20
3.100000486026601
 10
1.875000607697302
 20
3.500000486026692
 10
2.300000607697299
 20
6.275000486026556
  0
LWPOLYLINE
  5
7060
330
7058
100
AcDbEntity
  8
0
100
AcDbPolyline
 90
        6
 70
     1
 43
0.2
 10
2.725000607697296
 20
7.225000486026601
 10
2.275000607697307
 20
6.82500048602651
 10
2.725000607697296
 20
6.425000486026647
 10
4.825000607697305
 20
6.425000486026647
 10
5.225000607697296
 20
6.82500048602651
 10
4.825000607697305
 20
7.225000486026601
  0
LWPOLYLINE
  5
7061
330
7058
100
AcDbEntity
  8
0
100
AcDbPolyline
 90
        6
 70
     1
 43
0.2
 10
2.425000607697299
 20
10.42500048602664
 10
2.025000607697307
 20
10.02500048602655
 10
1.600000607697296
 20
7.225000486026601
 10
2.025000607697307
 20
6.82500048602651
 10
2.425000607697299
 20
7.225000486026601
 10
2.875000607697302
 20
10.02500048602655
  0
ENDBLK
  5
7063
330
7058
100
AcDbEntity
  8
0
100
AcDbBlockEnd
  0
BLOCK
  5
708F
330
7064
100
AcDbEntity
  8
0
100
AcDbBlockBegin
  2
A$C6C1277F2
 70
     0
 10
0.0
 20
0.0
 30
0.0
  3
A$C6C1277F2
  1

  0
ELLIPSE
  5
7065
330
7064
100
AcDbEntity
  8
0
100
AcDbEllipse
 10
4.724999973973268
 20
26.39999951743493
 30
0.0
 11
0.0
 21
0.775
 31
0.0
210
0.0
220
0.0
230
1.0
 40
0.9677419999999999
 41
0.0
 42
6.283184999999999
  0
LWPOLYLINE
  5
7066
330
7064
100
AcDbEntity
  8
0
100
AcDbPolyline
 90
        4
 70
     1
 43
0.2
 10
0.0999999739732616
 20
28.77499951743493
 10
0.0999999739732616
 20
0.0999995174349806
 10
9.324999973973262
 20
0.0999995174349806
 10
9.324999973973262
 20
28.77499951743493
  0
ELLIPSE
  5
7067
330
7064
100
AcDbEntity
  8
0
100
AcDbEllipse
 10
4.724999973973268
 20
3.399999517434935
 30
0.0
 11
0.0
 21
0.775
 31
0.0
210
0.0
220
0.0
230
1.0
 40
0.9677419999999999
 41
0.0
 42
6.283184999999999
  0
LINE
  5
7068
330
7064
100
AcDbEntity
  8
0
100
AcDbLine
 10
0.8999999739732658
 20
4.299999517435026
 30
0.0
 11
0.8999999739732658
 21
6.374999517434844
 31
0.0
  0
LINE
  5
7069
330
7064
100
AcDbEntity
  8
0
100
AcDbLine
 10
8.524999973973265
 20
4.299999517435026
 30
0.0
 11
8.524999973973265
 21
6.374999517434844
 31
0.0
  0
LINE
  5
706A
330
7064
100
AcDbEntity
  8
0
100
AcDbLine
 10
6.599999973973268
 20
4.274999517434935
 30
0.0
 11
6.599999973973268
 21
5.249999517434844
 31
0.0
  0
LINE
  5
706B
330
7064
100
AcDbEntity
  8
0
100
AcDbLine
 10
6.599999973973268
 20
5.274999517434935
 30
0.0
 11
3.024999973973265
 21
5.274999517434935
 31
0.0
  0
LINE
  5
706C
330
7064
100
AcDbEntity
  8
0
100
AcDbLine
 10
3.024999973973265
 20
4.299999517435026
 30
0.0
 11
3.024999973973265
 21
5.274999517434935
 31
0.0
  0
LINE
  5
706D
330
7064
100
AcDbEntity
  8
0
100
AcDbLine
 10
3.024999973973265
 20
4.299999517435026
 30
0.0
 11
0.8999999739732658
 21
4.299999517435026
 31
0.0
  0
LINE
  5
706E
330
7064
100
AcDbEntity
  8
0
100
AcDbLine
 10
8.524999973973265
 20
4.299999517435026
 30
0.0
 11
6.599999973973268
 21
4.299999517435026
 31
0.0
  0
LINE
  5
706F
330
7064
100
AcDbEntity
  8
0
100
AcDbLine
 10
8.524999973973265
 20
6.374999517434844
 30
0.0
 11
0.8999999739732658
 21
6.374999517434844
 31
0.0
  0
LINE
  5
7070
330
7064
100
AcDbEntity
  8
0
100
AcDbLine
 10
0.8999999739732658
 20
25.17499951743502
 30
0.0
 11
0.8999999739732658
 21
23.09999951743498
 31
0.0
  0
LINE
  5
7071
330
7064
100
AcDbEntity
  8
0
100
AcDbLine
 10
8.524999973973265
 20
25.17499951743502
 30
0.0
 11
8.524999973973265
 21
23.09999951743498
 31
0.0
  0
LINE
  5
7072
330
7064
100
AcDbEntity
  8
0
100
AcDbLine
 10
6.599999973973268
 20
25.19999951743489
 30
0.0
 11
6.599999973973268
 21
24.22499951743498
 31
0.0
  0
LINE
  5
7073
330
7064
100
AcDbEntity
  8
0
100
AcDbLine
 10
6.599999973973268
 20
24.19999951743489
 30
0.0
 11
3.024999973973265
 21
24.19999951743489
 31
0.0
  0
LINE
  5
7074
330
7064
100
AcDbEntity
  8
0
100
AcDbLine
 10
3.024999973973265
 20
25.17499951743502
 30
0.0
 11
3.024999973973265
 21
24.19999951743489
 31
0.0
  0
LINE
  5
7075
330
7064
100
AcDbEntity
  8
0
100
AcDbLine
 10
3.024999973973265
 20
25.17499951743502
 30
0.0
 11
0.8999999739732658
 21
25.17499951743502
 31
0.0
  0
LINE
  5
7076
330
7064
100
AcDbEntity
  8
0
100
AcDbLine
 10
8.524999973973265
 20
25.17499951743502
 30
0.0
 11
6.599999973973268
 21
25.17499951743502
 31
0.0
  0
LWPOLYLINE
  5
7077
330
7064
100
AcDbEntity
  8
0
100
AcDbPolyline
 90
        4
 70
     1
 43
0.0
 10
3.474999973973268
 20
11.29999951743502
 10
3.12499997397326
 20
11.29999951743502
 10
3.12499997397326
 20
10.32499951743488
 10
3.474999973973268
 20
10.32499951743488
  0
LWPOLYLINE
  5
7078
330
7064
100
AcDbEntity
  8
0
100
AcDbPolyline
 90
        4
 70
     1
 43
0.0
 10
3.474999973973268
 20
12.47499951743498
 10
3.12499997397326
 20
12.47499951743498
 10
3.12499997397326
 20
11.49999951743484
 10
3.474999973973268
 20
11.49999951743484
  0
LWPOLYLINE
  5
7079
330
7064
100
AcDbEntity
  8
0
100
AcDbPolyline
 90
        4
 70
     1
 43
0.0
 10
3.474999973973268
 20
13.74999951743484
 10
3.12499997397326
 20
13.74999951743484
 10
3.12499997397326
 20
12.77499951743493
 10
3.474999973973268
 20
12.77499951743493
  0
LWPOLYLINE
  5
707A
330
7064
100
AcDbEntity
  8
0
100
AcDbPolyline
 90
        4
 70
     1
 43
0.0
 10
3.474999973973268
 20
15.07499951743489
 10
3.12499997397326
 20
15.07499951743489
 10
3.12499997397326
 20
14.12499951743484
 10
3.474999973973268
 20
14.12499951743484
  0
LWPOLYLINE
  5
707B
330
7064
100
AcDbEntity
  8
0
100
AcDbPolyline
 90
        4
 70
     1
 43
0.0
 10
3.474999973973268
 20
16.34999951743498
 10
3.12499997397326
 20
16.34999951743498
 10
3.12499997397326
 20
15.37499951743484
 10
3.474999973973268
 20
15.37499951743484
  0
LWPOLYLINE
  5
707C
330
7064
100
AcDbEntity
  8
0
100
AcDbPolyline
 90
        4
 70
     1
 43
0.0
 10
3.474999973973268
 20
17.57499951743489
 10
3.12499997397326
 20
17.57499951743489
 10
3.12499997397326
 20
16.59999951743498
 10
3.474999973973268
 20
16.59999951743498
  0
LWPOLYLINE
  5
707D
330
7064
100
AcDbEntity
  8
0
100
AcDbPolyline
 90
        4
 70
     1
 43
0.0
 10
3.474999973973268
 20
18.84999951743498
 10
3.12499997397326
 20
18.84999951743498
 10
3.12499997397326
 20
17.84999951743498
 10
3.474999973973268
 20
17.84999951743498
  0
LWPOLYLINE
  5
707E
330
7064
100
AcDbEntity
  8
0
100
AcDbPolyline
 90
        4
 70
     1
 43
0.0
 10
6.24999997397326
 20
11.29999951743502
 10
5.899999973973265
 20
11.29999951743502
 10
5.899999973973265
 20
10.32499951743488
 10
6.24999997397326
 20
10.32499951743488
  0
LWPOLYLINE
  5
707F
330
7064
100
AcDbEntity
  8
0
100
AcDbPolyline
 90
        4
 70
     1
 43
0.0
 10
6.24999997397326
 20
12.47499951743498
 10
5.899999973973265
 20
12.47499951743498
 10
5.899999973973265
 20
11.49999951743484
 10
6.24999997397326
 20
11.49999951743484
  0
LWPOLYLINE
  5
7080
330
7064
100
AcDbEntity
  8
0
100
AcDbPolyline
 90
        4
 70
     1
 43
0.0
 10
6.24999997397326
 20
13.74999951743484
 10
5.899999973973265
 20
13.74999951743484
 10
5.899999973973265
 20
12.77499951743493
 10
6.24999997397326
 20
12.77499951743493
  0
LWPOLYLINE
  5
7081
330
7064
100
AcDbEntity
  8
0
100
AcDbPolyline
 90
        4
 70
     1
 43
0.0
 10
6.24999997397326
 20
15.07499951743489
 10
5.899999973973265
 20
15.07499951743489
 10
5.899999973973265
 20
14.12499951743484
 10
6.24999997397326
 20
14.12499951743484
  0
LWPOLYLINE
  5
7082
330
7064
100
AcDbEntity
  8
0
100
AcDbPolyline
 90
        4
 70
     1
 43
0.0
 10
6.24999997397326
 20
16.34999951743498
 10
5.899999973973265
 20
16.34999951743498
 10
5.899999973973265
 20
15.37499951743484
 10
6.24999997397326
 20
15.37499951743484
  0
LWPOLYLINE
  5
7083
330
7064
100
AcDbEntity
  8
0
100
AcDbPolyline
 90
        4
 70
     1
 43
0.0
 10
6.24999997397326
 20
17.57499951743489
 10
5.899999973973265
 20
17.57499951743489
 10
5.899999973973265
 20
16.59999951743498
 10
6.24999997397326
 20
16.59999951743498
  0
LWPOLYLINE
  5
7084
330
7064
100
AcDbEntity
  8
0
100
AcDbPolyline
 90
        4
 70
     1
 43
0.0
 10
6.24999997397326
 20
18.84999951743498
 10
5.899999973973265
 20
18.84999951743498
 10
5.899999973973265
 20
17.84999951743498
 10
6.24999997397326
 20
17.84999951743498
  0
LWPOLYLINE
  5
7085
330
7064
100
AcDbEntity
  8
0
100
AcDbPolyline
 90
        4
 70
     1
 43
0.0
 10
6.599999973973268
 20
19.69999951743488
 10
2.899999973973265
 20
19.69999951743488
 10
2.899999973973265
 20
9.47499951743498
 10
6.599999973973268
 20
9.47499951743498
  0
ELLIPSE
  5
7086
330
7064
100
AcDbEntity
  8
0
100
AcDbEllipse
 10
6.549999973973257
 20
10.02499951743493
 30
0.0
 11
0.0
 21
1.25
 31
0.0
210
0.0
220
0.0
230
1.0
 40
0.98
 41
3.380894
 42
4.528311
  0
ELLIPSE
  5
7087
330
7064
100
AcDbEntity
  8
0
100
AcDbEllipse
 10
6.549999973973257
 20
19.37499951743484
 30
0.0
 11
0.0
 21
1.25
 31
0.0
210
0.0
220
0.0
230
1.0
 40
0.98
 41
4.509903999999999
 42
6.059223999999999
  0
ELLIPSE
  5
7088
330
7064
100
AcDbEntity
  8
0
100
AcDbEllipse
 10
2.87499997397326
 20
9.049999517435026
 30
0.0
 11
0.0
 21
1.25
 31
0.0
210
0.0
220
0.0
230
1.0
 40
0.98
 41
1.708854999999999
 42
3.380894
  0
ELLIPSE
  5
7089
330
7064
100
AcDbEntity
  8
0
100
AcDbEllipse
 10
2.87499997397326
 20
20.29999951743502
 30
0.0
 11
0.0
 21
1.25
 31
0.0
210
0.0
220
0.0
230
1.0
 40
0.98
 41
6.03468
 42
8.053399307179585
  0
LINE
  5
708A
330
7064
100
AcDbEntity
  8
0
100
AcDbLine
 10
6.849999973973268
 20
20.54999951743502
 30
0.0
 11
3.149999973973265
 21
21.47499951743498
 31
0.0
  0
LINE
  5
708B
330
7064
100
AcDbEntity
  8
0
100
AcDbLine
 10
7.774999973973265
 20
10.02499951743493
 30
0.0
 11
7.774999973973265
 21
19.37499951743484
 31
0.0
  0
LINE
  5
708C
330
7064
100
AcDbEntity
  8
0
100
AcDbLine
 10
3.149999973973265
 20
7.799999517435026
 30
0.0
 11
6.849999973973268
 21
8.774999517434935
 31
0.0
  0
LINE
  5
708D
330
7064
100
AcDbEntity
  8
0
100
AcDbLine
 10
1.649999973973265
 20
20.29999951743502
 30
0.0
 11
1.649999973973265
 21
8.949999517434889
 31
0.0
  0
LINE
  5
708E
330
7064
100
AcDbEntity
  8
0
100
AcDbLine
 10
8.524999973973265
 20
23.09999951743498
 30
0.0
 11
0.8999999739732658
 21
23.09999951743498
 31
0.0
  0
ENDBLK
  5
7090
330
7064
100
AcDbEntity
  8
0
100
AcDbBlockEnd
  0
BLOCK
  5
70A7
330
7091
100
AcDbEntity
  8
0
100
AcDbBlockBegin
  2
A$C2F696F30
 70
     0
 10
0.0
 20
0.0
 30
0.0
  3
A$C2F696F30
  1

  0
LINE
  5
7092
330
7091
100
AcDbEntity
  8
0
100
AcDbLine
 10
1.400000765164122
 20
-0.0000001933823341
 30
0.0
 11
5.400000765164122
 21
-0.0000001933823341
 31
0.0
  0
LINE
  5
7093
330
7091
100
AcDbEntity
  8
0
100
AcDbLine
 10
1.400000765164122
 20
13.77499980661764
 30
0.0
 11
5.400000765164122
 21
13.77499980661764
 31
0.0
  0
LWPOLYLINE
  5
7094
330
7091
100
AcDbEntity
  8
0
100
AcDbPolyline
 90
        4
 70
     1
 43
0.2
 10
15.40000076516412
 20
13.34999980661768
 10
15.40000076516412
 20
0.3499998066176886
 10
0.4000007651641227
 20
0.3499998066176886
 10
0.4000007651641227
 20
13.34999980661768
  0
LWPOLYLINE
  5
7095
330
7091
100
AcDbEntity
  8
0
100
AcDbPolyline
 90
        4
 70
     1
 43
0.2
 10
1.400000765164122
 20
12.34999980661768
 10
3.400000765164122
 20
12.34999980661768
 10
3.400000765164122
 20
1.349999806617688
 10
1.400000765164122
 20
1.349999806617688
  0
LWPOLYLINE
  5
7096
330
7091
100
AcDbEntity
  8
0
100
AcDbPolyline
 90
        4
 70
     1
 43
0.2
 10
3.950000765164119
 20
3.349999806617688
 10
3.950000765164119
 20
2.349999806617688
 10
3.400000765164122
 20
2.349999806617688
 10
3.400000765164122
 20
3.349999806617688
  0
LWPOLYLINE
  5
7097
330
7091
100
AcDbEntity
  8
0
100
AcDbPolyline
 90
        4
 70
     1
 43
0.2
 10
3.950000765164119
 20
5.749999806617665
 10
3.950000765164119
 20
4.749999806617665
 10
3.400000765164122
 20
4.749999806617665
 10
3.400000765164122
 20
5.749999806617665
  0
LINE
  5
7098
330
7091
100
AcDbEntity
  8
0
100
AcDbLine
 10
0.0000007651641241
 20
1.349999806617688
 30
0.0
 11
0.0000007651641241
 21
5.349999806617688
 31
0.0
  0
LWPOLYLINE
  5
7099
330
7091
100
AcDbEntity
  8
0
100
AcDbPolyline
 90
        4
 70
     1
 43
0.2
 10
3.950000765164119
 20
8.949999806617711
 10
3.950000765164119
 20
7.949999806617711
 10
3.400000765164122
 20
7.949999806617711
 10
3.400000765164122
 20
8.949999806617711
  0
LWPOLYLINE
  5
709A
330
7091
100
AcDbEntity
  8
0
100
AcDbPolyline
 90
        4
 70
     1
 43
0.2
 10
3.950000765164119
 20
11.34999980661768
 10
3.950000765164119
 20
10.34999980661768
 10
3.400000765164122
 20
10.34999980661768
 10
3.400000765164122
 20
11.34999980661768
  0
LINE
  5
709B
330
7091
100
AcDbEntity
  8
0
100
AcDbLine
 10
0.0000007651641241
 20
12.34999980661768
 30
0.0
 11
0.0000007651641241
 21
8.349999806617688
 31
0.0
  0
LWPOLYLINE
  5
709C
330
7091
100
AcDbEntity
  8
0
100
AcDbPolyline
 90
        4
 70
     1
 43
0.2
 10
10.40000076516412
 20
12.34999980661768
 10
12.40000076516412
 20
12.34999980661768
 10
12.40000076516412
 20
1.349999806617688
 10
10.40000076516412
 20
1.349999806617688
  0
LINE
  5
709D
330
7091
100
AcDbEntity
  8
0
100
AcDbLine
 10
9.400000765164122
 20
13.34999980661768
 30
0.0
 11
9.400000765164122
 21
0.3499998066176886
 31
0.0
  0
LINE
  5
709E
330
7091
100
AcDbEntity
  8
0
100
AcDbLine
 10
6.400000765164122
 20
13.34999980661768
 30
0.0
 11
6.400000765164122
 21
0.3499998066176886
 31
0.0
  0
LWPOLYLINE
  5
709F
330
7091
100
AcDbEntity
  8
0
100
AcDbPolyline
 90
        4
 70
     1
 43
0.2
 10
12.95000076516412
 20
3.349999806617688
 10
12.95000076516412
 20
2.349999806617688
 10
12.40000076516412
 20
2.349999806617688
 10
12.40000076516412
 20
3.349999806617688
  0
LWPOLYLINE
  5
70A0
330
7091
100
AcDbEntity
  8
0
100
AcDbPolyline
 90
        4
 70
     1
 43
0.2
 10
12.95000076516412
 20
5.749999806617665
 10
12.95000076516412
 20
4.749999806617665
 10
12.40000076516412
 20
4.749999806617665
 10
12.40000076516412
 20
5.749999806617665
  0
LINE
  5
70A1
330
7091
100
AcDbEntity
  8
0
100
AcDbLine
 10
14.40000076516412
 20
-0.0000001933823341
 30
0.0
 11
10.40000076516412
 21
-0.0000001933823341
 31
0.0
  0
LINE
  5
70A2
330
7091
100
AcDbEntity
  8
0
100
AcDbLine
 10
15.80000076516412
 20
1.349999806617688
 30
0.0
 11
15.80000076516412
 21
5.349999806617688
 31
0.0
  0
LWPOLYLINE
  5
70A3
330
7091
100
AcDbEntity
  8
0
100
AcDbPolyline
 90
        4
 70
     1
 43
0.2
 10
12.95000076516412
 20
8.949999806617711
 10
12.95000076516412
 20
7.949999806617711
 10
12.40000076516412
 20
7.949999806617711
 10
12.40000076516412
 20
8.949999806617711
  0
LWPOLYLINE
  5
70A4
330
7091
100
AcDbEntity
  8
0
100
AcDbPolyline
 90
        4
 70
     1
 43
0.2
 10
12.95000076516412
 20
11.34999980661768
 10
12.95000076516412
 20
10.34999980661768
 10
12.40000076516412
 20
10.34999980661768
 10
12.40000076516412
 20
11.34999980661768
  0
LINE
  5
70A5
330
7091
100
AcDbEntity
  8
0
100
AcDbLine
 10
14.40000076516412
 20
13.77499980661764
 30
0.0
 11
10.40000076516412
 21
13.77499980661764
 31
0.0
  0
LINE
  5
70A6
330
7091
100
AcDbEntity
  8
0
100
AcDbLine
 10
15.80000076516412
 20
12.34999980661768
 30
0.0
 11
15.80000076516412
 21
8.349999806617688
 31
0.0
  0
ENDBLK
  5
70A8
330
7091
100
AcDbEntity
  8
0
100
AcDbBlockEnd
  0
BLOCK
  5
70DA
330
70A9
100
AcDbEntity
  8
0
100
AcDbBlockBegin
  2
A$C57095CDF
 70
     0
 10
0.0
 20
0.0
 30
0.0
  3
A$C57095CDF
  1

  0
LWPOLYLINE
  5
70AA
330
70A9
100
AcDbEntity
  8
0
100
AcDbPolyline
 90
        4
 70
     1
 43
0.0
 10
3.474999973973268
 20
16.69999991295117
 10
3.12499997397326
 20
16.69999991295117
 10
3.12499997397326
 20
15.72499991295103
 10
3.474999973973268
 20
15.72499991295103
  0
LWPOLYLINE
  5
70AB
330
70A9
100
AcDbEntity
  8
0
100
AcDbPolyline
 90
        4
 70
     1
 43
0.0
 10
6.24999997397326
 20
16.69999991295117
 10
5.899999973973265
 20
16.69999991295117
 10
5.899999973973265
 20
15.72499991295103
 10
6.24999997397326
 20
15.72499991295103
  0
LWPOLYLINE
  5
70AC
330
70A9
100
AcDbEntity
  8
0
100
AcDbPolyline
 90
        4
 70
     1
 43
0.0
 10
6.599999973973268
 20
24.09999991295103
 10
2.899999973973265
 20
24.09999991295103
 10
2.899999973973265
 20
9.94999991295117
 10
6.599999973973268
 20
9.94999991295117
  0
LINE
  5
70AD
330
70A9
100
AcDbEntity
  8
0
100
AcDbLine
 10
7.774999973973265
 20
9.899999912950988
 30
0.0
 11
7.774999973973265
 21
24.02499991295099
 31
0.0
  0
LINE
  5
70AE
330
70A9
100
AcDbEntity
  8
0
100
AcDbLine
 10
1.649999973973265
 20
24.94999991295117
 30
0.0
 11
1.649999973973265
 21
8.849999912951034
 31
0.0
  0
LWPOLYLINE
  5
70AF
330
70A9
100
AcDbEntity
  8
0
100
AcDbPolyline
 90
        4
 70
     1
 43
0.2
 10
0.0999999739732616
 20
33.42499991295108
 10
0.0999999739732616
 20
0.0999999129510343
 10
9.324999973973262
 20
0.0999999129510343
 10
9.324999973973262
 20
33.42499991295108
  0
LWPOLYLINE
  5
70B0
330
70A9
100
AcDbEntity
  8
0
100
AcDbPolyline
 90
        4
 70
     1
 43
0.0
 10
3.449999973973262
 20
11.87499991295112
 10
3.099999973973261
 20
11.87499991295112
 10
3.099999973973261
 20
10.89999991295098
 10
3.449999973973262
 20
10.89999991295098
  0
LWPOLYLINE
  5
70B1
330
70A9
100
AcDbEntity
  8
0
100
AcDbPolyline
 90
        4
 70
     1
 43
0.0
 10
6.224999973973268
 20
11.87499991295112
 10
5.87499997397326
 20
11.87499991295112
 10
5.87499997397326
 20
10.89999991295098
 10
6.224999973973268
 20
10.89999991295098
  0
LWPOLYLINE
  5
70B2
330
70A9
100
AcDbEntity
  8
0
100
AcDbPolyline
 90
        4
 70
     1
 43
0.0
 10
3.449999973973262
 20
13.07499991295117
 10
3.099999973973261
 20
13.07499991295117
 10
3.099999973973261
 20
12.09999991295103
 10
3.449999973973262
 20
12.09999991295103
  0
LWPOLYLINE
  5
70B3
330
70A9
100
AcDbEntity
  8
0
100
AcDbPolyline
 90
        4
 70
     1
 43
0.0
 10
6.224999973973268
 20
13.07499991295117
 10
5.87499997397326
 20
13.07499991295117
 10
5.87499997397326
 20
12.09999991295103
 10
6.224999973973268
 20
12.09999991295103
  0
LWPOLYLINE
  5
70B4
330
70A9
100
AcDbEntity
  8
0
100
AcDbPolyline
 90
        4
 70
     1
 43
0.0
 10
3.474999973973268
 20
14.27499991295098
 10
3.12499997397326
 20
14.27499991295098
 10
3.12499997397326
 20
13.29999991295108
 10
3.474999973973268
 20
13.29999991295108
  0
LWPOLYLINE
  5
70B5
330
70A9
100
AcDbEntity
  8
0
100
AcDbPolyline
 90
        4
 70
     1
 43
0.0
 10
6.24999997397326
 20
14.27499991295098
 10
5.899999973973265
 20
14.27499991295098
 10
5.899999973973265
 20
13.29999991295108
 10
6.24999997397326
 20
13.29999991295108
  0
LINE
  5
70B6
330
70A9
100
AcDbEntity
  8
0
100
AcDbLine
 10
0.8999999739732658
 20
4.274999912950988
 30
0.0
 11
0.8999999739732658
 21
6.349999912951034
 31
0.0
  0
LINE
  5
70B7
330
70A9
100
AcDbEntity
  8
0
100
AcDbLine
 10
8.524999973973265
 20
4.274999912950988
 30
0.0
 11
8.524999973973265
 21
6.349999912951034
 31
0.0
  0
LINE
  5
70B8
330
70A9
100
AcDbEntity
  8
0
100
AcDbLine
 10
6.599999973973268
 20
4.249999912951125
 30
0.0
 11
6.599999973973268
 21
5.224999912951034
 31
0.0
  0
LINE
  5
70B9
330
70A9
100
AcDbEntity
  8
0
100
AcDbLine
 10
6.599999973973268
 20
5.249999912951125
 30
0.0
 11
3.024999973973265
 21
5.249999912951125
 31
0.0
  0
LINE
  5
70BA
330
70A9
100
AcDbEntity
  8
0
100
AcDbLine
 10
3.024999973973265
 20
4.274999912950988
 30
0.0
 11
3.024999973973265
 21
5.249999912951125
 31
0.0
  0
LINE
  5
70BB
330
70A9
100
AcDbEntity
  8
0
100
AcDbLine
 10
3.024999973973265
 20
4.274999912950988
 30
0.0
 11
0.8999999739732658
 21
4.274999912950988
 31
0.0
  0
LINE
  5
70BC
330
70A9
100
AcDbEntity
  8
0
100
AcDbLine
 10
8.524999973973265
 20
4.274999912950988
 30
0.0
 11
6.599999973973268
 21
4.274999912950988
 31
0.0
  0
LINE
  5
70BD
330
70A9
100
AcDbEntity
  8
0
100
AcDbLine
 10
8.524999973973265
 20
6.349999912951034
 30
0.0
 11
0.8999999739732658
 21
6.349999912951034
 31
0.0
  0
LWPOLYLINE
  5
70BE
330
70A9
100
AcDbEntity
  8
0
100
AcDbPolyline
 90
        4
 70
     1
 43
0.0
 10
3.474999973973268
 20
15.52499991295098
 10
3.12499997397326
 20
15.52499991295098
 10
3.12499997397326
 20
14.54999991295108
 10
3.474999973973268
 20
14.54999991295108
  0
LWPOLYLINE
  5
70BF
330
70A9
100
AcDbEntity
  8
0
100
AcDbPolyline
 90
        4
 70
     1
 43
0.0
 10
6.24999997397326
 20
15.52499991295098
 10
5.899999973973265
 20
15.52499991295098
 10
5.899999973973265
 20
14.54999991295108
 10
6.24999997397326
 20
14.54999991295108
  0
ELLIPSE
  5
70C0
330
70A9
100
AcDbEntity
  8
0
100
AcDbEllipse
 10
6.549999973973257
 20
9.999999912951125
 30
0.0
 11
0.0
 21
1.25
 31
0.0
210
0.0
220
0.0
230
1.0
 40
0.98
 41
3.380894
 42
4.528311
  0
ELLIPSE
  5
70C1
330
70A9
100
AcDbEntity
  8
0
100
AcDbEllipse
 10
2.87499997397326
 20
9.024999912950988
 30
0.0
 11
0.0
 21
1.25
 31
0.0
210
0.0
220
0.0
230
1.0
 40
0.98
 41
1.708854999999999
 42
3.380894
  0
LINE
  5
70C2
330
70A9
100
AcDbEntity
  8
0
100
AcDbLine
 10
3.149999973973265
 20
7.774999912950988
 30
0.0
 11
6.849999973973268
 21
8.749999912951125
 31
0.0
  0
ELLIPSE
  5
70C3
330
70A9
100
AcDbEntity
  8
0
100
AcDbEllipse
 10
4.724999973973268
 20
3.374999912951125
 30
0.0
 11
0.0
 21
0.775
 31
0.0
210
0.0
220
0.0
230
1.0
 40
0.9677419999999999
 41
0.0
 42
6.283184999999999
  0
LINE
  5
70C4
330
70A9
100
AcDbEntity
  8
0
100
AcDbLine
 10
0.8999999739732658
 20
29.82499991295117
 30
0.0
 11
0.8999999739732658
 21
27.74999991295112
 31
0.0
  0
LINE
  5
70C5
330
70A9
100
AcDbEntity
  8
0
100
AcDbLine
 10
8.524999973973265
 20
29.82499991295117
 30
0.0
 11
8.524999973973265
 21
27.74999991295112
 31
0.0
  0
LINE
  5
70C6
330
70A9
100
AcDbEntity
  8
0
100
AcDbLine
 10
6.599999973973268
 20
29.84999991295103
 30
0.0
 11
6.599999973973268
 21
28.87499991295112
 31
0.0
  0
LINE
  5
70C7
330
70A9
100
AcDbEntity
  8
0
100
AcDbLine
 10
6.599999973973268
 20
28.84999991295103
 30
0.0
 11
3.024999973973265
 21
28.84999991295103
 31
0.0
  0
LINE
  5
70C8
330
70A9
100
AcDbEntity
  8
0
100
AcDbLine
 10
3.024999973973265
 20
29.82499991295117
 30
0.0
 11
3.024999973973265
 21
28.84999991295103
 31
0.0
  0
LINE
  5
70C9
330
70A9
100
AcDbEntity
  8
0
100
AcDbLine
 10
3.024999973973265
 20
29.82499991295117
 30
0.0
 11
0.8999999739732658
 21
29.82499991295117
 31
0.0
  0
LINE
  5
70CA
330
70A9
100
AcDbEntity
  8
0
100
AcDbLine
 10
8.524999973973265
 20
29.82499991295117
 30
0.0
 11
6.599999973973268
 21
29.82499991295117
 31
0.0
  0
LWPOLYLINE
  5
70CB
330
70A9
100
AcDbEntity
  8
0
100
AcDbPolyline
 90
        4
 70
     1
 43
0.0
 10
3.474999973973268
 20
17.97499991295103
 10
3.12499997397326
 20
17.97499991295103
 10
3.12499997397326
 20
16.99999991295112
 10
3.474999973973268
 20
16.99999991295112
  0
LWPOLYLINE
  5
70CC
330
70A9
100
AcDbEntity
  8
0
100
AcDbPolyline
 90
        4
 70
     1
 43
0.0
 10
3.474999973973268
 20
19.29999991295107
 10
3.12499997397326
 20
19.29999991295107
 10
3.12499997397326
 20
18.34999991295103
 10
3.474999973973268
 20
18.34999991295103
  0
LWPOLYLINE
  5
70CD
330
70A9
100
AcDbEntity
  8
0
100
AcDbPolyline
 90
        4
 70
     1
 43
0.0
 10
3.474999973973268
 20
20.57499991295117
 10
3.12499997397326
 20
20.57499991295117
 10
3.12499997397326
 20
19.59999991295103
 10
3.474999973973268
 20
19.59999991295103
  0
LWPOLYLINE
  5
70CE
330
70A9
100
AcDbEntity
  8
0
100
AcDbPolyline
 90
        4
 70
     1
 43
0.0
 10
3.474999973973268
 20
21.79999991295108
 10
3.12499997397326
 20
21.79999991295108
 10
3.12499997397326
 20
20.82499991295116
 10
3.474999973973268
 20
20.82499991295116
  0
LWPOLYLINE
  5
70CF
330
70A9
100
AcDbEntity
  8
0
100
AcDbPolyline
 90
        4
 70
     1
 43
0.0
 10
3.474999973973268
 20
23.07499991295117
 10
3.12499997397326
 20
23.07499991295117
 10
3.12499997397326
 20
22.07499991295116
 10
3.474999973973268
 20
22.07499991295116
  0
LWPOLYLINE
  5
70D0
330
70A9
100
AcDbEntity
  8
0
100
AcDbPolyline
 90
        4
 70
     1
 43
0.0
 10
6.24999997397326
 20
17.97499991295103
 10
5.899999973973265
 20
17.97499991295103
 10
5.899999973973265
 20
16.99999991295112
 10
6.24999997397326
 20
16.99999991295112
  0
LWPOLYLINE
  5
70D1
330
70A9
100
AcDbEntity
  8
0
100
AcDbPolyline
 90
        4
 70
     1
 43
0.0
 10
6.24999997397326
 20
19.29999991295107
 10
5.899999973973265
 20
19.29999991295107
 10
5.899999973973265
 20
18.34999991295103
 10
6.24999997397326
 20
18.34999991295103
  0
LWPOLYLINE
  5
70D2
330
70A9
100
AcDbEntity
  8
0
100
AcDbPolyline
 90
        4
 70
     1
 43
0.0
 10
6.24999997397326
 20
20.57499991295117
 10
5.899999973973265
 20
20.57499991295117
 10
5.899999973973265
 20
19.59999991295103
 10
6.24999997397326
 20
19.59999991295103
  0
LWPOLYLINE
  5
70D3
330
70A9
100
AcDbEntity
  8
0
100
AcDbPolyline
 90
        4
 70
     1
 43
0.0
 10
6.24999997397326
 20
21.79999991295108
 10
5.899999973973265
 20
21.79999991295108
 10
5.899999973973265
 20
20.82499991295116
 10
6.24999997397326
 20
20.82499991295116
  0
LWPOLYLINE
  5
70D4
330
70A9
100
AcDbEntity
  8
0
100
AcDbPolyline
 90
        4
 70
     1
 43
0.0
 10
6.24999997397326
 20
23.07499991295117
 10
5.899999973973265
 20
23.07499991295117
 10
5.899999973973265
 20
22.07499991295116
 10
6.24999997397326
 20
22.07499991295116
  0
ELLIPSE
  5
70D5
330
70A9
100
AcDbEntity
  8
0
100
AcDbEllipse
 10
6.549999973973257
 20
24.02499991295099
 30
0.0
 11
0.0
 21
1.25
 31
0.0
210
0.0
220
0.0
230
1.0
 40
0.98
 41
4.509903999999999
 42
6.059223999999999
  0
ELLIPSE
  5
70D6
330
70A9
100
AcDbEntity
  8
0
100
AcDbEllipse
 10
2.87499997397326
 20
24.94999991295117
 30
0.0
 11
0.0
 21
1.25
 31
0.0
210
0.0
220
0.0
230
1.0
 40
0.98
 41
6.03468
 42
8.053399307179585
  0
LINE
  5
70D7
330
70A9
100
AcDbEntity
  8
0
100
AcDbLine
 10
6.849999973973268
 20
25.19999991295117
 30
0.0
 11
3.149999973973265
 21
26.12499991295112
 31
0.0
  0
ELLIPSE
  5
70D8
330
70A9
100
AcDbEntity
  8
0
100
AcDbEllipse
 10
4.724999973973268
 20
31.04999991295108
 30
0.0
 11
0.0
 21
0.775
 31
0.0
210
0.0
220
0.0
230
1.0
 40
0.9677419999999999
 41
0.0
 42
6.283184999999999
  0
LINE
  5
70D9
330
70A9
100
AcDbEntity
  8
0
100
AcDbLine
 10
8.524999973973265
 20
27.74999991295112
 30
0.0
 11
0.8999999739732658
 21
27.74999991295112
 31
0.0
  0
ENDBLK
  5
70DB
330
70A9
100
AcDbEntity
  8
0
100
AcDbBlockEnd
  0
BLOCK
  5
711D
330
70DC
100
AcDbEntity
  8
0
100
AcDbBlockBegin
  2
A$C3A6E1F00
 70
     0
 10
0.0
 20
0.0
 30
0.0
  3
A$C3A6E1F00
  1

  0
LWPOLYLINE
  5
70DD
330
70DC
100
AcDbEntity
  8
0
100
AcDbPolyline
 90
        4
 70
     1
 43
0.0
 10
3.449999973973262
 20
15.9499995198721
 10
3.099999973973261
 20
15.9499995198721
 10
3.099999973973261
 20
14.9749995198722
 10
3.449999973973262
 20
14.9749995198722
  0
LWPOLYLINE
  5
70DE
330
70DC
100
AcDbEntity
  8
0
100
AcDbPolyline
 90
        4
 70
     1
 43
0.0
 10
6.224999973973268
 20
15.9499995198721
 10
5.87499997397326
 20
15.9499995198721
 10
5.87499997397326
 20
14.9749995198722
 10
6.224999973973268
 20
14.9749995198722
  0
LWPOLYLINE
  5
70DF
330
70DC
100
AcDbEntity
  8
0
100
AcDbPolyline
 90
        4
 70
     1
 43
0.0
 10
6.599999973973268
 20
34.0749995198721
 10
2.899999973973265
 20
34.0749995198721
 10
2.899999973973265
 20
10.27499951987215
 10
6.599999973973268
 20
10.27499951987215
  0
LINE
  5
70E0
330
70DC
100
AcDbEntity
  8
0
100
AcDbLine
 10
7.774999973973265
 20
9.824999519872108
 30
0.0
 11
7.774999973973265
 21
33.99999951987206
 31
0.0
  0
LINE
  5
70E1
330
70DC
100
AcDbEntity
  8
0
100
AcDbLine
 10
1.649999973973265
 20
34.92499951987224
 30
0.0
 11
1.649999973973265
 21
8.899999519872153
 31
0.0
  0
LWPOLYLINE
  5
70E2
330
70DC
100
AcDbEntity
  8
0
100
AcDbPolyline
 90
        4
 70
     1
 43
0.2
 10
0.0999999739732616
 20
43.39999951987215
 10
0.0999999739732616
 20
0.099999519872199
 10
9.324999973973262
 20
0.099999519872199
 10
9.324999973973262
 20
43.39999951987215
  0
LWPOLYLINE
  5
70E3
330
70DC
100
AcDbEntity
  8
0
100
AcDbPolyline
 90
        4
 70
     1
 43
0.0
 10
3.449999973973262
 20
12.29999951987224
 10
3.099999973973261
 20
12.29999951987224
 10
3.099999973973261
 20
11.3249995198721
 10
3.449999973973262
 20
11.3249995198721
  0
LWPOLYLINE
  5
70E4
330
70DC
100
AcDbEntity
  8
0
100
AcDbPolyline
 90
        4
 70
     1
 43
0.0
 10
6.224999973973268
 20
12.29999951987224
 10
5.87499997397326
 20
12.29999951987224
 10
5.87499997397326
 20
11.3249995198721
 10
6.224999973973268
 20
11.3249995198721
  0
LWPOLYLINE
  5
70E5
330
70DC
100
AcDbEntity
  8
0
100
AcDbPolyline
 90
        4
 70
     1
 43
0.0
 10
3.449999973973262
 20
13.52499951987215
 10
3.099999973973261
 20
13.52499951987215
 10
3.099999973973261
 20
12.54999951987224
 10
3.449999973973262
 20
12.54999951987224
  0
LWPOLYLINE
  5
70E6
330
70DC
100
AcDbEntity
  8
0
100
AcDbPolyline
 90
        4
 70
     1
 43
0.0
 10
6.224999973973268
 20
13.52499951987215
 10
5.87499997397326
 20
13.52499951987215
 10
5.87499997397326
 20
12.54999951987224
 10
6.224999973973268
 20
12.54999951987224
  0
LWPOLYLINE
  5
70E7
330
70DC
100
AcDbEntity
  8
0
100
AcDbPolyline
 90
        4
 70
     1
 43
0.0
 10
3.449999973973262
 20
14.74999951987206
 10
3.099999973973261
 20
14.74999951987206
 10
3.099999973973261
 20
13.77499951987215
 10
3.449999973973262
 20
13.77499951987215
  0
LWPOLYLINE
  5
70E8
330
70DC
100
AcDbEntity
  8
0
100
AcDbPolyline
 90
        4
 70
     1
 43
0.0
 10
6.224999973973268
 20
14.74999951987206
 10
5.87499997397326
 20
14.74999951987206
 10
5.87499997397326
 20
13.77499951987215
 10
6.224999973973268
 20
13.77499951987215
  0
LINE
  5
70E9
330
70DC
100
AcDbEntity
  8
0
100
AcDbLine
 10
0.8999999739732658
 20
4.374999519872176
 30
0.0
 11
0.8999999739732658
 21
6.449999519872108
 31
0.0
  0
LINE
  5
70EA
330
70DC
100
AcDbEntity
  8
0
100
AcDbLine
 10
8.524999973973265
 20
4.374999519872176
 30
0.0
 11
8.524999973973265
 21
6.449999519872108
 31
0.0
  0
LINE
  5
70EB
330
70DC
100
AcDbEntity
  8
0
100
AcDbLine
 10
6.599999973973268
 20
4.349999519872199
 30
0.0
 11
6.599999973973268
 21
5.324999519872108
 31
0.0
  0
LINE
  5
70EC
330
70DC
100
AcDbEntity
  8
0
100
AcDbLine
 10
6.599999973973268
 20
5.349999519872199
 30
0.0
 11
3.024999973973265
 21
5.349999519872199
 31
0.0
  0
LINE
  5
70ED
330
70DC
100
AcDbEntity
  8
0
100
AcDbLine
 10
3.024999973973265
 20
4.374999519872176
 30
0.0
 11
3.024999973973265
 21
5.349999519872199
 31
0.0
  0
LINE
  5
70EE
330
70DC
100
AcDbEntity
  8
0
100
AcDbLine
 10
3.024999973973265
 20
4.374999519872176
 30
0.0
 11
0.8999999739732658
 21
4.374999519872176
 31
0.0
  0
LINE
  5
70EF
330
70DC
100
AcDbEntity
  8
0
100
AcDbLine
 10
8.524999973973265
 20
4.374999519872176
 30
0.0
 11
6.599999973973268
 21
4.374999519872176
 31
0.0
  0
LINE
  5
70F0
330
70DC
100
AcDbEntity
  8
0
100
AcDbLine
 10
8.524999973973265
 20
6.449999519872108
 30
0.0
 11
0.8999999739732658
 21
6.449999519872108
 31
0.0
  0
ELLIPSE
  5
70F1
330
70DC
100
AcDbEntity
  8
0
100
AcDbEllipse
 10
6.549999973973257
 20
10.04999951987224
 30
0.0
 11
0.0
 21
1.25
 31
0.0
210
0.0
220
0.0
230
1.0
 40
0.98
 41
3.380894
 42
4.528311
  0
ELLIPSE
  5
70F2
330
70DC
100
AcDbEntity
  8
0
100
AcDbEllipse
 10
2.87499997397326
 20
9.074999519872108
 30
0.0
 11
0.0
 21
1.25
 31
0.0
210
0.0
220
0.0
230
1.0
 40
0.98
 41
1.708854999999999
 42
3.380894
  0
LINE
  5
70F3
330
70DC
100
AcDbEntity
  8
0
100
AcDbLine
 10
3.149999973973265
 20
7.824999519872108
 30
0.0
 11
6.849999973973268
 21
8.799999519872244
 31
0.0
  0
ELLIPSE
  5
70F4
330
70DC
100
AcDbEntity
  8
0
100
AcDbEllipse
 10
4.724999973973268
 20
3.474999519872199
 30
0.0
 11
0.0
 21
0.775
 31
0.0
210
0.0
220
0.0
230
1.0
 40
0.9677419999999999
 41
0.0
 42
6.283184999999999
  0
LINE
  5
70F5
330
70DC
100
AcDbEntity
  8
0
100
AcDbLine
 10
0.8999999739732658
 20
39.79999951987224
 30
0.0
 11
0.8999999739732658
 21
37.72499951987219
 31
0.0
  0
LINE
  5
70F6
330
70DC
100
AcDbEntity
  8
0
100
AcDbLine
 10
8.524999973973265
 20
39.79999951987224
 30
0.0
 11
8.524999973973265
 21
37.72499951987219
 31
0.0
  0
LWPOLYLINE
  5
70F7
330
70DC
100
AcDbEntity
  8
0
100
AcDbPolyline
 90
        4
 70
     1
 43
0.0
 10
3.449999973973262
 20
17.12499951987206
 10
3.099999973973261
 20
17.12499951987206
 10
3.099999973973261
 20
16.14999951987215
 10
3.449999973973262
 20
16.14999951987215
  0
LWPOLYLINE
  5
70F8
330
70DC
100
AcDbEntity
  8
0
100
AcDbPolyline
 90
        4
 70
     1
 43
0.0
 10
6.224999973973268
 20
17.12499951987206
 10
5.87499997397326
 20
17.12499951987206
 10
5.87499997397326
 20
16.14999951987215
 10
6.224999973973268
 20
16.14999951987215
  0
LWPOLYLINE
  5
70F9
330
70DC
100
AcDbEntity
  8
0
100
AcDbPolyline
 90
        4
 70
     1
 43
0.0
 10
3.449999973973262
 20
18.29999951987224
 10
3.099999973973261
 20
18.29999951987224
 10
3.099999973973261
 20
17.3249995198721
 10
3.449999973973262
 20
17.3249995198721
  0
LWPOLYLINE
  5
70FA
330
70DC
100
AcDbEntity
  8
0
100
AcDbPolyline
 90
        4
 70
     1
 43
0.0
 10
6.224999973973268
 20
18.29999951987224
 10
5.87499997397326
 20
18.29999951987224
 10
5.87499997397326
 20
17.3249995198721
 10
6.224999973973268
 20
17.3249995198721
  0
LWPOLYLINE
  5
70FB
330
70DC
100
AcDbEntity
  8
0
100
AcDbPolyline
 90
        4
 70
     1
 43
0.0
 10
3.449999973973262
 20
19.4749995198722
 10
3.099999973973261
 20
19.4749995198722
 10
3.099999973973261
 20
18.49999951987206
 10
3.449999973973262
 20
18.49999951987206
  0
LWPOLYLINE
  5
70FC
330
70DC
100
AcDbEntity
  8
0
100
AcDbPolyline
 90
        4
 70
     1
 43
0.0
 10
6.224999973973268
 20
19.4749995198722
 10
5.87499997397326
 20
19.4749995198722
 10
5.87499997397326
 20
18.49999951987206
 10
6.224999973973268
 20
18.49999951987206
  0
LWPOLYLINE
  5
70FD
330
70DC
100
AcDbEntity
  8
0
100
AcDbPolyline
 90
        4
 70
     1
 43
0.0
 10
3.449999973973262
 20
20.67499951987224
 10
3.099999973973261
 20
20.67499951987224
 10
3.099999973973261
 20
19.6999995198721
 10
3.449999973973262
 20
19.6999995198721
  0
LWPOLYLINE
  5
70FE
330
70DC
100
AcDbEntity
  8
0
100
AcDbPolyline
 90
        4
 70
     1
 43
0.0
 10
6.224999973973268
 20
20.67499951987224
 10
5.87499997397326
 20
20.67499951987224
 10
5.87499997397326
 20
19.6999995198721
 10
6.224999973973268
 20
19.6999995198721
  0
LWPOLYLINE
  5
70FF
330
70DC
100
AcDbEntity
  8
0
100
AcDbPolyline
 90
        4
 70
     1
 43
0.0
 10
3.449999973973262
 20
21.8499995198722
 10
3.099999973973261
 20
21.8499995198722
 10
3.099999973973261
 20
20.87499951987206
 10
3.449999973973262
 20
20.87499951987206
  0
LWPOLYLINE
  5
7100
330
70DC
100
AcDbEntity
  8
0
100
AcDbPolyline
 90
        4
 70
     1
 43
0.0
 10
6.224999973973268
 20
21.8499995198722
 10
5.87499997397326
 20
21.8499995198722
 10
5.87499997397326
 20
20.87499951987206
 10
6.224999973973268
 20
20.87499951987206
  0
LWPOLYLINE
  5
7101
330
70DC
100
AcDbEntity
  8
0
100
AcDbPolyline
 90
        4
 70
     1
 43
0.0
 10
3.449999973973262
 20
23.04999951987224
 10
3.099999973973261
 20
23.04999951987224
 10
3.099999973973261
 20
22.0749995198721
 10
3.449999973973262
 20
22.0749995198721
  0
LWPOLYLINE
  5
7102
330
70DC
100
AcDbEntity
  8
0
100
AcDbPolyline
 90
        4
 70
     1
 43
0.0
 10
6.224999973973268
 20
23.04999951987224
 10
5.87499997397326
 20
23.04999951987224
 10
5.87499997397326
 20
22.0749995198721
 10
6.224999973973268
 20
22.0749995198721
  0
LWPOLYLINE
  5
7103
330
70DC
100
AcDbEntity
  8
0
100
AcDbPolyline
 90
        4
 70
     1
 43
0.0
 10
3.474999973973268
 20
24.24999951987206
 10
3.12499997397326
 20
24.24999951987206
 10
3.12499997397326
 20
23.27499951987215
 10
3.474999973973268
 20
23.27499951987215
  0
LWPOLYLINE
  5
7104
330
70DC
100
AcDbEntity
  8
0
100
AcDbPolyline
 90
        4
 70
     1
 43
0.0
 10
6.24999997397326
 20
24.24999951987206
 10
5.899999973973265
 20
24.24999951987206
 10
5.899999973973265
 20
23.27499951987215
 10
6.24999997397326
 20
23.27499951987215
  0
LWPOLYLINE
  5
7105
330
70DC
100
AcDbEntity
  8
0
100
AcDbPolyline
 90
        4
 70
     1
 43
0.0
 10
3.474999973973268
 20
25.49999951987206
 10
3.12499997397326
 20
25.49999951987206
 10
3.12499997397326
 20
24.52499951987215
 10
3.474999973973268
 20
24.52499951987215
  0
LWPOLYLINE
  5
7106
330
70DC
100
AcDbEntity
  8
0
100
AcDbPolyline
 90
        4
 70
     1
 43
0.0
 10
3.474999973973268
 20
26.67499951987224
 10
3.12499997397326
 20
26.67499951987224
 10
3.12499997397326
 20
25.6999995198721
 10
3.474999973973268
 20
25.6999995198721
  0
LWPOLYLINE
  5
7107
330
70DC
100
AcDbEntity
  8
0
100
AcDbPolyline
 90
        4
 70
     1
 43
0.0
 10
3.474999973973268
 20
27.94999951987211
 10
3.12499997397326
 20
27.94999951987211
 10
3.12499997397326
 20
26.9749995198722
 10
3.474999973973268
 20
26.9749995198722
  0
LWPOLYLINE
  5
7108
330
70DC
100
AcDbEntity
  8
0
100
AcDbPolyline
 90
        4
 70
     1
 43
0.0
 10
3.474999973973268
 20
29.27499951987215
 10
3.12499997397326
 20
29.27499951987215
 10
3.12499997397326
 20
28.32499951987211
 10
3.474999973973268
 20
28.32499951987211
  0
LWPOLYLINE
  5
7109
330
70DC
100
AcDbEntity
  8
0
100
AcDbPolyline
 90
        4
 70
     1
 43
0.0
 10
3.474999973973268
 20
30.54999951987224
 10
3.12499997397326
 20
30.54999951987224
 10
3.12499997397326
 20
29.57499951987211
 10
3.474999973973268
 20
29.57499951987211
  0
LWPOLYLINE
  5
710A
330
70DC
100
AcDbEntity
  8
0
100
AcDbPolyline
 90
        4
 70
     1
 43
0.0
 10
3.474999973973268
 20
31.77499951987215
 10
3.12499997397326
 20
31.77499951987215
 10
3.12499997397326
 20
30.79999951987224
 10
3.474999973973268
 20
30.79999951987224
  0
LWPOLYLINE
  5
710B
330
70DC
100
AcDbEntity
  8
0
100
AcDbPolyline
 90
        4
 70
     1
 43
0.0
 10
3.474999973973268
 20
33.04999951987224
 10
3.12499997397326
 20
33.04999951987224
 10
3.12499997397326
 20
32.04999951987224
 10
3.474999973973268
 20
32.04999951987224
  0
LWPOLYLINE
  5
710C
330
70DC
100
AcDbEntity
  8
0
100
AcDbPolyline
 90
        4
 70
     1
 43
0.0
 10
6.24999997397326
 20
25.49999951987206
 10
5.899999973973265
 20
25.49999951987206
 10
5.899999973973265
 20
24.52499951987215
 10
6.24999997397326
 20
24.52499951987215
  0
LWPOLYLINE
  5
710D
330
70DC
100
AcDbEntity
  8
0
100
AcDbPolyline
 90
        4
 70
     1
 43
0.0
 10
6.24999997397326
 20
26.67499951987224
 10
5.899999973973265
 20
26.67499951987224
 10
5.899999973973265
 20
25.6999995198721
 10
6.24999997397326
 20
25.6999995198721
  0
LWPOLYLINE
  5
710E
330
70DC
100
AcDbEntity
  8
0
100
AcDbPolyline
 90
        4
 70
     1
 43
0.0
 10
6.24999997397326
 20
27.94999951987211
 10
5.899999973973265
 20
27.94999951987211
 10
5.899999973973265
 20
26.9749995198722
 10
6.24999997397326
 20
26.9749995198722
  0
LWPOLYLINE
  5
710F
330
70DC
100
AcDbEntity
  8
0
100
AcDbPolyline
 90
        4
 70
     1
 43
0.0
 10
6.24999997397326
 20
29.27499951987215
 10
5.899999973973265
 20
29.27499951987215
 10
5.899999973973265
 20
28.32499951987211
 10
6.24999997397326
 20
28.32499951987211
  0
LWPOLYLINE
  5
7110
330
70DC
100
AcDbEntity
  8
0
100
AcDbPolyline
 90
        4
 70
     1
 43
0.0
 10
6.24999997397326
 20
30.54999951987224
 10
5.899999973973265
 20
30.54999951987224
 10
5.899999973973265
 20
29.57499951987211
 10
6.24999997397326
 20
29.57499951987211
  0
LWPOLYLINE
  5
7111
330
70DC
100
AcDbEntity
  8
0
100
AcDbPolyline
 90
        4
 70
     1
 43
0.0
 10
6.24999997397326
 20
31.77499951987215
 10
5.899999973973265
 20
31.77499951987215
 10
5.899999973973265
 20
30.79999951987224
 10
6.24999997397326
 20
30.79999951987224
  0
LWPOLYLINE
  5
7112
330
70DC
100
AcDbEntity
  8
0
100
AcDbPolyline
 90
        4
 70
     1
 43
0.0
 10
6.24999997397326
 20
33.04999951987224
 10
5.899999973973265
 20
33.04999951987224
 10
5.899999973973265
 20
32.04999951987224
 10
6.24999997397326
 20
32.04999951987224
  0
ELLIPSE
  5
7113
330
70DC
100
AcDbEntity
  8
0
100
AcDbEllipse
 10
6.549999973973257
 20
33.99999951987206
 30
0.0
 11
0.0
 21
1.25
 31
0.0
210
0.0
220
0.0
230
1.0
 40
0.98
 41
4.509903999999999
 42
6.059223999999999
  0
ELLIPSE
  5
7114
330
70DC
100
AcDbEntity
  8
0
100
AcDbEllipse
 10
2.87499997397326
 20
34.92499951987224
 30
0.0
 11
0.0
 21
1.25
 31
0.0
210
0.0
220
0.0
230
1.0
 40
0.98
 41
6.03468
 42
8.053399307179585
  0
LINE
  5
7115
330
70DC
100
AcDbEntity
  8
0
100
AcDbLine
 10
6.849999973973268
 20
35.17499951987224
 30
0.0
 11
3.149999973973265
 21
36.09999951987219
 31
0.0
  0
LINE
  5
7116
330
70DC
100
AcDbEntity
  8
0
100
AcDbLine
 10
8.524999973973265
 20
37.72499951987219
 30
0.0
 11
0.8999999739732658
 21
37.72499951987219
 31
0.0
  0
LINE
  5
7117
330
70DC
100
AcDbEntity
  8
0
100
AcDbLine
 10
6.599999973973268
 20
39.82499951987211
 30
0.0
 11
6.599999973973268
 21
38.8499995198722
 31
0.0
  0
LINE
  5
7118
330
70DC
100
AcDbEntity
  8
0
100
AcDbLine
 10
6.599999973973268
 20
38.8249995198721
 30
0.0
 11
3.024999973973265
 21
38.8249995198721
 31
0.0
  0
LINE
  5
7119
330
70DC
100
AcDbEntity
  8
0
100
AcDbLine
 10
3.024999973973265
 20
39.79999951987224
 30
0.0
 11
3.024999973973265
 21
38.8249995198721
 31
0.0
  0
LINE
  5
711A
330
70DC
100
AcDbEntity
  8
0
100
AcDbLine
 10
3.024999973973265
 20
39.79999951987224
 30
0.0
 11
0.8999999739732658
 21
39.79999951987224
 31
0.0
  0
LINE
  5
711B
330
70DC
100
AcDbEntity
  8
0
100
AcDbLine
 10
8.524999973973265
 20
39.79999951987224
 30
0.0
 11
6.599999973973268
 21
39.79999951987224
 31
0.0
  0
ELLIPSE
  5
711C
330
70DC
100
AcDbEntity
  8
0
100
AcDbEllipse
 10
4.724999973973268
 20
41.02499951987215
 30
0.0
 11
0.0
 21
0.775
 31
0.0
210
0.0
220
0.0
230
1.0
 40
0.9677419999999999
 41
0.0
 42
6.283184999999999
  0
ENDBLK
  5
711E
330
70DC
100
AcDbEntity
  8
0
100
AcDbBlockEnd
  0
BLOCK
  5
715E
330
711F
100
AcDbEntity
  8
0
100
AcDbBlockBegin
  2
A$C5A3A0BB0
 70
     0
 10
0.0
 20
0.0
 30
0.0
  3
A$C5A3A0BB0
  1

  0
LWPOLYLINE
  5
7120
330
711F
100
AcDbEntity
  8
0
100
AcDbPolyline
 90
        4
 70
     1
 43
0.2
 10
0.0999993794071088
 20
51.09999997583827
 10
15.0999993794071
 20
51.09999997583827
 10
15.0999993794071
 20
0.0999999758382728
 10
0.0999993794071088
 20
0.0999999758382728
  0
LINE
  5
7121
330
711F
100
AcDbEntity
  8
0
100
AcDbLine
 10
5.099999379407108
 20
4.099999975838272
 30
0.0
 11
7.099999379407108
 21
5.099999975838272
 31
0.0
  0
LINE
  5
7122
330
711F
100
AcDbEntity
  8
0
100
AcDbLine
 10
3.099999379407108
 20
4.099999975838272
 30
0.0
 11
2.099999379407108
 21
5.099999975838272
 31
0.0
  0
LWPOLYLINE
  5
7123
330
711F
100
AcDbEntity
  8
0
100
AcDbPolyline
 90
        4
 70
     1
 43
0.2
 10
2.099999379407108
 20
5.099999975838272
 10
7.099999379407108
 20
5.099999975838272
 10
7.099999379407108
 20
1.099999975838272
 10
2.099999379407108
 20
1.099999975838272
  0
LINE
  5
7124
330
711F
100
AcDbEntity
  8
0
100
AcDbLine
 10
10.0999993794071
 20
51.09999997583827
 30
0.0
 11
10.0999993794071
 21
0.0999999758382728
 31
0.0
  0
LINE
  5
7125
330
711F
100
AcDbEntity
  8
0
100
AcDbLine
 10
5.099999379407108
 20
2.099999975838272
 30
0.0
 11
7.099999379407108
 21
1.099999975838272
 31
0.0
  0
LINE
  5
7126
330
711F
100
AcDbEntity
  8
0
100
AcDbLine
 10
3.099999379407108
 20
2.099999975838272
 30
0.0
 11
2.099999379407108
 21
1.099999975838272
 31
0.0
  0
LWPOLYLINE
  5
7127
330
711F
100
AcDbEntity
  8
0
100
AcDbPolyline
 90
        4
 70
     1
 43
0.2
 10
3.099999379407108
 20
4.099999975838272
 10
5.099999379407108
 20
4.099999975838272
 10
5.099999379407108
 20
2.099999975838272
 10
3.099999379407108
 20
2.099999975838272
  0
LINE
  5
7128
330
711F
100
AcDbEntity
  8
0
100
AcDbLine
 10
5.099999379407108
 20
49.09999997583827
 30
0.0
 11
7.099999379407108
 21
50.09999997583827
 31
0.0
  0
LINE
  5
7129
330
711F
100
AcDbEntity
  8
0
100
AcDbLine
 10
3.099999379407108
 20
49.09999997583827
 30
0.0
 11
2.099999379407108
 21
50.09999997583827
 31
0.0
  0
LWPOLYLINE
  5
712A
330
711F
100
AcDbEntity
  8
0
100
AcDbPolyline
 90
        4
 70
     1
 43
0.2
 10
2.099999379407108
 20
50.09999997583827
 10
7.099999379407108
 20
50.09999997583827
 10
7.099999379407108
 20
46.09999997583827
 10
2.099999379407108
 20
46.09999997583827
  0
LINE
  5
712B
330
711F
100
AcDbEntity
  8
0
100
AcDbLine
 10
5.099999379407108
 20
27.09999997583827
 30
0.0
 11
7.099999379407108
 21
26.09999997583827
 31
0.0
  0
LINE
  5
712C
330
711F
100
AcDbEntity
  8
0
100
AcDbLine
 10
3.099999379407108
 20
27.09999997583827
 30
0.0
 11
2.099999379407108
 21
26.09999997583827
 31
0.0
  0
LWPOLYLINE
  5
712D
330
711F
100
AcDbEntity
  8
0
100
AcDbPolyline
 90
        4
 70
     1
 43
0.2
 10
2.099999379407108
 20
30.09999997583827
 10
7.099999379407108
 20
30.09999997583827
 10
7.099999379407108
 20
26.09999997583827
 10
2.099999379407108
 20
26.09999997583827
  0
LINE
  5
712E
330
711F
100
AcDbEntity
  8
0
100
AcDbLine
 10
5.099999379407108
 20
9.099999975838272
 30
0.0
 11
7.099999379407108
 21
10.09999997583827
 31
0.0
  0
LINE
  5
712F
330
711F
100
AcDbEntity
  8
0
100
AcDbLine
 10
5.099999379407108
 20
7.099999975838272
 30
0.0
 11
7.099999379407108
 21
6.099999975838272
 31
0.0
  0
LINE
  5
7130
330
711F
100
AcDbEntity
  8
0
100
AcDbLine
 10
3.099999379407108
 20
7.099999975838272
 30
0.0
 11
2.099999379407108
 21
6.099999975838272
 31
0.0
  0
LINE
  5
7131
330
711F
100
AcDbEntity
  8
0
100
AcDbLine
 10
3.099999379407108
 20
9.099999975838272
 30
0.0
 11
2.099999379407108
 21
10.09999997583827
 31
0.0
  0
LWPOLYLINE
  5
7132
330
711F
100
AcDbEntity
  8
0
100
AcDbPolyline
 90
        4
 70
     1
 43
0.2
 10
3.099999379407108
 20
9.099999975838272
 10
5.099999379407108
 20
9.099999975838272
 10
5.099999379407108
 20
7.099999975838272
 10
3.099999379407108
 20
7.099999975838272
  0
LWPOLYLINE
  5
7133
330
711F
100
AcDbEntity
  8
0
100
AcDbPolyline
 90
        4
 70
     1
 43
0.2
 10
2.099999379407108
 20
10.09999997583827
 10
7.099999379407108
 20
10.09999997583827
 10
7.099999379407108
 20
6.099999975838272
 10
2.099999379407108
 20
6.099999975838272
  0
LINE
  5
7134
330
711F
100
AcDbEntity
  8
0
100
AcDbLine
 10
5.099999379407108
 20
14.09999997583827
 30
0.0
 11
7.099999379407108
 21
15.09999997583827
 31
0.0
  0
LINE
  5
7135
330
711F
100
AcDbEntity
  8
0
100
AcDbLine
 10
5.099999379407108
 20
12.09999997583827
 30
0.0
 11
7.099999379407108
 21
11.09999997583827
 31
0.0
  0
LINE
  5
7136
330
711F
100
AcDbEntity
  8
0
100
AcDbLine
 10
3.099999379407108
 20
12.09999997583827
 30
0.0
 11
2.099999379407108
 21
11.09999997583827
 31
0.0
  0
LINE
  5
7137
330
711F
100
AcDbEntity
  8
0
100
AcDbLine
 10
3.099999379407108
 20
14.09999997583827
 30
0.0
 11
2.099999379407108
 21
15.09999997583827
 31
0.0
  0
LWPOLYLINE
  5
7138
330
711F
100
AcDbEntity
  8
0
100
AcDbPolyline
 90
        4
 70
     1
 43
0.2
 10
3.099999379407108
 20
14.09999997583827
 10
5.099999379407108
 20
14.09999997583827
 10
5.099999379407108
 20
12.09999997583827
 10
3.099999379407108
 20
12.09999997583827
  0
LWPOLYLINE
  5
7139
330
711F
100
AcDbEntity
  8
0
100
AcDbPolyline
 90
        4
 70
     1
 43
0.2
 10
2.099999379407108
 20
15.09999997583827
 10
7.099999379407108
 20
15.09999997583827
 10
7.099999379407108
 20
11.09999997583827
 10
2.099999379407108
 20
11.09999997583827
  0
LINE
  5
713A
330
711F
100
AcDbEntity
  8
0
100
AcDbLine
 10
5.099999379407108
 20
19.09999997583827
 30
0.0
 11
7.099999379407108
 21
20.09999997583827
 31
0.0
  0
LINE
  5
713B
330
711F
100
AcDbEntity
  8
0
100
AcDbLine
 10
5.099999379407108
 20
17.09999997583827
 30
0.0
 11
7.099999379407108
 21
16.09999997583827
 31
0.0
  0
LINE
  5
713C
330
711F
100
AcDbEntity
  8
0
100
AcDbLine
 10
3.099999379407108
 20
17.09999997583827
 30
0.0
 11
2.099999379407108
 21
16.09999997583827
 31
0.0
  0
LINE
  5
713D
330
711F
100
AcDbEntity
  8
0
100
AcDbLine
 10
3.099999379407108
 20
19.09999997583827
 30
0.0
 11
2.099999379407108
 21
20.09999997583827
 31
0.0
  0
LWPOLYLINE
  5
713E
330
711F
100
AcDbEntity
  8
0
100
AcDbPolyline
 90
        4
 70
     1
 43
0.2
 10
3.099999379407108
 20
19.09999997583827
 10
5.099999379407108
 20
19.09999997583827
 10
5.099999379407108
 20
17.09999997583827
 10
3.099999379407108
 20
17.09999997583827
  0
LWPOLYLINE
  5
713F
330
711F
100
AcDbEntity
  8
0
100
AcDbPolyline
 90
        4
 70
     1
 43
0.2
 10
2.099999379407108
 20
20.09999997583827
 10
7.099999379407108
 20
20.09999997583827
 10
7.099999379407108
 20
16.09999997583827
 10
2.099999379407108
 20
16.09999997583827
  0
LINE
  5
7140
330
711F
100
AcDbEntity
  8
0
100
AcDbLine
 10
5.099999379407108
 20
24.09999997583827
 30
0.0
 11
7.099999379407108
 21
25.09999997583827
 31
0.0
  0
LINE
  5
7141
330
711F
100
AcDbEntity
  8
0
100
AcDbLine
 10
5.099999379407108
 20
22.09999997583827
 30
0.0
 11
7.099999379407108
 21
21.09999997583827
 31
0.0
  0
LINE
  5
7142
330
711F
100
AcDbEntity
  8
0
100
AcDbLine
 10
3.099999379407108
 20
22.09999997583827
 30
0.0
 11
2.099999379407108
 21
21.09999997583827
 31
0.0
  0
LINE
  5
7143
330
711F
100
AcDbEntity
  8
0
100
AcDbLine
 10
3.099999379407108
 20
24.09999997583827
 30
0.0
 11
2.099999379407108
 21
25.09999997583827
 31
0.0
  0
LWPOLYLINE
  5
7144
330
711F
100
AcDbEntity
  8
0
100
AcDbPolyline
 90
        4
 70
     1
 43
0.2
 10
3.099999379407108
 20
24.09999997583827
 10
5.099999379407108
 20
24.09999997583827
 10
5.099999379407108
 20
22.09999997583827
 10
3.099999379407108
 20
22.09999997583827
  0
LWPOLYLINE
  5
7145
330
711F
100
AcDbEntity
  8
0
100
AcDbPolyline
 90
        4
 70
     1
 43
0.2
 10
2.099999379407108
 20
25.09999997583827
 10
7.099999379407108
 20
25.09999997583827
 10
7.099999379407108
 20
21.09999997583827
 10
2.099999379407108
 20
21.09999997583827
  0
LINE
  5
7146
330
711F
100
AcDbEntity
  8
0
100
AcDbLine
 10
5.099999379407108
 20
29.09999997583827
 30
0.0
 11
7.099999379407108
 21
30.09999997583827
 31
0.0
  0
LINE
  5
7147
330
711F
100
AcDbEntity
  8
0
100
AcDbLine
 10
3.099999379407108
 20
29.09999997583827
 30
0.0
 11
2.099999379407108
 21
30.09999997583827
 31
0.0
  0
LWPOLYLINE
  5
7148
330
711F
100
AcDbEntity
  8
0
100
AcDbPolyline
 90
        4
 70
     1
 43
0.2
 10
3.099999379407108
 20
29.09999997583827
 10
5.099999379407108
 20
29.09999997583827
 10
5.099999379407108
 20
27.09999997583827
 10
3.099999379407108
 20
27.09999997583827
  0
LINE
  5
7149
330
711F
100
AcDbEntity
  8
0
100
AcDbLine
 10
5.099999379407108
 20
34.09999997583827
 30
0.0
 11
7.099999379407108
 21
35.09999997583827
 31
0.0
  0
LINE
  5
714A
330
711F
100
AcDbEntity
  8
0
100
AcDbLine
 10
5.099999379407108
 20
32.09999997583827
 30
0.0
 11
7.099999379407108
 21
31.09999997583827
 31
0.0
  0
LINE
  5
714B
330
711F
100
AcDbEntity
  8
0
100
AcDbLine
 10
3.099999379407108
 20
32.09999997583827
 30
0.0
 11
2.099999379407108
 21
31.09999997583827
 31
0.0
  0
LINE
  5
714C
330
711F
100
AcDbEntity
  8
0
100
AcDbLine
 10
3.099999379407108
 20
34.09999997583827
 30
0.0
 11
2.099999379407108
 21
35.09999997583827
 31
0.0
  0
LWPOLYLINE
  5
714D
330
711F
100
AcDbEntity
  8
0
100
AcDbPolyline
 90
        4
 70
     1
 43
0.2
 10
3.099999379407108
 20
34.09999997583827
 10
5.099999379407108
 20
34.09999997583827
 10
5.099999379407108
 20
32.09999997583827
 10
3.099999379407108
 20
32.09999997583827
  0
LWPOLYLINE
  5
714E
330
711F
100
AcDbEntity
  8
0
100
AcDbPolyline
 90
        4
 70
     1
 43
0.2
 10
2.099999379407108
 20
35.09999997583827
 10
7.099999379407108
 20
35.09999997583827
 10
7.099999379407108
 20
31.09999997583827
 10
2.099999379407108
 20
31.09999997583827
  0
LINE
  5
714F
330
711F
100
AcDbEntity
  8
0
100
AcDbLine
 10
5.099999379407108
 20
39.09999997583827
 30
0.0
 11
7.099999379407108
 21
40.09999997583827
 31
0.0
  0
LINE
  5
7150
330
711F
100
AcDbEntity
  8
0
100
AcDbLine
 10
5.099999379407108
 20
37.09999997583827
 30
0.0
 11
7.099999379407108
 21
36.09999997583827
 31
0.0
  0
LINE
  5
7151
330
711F
100
AcDbEntity
  8
0
100
AcDbLine
 10
3.099999379407108
 20
37.09999997583827
 30
0.0
 11
2.099999379407108
 21
36.09999997583827
 31
0.0
  0
LINE
  5
7152
330
711F
100
AcDbEntity
  8
0
100
AcDbLine
 10
3.099999379407108
 20
39.09999997583827
 30
0.0
 11
2.099999379407108
 21
40.09999997583827
 31
0.0
  0
LWPOLYLINE
  5
7153
330
711F
100
AcDbEntity
  8
0
100
AcDbPolyline
 90
        4
 70
     1
 43
0.2
 10
3.099999379407108
 20
39.09999997583827
 10
5.099999379407108
 20
39.09999997583827
 10
5.099999379407108
 20
37.09999997583827
 10
3.099999379407108
 20
37.09999997583827
  0
LWPOLYLINE
  5
7154
330
711F
100
AcDbEntity
  8
0
100
AcDbPolyline
 90
        4
 70
     1
 43
0.2
 10
2.099999379407108
 20
40.09999997583827
 10
7.099999379407108
 20
40.09999997583827
 10
7.099999379407108
 20
36.09999997583827
 10
2.099999379407108
 20
36.09999997583827
  0
LINE
  5
7155
330
711F
100
AcDbEntity
  8
0
100
AcDbLine
 10
5.099999379407108
 20
44.09999997583827
 30
0.0
 11
7.099999379407108
 21
45.09999997583827
 31
0.0
  0
LINE
  5
7156
330
711F
100
AcDbEntity
  8
0
100
AcDbLine
 10
5.099999379407108
 20
42.09999997583827
 30
0.0
 11
7.099999379407108
 21
41.09999997583827
 31
0.0
  0
LINE
  5
7157
330
711F
100
AcDbEntity
  8
0
100
AcDbLine
 10
3.099999379407108
 20
42.09999997583827
 30
0.0
 11
2.099999379407108
 21
41.09999997583827
 31
0.0
  0
LINE
  5
7158
330
711F
100
AcDbEntity
  8
0
100
AcDbLine
 10
3.099999379407108
 20
44.09999997583827
 30
0.0
 11
2.099999379407108
 21
45.09999997583827
 31
0.0
  0
LWPOLYLINE
  5
7159
330
711F
100
AcDbEntity
  8
0
100
AcDbPolyline
 90
        4
 70
     1
 43
0.2
 10
3.099999379407108
 20
44.09999997583827
 10
5.099999379407108
 20
44.09999997583827
 10
5.099999379407108
 20
42.09999997583827
 10
3.099999379407108
 20
42.09999997583827
  0
LWPOLYLINE
  5
715A
330
711F
100
AcDbEntity
  8
0
100
AcDbPolyline
 90
        4
 70
     1
 43
0.2
 10
2.099999379407108
 20
45.09999997583827
 10
7.099999379407108
 20
45.09999997583827
 10
7.099999379407108
 20
41.09999997583827
 10
2.099999379407108
 20
41.09999997583827
  0
LINE
  5
715B
330
711F
100
AcDbEntity
  8
0
100
AcDbLine
 10
5.099999379407108
 20
47.09999997583827
 30
0.0
 11
7.099999379407108
 21
46.09999997583827
 31
0.0
  0
LINE
  5
715C
330
711F
100
AcDbEntity
  8
0
100
AcDbLine
 10
3.099999379407108
 20
47.09999997583827
 30
0.0
 11
2.099999379407108
 21
46.09999997583827
 31
0.0
  0
LWPOLYLINE
  5
715D
330
711F
100
AcDbEntity
  8
0
100
AcDbPolyline
 90
        4
 70
     1
 43
0.2
 10
3.099999379407108
 20
49.09999997583827
 10
5.099999379407108
 20
49.09999997583827
 10
5.099999379407108
 20
47.09999997583827
 10
3.099999379407108
 20
47.09999997583827
  0
ENDBLK
  5
715F
330
711F
100
AcDbEntity
  8
0
100
AcDbBlockEnd
  0
BLOCK
  5
7175
330
7160
100
AcDbEntity
  8
0
100
AcDbBlockBegin
  2
A$C3413120B
 70
     0
 10
0.0
 20
0.0
 30
0.0
  3
A$C3413120B
  1

  0
LWPOLYLINE
  5
7161
330
7160
100
AcDbEntity
  8
0
100
AcDbPolyline
 90
        4
 70
     1
 43
0.0
 10
-0.0000002802582912
 20
16.02466200946787
 10
14.99999971974171
 20
16.02466200946787
 10
14.99999971974171
 20
0.0
 10
-0.0000002802582912
 20
0.0
  0
LINE
  5
7162
330
7160
100
AcDbEntity
  8
0
100
AcDbLine
 10
9.999999719741708
 20
16.02466200946787
 30
0.0
 11
9.999999719741708
 21
0.0
 31
0.0
  0
LINE
  5
7163
330
7160
100
AcDbEntity
  8
0
100
AcDbLine
 10
4.999999719741708
 20
14.02466200946787
 30
0.0
 11
6.999999719741708
 21
15.02466200946787
 31
0.0
  0
LINE
  5
7164
330
7160
100
AcDbEntity
  8
0
100
AcDbLine
 10
2.999999719741708
 20
14.02466200946787
 30
0.0
 11
1.999999719741708
 21
15.02466200946787
 31
0.0
  0
LWPOLYLINE
  5
7165
330
7160
100
AcDbEntity
  8
0
100
AcDbPolyline
 90
        4
 70
     1
 43
0.2
 10
1.999999719741708
 20
15.02466200946787
 10
6.999999719741708
 20
15.02466200946787
 10
6.999999719741708
 20
11.02466200946787
 10
1.999999719741708
 20
11.02466200946787
  0
LINE
  5
7166
330
7160
100
AcDbEntity
  8
0
100
AcDbLine
 10
4.999999719741708
 20
4.024662009467874
 30
0.0
 11
6.999999719741708
 21
5.024662009467874
 31
0.0
  0
LINE
  5
7167
330
7160
100
AcDbEntity
  8
0
100
AcDbLine
 10
4.999999719741708
 20
2.024662009467874
 30
0.0
 11
6.999999719741708
 21
1.024662009467874
 31
0.0
  0
LINE
  5
7168
330
7160
100
AcDbEntity
  8
0
100
AcDbLine
 10
2.999999719741708
 20
2.024662009467874
 30
0.0
 11
1.999999719741708
 21
1.024662009467874
 31
0.0
  0
LINE
  5
7169
330
7160
100
AcDbEntity
  8
0
100
AcDbLine
 10
2.999999719741708
 20
4.024662009467874
 30
0.0
 11
1.999999719741708
 21
5.024662009467874
 31
0.0
  0
LWPOLYLINE
  5
716A
330
7160
100
AcDbEntity
  8
0
100
AcDbPolyline
 90
        4
 70
     1
 43
0.2
 10
2.999999719741708
 20
4.024662009467874
 10
4.999999719741708
 20
4.024662009467874
 10
4.999999719741708
 20
2.024662009467874
 10
2.999999719741708
 20
2.024662009467874
  0
LWPOLYLINE
  5
716B
330
7160
100
AcDbEntity
  8
0
100
AcDbPolyline
 90
        4
 70
     1
 43
0.2
 10
1.999999719741708
 20
5.024662009467874
 10
6.999999719741708
 20
5.024662009467874
 10
6.999999719741708
 20
1.024662009467874
 10
1.999999719741708
 20
1.024662009467874
  0
LINE
  5
716C
330
7160
100
AcDbEntity
  8
0
100
AcDbLine
 10
4.999999719741708
 20
9.024662009467874
 30
0.0
 11
6.999999719741708
 21
10.02466200946787
 31
0.0
  0
LINE
  5
716D
330
7160
100
AcDbEntity
  8
0
100
AcDbLine
 10
4.999999719741708
 20
7.024662009467874
 30
0.0
 11
6.999999719741708
 21
6.024662009467874
 31
0.0
  0
LINE
  5
716E
330
7160
100
AcDbEntity
  8
0
100
AcDbLine
 10
2.999999719741708
 20
7.024662009467874
 30
0.0
 11
1.999999719741708
 21
6.024662009467874
 31
0.0
  0
LINE
  5
716F
330
7160
100
AcDbEntity
  8
0
100
AcDbLine
 10
2.999999719741708
 20
9.024662009467874
 30
0.0
 11
1.999999719741708
 21
10.02466200946787
 31
0.0
  0
LWPOLYLINE
  5
7170
330
7160
100
AcDbEntity
  8
0
100
AcDbPolyline
 90
        4
 70
     1
 43
0.2
 10
2.999999719741708
 20
9.024662009467874
 10
4.999999719741708
 20
9.024662009467874
 10
4.999999719741708
 20
7.024662009467874
 10
2.999999719741708
 20
7.024662009467874
  0
LWPOLYLINE
  5
7171
330
7160
100
AcDbEntity
  8
0
100
AcDbPolyline
 90
        4
 70
     1
 43
0.2
 10
1.999999719741708
 20
10.02466200946787
 10
6.999999719741708
 20
10.02466200946787
 10
6.999999719741708
 20
6.024662009467874
 10
1.999999719741708
 20
6.024662009467874
  0
LINE
  5
7172
330
7160
100
AcDbEntity
  8
0
100
AcDbLine
 10
4.999999719741708
 20
12.02466200946787
 30
0.0
 11
6.999999719741708
 21
11.02466200946787
 31
0.0
  0
LINE
  5
7173
330
7160
100
AcDbEntity
  8
0
100
AcDbLine
 10
2.999999719741708
 20
12.02466200946787
 30
0.0
 11
1.999999719741708
 21
11.02466200946787
 31
0.0
  0
LWPOLYLINE
  5
7174
330
7160
100
AcDbEntity
  8
0
100
AcDbPolyline
 90
        4
 70
     1
 43
0.2
 10
2.999999719741708
 20
14.02466200946787
 10
4.999999719741708
 20
14.02466200946787
 10
4.999999719741708
 20
12.02466200946787
 10
2.999999719741708
 20
12.02466200946787
  0
ENDBLK
  5
7176
330
7160
100
AcDbEntity
  8
0
100
AcDbBlockEnd
  0
ENDSEC
  0
SECTION
  2
ENTITIES
  0
LINE
  5
8217
330
18
100
AcDbEntity
  8
0
100
AcDbLine
 10
12.92602254473149
 20
-318.7478314428467
 30
0.0
 11
12.92602254473149
 21
-478.7478314428467
 31
0.0
  0
LINE
  5
8218
330
18
100
AcDbEntity
  8
0
100
AcDbLine
 10
77.92602254473149
 20
-319.7478314428467
 30
0.0
 11
77.92602254473149
 21
-477.7478314428467
 31
0.0
  0
LINE
  5
8219
330
18
100
AcDbEntity
  8
0
100
AcDbLine
 10
24.92602254473149
 20
-318.7478314428467
 30
0.0
 11
24.92602254473149
 21
-478.7478314428467
 31
0.0
  0
INSERT
  5
821C
102
{ACAD_REACTORS
330
87B9
102
}
330
18
100
AcDbEntity
  8
0
100
AcDbBlockReference
  2
A$C6C1277F2
 10
61.60102257075823
 20
-375.0228309602817
 30
0.0
  0
LINE
  5
8221
330
18
100
AcDbEntity
  8
0
100
AcDbLine
 10
77.92602254473149
 20
-477.7478314428467
 30
0.0
 11
77.92602254473149
 21
-492.7478314428469
 31
0.0
  0
LINE
  5
8222
330
18
100
AcDbEntity
  8
0
100
AcDbLine
 10
51.17602254473149
 20
-488.7478314428467
 30
0.0
 11
51.17602254473149
 21
-492.7478314428469
 31
0.0
  0
LINE
  5
8223
330
18
100
AcDbEntity
  8
0
100
AcDbLine
 10
56.67602254473149
 20
-488.7478314428467
 30
0.0
 11
56.67602254473149
 21
-492.7478314428469
 31
0.0
  0
LINE
  5
8224
330
18
100
AcDbEntity
  8
0
100
AcDbLine
 10
29.92602254473149
 20
-480.4061438380244
 30
0.0
 11
29.92602254473149
 21
-492.7478314428467
 31
0.0
  0
LINE
  5
8226
330
18
100
AcDbEntity
  8
0
100
AcDbLine
 10
50.1760225447315
 20
-493.7478314428469
 30
0.0
 11
30.92602254473149
 21
-493.7478314428467
 31
0.0
  0
LINE
  5
8228
330
18
100
AcDbEntity
  8
0
100
AcDbLine
 10
30.92602254473149
 20
-493.7478314428467
 30
0.0
 11
29.92602254473149
 21
-492.7478314428467
 31
0.0
  0
LINE
  5
822A
330
18
100
AcDbEntity
  8
0
100
AcDbLine
 10
76.9260225447315
 20
-493.7478314428469
 30
0.0
 11
57.6760225447315
 21
-493.7478314428469
 31
0.0
  0
LINE
  5
822B
330
18
100
AcDbEntity
  8
0
100
AcDbLine
 10
51.17602254473149
 20
-492.7478314428469
 30
0.0
 11
50.1760225447315
 21
-493.7478314428469
 31
0.0
  0
LINE
  5
822C
330
18
100
AcDbEntity
  8
0
100
AcDbLine
 10
57.6760225447315
 20
-493.7478314428469
 30
0.0
 11
56.67602254473149
 21
-492.7478314428469
 31
0.0
  0
LINE
  5
822D
330
18
100
AcDbEntity
  8
0
100
AcDbLine
 10
77.92602254473149
 20
-492.7478314428469
 30
0.0
 11
76.9260225447315
 21
-493.7478314428469
 31
0.0
  0
CIRCLE
  5
8236
330
18
100
AcDbEntity
  8
0
370
    40
100
AcDbCircle
 10
31.92602254473149
 20
-471.7478314428467
 30
0.0
 40
3.0
  0
LINE
  5
8237
330
18
100
AcDbEntity
  8
0
370
    40
100
AcDbLine
 10
33.17602254473149
 20
-472.5478314428467
 30
0.0
 11
30.67602254473149
 21
-472.5478314428467
 31
0.0
  0
LINE
  5
8238
330
18
100
AcDbEntity
  8
0
370
    40
100
AcDbLine
 10
33.92602254473149
 20
-471.3478314428469
 30
0.0
 11
29.92602254473149
 21
-471.3478314428468
 31
0.0
  0
ARC
  5
8239
330
18
100
AcDbEntity
  8
0
100
AcDbCircle
 10
32.42602254473149
 20
-478.7478314428467
 30
0.0
 40
3.0
100
AcDbArc
 50
180.0
 51
0.0
  0
LINE
  5
823A
330
18
100
AcDbEntity
  8
0
100
AcDbLine
 10
12.92602254473149
 20
-478.7478314428467
 30
0.0
 11
76.9260225447315
 21
-478.7478314428467
 31
0.0
  0
LINE
  5
823B
330
18
100
AcDbEntity
  8
0
370
    40
100
AcDbLine
 10
32.42602254473149
 20
-473.7478314428468
 30
0.0
 11
31.42602254473149
 21
-473.7478314428468
 31
0.0
  0
LINE
  5
823C
330
18
100
AcDbEntity
  8
0
370
    40
100
AcDbLine
 10
31.92602254473149
 20
-469.7478314428466
 30
0.0
 11
31.92602254473149
 21
-471.3478314428469
 31
0.0
  0
INSERT
  5
823D
102
{ACAD_REACTORS
330
87B9
102
}
330
18
100
AcDbEntity
  8
0
100
AcDbBlockReference
  2
A$C3A6E1F00
 10
61.60102257075823
 20
-467.1478309627189
 30
0.0
  0
CIRCLE
  5
8240
330
18
100
AcDbEntity
  8
0
100
AcDbCircle
 10
42.92602254473149
 20
-471.7478314428467
 30
0.0
 40
4.0
  0
CIRCLE
  5
8241
330
18
100
AcDbEntity
  8
0
100
AcDbCircle
 10
42.92602254473149
 20
-471.7478314428467
 30
0.0
 40
3.333333333333333
  0
LINE
  5
8242
330
18
100
AcDbEntity
  8
0
100
AcDbLine
 10
40.3440336472604
 20
-471.08116477618
 30
0.0
 11
42.25935587806486
 21
-471.08116477618
 31
0.0
  0
LINE
  5
8243
330
18
100
AcDbEntity
  8
0
100
AcDbLine
 10
40.3440336472604
 20
-472.4144981095134
 30
0.0
 11
42.25935587806486
 21
-472.4144981095134
 31
0.0
  0
ARC
  5
8244
330
18
100
AcDbEntity
  8
0
100
AcDbCircle
 10
42.92602254473149
 20
-471.7478314428467
 30
0.0
 40
2.666666666666666
100
AcDbArc
 50
165.5224878140701
 51
194.4775121859298
  0
ARC
  5
8245
330
18
100
AcDbEntity
  8
0
100
AcDbCircle
 10
42.92602254473149
 20
-471.7478314428467
 30
0.0
 40
2.666666666666666
100
AcDbArc
 50
345.5224878140701
 51
14.47751218592986
  0
ARC
  5
8246
330
18
100
AcDbEntity
  8
0
100
AcDbCircle
 10
42.92602254473149
 20
-471.7478314428467
 30
0.0
 40
2.666666666666666
100
AcDbArc
 50
75.52248781407055
 51
104.4775121859294
  0
LINE
  5
8247
330
18
100
AcDbEntity
  8
0
100
AcDbLine
 10
42.25935587806486
 20
-471.08116477618
 30
0.0
 11
42.25935587806486
 21
-469.1658425453749
 31
0.0
  0
LINE
  5
8248
330
18
100
AcDbEntity
  8
0
100
AcDbLine
 10
43.59268921139824
 20
-471.08116477618
 30
0.0
 11
45.50801144220327
 21
-471.08116477618
 31
0.0
  0
LINE
  5
8249
330
18
100
AcDbEntity
  8
0
100
AcDbLine
 10
43.59268921139824
 20
-471.08116477618
 30
0.0
 11
43.59268921139824
 21
-469.1658425453749
 31
0.0
  0
LINE
  5
824A
330
18
100
AcDbEntity
  8
0
100
AcDbLine
 10
43.59268921139824
 20
-472.4144981095134
 30
0.0
 11
45.50801144220327
 21
-472.4144981095134
 31
0.0
  0
ARC
  5
824B
330
18
100
AcDbEntity
  8
0
100
AcDbCircle
 10
42.92602254473149
 20
-471.7478314428467
 30
0.0
 40
2.666666666666666
100
AcDbArc
 50
255.5224878140705
 51
284.4775121859294
  0
LINE
  5
824C
330
18
100
AcDbEntity
  8
0
100
AcDbLine
 10
42.25935587806486
 20
-474.3298203403185
 30
0.0
 11
42.25935587806486
 21
-472.4144981095134
 31
0.0
  0
LINE
  5
824D
330
18
100
AcDbEntity
  8
0
100
AcDbLine
 10
43.59268921139824
 20
-474.3298203403185
 30
0.0
 11
43.59268921139824
 21
-472.4144981095134
 31
0.0
  0
CIRCLE
  5
824E
330
18
100
AcDbEntity
  8
0
100
AcDbCircle
 10
53.9260225447315
 20
-471.7478314428467
 30
0.0
 40
4.0
  0
CIRCLE
  5
824F
330
18
100
AcDbEntity
  8
0
100
AcDbCircle
 10
53.9260225447315
 20
-471.7478314428467
 30
0.0
 40
3.333333333333333
  0
ARC
  5
8250
330
18
100
AcDbEntity
  8
0
100
AcDbCircle
 10
53.9260225447315
 20
-488.7478314428469
 30
0.0
 40
2.75
100
AcDbArc
 50
0.0
 51
180.0
  0
ARC
  5
8251
330
18
100
AcDbEntity
  8
0
100
AcDbCircle
 10
53.9260225447315
 20
-471.7478314428467
 30
0.0
 40
2.666666666666666
100
AcDbArc
 50
75.52248781407055
 51
104.4775121859294
  0
ARC
  5
8252
330
18
100
AcDbEntity
  8
0
100
AcDbCircle
 10
53.9260225447315
 20
-471.7478314428467
 30
0.0
 40
2.666666666666666
100
AcDbArc
 50
255.5224878140705
 51
284.4775121859294
  0
LINE
  5
8253
330
18
100
AcDbEntity
  8
0
100
AcDbLine
 10
53.25935587806487
 20
-471.08116477618
 30
0.0
 11
53.25935587806487
 21
-469.1658425453749
 31
0.0
  0
ARC
  5
8254
330
18
100
AcDbEntity
  8
0
100
AcDbCircle
 10
53.9260225447315
 20
-471.7478314428467
 30
0.0
 40
2.666666666666666
100
AcDbArc
 50
165.5224878140701
 51
194.4775121859298
  0
LINE
  5
8255
330
18
100
AcDbEntity
  8
0
100
AcDbLine
 10
51.3440336472604
 20
-471.08116477618
 30
0.0
 11
53.25935587806487
 21
-471.08116477618
 31
0.0
  0
LINE
  5
8256
330
18
100
AcDbEntity
  8
0
100
AcDbLine
 10
51.3440336472604
 20
-472.4144981095134
 30
0.0
 11
53.25935587806487
 21
-472.4144981095134
 31
0.0
  0
LINE
  5
8257
330
18
100
AcDbEntity
  8
0
100
AcDbLine
 10
53.25935587806487
 20
-474.3298203403185
 30
0.0
 11
53.25935587806487
 21
-472.4144981095134
 31
0.0
  0
LINE
  5
8258
330
18
100
AcDbEntity
  8
0
100
AcDbLine
 10
54.59268921139823
 20
-471.08116477618
 30
0.0
 11
56.50801144220327
 21
-471.08116477618
 31
0.0
  0
LINE
  5
8259
330
18
100
AcDbEntity
  8
0
100
AcDbLine
 10
54.59268921139823
 20
-471.08116477618
 30
0.0
 11
54.59268921139823
 21
-469.1658425453749
 31
0.0
  0
LINE
  5
825A
330
18
100
AcDbEntity
  8
0
100
AcDbLine
 10
54.59268921139823
 20
-472.4144981095134
 30
0.0
 11
56.50801144220327
 21
-472.4144981095134
 31
0.0
  0
ARC
  5
825B
330
18
100
AcDbEntity
  8
0
100
AcDbCircle
 10
53.9260225447315
 20
-471.7478314428467
 30
0.0
 40
2.666666666666666
100
AcDbArc
 50
345.5224878140701
 51
14.47751218592986
  0
LINE
  5
825C
330
18
100
AcDbEntity
  8
0
100
AcDbLine
 10
54.59268921139823
 20
-474.3298203403185
 30
0.0
 11
54.59268921139823
 21
-472.4144981095134
 31
0.0
  0
INSERT
  5
825F
102
{ACAD_REACTORS
330
87B9
102
}
330
18
100
AcDbEntity
  8
0
100
AcDbBlockReference
  2
A$C2F696F30
 10
54.52602177956737
 20
-389.5978312494644
 30
0.0
  0
INSERT
  5
8260
102
{ACAD_REACTORS
330
87B9
102
}
330
18
100
AcDbEntity
  8
0
100
AcDbBlockReference
  2
A$C57095CDF
 10
61.60102257075823
 20
-423.1728313557978
 30
0.0
  0
INSERT
  5
8261
330
18
100
AcDbEntity
  8
0
100
AcDbBlockReference
  2
A$C5A3A0BB0
 10
36.87230521829633
 20
-426.9663550905504
 30
0.0
  0
ARC
  5
826B
330
18
100
AcDbEntity
  8
0
100
AcDbCircle
 10
32.42602254473149
 20
-318.7478314428467
 30
0.0
 40
3.0
100
AcDbArc
 50
0.0
 51
180.0
  0
LINE
  5
826D
330
18
100
AcDbEntity
  8
0
100
AcDbLine
 10
12.92602254473149
 20
-318.7478314428467
 30
0.0
 11
76.9260225447315
 21
-318.7478314428467
 31
0.0
  0
LINE
  5
826F
330
18
100
AcDbEntity
  8
0
100
AcDbLine
 10
50.1760225447315
 20
-303.7478314428467
 30
0.0
 11
30.92602254473161
 21
-303.7478314428465
 31
0.0
  0
LINE
  5
8272
330
18
100
AcDbEntity
  8
0
100
AcDbLine
 10
29.92602254473149
 20
-317.089519047669
 30
0.0
 11
29.9260225447316
 21
-304.7478314428465
 31
0.0
  0
LINE
  5
8273
330
18
100
AcDbEntity
  8
0
100
AcDbLine
 10
30.92602254473161
 20
-303.7478314428465
 30
0.0
 11
29.9260225447316
 21
-304.7478314428465
 31
0.0
  0
LINE
  5
8274
330
18
100
AcDbEntity
  8
0
100
AcDbLine
 10
77.92602254473149
 20
-319.7478314428467
 30
0.0
 11
77.92602254473149
 21
-304.7478314428467
 31
0.0
  0
INSERT
  5
8275
102
{ACAD_REACTORS
330
87B9
102
}
330
18
100
AcDbEntity
  8
0
100
AcDbBlockReference
  2
A$C444F17A9
 10
63.30102193703419
 20
-342.8478319288733
 30
0.0
  0
INSERT
  5
8277
330
18
100
AcDbEntity
  8
0
100
AcDbBlockReference
  2
A$C3413120B
 10
36.84362015781039
 20
-357.1045630726672
 30
0.0
  0
LINE
  5
8282
330
18
100
AcDbEntity
  8
0
100
AcDbLine
 10
76.9260225447315
 20
-303.7478314428466
 30
0.0
 11
57.6760225447315
 21
-303.7478314428467
 31
0.0
  0
ARC
  5
8284
330
18
100
AcDbEntity
  8
0
100
AcDbCircle
 10
53.9260225447315
 20
-308.7478314428465
 30
0.0
 40
2.75
100
AcDbArc
 50
180.0
 51
0.0
  0
LINE
  5
8285
330
18
100
AcDbEntity
  8
0
100
AcDbLine
 10
51.17602254473149
 20
-308.7478314428467
 30
0.0
 11
51.17602254473149
 21
-304.7478314428467
 31
0.0
  0
LINE
  5
8286
330
18
100
AcDbEntity
  8
0
100
AcDbLine
 10
51.17602254473149
 20
-304.7478314428467
 30
0.0
 11
50.1760225447315
 21
-303.7478314428467
 31
0.0
  0
LINE
  5
8287
330
18
100
AcDbEntity
  8
0
100
AcDbLine
 10
56.67602254473149
 20
-308.7478314428467
 30
0.0
 11
56.67602254473149
 21
-304.7478314428467
 31
0.0
  0
LINE
  5
8288
330
18
100
AcDbEntity
  8
0
100
AcDbLine
 10
57.6760225447315
 20
-303.7478314428467
 30
0.0
 11
56.67602254473149
 21
-304.7478314428467
 31
0.0
  0
LINE
  5
8289
330
18
100
AcDbEntity
  8
0
100
AcDbLine
 10
77.92602254473149
 20
-304.7478314428467
 30
0.0
 11
76.9260225447315
 21
-303.7478314428466
 31
0.0
  0
LINE
  5
828F
330
18
100
AcDbEntity
  8
0
100
AcDbLine
 10
409.3863448404806
 20
-303.7478314428468
 30
0.0
 11
409.3863448404806
 21
-493.7478314428467
 31
0.0
  0
LINE
  5
8290
330
18
100
AcDbEntity
  8
0
100
AcDbLine
 10
407.3863448404806
 20
-303.7478314428468
 30
0.0
 11
407.3863448404806
 21
-493.7478314428467
 31
0.0
  0
LINE
  5
8291
330
18
100
AcDbEntity
  8
0
100
AcDbLine
 10
407.3863448404806
 20
-319.7478314428466
 30
0.0
 11
407.3863448404806
 21
-477.7478314428468
 31
0.0
  0
LINE
  5
8292
330
18
100
AcDbEntity
  8
0
100
AcDbLine
 10
258.3863448404806
 20
-318.7478314428467
 30
0.0
 11
258.3863448404806
 21
-478.7478314428467
 31
0.0
  0
LINE
  5
8293
330
18
100
AcDbEntity
  8
0
100
AcDbLine
 10
260.3863448404806
 20
-318.7478314428467
 30
0.0
 11
260.3863448404806
 21
-478.7478314428467
 31
0.0
  0
LINE
  5
8294
330
18
100
AcDbEntity
  8
0
100
AcDbLine
 10
260.3863448404806
 20
-477.7478314428468
 30
0.0
 11
260.3863448404806
 21
-319.7478314428466
 31
0.0
  0
ARC
  5
829B
330
18
100
AcDbEntity
  8
0
100
AcDbCircle
 10
328.3863448404806
 20
-478.7478314428467
 30
0.0
 40
3.0
100
AcDbArc
 50
180.0
 51
0.0
  0
LINE
  5
829C
330
18
100
AcDbEntity
  8
0
100
AcDbLine
 10
406.3863448404807
 20
-478.7478314428468
 30
0.0
 11
261.3863448404806
 21
-478.7478314428468
 31
0.0
  0
LINE
  5
829D
330
18
100
AcDbEntity
  8
0
100
AcDbLine
 10
257.0530115071473
 20
-468.4144981095135
 30
0.0
 11
255.9863448404804
 21
-468.4144981095135
 31
0.0
  0
LINE
  5
829E
330
18
100
AcDbEntity
  8
0
100
AcDbLine
 10
255.9863448404804
 20
-475.0811647761802
 30
0.0
 11
257.0530115071473
 21
-475.0811647761802
 31
0.0
  0
LINE
  5
829F
330
18
100
AcDbEntity
  8
0
100
AcDbLine
 10
258.3863448404806
 20
-375.8478314428467
 30
0.0
 11
248.8863448404806
 21
-375.8478314428466
 31
0.0
  0
LINE
  5
82A0
330
18
100
AcDbEntity
  8
0
 48
0.2
100
AcDbLine
 10
258.3863448404806
 20
-390.3478314428468
 30
0.0
 11
237.5863448404804
 21
-390.3478314428468
 31
0.0
  0
LINE
  5
82A1
330
18
100
AcDbEntity
  8
0
100
AcDbLine
 10
258.3863448404806
 20
-426.6478314428467
 30
0.0
 11
248.8863448404806
 21
-426.6478314428465
 31
0.0
  0
LINE
  5
82A2
330
18
100
AcDbEntity
  8
0
 48
0.2
100
AcDbLine
 10
258.3863448404806
 20
-423.6478314428468
 30
0.0
 11
237.5863448404804
 21
-423.6478314428466
 31
0.0
  0
ARC
  5
82A3
330
18
100
AcDbEntity
  8
0
100
AcDbCircle
 10
255.9863448404803
 20
-473.4811647761801
 30
0.0
 40
1.599999999999999
100
AcDbArc
 50
180.0
 51
270.0
  0
LINE
  5
82A4
330
18
100
AcDbEntity
  8
0
100
AcDbLine
 10
254.3863448404806
 20
-470.0144981095133
 30
0.0
 11
254.3863448404806
 21
-473.4811647761798
 31
0.0
  0
ARC
  5
82A5
330
18
100
AcDbEntity
  8
0
100
AcDbCircle
 10
255.9863448404803
 20
-470.0144981095135
 30
0.0
 40
1.599999999999999
100
AcDbArc
 50
90.0
 51
180.0
  0
ARC
  5
82A6
330
18
100
AcDbEntity
  8
0
 48
0.2
100
AcDbCircle
 10
225.4863448404808
 20
-414.8978314428465
 30
0.0
 40
3.100000000000022
100
AcDbArc
 50
180.0
 51
319.1213648534821
  0
ARC
  5
82A7
330
18
100
AcDbEntity
  8
0
 48
0.2
100
AcDbCircle
 10
225.4863448404805
 20
-399.0978314428468
 30
0.0
 40
3.100000000000022
100
AcDbArc
 50
40.87863514651785
 51
180.0
  0
CIRCLE
  5
82A8
330
18
100
AcDbEntity
  8
0
100
AcDbCircle
 10
254.1863448404803
 20
-403.7878314428466
 30
0.0
 40
2.0
  0
LINE
  5
82A9
330
18
100
AcDbEntity
  8
0
100
AcDbLine
 10
253.0002637294253
 20
-405.3981766226135
 30
0.0
 11
255.7966900202472
 21
-402.6017503317916
 31
0.0
  0
LINE
  5
82AA
330
18
100
AcDbEntity
  8
0
100
AcDbLine
 10
252.5759996607134
 20
-404.9739125539017
 30
0.0
 11
255.3724259515354
 21
-402.1774862630797
 31
0.0
  0
LINE
  5
82AB
330
18
100
AcDbEntity
  8
0
100
AcDbLine
 10
250.3863448404806
 20
-375.8478314428466
 30
0.0
 11
250.3863448404806
 21
-426.6478314428465
 31
0.0
  0
LINE
  5
82AC
330
18
100
AcDbEntity
  8
0
100
AcDbLine
 10
248.8863448404806
 20
-375.8478314428466
 30
0.0
 11
248.8863448404806
 21
-426.6478314428465
 31
0.0
  0
LINE
  5
82AD
330
18
100
AcDbEntity
  8
0
 48
0.2
100
AcDbLine
 10
243.3863448404806
 20
-414.8978314428465
 30
0.0
 11
243.3863448404804
 21
-399.0978314428468
 31
0.0
  0
LINE
  5
82AE
330
18
100
AcDbEntity
  8
0
 48
0.2
100
AcDbLine
 10
238.3863448404806
 20
-414.8978314428465
 30
0.0
 11
238.3863448404804
 21
-399.0978314428468
 31
0.0
  0
LINE
  5
82AF
330
18
100
AcDbEntity
  8
0
 48
0.2
100
AcDbLine
 10
222.3863448404806
 20
-414.8978314428465
 30
0.0
 11
222.3863448404804
 21
-399.0978314428468
 31
0.0
  0
LINE
  5
82B0
330
18
100
AcDbEntity
  8
0
 48
0.2
100
AcDbLine
 10
243.3863448404806
 20
-414.8978314428465
 30
0.0
 11
222.3863448404806
 21
-414.8978314428468
 31
0.0
  0
LINE
  5
82B1
330
18
100
AcDbEntity
  8
0
 48
0.2
100
AcDbLine
 10
233.5863448404807
 20
-414.8978314428465
 30
0.0
 11
237.5863448404806
 21
-417.9978314428467
 31
0.0
  0
LINE
  5
82B2
330
18
100
AcDbEntity
  8
0
 48
0.2
100
AcDbLine
 10
237.5863448404804
 20
-423.6478314428466
 30
0.0
 11
237.5863448404804
 21
-417.9978314428467
 31
0.0
  0
ARC
  5
82B3
330
18
100
AcDbEntity
  8
0
 48
0.2
100
AcDbCircle
 10
238.7563448404805
 20
-421.0478314428466
 30
0.0
 40
2.669999999999886
100
AcDbArc
 50
115.9892335838274
 51
244.0107664161725
  0
LINE
  5
82B4
330
18
100
AcDbEntity
  8
0
 48
0.2
100
AcDbLine
 10
229.5863448404807
 20
-414.8978314428465
 30
0.0
 11
227.8302472795051
 21
-416.9266540956025
 31
0.0
  0
LINE
  5
82B5
330
18
100
AcDbEntity
  8
0
 48
0.2
100
AcDbLine
 10
248.2806824077781
 20
-419.3128949523076
 30
0.0
 11
249.6750199750754
 21
-416.8978314428466
 31
0.0
  0
LINE
  5
82B6
330
18
100
AcDbEntity
  8
0
 48
0.2
100
AcDbLine
 10
248.1363448404806
 20
-419.0628949523077
 30
0.0
 11
249.3863448404806
 21
-416.8978314428466
 31
0.0
  0
CIRCLE
  5
82B7
330
18
100
AcDbEntity
  8
0
100
AcDbCircle
 10
254.1863448404803
 20
-419.0278314428466
 30
0.0
 40
2.0
  0
LINE
  5
82B8
330
18
100
AcDbEntity
  8
0
 48
0.2
100
AcDbLine
 10
244.0976697058859
 20
-416.8978314428466
 30
0.0
 11
245.4920072731831
 21
-419.3128949523076
 31
0.0
  0
LINE
  5
82B9
330
18
100
AcDbEntity
  8
0
 48
0.2
100
AcDbLine
 10
244.3863448404806
 20
-416.8978314428466
 30
0.0
 11
245.6363448404806
 21
-419.0628949523077
 31
0.0
  0
CIRCLE
  5
82BA
330
18
100
AcDbEntity
  8
0
 48
0.2
100
AcDbCircle
 10
246.8863448404806
 20
-416.8978314428465
 30
0.0
 40
1.5
  0
LINE
  5
82BB
330
18
100
AcDbEntity
  8
0
 48
0.2
100
AcDbLine
 10
245.4920072731831
 20
-419.3128949523076
 30
0.0
 11
248.2806824077781
 21
-419.3128949523076
 31
0.0
  0
LINE
  5
82BC
330
18
100
AcDbEntity
  8
0
 48
0.2
100
AcDbLine
 10
245.6363448404806
 20
-419.0628949523077
 30
0.0
 11
248.1363448404806
 21
-419.0628949523077
 31
0.0
  0
CIRCLE
  5
82BD
330
18
100
AcDbEntity
  8
0
100
AcDbCircle
 10
254.1863448404803
 20
-424.1078314428466
 30
0.0
 40
2.0
  0
LINE
  5
82BE
330
18
100
AcDbEntity
  8
0
100
AcDbLine
 10
252.5759996607134
 20
-425.2939125539016
 30
0.0
 11
255.3724259515354
 21
-422.4974862630796
 31
0.0
  0
LINE
  5
82BF
330
18
100
AcDbEntity
  8
0
100
AcDbLine
 10
253.0002637294253
 20
-425.7181766226135
 30
0.0
 11
255.7966900202472
 21
-422.9217503317916
 31
0.0
  0
LINE
  5
82C0
330
18
100
AcDbEntity
  8
0
100
AcDbLine
 10
253.0002637294253
 20
-420.6381766226135
 30
0.0
 11
255.7966900202472
 21
-417.8417503317915
 31
0.0
  0
LINE
  5
82C1
330
18
100
AcDbEntity
  8
0
100
AcDbLine
 10
252.5759996607134
 20
-420.2139125539016
 30
0.0
 11
255.3724259515354
 21
-417.4174862630796
 31
0.0
  0
LINE
  5
82C2
330
18
100
AcDbEntity
  8
0
 48
0.2
100
AcDbLine
 10
245.4920072731831
 20
-414.4827679333855
 30
0.0
 11
248.2806824077781
 21
-414.4827679333855
 31
0.0
  0
LINE
  5
82C3
330
18
100
AcDbEntity
  8
0
 48
0.2
100
AcDbLine
 10
245.6363448404806
 20
-414.7327679333854
 30
0.0
 11
248.1363448404806
 21
-414.7327679333854
 31
0.0
  0
LINE
  5
82C4
330
18
100
AcDbEntity
  8
0
 48
0.2
100
AcDbLine
 10
244.0976697058859
 20
-416.8978314428466
 30
0.0
 11
245.4920072731831
 21
-414.4827679333855
 31
0.0
  0
LINE
  5
82C5
330
18
100
AcDbEntity
  8
0
 48
0.2
100
AcDbLine
 10
244.3863448404806
 20
-416.8978314428466
 30
0.0
 11
245.6363448404806
 21
-414.7327679333854
 31
0.0
  0
CIRCLE
  5
82C6
330
18
100
AcDbEntity
  8
0
100
AcDbCircle
 10
254.1863448404803
 20
-408.8678314428466
 30
0.0
 40
2.0
  0
LINE
  5
82C7
330
18
100
AcDbEntity
  8
0
100
AcDbLine
 10
253.0002637294253
 20
-410.4781766226135
 30
0.0
 11
255.7966900202472
 21
-407.6817503317916
 31
0.0
  0
CIRCLE
  5
82C8
330
18
100
AcDbEntity
  8
0
100
AcDbCircle
 10
254.1863448404803
 20
-413.9478314428465
 30
0.0
 40
2.0
  0
LINE
  5
82C9
330
18
100
AcDbEntity
  8
0
 48
0.2
100
AcDbLine
 10
249.6750199750754
 20
-416.8978314428466
 30
0.0
 11
248.2806824077781
 21
-414.4827679333855
 31
0.0
  0
LINE
  5
82CA
330
18
100
AcDbEntity
  8
0
 48
0.2
100
AcDbLine
 10
249.3863448404806
 20
-416.8978314428466
 30
0.0
 11
248.1363448404806
 21
-414.7327679333854
 31
0.0
  0
LINE
  5
82CB
330
18
100
AcDbEntity
  8
0
100
AcDbLine
 10
252.5759996607134
 20
-415.1339125539016
 30
0.0
 11
255.3724259515354
 21
-412.3374862630797
 31
0.0
  0
LINE
  5
82CC
330
18
100
AcDbEntity
  8
0
100
AcDbLine
 10
253.0002637294253
 20
-415.5581766226135
 30
0.0
 11
255.7966900202472
 21
-412.7617503317916
 31
0.0
  0
LINE
  5
82CD
330
18
100
AcDbEntity
  8
0
100
AcDbLine
 10
252.5759996607134
 20
-410.0539125539016
 30
0.0
 11
255.3724259515354
 21
-407.2574862630797
 31
0.0
  0
LINE
  5
82CE
330
18
100
AcDbEntity
  8
0
 48
0.2
100
AcDbLine
 10
243.3863448404804
 20
-399.0978314428468
 30
0.0
 11
222.3863448404804
 21
-399.0978314428468
 31
0.0
  0
LINE
  5
82CF
330
18
100
AcDbEntity
  8
0
 48
0.2
100
AcDbLine
 10
229.5863448404805
 20
-399.0978314428468
 30
0.0
 11
227.8302472795051
 21
-397.0690087900909
 31
0.0
  0
LINE
  5
82D0
330
18
100
AcDbEntity
  8
0
 48
0.2
100
AcDbLine
 10
237.5863448404804
 20
-395.9978314428467
 30
0.0
 11
237.5863448404804
 21
-390.3478314428468
 31
0.0
  0
LINE
  5
82D1
330
18
100
AcDbEntity
  8
0
 48
0.2
100
AcDbLine
 10
233.5863448404804
 20
-399.0978314428468
 30
0.0
 11
237.5863448404804
 21
-395.997831442847
 31
0.0
  0
ARC
  5
82D2
330
18
100
AcDbEntity
  8
0
 48
0.2
100
AcDbCircle
 10
238.7563448404803
 20
-392.9478314428467
 30
0.0
 40
2.669999999999886
100
AcDbArc
 50
115.9892335838274
 51
244.0107664161725
  0
CIRCLE
  5
82D3
330
18
100
AcDbEntity
  8
0
100
AcDbCircle
 10
254.1863448404806
 20
-388.5478314428467
 30
0.0
 40
2.0
  0
LINE
  5
82D4
330
18
100
AcDbEntity
  8
0
100
AcDbLine
 10
253.0002637294255
 20
-390.1581766226136
 30
0.0
 11
255.7966900202475
 21
-387.3617503317916
 31
0.0
  0
LINE
  5
82D5
330
18
100
AcDbEntity
  8
0
100
AcDbLine
 10
252.5759996607137
 20
-389.7339125539017
 30
0.0
 11
255.3724259515354
 21
-386.9374862630797
 31
0.0
  0
CIRCLE
  5
82D6
330
18
100
AcDbEntity
  8
0
 48
0.2
100
AcDbCircle
 10
246.8863448404806
 20
-397.0978314428468
 30
0.0
 40
1.5
  0
LINE
  5
82D7
330
18
100
AcDbEntity
  8
0
 48
0.2
100
AcDbLine
 10
245.6363448404806
 20
-399.262894952308
 30
0.0
 11
248.1363448404806
 21
-399.262894952308
 31
0.0
  0
LINE
  5
82D8
330
18
100
AcDbEntity
  8
0
 48
0.2
100
AcDbLine
 10
245.4920072731831
 20
-399.5128949523079
 30
0.0
 11
248.2806824077781
 21
-399.5128949523079
 31
0.0
  0
LINE
  5
82D9
330
18
100
AcDbEntity
  8
0
 48
0.2
100
AcDbLine
 10
245.6363448404806
 20
-394.9327679333857
 30
0.0
 11
248.1363448404806
 21
-394.9327679333857
 31
0.0
  0
LINE
  5
82DA
330
18
100
AcDbEntity
  8
0
 48
0.2
100
AcDbLine
 10
245.4920072731831
 20
-394.6827679333857
 30
0.0
 11
248.2806824077781
 21
-394.6827679333857
 31
0.0
  0
LINE
  5
82DB
330
18
100
AcDbEntity
  8
0
 48
0.2
100
AcDbLine
 10
244.3863448404806
 20
-397.0978314428468
 30
0.0
 11
245.6363448404806
 21
-394.9327679333857
 31
0.0
  0
LINE
  5
82DC
330
18
100
AcDbEntity
  8
0
 48
0.2
100
AcDbLine
 10
244.0976697058859
 20
-397.0978314428468
 30
0.0
 11
245.4920072731831
 21
-394.6827679333857
 31
0.0
  0
LINE
  5
82DD
330
18
100
AcDbEntity
  8
0
 48
0.2
100
AcDbLine
 10
244.3863448404806
 20
-397.0978314428468
 30
0.0
 11
245.6363448404806
 21
-399.262894952308
 31
0.0
  0
LINE
  5
82DE
330
18
100
AcDbEntity
  8
0
 48
0.2
100
AcDbLine
 10
244.0976697058859
 20
-397.0978314428468
 30
0.0
 11
245.4920072731831
 21
-399.5128949523079
 31
0.0
  0
LINE
  5
82DF
330
18
100
AcDbEntity
  8
0
 48
0.2
100
AcDbLine
 10
248.1363448404806
 20
-394.9327679333857
 30
0.0
 11
249.3863448404806
 21
-397.0978314428468
 31
0.0
  0
LINE
  5
82E0
330
18
100
AcDbEntity
  8
0
 48
0.2
100
AcDbLine
 10
248.2806824077781
 20
-394.6827679333857
 30
0.0
 11
249.6750199750754
 21
-397.0978314428468
 31
0.0
  0
CIRCLE
  5
82E1
330
18
100
AcDbEntity
  8
0
100
AcDbCircle
 10
254.1863448404806
 20
-398.7078314428466
 30
0.0
 40
2.0
  0
LINE
  5
82E2
330
18
100
AcDbEntity
  8
0
 48
0.2
100
AcDbLine
 10
249.3863448404806
 20
-397.0978314428468
 30
0.0
 11
248.1363448404806
 21
-399.262894952308
 31
0.0
  0
LINE
  5
82E3
330
18
100
AcDbEntity
  8
0
 48
0.2
100
AcDbLine
 10
249.6750199750754
 20
-397.0978314428468
 30
0.0
 11
248.2806824077781
 21
-399.5128949523079
 31
0.0
  0
LINE
  5
82E4
330
18
100
AcDbEntity
  8
0
100
AcDbLine
 10
252.5759996607137
 20
-399.8939125539017
 30
0.0
 11
255.3724259515354
 21
-397.0974862630797
 31
0.0
  0
LINE
  5
82E5
330
18
100
AcDbEntity
  8
0
100
AcDbLine
 10
253.0002637294255
 20
-400.3181766226135
 30
0.0
 11
255.7966900202475
 21
-397.5217503317916
 31
0.0
  0
CIRCLE
  5
82E6
330
18
100
AcDbEntity
  8
0
100
AcDbCircle
 10
254.1863448404806
 20
-393.6278314428466
 30
0.0
 40
2.0
  0
LINE
  5
82E7
330
18
100
AcDbEntity
  8
0
100
AcDbLine
 10
253.0002637294255
 20
-395.2381766226136
 30
0.0
 11
255.7966900202475
 21
-392.4417503317917
 31
0.0
  0
LINE
  5
82E8
330
18
100
AcDbEntity
  8
0
100
AcDbLine
 10
252.5759996607137
 20
-394.8139125539017
 30
0.0
 11
255.3724259515354
 21
-392.0174862630797
 31
0.0
  0
CIRCLE
  5
82E9
330
18
100
AcDbEntity
  8
0
100
AcDbCircle
 10
254.1863448404806
 20
-383.4678314428467
 30
0.0
 40
2.0
  0
LINE
  5
82EA
330
18
100
AcDbEntity
  8
0
100
AcDbLine
 10
253.0002637294255
 20
-385.0781766226136
 30
0.0
 11
255.7966900202475
 21
-382.2817503317917
 31
0.0
  0
LINE
  5
82EB
330
18
100
AcDbEntity
  8
0
100
AcDbLine
 10
252.5759996607137
 20
-384.6539125539017
 30
0.0
 11
255.3724259515354
 21
-381.8574862630798
 31
0.0
  0
CIRCLE
  5
82EC
330
18
100
AcDbEntity
  8
0
100
AcDbCircle
 10
254.1863448404806
 20
-378.3878314428467
 30
0.0
 40
2.0
  0
LINE
  5
82ED
330
18
100
AcDbEntity
  8
0
100
AcDbLine
 10
252.5759996607137
 20
-379.5739125539018
 30
0.0
 11
255.3724259515354
 21
-376.7774862630798
 31
0.0
  0
LINE
  5
82EE
330
18
100
AcDbEntity
  8
0
100
AcDbLine
 10
253.0002637294255
 20
-379.9981766226136
 30
0.0
 11
255.7966900202475
 21
-377.2017503317917
 31
0.0
  0
LINE
  5
82F2
330
18
100
AcDbEntity
  8
0
100
AcDbLine
 10
260.3863448404806
 20
-478.7478314428467
 30
0.0
 11
321.3863448404806
 21
-478.7478314428468
 31
0.0
  0
LWPOLYLINE
  5
82F7
330
18
100
AcDbEntity
  8
0
100
AcDbPolyline
 90
        4
 70
     1
 43
0.0
 10
257.0530115071473
 20
-468.4144981095135
 10
257.0530115071473
 20
-475.0811647761802
 10
257.719678173814
 20
-475.0811647761802
 10
257.719678173814
 20
-468.4144981095135
  0
LWPOLYLINE
  5
82F8
330
18
100
AcDbEntity
  8
0
100
AcDbPolyline
 90
        4
 70
     1
 43
0.0
 10
257.719678173814
 20
-467.7478314428468
 10
257.719678173814
 20
-475.7478314428468
 10
258.3863448404806
 20
-475.7478314428468
 10
258.3863448404806
 20
-467.7478314428468
  0
LINE
  5
82F9
330
18
100
AcDbEntity
  8
0
100
AcDbLine
 10
261.3863448404806
 20
-478.7478314428468
 30
0.0
 11
260.3863448404806
 21
-477.7478314428468
 31
0.0
  0
LINE
  5
82FA
330
18
100
AcDbEntity
  8
0
100
AcDbLine
 10
258.3863448404806
 20
-478.7478314428467
 30
0.0
 11
260.3863448404806
 21
-478.7478314428467
 31
0.0
  0
LINE
  5
830F
330
18
100
AcDbEntity
  8
0
100
AcDbLine
 10
257.6863448404806
 20
-375.8478314428467
 30
0.0
 11
257.6863448404803
 21
-426.6478314428467
 31
0.0
  0
LINE
  5
8310
330
18
100
AcDbEntity
  8
0
100
AcDbLine
 10
258.3863448404806
 20
-375.8478314428467
 30
0.0
 11
258.3863448404806
 21
-426.6478314428467
 31
0.0
  0
LINE
  5
8311
330
18
100
AcDbEntity
  8
0
100
AcDbLine
 10
407.3863448404806
 20
-493.7478314428467
 30
0.0
 11
409.3863448404806
 21
-493.7478314428467
 31
0.0
  0
LINE
  5
8331
330
18
100
AcDbEntity
  8
0
100
AcDbLine
 10
335.3863448404806
 20
-478.747831442847
 30
0.0
 11
407.3863448404806
 21
-478.7478314428468
 31
0.0
  0
LINE
  5
838E
330
18
100
AcDbEntity
  8
0
100
AcDbLine
 10
406.3863448404807
 20
-478.7478314428468
 30
0.0
 11
407.3863448404806
 21
-477.7478314428468
 31
0.0
  0
LINE
  5
83AA
330
18
100
AcDbEntity
  8
0
100
AcDbLine
 10
258.3863448404806
 20
-318.7478314428465
 30
0.0
 11
326.8863448404806
 21
-318.7478314428467
 31
0.0
  0
LINE
  5
83AC
330
18
100
AcDbEntity
  8
0
100
AcDbLine
 10
261.3863448404806
 20
-318.7478314428466
 30
0.0
 11
406.3863448404807
 21
-318.7478314428466
 31
0.0
  0
LINE
  5
83CE
330
18
100
AcDbEntity
  8
0
100
AcDbLine
 10
258.3863448404806
 20
-341.1478314428467
 30
0.0
 11
248.8863448404806
 21
-341.1478314428466
 31
0.0
  0
LINE
  5
83D0
330
18
100
AcDbEntity
  8
0
100
AcDbLine
 10
258.3863448404804
 20
-356.3478314428467
 30
0.0
 11
248.8863448404804
 21
-356.3478314428465
 31
0.0
  0
LINE
  5
83D1
330
18
100
AcDbEntity
  8
0
100
AcDbLine
 10
250.3863448404806
 20
-341.1478314428466
 30
0.0
 11
250.3863448404808
 21
-356.3478314428465
 31
0.0
  0
LINE
  5
83D2
330
18
100
AcDbEntity
  8
0
100
AcDbLine
 10
248.8863448404806
 20
-341.1478314428466
 30
0.0
 11
248.8863448404806
 21
-356.3478314428465
 31
0.0
  0
LINE
  5
83D3
330
18
100
AcDbEntity
  8
0
100
AcDbLine
 10
252.5759996607137
 20
-355.0339125539017
 30
0.0
 11
255.3724259515354
 21
-352.2374862630797
 31
0.0
  0
LINE
  5
83D4
330
18
100
AcDbEntity
  8
0
100
AcDbLine
 10
253.0002637294255
 20
-355.4581766226135
 30
0.0
 11
255.7966900202475
 21
-352.6617503317917
 31
0.0
  0
CIRCLE
  5
83D5
330
18
100
AcDbEntity
  8
0
100
AcDbCircle
 10
254.1863448404806
 20
-353.8478314428466
 30
0.0
 40
2.0
  0
CIRCLE
  5
83D6
330
18
100
AcDbEntity
  8
0
100
AcDbCircle
 10
254.1863448404806
 20
-348.7678314428467
 30
0.0
 40
2.0
  0
LINE
  5
83D7
330
18
100
AcDbEntity
  8
0
100
AcDbLine
 10
252.5759996607137
 20
-349.9539125539017
 30
0.0
 11
255.3724259515354
 21
-347.1574862630798
 31
0.0
  0
LINE
  5
83D8
330
18
100
AcDbEntity
  8
0
100
AcDbLine
 10
253.0002637294255
 20
-350.3781766226136
 30
0.0
 11
255.7966900202475
 21
-347.5817503317916
 31
0.0
  0
CIRCLE
  5
83D9
330
18
100
AcDbEntity
  8
0
100
AcDbCircle
 10
254.1863448404806
 20
-343.6878314428466
 30
0.0
 40
2.0
  0
LINE
  5
83DA
330
18
100
AcDbEntity
  8
0
100
AcDbLine
 10
252.5759996607137
 20
-344.8739125539017
 30
0.0
 11
255.3724259515354
 21
-342.0774862630797
 31
0.0
  0
LINE
  5
83DB
330
18
100
AcDbEntity
  8
0
100
AcDbLine
 10
253.0002637294255
 20
-345.2981766226136
 30
0.0
 11
255.7966900202475
 21
-342.5017503317917
 31
0.0
  0
LINE
  5
83E2
330
18
100
AcDbEntity
  8
0
100
AcDbLine
 10
258.3863448404806
 20
-341.1478314428467
 30
0.0
 11
258.3863448404806
 21
-356.3478314428467
 31
0.0
  0
LINE
  5
83E3
330
18
100
AcDbEntity
  8
0
100
AcDbLine
 10
257.6863448404806
 20
-341.1478314428467
 30
0.0
 11
257.6863448404806
 21
-356.3478314428467
 31
0.0
  0
LINE
  5
83EC
330
18
100
AcDbEntity
  8
0
100
AcDbLine
 10
260.3863448404806
 20
-319.7478314428466
 30
0.0
 11
261.3863448404806
 21
-318.7478314428466
 31
0.0
  0
LINE
  5
83ED
330
18
100
AcDbEntity
  8
0
100
AcDbLine
 10
258.3863448404806
 20
-318.7478314428467
 30
0.0
 11
260.3863448404806
 21
-318.7478314428467
 31
0.0
  0
LINE
  5
84CE
330
18
100
AcDbEntity
  8
0
100
AcDbLine
 10
340.8863448404806
 20
-318.7478314428467
 30
0.0
 11
407.3863448404806
 21
-318.7478314428468
 31
0.0
  0
ARC
  5
84D7
330
18
100
AcDbEntity
  8
0
100
AcDbCircle
 10
333.8863448404806
 20
-318.7478314428467
 30
0.0
 40
3.0
100
AcDbArc
 50
0.0
 51
180.0
  0
LINE
  5
851E
330
18
100
AcDbEntity
  8
0
100
AcDbLine
 10
406.3863448404807
 20
-318.7478314428466
 30
0.0
 11
407.3863448404806
 21
-319.7478314428466
 31
0.0
  0
LINE
  5
851F
330
18
100
AcDbEntity
  8
0
100
AcDbLine
 10
407.3863448404806
 20
-303.7478314428468
 30
0.0
 11
409.3863448404806
 21
-303.7478314428468
 31
0.0
  0
LINE
  5
8703
330
18
100
AcDbEntity
  8
0
100
AcDbLine
 10
35.92602254473149
 20
-339.7478314428467
 30
0.0
 11
35.92602254473149
 21
-358.2478314428467
 31
0.0
  0
LINE
  5
8704
330
18
100
AcDbEntity
  8
0
100
AcDbLine
 10
35.92602254473149
 20
-339.7478314428467
 30
0.0
 11
35.92602254473149
 21
-358.2478314428467
 31
0.0
  0
LINE
  5
8705
330
18
100
AcDbEntity
  8
0
100
AcDbLine
 10
51.4260225447315
 20
-339.7478314428465
 30
0.0
 11
51.4260225447315
 21
-341.0799010631993
 31
0.0
  0
LINE
  5
8706
330
18
100
AcDbEntity
  8
0
100
AcDbLine
 10
49.4260225447315
 20
-358.2478314428467
 30
0.0
 11
35.92602254473149
 21
-358.2478314428467
 31
0.0
  0
LINE
  5
8707
330
18
100
AcDbEntity
  8
0
100
AcDbLine
 10
51.4260225447315
 20
-358.2478314428467
 30
0.0
 11
35.92602254473149
 21
-358.2478314428467
 31
0.0
  0
MTEXT
  5
8709
330
18
100
AcDbEntity
  8
0
100
AcDbMText
 10
31.33036017874076
 20
-347.2126084318182
 30
0.0
 40
3.299999999999999
 41
4.654799999999999
 71
     1
 72
     5
  1
s
  7
MSｺﾞｼｯｸ
 73
     1
 44
1.0
  0
MTEXT
  5
870A
330
18
100
AcDbEntity
  8
0
100
AcDbMText
 10
31.55860816051665
 20
-341.7126084318182
 30
0.0
 40
3.299999999999999
 41
4.654799999999999
 71
     1
 72
     5
  1
r
  7
MSｺﾞｼｯｸ
 73
     1
 44
1.0
  0
LINE
  5
870B
330
18
100
AcDbEntity
  8
0
100
AcDbLine
 10
49.4260225447315
 20
-339.7478314428465
 30
0.0
 11
35.92602254473149
 21
-339.7478314428467
 31
0.0
  0
LINE
  5
870C
330
18
100
AcDbEntity
  8
0
100
AcDbLine
 10
51.4260225447315
 20
-339.7478314428465
 30
0.0
 11
35.92602254473149
 21
-339.7478314428467
 31
0.0
  0
MTEXT
  5
870E
330
18
100
AcDbEntity
  8
0
100
AcDbMText
 10
40.00013245176023
 20
-334.4173328649078
 30
0.0
 40
4.0
 41
13.7408
 71
     1
 72
     5
  1
TB1
  7
MSｺﾞｼｯｸ
 73
     1
 44
1.0
  0
LINE
  5
8727
330
18
100
AcDbEntity
  8
0
100
AcDbLine
 10
35.92602254473149
 20
-428.7478314428466
 30
0.0
 11
35.92602254473149
 21
-374.2478314428469
 31
0.0
  0
LINE
  5
8728
330
18
100
AcDbEntity
  8
0
100
AcDbLine
 10
35.92602254473149
 20
-428.7478314428467
 30
0.0
 11
35.92602254473149
 21
-374.2478314428469
 31
0.0
  0
MTEXT
  5
8729
330
18
100
AcDbEntity
  8
0
100
AcDbMText
 10
30.23096218502871
 20
-397.1391876262523
 30
0.0
 40
3.0
 41
4.654799999999999
 71
     1
 72
     5
  1
B2
  7
MSｺﾞｼｯｸ
 73
     1
 44
1.0
  0
LINE
  5
872A
330
18
100
AcDbEntity
  8
0
100
AcDbLine
 10
51.4260225447315
 20
-426.8663551147121
 30
0.0
 11
51.4260225447315
 21
-428.7478314428467
 31
0.0
  0
LINE
  5
872B
330
18
100
AcDbEntity
  8
0
100
AcDbLine
 10
49.4260225447315
 20
-428.7478314428466
 30
0.0
 11
35.92602254473149
 21
-428.7478314428466
 31
0.0
  0
LINE
  5
872C
330
18
100
AcDbEntity
  8
0
100
AcDbLine
 10
51.4260225447315
 20
-428.7478314428467
 30
0.0
 11
35.92602254473149
 21
-428.7478314428467
 31
0.0
  0
MTEXT
  5
872D
330
18
100
AcDbEntity
  8
0
100
AcDbMText
 10
28.61736869333356
 20
-424.4562800095592
 30
0.0
 40
3.0
 41
4.654799999999999
 71
     1
 72
     5
  1
DBC
  7
MSｺﾞｼｯｸ
 73
     1
 44
1.0
  0
MTEXT
  5
872E
330
18
100
AcDbEntity
  8
0
100
AcDbMText
 10
28.65200413122432
 20
-419.140064779505
 30
0.0
 40
3.0
 41
4.654799999999999
 71
     1
 72
     5
  1
DBK
  7
MSｺﾞｼｯｸ
 73
     1
 44
1.0
  0
MTEXT
  5
872F
330
18
100
AcDbEntity
  8
0
100
AcDbMText
 10
30.74401377108609
 20
-413.8673288999625
 30
0.0
 40
3.0
 41
4.654799999999999
 71
     1
 72
     5
  1
W
  7
MSｺﾞｼｯｸ
 73
     1
 44
1.0
  0
MTEXT
  5
8730
330
18
100
AcDbEntity
  8
0
100
AcDbMText
 10
31.18377661810575
 20
-403.17151600234
 30
0.0
 40
3.0
 41
4.654799999999999
 71
     1
 72
     5
  1
U
  7
MSｺﾞｼｯｸ
 73
     1
 44
1.0
  0
MTEXT
  5
8731
330
18
100
AcDbEntity
  8
0
100
AcDbMText
 10
31.11048787906622
 20
-408.67151600234
 30
0.0
 40
3.0
 41
4.654799999999999
 71
     1
 72
     5
  1
V
  7
MSｺﾞｼｯｸ
 73
     1
 44
1.0
  0
LINE
  5
8732
330
18
100
AcDbEntity
  8
0
100
AcDbLine
 10
49.4260225447315
 20
-374.2478314428469
 30
0.0
 11
35.92602254473149
 21
-374.2478314428469
 31
0.0
  0
LINE
  5
8733
330
18
100
AcDbEntity
  8
0
100
AcDbLine
 10
51.4260225447315
 20
-374.2478314428469
 30
0.0
 11
35.92602254473149
 21
-374.2478314428469
 31
0.0
  0
MTEXT
  5
8734
330
18
100
AcDbEntity
  8
0
100
AcDbMText
 10
30.0843786243937
 20
-391.7912830712953
 30
0.0
 40
3.0
 41
4.654799999999999
 71
     1
 72
     5
  1
B1
  7
MSｺﾞｼｯｸ
 73
     1
 44
1.0
  0
MTEXT
  5
8735
330
18
100
AcDbEntity
  8
0
100
AcDbMText
 10
30.16280586068262
 20
-386.2912868590042
 30
0.0
 40
3.0
 41
4.654799999999999
 71
     1
 72
     5
  1
(T)
  7
MSｺﾞｼｯｸ
 73
     1
 44
1.0
  0
MTEXT
  5
8736
330
18
100
AcDbEntity
  8
0
100
AcDbMText
 10
31.18377661810575
 20
-375.4433747286298
 30
0.0
 40
3.0
 41
4.654799999999999
 71
     1
 72
     5
  1
R
  7
MSｺﾞｼｯｸ
 73
     1
 44
1.0
  0
MTEXT
  5
8737
330
18
100
AcDbEntity
  8
0
100
AcDbMText
 10
31.18377661810575
 20
-380.7912830712952
 30
0.0
 40
3.0
 41
4.654799999999999
 71
     1
 72
     5
  1
S
  7
MSｺﾞｼｯｸ
 73
     1
 44
1.0
  0
MTEXT
  5
8738
330
18
100
AcDbEntity
  8
0
100
AcDbMText
 10
40.00013245176023
 20
-368.9173328649078
 30
0.0
 40
4.0
 41
13.7408
 71
     1
 72
     5
  1
TB2
  7
MSｺﾞｼｯｸ
 73
     1
 44
1.0
  0
LINE
  5
873B
330
18
100
AcDbEntity
  8
0
100
AcDbLine
 10
51.4260225447315
 20
-358.2478314428467
 30
0.0
 11
51.4260225447315
 21
-357.1045630726672
 31
0.0
  0
LINE
  5
8753
330
18
100
AcDbEntity
  8
0
100
AcDbLine
 10
56.9260225447315
 20
-469.2478314428466
 30
0.0
 11
56.92602254473468
 21
-391.2478314428467
 31
0.0
  0
LINE
  5
8754
330
18
100
AcDbEntity
  8
0
100
AcDbLine
 10
74.4260225447315
 20
-323.2478314428467
 30
0.0
 11
74.4260225447315
 21
-469.2478314428466
 31
0.0
  0
LINE
  5
8755
330
18
100
AcDbEntity
  8
0
100
AcDbLine
 10
56.9260225447315
 20
-469.2478314428466
 30
0.0
 11
74.4260225447315
 21
-469.2478314428466
 31
0.0
  0
LINE
  5
8756
330
18
100
AcDbEntity
  8
0
100
AcDbLine
 10
56.9260225447315
 20
-323.2478314428467
 30
0.0
 11
56.9260225447315
 21
-374.2478314428467
 31
0.0
  0
LINE
  5
8757
330
18
100
AcDbEntity
  8
0
100
AcDbLine
 10
53.9260225447315
 20
-374.2478314428465
 30
0.0
 11
56.9260225447315
 21
-374.2478314428465
 31
0.0
  0
LINE
  5
8758
330
18
100
AcDbEntity
  8
0
100
AcDbLine
 10
56.92602254473468
 20
-391.2478314428467
 30
0.0
 11
53.92602254472945
 21
-391.2478314428464
 31
0.0
  0
LINE
  5
8759
330
18
100
AcDbEntity
  8
0
100
AcDbLine
 10
53.9260225447315
 20
-374.2478314428465
 30
0.0
 11
53.92602254472945
 21
-391.2478314428464
 31
0.0
  0
MTEXT
  5
875A
330
18
100
AcDbEntity
  8
0
100
AcDbMText
 10
55.68435315239764
 20
-392.9248155994191
 30
0.0
 40
2.399999999999999
 41
7.047999999999999
 71
     3
 72
     5
  1
J2
 73
     1
 44
1.0
  0
MTEXT
  5
875B
330
18
100
AcDbEntity
  8
0
100
AcDbMText
 10
55.07995371316645
 20
-359.225290747217
 30
0.0
 40
2.399999999999999
 41
7.047999999999999
 71
     3
 72
     5
  1
J1
  7
MSｺﾞｼｯｸ
 73
     1
 44
1.0
  0
LINE
  5
875C
330
18
100
AcDbEntity
  8
0
100
AcDbLine
 10
74.4260225447315
 20
-323.2478314428467
 30
0.0
 11
56.9260225447315
 21
-323.2478314428467
 31
0.0
  0
MTEXT
  5
875D
330
18
100
AcDbEntity
  8
0
100
AcDbMText
 10
56.63890719700828
 20
-406.4849113865202
 30
0.0
 40
2.399999999999999
 41
7.047999999999999
 71
     3
 72
     5
  1
CN2
 73
     1
 44
1.0
  0
MTEXT
  5
875E
330
18
100
AcDbEntity
  8
0
100
AcDbMText
 10
56.1277898643342
 20
-444.5450071736217
 30
0.0
 40
2.399999999999999
 41
7.047999999999999
 71
     3
 72
     5
  1
CN1
 73
     1
 44
1.0
  0
LINE
  5
87BC
330
18
100
AcDbEntity
  8
0
100
AcDbLine
 10
70.92602254473149
 20
-467.0478314428467
 30
0.0
 11
70.92602254473149
 21
-469.2478314428466
 31
0.0
  0
LINE
  5
87BD
330
18
100
AcDbEntity
  8
0
100
AcDbLine
 10
72.42602254473149
 20
-324.2478314428467
 30
0.0
 11
72.42602254473149
 21
-469.2478314428466
 31
0.0
  0
LINE
  5
87BF
330
18
100
AcDbEntity
  8
0
100
AcDbLine
 10
70.92602254473149
 20
-329.7478314428467
 30
0.0
 11
70.92602254473149
 21
-324.2478314428467
 31
0.0
  0
LINE
  5
87C0
330
18
100
AcDbEntity
  8
0
100
AcDbLine
 10
70.92602254473149
 20
-324.2478314428467
 30
0.0
 11
72.42602254473149
 21
-324.2478314428467
 31
0.0
  0
LINE
  5
87C2
330
18
100
AcDbEntity
  8
0
100
AcDbLine
 10
56.9260225447315
 20
-325.9978314428467
 30
0.0
 11
70.92602254473149
 21
-325.9978314428467
 31
0.0
  0
LINE
  5
87C3
330
18
100
AcDbEntity
  8
0
100
AcDbLine
 10
56.9260225447315
 20
-331.4978314428467
 30
0.0
 11
63.40102254473149
 21
-331.4978314428467
 31
0.0
  0
LINE
  5
87C4
330
18
100
AcDbEntity
  8
0
100
AcDbLine
 10
56.9260225447315
 20
-328.7478314428467
 30
0.0
 11
70.92602254473149
 21
-328.7478314428467
 31
0.0
  0
LINE
  5
87F1
330
18
100
AcDbEntity
  8
0
100
AcDbLine
 10
51.4260225447315
 20
-374.2478314428469
 30
0.0
 11
51.4260225447315
 21
-375.8663551147122
 31
0.0
  0
MTEXT
  5
8AEF
330
18
100
AcDbEntity
  8
0
100
AcDbMText
 10
81.96096735568444
 20
-323.4587563517167
 30
0.0
 40
3.349823614934269
 41
15.77211809006422
 71
     1
 72
     5
  1
CC-Link
  7
MSｺﾞｼｯｸ
 73
     1
 44
1.0
  0
LWPOLYLINE
  5
8AF0
330
18
100
AcDbEntity
  8
0
100
AcDbPolyline
 90
        8
 70
     1
 43
0.0
 10
82.32087448179886
 20
-320.954761922751
 10
96.58454871169034
 20
-320.954761922751
 42
-0.4142135623730951
 10
97.7330596653821
 20
-322.1032728764428
 10
97.7330596653821
 20
-328.2121496626771
 42
-0.4142135623730906
 10
96.58454871169034
 20
-329.3606606163688
 10
82.32087448179909
 20
-329.3606606163689
 42
-0.4142135623730951
 10
81.17236352810726
 20
-328.2121496626771
 10
81.17236352810705
 20
-322.1032728764428
 42
-0.4142135623730984
  0
MTEXT
  5
8AF1
330
18
100
AcDbEntity
  8
0
100
AcDbMText
 10
91.60178542786614
 20
-368.7906065866
 30
0.0
 40
2.392731153524477
 41
10.33162170242641
 71
     5
 72
     5
  1
{\fＭＳ ゴシック|b0|i0|c128|p49;ST No.}
  7
MSｺﾞｼｯｸ
 73
     1
 44
1.0
  0
MTEXT
  5
8AF2
330
18
100
AcDbEntity
  8
0
100
AcDbMText
 10
90.10812344696891
 20
-375.8203918708589
 30
0.0
 40
2.153846153846153
 41
1.938461538461538
 71
     1
 72
     5
  1
\T1.1;\fＭＳ ゴシック|b0|i0|c128|p18;\H1.4;2
  7
MSｺﾞｼｯｸ
 11
0.9510565608316644
 21
0.3090168573056278
 31
0.0
 73
     1
 44
1.0
  0
LINE
  5
8AF3
330
18
100
AcDbEntity
  8
0
100
AcDbLine
 10
86.88756100626994
 20
-375.055523750539
 30
0.0
 11
96.9260225447315
 21
-375.055523750539
 31
0.0
  0
MTEXT
  5
8AF4
330
18
100
AcDbEntity
  8
0
100
AcDbMText
 10
88.4057059981057
 20
-383.4480653467618
 30
0.0
 40
2.153846153846153
 41
1.938461538461538
 71
     1
 72
     5
  1
\T1.1;\fＭＳ ゴシック|b0|i0|c128|p18;\H1.4;9
  7
MSｺﾞｼｯｸ
 11
-0.5877850844899976
 21
0.8090171162905557
 31
0.0
 73
     1
 44
1.0
  0
LINE
  5
8AF5
330
18
100
AcDbEntity
  8
0
100
AcDbLine
 10
86.88756100626994
 20
-385.0170622120775
 30
0.0
 11
96.9260225447315
 21
-385.0170622120775
 31
0.0
  0
CIRCLE
  5
8AF6
330
18
100
AcDbEntity
  8
0
100
AcDbCircle
 10
91.96448408319303
 20
-379.9401391351544
 30
0.0
 40
1.846153846153846
  0
MTEXT
  5
8AF7
330
18
100
AcDbEntity
  8
0
100
AcDbMText
 10
88.10071193518979
 20
-377.4331644640947
 30
0.0
 40
2.153846153846153
 41
1.805318338648825
 71
     1
 72
     5
  1
\T1.1;\fＭＳ ゴシック|b0|i0|c128|p18;\H1.4;1
  7
MSｺﾞｼｯｸ
 11
0.5877850844899976
 21
0.8090171162905557
 31
0.0
 73
     1
 44
1.0
  0
MTEXT
  5
8AF8
330
18
100
AcDbEntity
  8
0
100
AcDbMText
 10
90.18471815424708
 20
-386.9943837438069
 30
0.0
 40
2.153846153846153
 41
1.938461538461538
 71
     1
 72
     5
  1
\T1.1;\fＭＳ ゴシック|b0|i0|c128|p18;\H1.4;2
  7
MSｺﾞｼｯｸ
 11
0.9510565608316644
 21
0.3090168573056278
 31
0.0
 73
     1
 44
1.0
  0
MTEXT
  5
8AF9
330
18
100
AcDbEntity
  8
0
100
AcDbMText
 10
88.177306642468
 20
-388.6071563370427
 30
0.0
 40
2.153846153846153
 41
1.805318338648825
 71
     1
 72
     5
  1
\T1.1;\fＭＳ ゴシック|b0|i0|c128|p18;\H1.4;1
  7
MSｺﾞｼｯｸ
 11
0.5877850844899976
 21
0.8090171162905557
 31
0.0
 73
     1
 44
1.0
  0
LINE
  5
8AFA
330
18
100
AcDbEntity
  8
0
100
AcDbLine
 10
86.88756100626994
 20
-386.2862929813083
 30
0.0
 11
96.9260225447315
 21
-386.2862929813083
 31
0.0
  0
MTEXT
  5
8AFB
330
18
100
AcDbEntity
  8
0
100
AcDbMText
 10
88.48230070538386
 20
-394.6220572197097
 30
0.0
 40
2.153846153846153
 41
1.938461538461538
 71
     1
 72
     5
  1
\T1.1;\fＭＳ ゴシック|b0|i0|c128|p18;\H1.4;9
  7
MSｺﾞｼｯｸ
 11
-0.5877850844899976
 21
0.8090171162905557
 31
0.0
 73
     1
 44
1.0
  0
LINE
  5
8AFC
330
18
100
AcDbEntity
  8
0
100
AcDbLine
 10
86.88756100626994
 20
-397.5170622120775
 30
0.0
 11
96.9260225447315
 21
-397.5170622120775
 31
0.0
  0
LINE
  5
8AFD
330
18
100
AcDbEntity
  8
0
100
AcDbLine
 10
86.88756100626994
 20
-396.2478314428467
 30
0.0
 11
96.9260225447315
 21
-396.2478314428467
 31
0.0
  0
CIRCLE
  5
8AFE
330
18
100
AcDbEntity
  8
0
100
AcDbCircle
 10
91.96448408319303
 20
-391.1709083659236
 30
0.0
 40
1.846153846153846
  0
LINE
  5
8AFF
330
18
100
AcDbEntity
  8
0
100
AcDbLine
 10
85.90214348727323
 20
-372.7478314428467
 30
0.0
 11
99.4260225447315
 21
-372.7478314428467
 31
0.0
  0
MTEXT
  5
8B00
330
18
100
AcDbEntity
  8
0
100
AcDbMText
 10
88.02315112531724
 20
-399.9388585325311
 30
0.0
 40
2.153846153846153
 41
1.805318338648825
 71
     1
 72
     5
  1
\T1.1;\fＭＳ ゴシック|b0|i0|c128|p18;\H1.4;1
  7
MSｺﾞｼｯｸ
 11
0.5877850844899976
 21
0.8090171162905557
 31
0.0
 73
     1
 44
1.0
  0
CIRCLE
  5
8B01
330
18
100
AcDbEntity
  8
0
100
AcDbCircle
 10
91.96448408319303
 20
-402.4016775966928
 30
0.0
 40
1.846153846153846
  0
LINE
  5
8B02
330
18
100
AcDbEntity
  8
0
100
AcDbLine
 10
86.88756100626994
 20
-407.4786006736159
 30
0.0
 11
96.9260225447315
 21
-407.4786006736159
 31
0.0
  0
LINE
  5
8B03
330
18
100
AcDbEntity
  8
0
100
AcDbLine
 10
86.73371485242382
 20
-409.555523750539
 30
0.0
 11
94.73371485242381
 21
-409.555523750539
 31
0.0
  0
LINE
  5
8B04
330
18
100
AcDbEntity
  8
0
100
AcDbLine
 10
86.73371485242382
 20
-409.555523750539
 30
0.0
 11
94.73371485242381
 21
-409.555523750539
 31
0.0
  0
LINE
  5
8B05
330
18
100
AcDbEntity
  8
0
100
AcDbLine
 10
88.31063792934688
 20
-415.8247545197698
 30
0.0
 11
90.88756100626994
 21
-415.0939852890005
 31
0.0
  0
LINE
  5
8B06
330
18
100
AcDbEntity
  8
0
100
AcDbLine
 10
88.31063792934688
 20
-415.8247545197698
 30
0.0
 11
90.88756100626994
 21
-415.0939852890005
 31
0.0
  0
LINE
  5
8B07
330
18
100
AcDbEntity
  8
0
100
AcDbLine
 10
86.73371485242382
 20
-414.6709083659236
 30
0.0
 11
94.73371485242381
 21
-414.6709083659236
 31
0.0
  0
LINE
  5
8B08
330
18
100
AcDbEntity
  8
0
100
AcDbLine
 10
86.73371485242382
 20
-414.6709083659236
 30
0.0
 11
94.73371485242381
 21
-414.6709083659236
 31
0.0
  0
LINE
  5
8B09
330
18
100
AcDbEntity
  8
0
100
AcDbLine
 10
88.31063792934688
 20
-420.9016775966929
 30
0.0
 11
90.88756100626994
 21
-420.1709083659237
 31
0.0
  0
LINE
  5
8B0A
330
18
100
AcDbEntity
  8
0
100
AcDbLine
 10
88.31063792934688
 20
-420.9016775966929
 30
0.0
 11
90.88756100626994
 21
-420.1709083659237
 31
0.0
  0
LINE
  5
8B0B
330
18
100
AcDbEntity
  8
0
100
AcDbLine
 10
88.31063792934688
 20
-423.4786006736159
 30
0.0
 11
90.88756100626994
 21
-424.2478314428467
 31
0.0
  0
LINE
  5
8B0C
330
18
100
AcDbEntity
  8
0
100
AcDbLine
 10
88.31063792934688
 20
-423.4786006736159
 30
0.0
 11
90.88756100626994
 21
-424.2478314428467
 31
0.0
  0
LINE
  5
8B0D
330
18
100
AcDbEntity
  8
0
100
AcDbLine
 10
88.31063792934688
 20
-418.4016775966929
 30
0.0
 11
90.88756100626994
 21
-419.1709083659236
 31
0.0
  0
LINE
  5
8B0E
330
18
100
AcDbEntity
  8
0
100
AcDbLine
 10
88.31063792934688
 20
-418.4016775966929
 30
0.0
 11
90.88756100626994
 21
-419.1709083659236
 31
0.0
  0
LINE
  5
8B0F
330
18
100
AcDbEntity
  8
0
100
AcDbLine
 10
91.92602254473149
 20
-413.7093699043852
 30
0.0
 11
89.15679177550073
 21
-410.9401391351544
 31
0.0
  0
LINE
  5
8B10
330
18
100
AcDbEntity
  8
0
100
AcDbLine
 10
92.38756100626995
 20
-413.2862929813082
 30
0.0
 11
89.57986869857766
 21
-410.5170622120775
 31
0.0
  0
ELLIPSE
  5
8B11
330
18
100
AcDbEntity
  8
0
100
AcDbEllipse
 10
90.73371485242381
 20
-412.1324468274621
 30
0.0
 11
2.038461538461538
 21
0.0
 31
0.0
210
0.0
220
0.0
230
1.0
 40
0.9811320000000002
 41
0.0
 42
6.283184999999999
  0
LINE
  5
8B12
330
18
100
AcDbEntity
  8
0
100
AcDbLine
 10
83.07986869857765
 20
-414.6709083659236
 30
0.0
 11
96.15679177550072
 21
-414.6709083659236
 31
0.0
  0
LINE
  5
8B13
330
18
100
AcDbEntity
  8
0
100
AcDbLine
 10
83.88756100626995
 20
-420.1709083659237
 30
0.0
 11
90.88756100626994
 21
-420.1709083659237
 31
0.0
  0
LINE
  5
8B14
330
18
100
AcDbEntity
  8
0
100
AcDbLine
 10
83.88756100626995
 20
-419.1709083659236
 30
0.0
 11
90.88756100626994
 21
-419.1709083659236
 31
0.0
  0
LINE
  5
8B15
330
18
100
AcDbEntity
  8
0
100
AcDbLine
 10
83.88756100626995
 20
-420.1709083659237
 30
0.0
 11
90.88756100626994
 21
-420.1709083659237
 31
0.0
  0
LINE
  5
8B16
330
18
100
AcDbEntity
  8
0
100
AcDbLine
 10
83.88756100626995
 20
-424.2478314428467
 30
0.0
 11
90.88756100626994
 21
-424.2478314428467
 31
0.0
  0
LINE
  5
8B17
330
18
100
AcDbEntity
  8
0
100
AcDbLine
 10
83.88756100626995
 20
-419.1709083659236
 30
0.0
 11
90.88756100626994
 21
-419.1709083659236
 31
0.0
  0
LINE
  5
8B18
330
18
100
AcDbEntity
  8
0
100
AcDbLine
 10
83.88756100626995
 20
-424.2478314428467
 30
0.0
 11
90.88756100626994
 21
-424.2478314428467
 31
0.0
  0
LINE
  5
8B19
330
18
100
AcDbEntity
  8
0
100
AcDbLine
 10
83.88756100626995
 20
-425.2478314428467
 30
0.0
 11
90.88756100626994
 21
-425.2478314428467
 31
0.0
  0
LINE
  5
8B1A
330
18
100
AcDbEntity
  8
0
100
AcDbLine
 10
83.88756100626995
 20
-425.2478314428467
 30
0.0
 11
90.88756100626994
 21
-425.2478314428467
 31
0.0
  0
LINE
  5
8B1B
330
18
100
AcDbEntity
  8
0
100
AcDbLine
 10
83.88756100626995
 20
-415.0939852890005
 30
0.0
 11
90.88756100626994
 21
-415.0939852890005
 31
0.0
  0
LINE
  5
8B1C
330
18
100
AcDbEntity
  8
0
100
AcDbLine
 10
83.88756100626995
 20
-415.0939852890005
 30
0.0
 11
90.88756100626994
 21
-415.0939852890005
 31
0.0
  0
MTEXT
  5
8B1D
330
18
100
AcDbEntity
  8
0
100
AcDbMText
 10
90.03056263709636
 20
-398.3260859392954
 30
0.0
 40
2.153846153846153
 41
1.938461538461538
 71
     1
 72
     5
  1
\T1.1;\fＭＳ ゴシック|b0|i0|c128|p18;\H1.4;2
  7
MSｺﾞｼｯｸ
 11
0.9510565608316644
 21
0.3090168573056278
 31
0.0
 73
     1
 44
1.0
  0
LINE
  5
8B1E
330
18
100
AcDbEntity
  8
0
100
AcDbLine
 10
88.31063792934688
 20
-431.055523750539
 30
0.0
 11
90.88756100626994
 21
-430.3247545197698
 31
0.0
  0
LINE
  5
8B1F
330
18
100
AcDbEntity
  8
0
100
AcDbLine
 10
88.31063792934688
 20
-431.055523750539
 30
0.0
 11
90.88756100626994
 21
-430.3247545197698
 31
0.0
  0
LINE
  5
8B20
330
18
100
AcDbEntity
  8
0
100
AcDbLine
 10
88.31063792934688
 20
-428.5939852890006
 30
0.0
 11
90.88756100626994
 21
-429.3247545197698
 31
0.0
  0
LINE
  5
8B21
330
18
100
AcDbEntity
  8
0
100
AcDbLine
 10
88.31063792934688
 20
-428.5939852890006
 30
0.0
 11
90.88756100626994
 21
-429.3247545197698
 31
0.0
  0
LINE
  5
8B22
330
18
100
AcDbEntity
  8
0
100
AcDbLine
 10
88.31063792934688
 20
-433.6709083659236
 30
0.0
 11
90.88756100626994
 21
-434.4016775966929
 31
0.0
  0
LINE
  5
8B23
330
18
100
AcDbEntity
  8
0
100
AcDbLine
 10
88.31063792934688
 20
-433.6709083659236
 30
0.0
 11
90.88756100626994
 21
-434.4016775966929
 31
0.0
  0
LINE
  5
8B24
330
18
100
AcDbEntity
  8
0
100
AcDbLine
 10
88.31063792934688
 20
-436.1324468274621
 30
0.0
 11
90.88756100626994
 21
-435.4016775966928
 31
0.0
  0
LINE
  5
8B25
330
18
100
AcDbEntity
  8
0
100
AcDbLine
 10
88.31063792934688
 20
-436.1324468274621
 30
0.0
 11
90.88756100626994
 21
-435.4016775966928
 31
0.0
  0
LINE
  5
8B26
330
18
100
AcDbEntity
  8
0
100
AcDbLine
 10
86.73371485242382
 20
-440.0555237505391
 30
0.0
 11
94.73371485242381
 21
-440.0555237505391
 31
0.0
  0
LINE
  5
8B27
330
18
100
AcDbEntity
  8
0
100
AcDbLine
 10
94.73371485242381
 20
-445.1324468274621
 30
0.0
 11
86.73371485242382
 21
-445.1324468274621
 31
0.0
  0
LINE
  5
8B28
330
18
100
AcDbEntity
  8
0
100
AcDbLine
 10
86.73371485242382
 20
-440.0555237505391
 30
0.0
 11
94.73371485242381
 21
-440.0555237505391
 31
0.0
  0
LINE
  5
8B29
330
18
100
AcDbEntity
  8
0
100
AcDbLine
 10
94.73371485242381
 20
-445.1324468274621
 30
0.0
 11
86.73371485242382
 21
-445.1324468274621
 31
0.0
  0
LINE
  5
8B2A
330
18
100
AcDbEntity
  8
0
100
AcDbLine
 10
92.38756100626995
 20
-443.7478314428467
 30
0.0
 11
89.57986869857766
 21
-440.9786006736159
 31
0.0
  0
LINE
  5
8B2B
330
18
100
AcDbEntity
  8
0
100
AcDbLine
 10
91.92602254473149
 20
-444.2093699043851
 30
0.0
 11
89.15679177550073
 21
-441.4016775966929
 31
0.0
  0
CIRCLE
  5
8B2C
330
18
100
AcDbEntity
  8
0
100
AcDbCircle
 10
90.73371485242381
 20
-443.055523750539
 30
0.0
 40
2.038461538461538
  0
LINE
  5
8B2D
330
18
100
AcDbEntity
  8
0
100
AcDbLine
 10
86.77217639088537
 20
-451.9786006736159
 30
0.0
 11
97.50294562165459
 21
-451.9786006736159
 31
0.0
  0
LINE
  5
8B2E
330
18
100
AcDbEntity
  8
0
100
AcDbLine
 10
88.31063792934688
 20
-438.7478314428467
 30
0.0
 11
90.88756100626994
 21
-439.4786006736159
 31
0.0
  0
LINE
  5
8B2F
330
18
100
AcDbEntity
  8
0
100
AcDbLine
 10
88.31063792934688
 20
-438.7478314428467
 30
0.0
 11
90.88756100626994
 21
-439.4786006736159
 31
0.0
  0
LINE
  5
8B30
330
18
100
AcDbEntity
  8
0
100
AcDbLine
 10
83.07986869857765
 20
-440.0555237505391
 30
0.0
 11
96.15679177550072
 21
-440.0555237505391
 31
0.0
  0
LINE
  5
8B31
330
18
100
AcDbEntity
  8
0
100
AcDbLine
 10
83.88756100626995
 20
-439.4786006736159
 30
0.0
 11
90.88756100626994
 21
-439.4786006736159
 31
0.0
  0
LINE
  5
8B32
330
18
100
AcDbEntity
  8
0
100
AcDbLine
 10
83.88756100626995
 20
-439.4786006736159
 30
0.0
 11
90.88756100626994
 21
-439.4786006736159
 31
0.0
  0
LINE
  5
8B33
330
18
100
AcDbEntity
  8
0
100
AcDbLine
 10
83.88756100626995
 20
-434.4016775966929
 30
0.0
 11
90.88756100626994
 21
-434.4016775966929
 31
0.0
  0
LINE
  5
8B34
330
18
100
AcDbEntity
  8
0
100
AcDbLine
 10
83.88756100626995
 20
-429.3247545197698
 30
0.0
 11
90.88756100626994
 21
-429.3247545197698
 31
0.0
  0
LINE
  5
8B35
330
18
100
AcDbEntity
  8
0
100
AcDbLine
 10
83.88756100626995
 20
-430.3247545197698
 30
0.0
 11
90.88756100626994
 21
-430.3247545197698
 31
0.0
  0
LINE
  5
8B36
330
18
100
AcDbEntity
  8
0
100
AcDbLine
 10
83.88756100626995
 20
-434.4016775966929
 30
0.0
 11
90.88756100626994
 21
-434.4016775966929
 31
0.0
  0
LINE
  5
8B37
330
18
100
AcDbEntity
  8
0
100
AcDbLine
 10
83.88756100626995
 20
-429.3247545197698
 30
0.0
 11
90.88756100626994
 21
-429.3247545197698
 31
0.0
  0
LINE
  5
8B38
330
18
100
AcDbEntity
  8
0
100
AcDbLine
 10
83.88756100626995
 20
-430.3247545197698
 30
0.0
 11
90.88756100626994
 21
-430.3247545197698
 31
0.0
  0
LINE
  5
8B39
330
18
100
AcDbEntity
  8
0
100
AcDbLine
 10
83.88756100626995
 20
-435.4016775966928
 30
0.0
 11
90.88756100626994
 21
-435.4016775966928
 31
0.0
  0
LINE
  5
8B3A
330
18
100
AcDbEntity
  8
0
100
AcDbLine
 10
83.88756100626995
 20
-435.4016775966928
 30
0.0
 11
90.88756100626994
 21
-435.4016775966928
 31
0.0
  0
CIRCLE
  5
8B3B
330
18
100
AcDbEntity
  8
0
100
AcDbCircle
 10
89.77217639088536
 20
-454.5170622120775
 30
0.0
 40
1.923076923076923
  0
CIRCLE
  5
8B3C
330
18
100
AcDbEntity
  8
0
100
AcDbCircle
 10
89.77217639088536
 20
-460.5939852890005
 30
0.0
 40
1.923076923076923
  0
LINE
  5
8B3D
330
18
100
AcDbEntity
  8
0
100
AcDbLine
 10
86.77217639088537
 20
-462.9016775966929
 30
0.0
 11
97.50294562165459
 21
-462.9016775966929
 31
0.0
  0
LINE
  5
8B3E
330
18
100
AcDbEntity
  8
0
100
AcDbLine
 10
86.77217639088537
 20
-458.1324468274621
 30
0.0
 11
97.50294562165459
 21
-458.1324468274621
 31
0.0
  0
LINE
  5
8B3F
330
18
100
AcDbEntity
  8
0
100
AcDbLine
 10
86.77217639088537
 20
-456.9016775966929
 30
0.0
 11
97.50294562165459
 21
-456.9016775966929
 31
0.0
  0
MTEXT
  5
8B40
330
18
100
AcDbEntity
  8
0
100
AcDbMText
 10
91.75478972944686
 20
-471.0664906261154
 30
0.0
 40
2.392731153524477
 41
11.67959072507596
 71
     5
 72
     5
  1
{\fＭＳ ゴシック|b0|i0|c128|p49;RD/SD}
  7
MSｺﾞｼｯｸ
 73
     1
 44
1.0
  0
MTEXT
  5
8B41
330
18
100
AcDbEntity
  8
0
100
AcDbMText
 10
91.60395085304344
 20
-467.1315228358134
 30
0.0
 40
2.392731153524477
 41
18.25893143254529
 71
     5
 72
     5
  1
{\fＭＳ ゴシック|b0|i0|c128|p49;L ERR/L RUN}
  7
MSｺﾞｼｯｸ
 73
     1
 44
1.0
  0
LINE
  5
8B42
330
18
100
AcDbEntity
  8
0
100
AcDbLine
 10
99.4260225447315
 20
-464.5642797982714
 30
0.0
 11
77.92602254473149
 21
-464.5642797982714
 31
0.0
  0
LINE
  5
8B43
330
18
100
AcDbEntity
  8
0
100
AcDbLine
 10
88.31063792934688
 20
-425.978600673616
 30
0.0
 11
90.88756100626994
 21
-425.2478314428467
 31
0.0
  0
LINE
  5
8B44
330
18
100
AcDbEntity
  8
0
100
AcDbLine
 10
88.31063792934688
 20
-425.978600673616
 30
0.0
 11
90.88756100626994
 21
-425.2478314428467
 31
0.0
  0
MTEXT
  5
8B45
330
18
100
AcDbEntity
  8
0
100
AcDbMText
 10
81.88294962218012
 20
-389.8938458065199
 30
0.0
 40
2.392731153524477
 41
5.565971209328641
 71
     5
 72
     5
  1
{\fＭＳ ゴシック|b0|i0|c128|p49;x 1}
  7
MSｺﾞｼｯｸ
 73
     1
 44
1.0
  0
LINE
  5
8B46
330
18
100
AcDbEntity
  8
0
100
AcDbLine
 10
86.73371485242382
 20
-372.6709083659236
 30
0.0
 11
86.73371485242382
 21
-414.6709083659236
 31
0.0
  0
LINE
  5
8B47
330
18
100
AcDbEntity
  8
0
100
AcDbLine
 10
85.90214348727323
 20
-372.7478314428467
 30
0.0
 11
85.90214348727323
 21
-407.4786006736159
 31
0.0
  0
LINE
  5
8B48
330
18
100
AcDbEntity
  8
0
100
AcDbLine
 10
77.92602254473149
 20
-318.7478314428467
 30
0.0
 11
77.92602254473149
 21
-478.7478314428467
 31
0.0
  0
LINE
  5
8B49
330
18
100
AcDbEntity
  8
0
100
AcDbLine
 10
77.92602254473161
 20
-318.7478314428467
 30
0.0
 11
77.92602254473149
 21
-478.7478314428467
 31
0.0
  0
LINE
  5
8B4A
330
18
100
AcDbEntity
  8
0
100
AcDbLine
 10
77.92602254473149
 20
-319.7478314428467
 30
0.0
 11
77.92602254473149
 21
-477.7478314428467
 31
0.0
  0
LINE
  5
8B4B
330
18
100
AcDbEntity
  8
0
100
AcDbLine
 10
85.15679177550072
 20
-440.0555237505391
 30
0.0
 11
85.15679177550072
 21
-464.5642797982714
 31
0.0
  0
LINE
  5
8B4C
330
18
100
AcDbEntity
  8
0
100
AcDbLine
 10
86.73371485242382
 20
-464.5642797982714
 30
0.0
 11
86.73371485242382
 21
-440.0555237505391
 31
0.0
  0
LINE
  5
8B4D
330
18
100
AcDbEntity
  8
0
100
AcDbLine
 10
79.15679177550072
 20
-407.4786006736159
 30
0.0
 11
79.15679177550072
 21
-464.5642797982714
 31
0.0
  0
LINE
  5
8B4E
330
18
100
AcDbEntity
  8
0
100
AcDbLine
 10
80.15679177550072
 20
-464.5642797982714
 30
0.0
 11
80.15679177550072
 21
-407.4786006736159
 31
0.0
  0
LINE
  5
8B50
330
18
100
AcDbEntity
  8
0
100
AcDbLine
 10
83.88756100626995
 20
-420.1709083659237
 30
0.0
 11
84.38756100626994
 21
-420.9016775966929
 31
0.0
  0
LINE
  5
8B51
330
18
100
AcDbEntity
  8
0
100
AcDbLine
 10
83.88756100626995
 20
-420.1709083659237
 30
0.0
 11
84.38756100626994
 21
-420.9016775966929
 31
0.0
  0
LINE
  5
8B52
330
18
100
AcDbEntity
  8
0
100
AcDbLine
 10
83.88756100626995
 20
-420.1709083659237
 30
0.0
 11
83.88756100626995
 21
-424.2478314428467
 31
0.0
  0
LINE
  5
8B53
330
18
100
AcDbEntity
  8
0
100
AcDbLine
 10
83.88756100626995
 20
-420.1709083659237
 30
0.0
 11
83.88756100626995
 21
-424.2478314428467
 31
0.0
  0
LINE
  5
8B54
330
18
100
AcDbEntity
  8
0
100
AcDbLine
 10
83.07986869857765
 20
-414.7093699043852
 30
0.0
 11
83.07986869857765
 21
-440.0939852890005
 31
0.0
  0
LINE
  5
8B55
330
18
100
AcDbEntity
  8
0
100
AcDbLine
 10
83.88756100626995
 20
-435.4016775966928
 30
0.0
 11
84.38756100626994
 21
-436.1324468274621
 31
0.0
  0
LINE
  5
8B56
330
18
100
AcDbEntity
  8
0
100
AcDbLine
 10
83.88756100626995
 20
-435.4016775966928
 30
0.0
 11
84.38756100626994
 21
-436.1324468274621
 31
0.0
  0
LINE
  5
8B57
330
18
100
AcDbEntity
  8
0
100
AcDbLine
 10
83.88756100626995
 20
-435.4016775966928
 30
0.0
 11
83.88756100626995
 21
-439.4786006736159
 31
0.0
  0
LINE
  5
8B58
330
18
100
AcDbEntity
  8
0
100
AcDbLine
 10
83.88756100626995
 20
-435.4016775966928
 30
0.0
 11
83.88756100626995
 21
-439.4786006736159
 31
0.0
  0
LINE
  5
8B59
330
18
100
AcDbEntity
  8
0
100
AcDbLine
 10
84.38756100626994
 20
-438.7478314428467
 30
0.0
 11
88.31063792934688
 21
-438.7478314428467
 31
0.0
  0
LINE
  5
8B5A
330
18
100
AcDbEntity
  8
0
100
AcDbLine
 10
84.38756100626994
 20
-438.7478314428467
 30
0.0
 11
88.31063792934688
 21
-438.7478314428467
 31
0.0
  0
LINE
  5
8B5B
330
18
100
AcDbEntity
  8
0
100
AcDbLine
 10
84.38756100626994
 20
-436.1324468274621
 30
0.0
 11
88.31063792934688
 21
-436.1324468274621
 31
0.0
  0
LINE
  5
8B5C
330
18
100
AcDbEntity
  8
0
100
AcDbLine
 10
84.38756100626994
 20
-436.1324468274621
 30
0.0
 11
88.31063792934688
 21
-436.1324468274621
 31
0.0
  0
LINE
  5
8B5D
330
18
100
AcDbEntity
  8
0
100
AcDbLine
 10
84.38756100626994
 20
-436.1324468274621
 30
0.0
 11
84.38756100626994
 21
-438.7478314428467
 31
0.0
  0
LINE
  5
8B5E
330
18
100
AcDbEntity
  8
0
100
AcDbLine
 10
84.38756100626994
 20
-436.1324468274621
 30
0.0
 11
84.38756100626994
 21
-438.7478314428467
 31
0.0
  0
LINE
  5
8B5F
330
18
100
AcDbEntity
  8
0
100
AcDbLine
 10
84.38756100626994
 20
-438.7478314428467
 30
0.0
 11
83.88756100626995
 21
-439.4786006736159
 31
0.0
  0
LINE
  5
8B60
330
18
100
AcDbEntity
  8
0
100
AcDbLine
 10
84.38756100626994
 20
-438.7478314428467
 30
0.0
 11
83.88756100626995
 21
-439.4786006736159
 31
0.0
  0
LINE
  5
8B61
330
18
100
AcDbEntity
  8
0
100
AcDbLine
 10
88.31063792934688
 20
-436.1324468274621
 30
0.0
 11
88.31063792934688
 21
-438.7478314428467
 31
0.0
  0
LINE
  5
8B62
330
18
100
AcDbEntity
  8
0
100
AcDbLine
 10
88.31063792934688
 20
-436.1324468274621
 30
0.0
 11
88.31063792934688
 21
-438.7478314428467
 31
0.0
  0
LINE
  5
8B63
330
18
100
AcDbEntity
  8
0
100
AcDbLine
 10
88.31063792934688
 20
-425.978600673616
 30
0.0
 11
88.31063792934688
 21
-428.5939852890006
 31
0.0
  0
LINE
  5
8B64
330
18
100
AcDbEntity
  8
0
100
AcDbLine
 10
88.31063792934688
 20
-425.978600673616
 30
0.0
 11
88.31063792934688
 21
-428.5939852890006
 31
0.0
  0
LINE
  5
8B65
330
18
100
AcDbEntity
  8
0
100
AcDbLine
 10
84.38756100626994
 20
-425.978600673616
 30
0.0
 11
84.38756100626994
 21
-428.5939852890006
 31
0.0
  0
LINE
  5
8B66
330
18
100
AcDbEntity
  8
0
100
AcDbLine
 10
84.38756100626994
 20
-425.978600673616
 30
0.0
 11
84.38756100626994
 21
-428.5939852890006
 31
0.0
  0
LINE
  5
8B67
330
18
100
AcDbEntity
  8
0
100
AcDbLine
 10
83.88756100626995
 20
-425.2478314428467
 30
0.0
 11
83.88756100626995
 21
-429.3247545197698
 31
0.0
  0
LINE
  5
8B68
330
18
100
AcDbEntity
  8
0
100
AcDbLine
 10
83.88756100626995
 20
-425.2478314428467
 30
0.0
 11
83.88756100626995
 21
-429.3247545197698
 31
0.0
  0
LINE
  5
8B69
330
18
100
AcDbEntity
  8
0
100
AcDbLine
 10
84.38756100626994
 20
-428.5939852890006
 30
0.0
 11
88.31063792934688
 21
-428.5939852890006
 31
0.0
  0
LINE
  5
8B6A
330
18
100
AcDbEntity
  8
0
100
AcDbLine
 10
84.38756100626994
 20
-433.6709083659236
 30
0.0
 11
88.31063792934688
 21
-433.6709083659236
 31
0.0
  0
LINE
  5
8B6B
330
18
100
AcDbEntity
  8
0
100
AcDbLine
 10
84.38756100626994
 20
-431.055523750539
 30
0.0
 11
88.31063792934688
 21
-431.055523750539
 31
0.0
  0
LINE
  5
8B6C
330
18
100
AcDbEntity
  8
0
100
AcDbLine
 10
84.38756100626994
 20
-433.6709083659236
 30
0.0
 11
88.31063792934688
 21
-433.6709083659236
 31
0.0
  0
LINE
  5
8B6D
330
18
100
AcDbEntity
  8
0
100
AcDbLine
 10
84.38756100626994
 20
-428.5939852890006
 30
0.0
 11
88.31063792934688
 21
-428.5939852890006
 31
0.0
  0
LINE
  5
8B6E
330
18
100
AcDbEntity
  8
0
100
AcDbLine
 10
84.38756100626994
 20
-431.055523750539
 30
0.0
 11
88.31063792934688
 21
-431.055523750539
 31
0.0
  0
LINE
  5
8B6F
330
18
100
AcDbEntity
  8
0
100
AcDbLine
 10
83.88756100626995
 20
-430.3247545197698
 30
0.0
 11
84.38756100626994
 21
-431.055523750539
 31
0.0
  0
LINE
  5
8B70
330
18
100
AcDbEntity
  8
0
100
AcDbLine
 10
83.88756100626995
 20
-430.3247545197698
 30
0.0
 11
84.38756100626994
 21
-431.055523750539
 31
0.0
  0
LINE
  5
8B71
330
18
100
AcDbEntity
  8
0
100
AcDbLine
 10
84.38756100626994
 20
-428.5939852890006
 30
0.0
 11
83.88756100626995
 21
-429.3247545197698
 31
0.0
  0
LINE
  5
8B72
330
18
100
AcDbEntity
  8
0
100
AcDbLine
 10
84.38756100626994
 20
-428.5939852890006
 30
0.0
 11
83.88756100626995
 21
-429.3247545197698
 31
0.0
  0
LINE
  5
8B73
330
18
100
AcDbEntity
  8
0
100
AcDbLine
 10
84.38756100626994
 20
-433.6709083659236
 30
0.0
 11
83.88756100626995
 21
-434.4016775966929
 31
0.0
  0
LINE
  5
8B74
330
18
100
AcDbEntity
  8
0
100
AcDbLine
 10
84.38756100626994
 20
-433.6709083659236
 30
0.0
 11
83.88756100626995
 21
-434.4016775966929
 31
0.0
  0
LINE
  5
8B75
330
18
100
AcDbEntity
  8
0
100
AcDbLine
 10
84.38756100626994
 20
-431.055523750539
 30
0.0
 11
84.38756100626994
 21
-433.6709083659236
 31
0.0
  0
LINE
  5
8B76
330
18
100
AcDbEntity
  8
0
100
AcDbLine
 10
84.38756100626994
 20
-431.055523750539
 30
0.0
 11
84.38756100626994
 21
-433.6709083659236
 31
0.0
  0
LINE
  5
8B77
330
18
100
AcDbEntity
  8
0
100
AcDbLine
 10
83.88756100626995
 20
-430.3247545197698
 30
0.0
 11
83.88756100626995
 21
-434.4016775966929
 31
0.0
  0
LINE
  5
8B78
330
18
100
AcDbEntity
  8
0
100
AcDbLine
 10
83.88756100626995
 20
-430.3247545197698
 30
0.0
 11
83.88756100626995
 21
-434.4016775966929
 31
0.0
  0
LINE
  5
8B79
330
18
100
AcDbEntity
  8
0
100
AcDbLine
 10
88.31063792934688
 20
-431.055523750539
 30
0.0
 11
88.31063792934688
 21
-433.6709083659236
 31
0.0
  0
LINE
  5
8B7A
330
18
100
AcDbEntity
  8
0
100
AcDbLine
 10
88.31063792934688
 20
-431.055523750539
 30
0.0
 11
88.31063792934688
 21
-433.6709083659236
 31
0.0
  0
LINE
  5
8B7B
330
18
100
AcDbEntity
  8
0
100
AcDbLine
 10
84.38756100626994
 20
-420.9016775966929
 30
0.0
 11
88.31063792934688
 21
-420.9016775966929
 31
0.0
  0
LINE
  5
8B7C
330
18
100
AcDbEntity
  8
0
100
AcDbLine
 10
84.38756100626994
 20
-423.4786006736159
 30
0.0
 11
88.31063792934688
 21
-423.4786006736159
 31
0.0
  0
LINE
  5
8B7D
330
18
100
AcDbEntity
  8
0
100
AcDbLine
 10
84.38756100626994
 20
-420.9016775966929
 30
0.0
 11
88.31063792934688
 21
-420.9016775966929
 31
0.0
  0
LINE
  5
8B7E
330
18
100
AcDbEntity
  8
0
100
AcDbLine
 10
84.38756100626994
 20
-423.4786006736159
 30
0.0
 11
88.31063792934688
 21
-423.4786006736159
 31
0.0
  0
LINE
  5
8B7F
330
18
100
AcDbEntity
  8
0
100
AcDbLine
 10
84.38756100626994
 20
-425.978600673616
 30
0.0
 11
88.31063792934688
 21
-425.978600673616
 31
0.0
  0
LINE
  5
8B80
330
18
100
AcDbEntity
  8
0
100
AcDbLine
 10
84.38756100626994
 20
-425.978600673616
 30
0.0
 11
88.31063792934688
 21
-425.978600673616
 31
0.0
  0
LINE
  5
8B81
330
18
100
AcDbEntity
  8
0
100
AcDbLine
 10
84.38756100626994
 20
-423.4786006736159
 30
0.0
 11
83.88756100626995
 21
-424.2478314428467
 31
0.0
  0
LINE
  5
8B82
330
18
100
AcDbEntity
  8
0
100
AcDbLine
 10
84.38756100626994
 20
-423.4786006736159
 30
0.0
 11
83.88756100626995
 21
-424.2478314428467
 31
0.0
  0
LINE
  5
8B83
330
18
100
AcDbEntity
  8
0
100
AcDbLine
 10
84.38756100626994
 20
-420.9016775966929
 30
0.0
 11
84.38756100626994
 21
-423.4786006736159
 31
0.0
  0
LINE
  5
8B84
330
18
100
AcDbEntity
  8
0
100
AcDbLine
 10
84.38756100626994
 20
-420.9016775966929
 30
0.0
 11
84.38756100626994
 21
-423.4786006736159
 31
0.0
  0
LINE
  5
8B85
330
18
100
AcDbEntity
  8
0
100
AcDbLine
 10
83.88756100626995
 20
-425.2478314428467
 30
0.0
 11
84.38756100626994
 21
-425.978600673616
 31
0.0
  0
LINE
  5
8B86
330
18
100
AcDbEntity
  8
0
100
AcDbLine
 10
83.88756100626995
 20
-425.2478314428467
 30
0.0
 11
84.38756100626994
 21
-425.978600673616
 31
0.0
  0
LINE
  5
8B87
330
18
100
AcDbEntity
  8
0
100
AcDbLine
 10
88.31063792934688
 20
-420.9016775966929
 30
0.0
 11
88.31063792934688
 21
-423.4786006736159
 31
0.0
  0
LINE
  5
8B88
330
18
100
AcDbEntity
  8
0
100
AcDbLine
 10
88.31063792934688
 20
-420.9016775966929
 30
0.0
 11
88.31063792934688
 21
-423.4786006736159
 31
0.0
  0
MTEXT
  5
8B89
330
18
100
AcDbEntity
  8
0
100
AcDbMText
 10
88.32814518823312
 20
-405.9537594151982
 30
0.0
 40
2.153846153846153
 41
0.314676154032935
 71
     1
 72
     5
  1
\T1.1;\fＭＳ ゴシック|b0|i0|c128|p18;\H1.4;9
  7
MSｺﾞｼｯｸ
 11
-0.5877850844899976
 21
0.8090171162905557
 31
0.0
 73
     1
 44
1.0
  0
MTEXT
  5
8B8A
330
18
100
AcDbEntity
  8
0
100
AcDbMText
 10
82.25675083601677
 20
-403.6238065364162
 30
0.0
 40
2.392731153524477
 41
7.182299999999999
 71
     5
 72
     5
  1
{\fＭＳ ゴシック|b0|i0|c128|p49;TB7}
  7
MSｺﾞｼｯｸ
 73
     1
 44
1.0
  0
LINE
  5
8B8B
330
18
100
AcDbEntity
  8
0
100
AcDbLine
 10
85.90214348727323
 20
-407.4786006736159
 30
0.0
 11
77.92602254473155
 21
-407.4786006736159
 31
0.0
  0
LINE
  5
8B8C
330
18
100
AcDbEntity
  8
0
100
AcDbLine
 10
85.15679177550072
 20
-407.4786006736159
 30
0.0
 11
85.15679177550072
 21
-414.6709083659236
 31
0.0
  0
LINE
  5
8B8D
330
18
100
AcDbEntity
  8
0
100
AcDbLine
 10
84.38756100626994
 20
-418.4016775966929
 30
0.0
 11
88.31063792934688
 21
-418.4016775966929
 31
0.0
  0
LINE
  5
8B8E
330
18
100
AcDbEntity
  8
0
100
AcDbLine
 10
84.38756100626994
 20
-418.4016775966929
 30
0.0
 11
88.31063792934688
 21
-418.4016775966929
 31
0.0
  0
LINE
  5
8B8F
330
18
100
AcDbEntity
  8
0
100
AcDbLine
 10
84.38756100626994
 20
-415.8247545197698
 30
0.0
 11
88.31063792934688
 21
-415.8247545197698
 31
0.0
  0
LINE
  5
8B90
330
18
100
AcDbEntity
  8
0
100
AcDbLine
 10
84.38756100626994
 20
-415.8247545197698
 30
0.0
 11
88.31063792934688
 21
-415.8247545197698
 31
0.0
  0
LINE
  5
8B91
330
18
100
AcDbEntity
  8
0
100
AcDbLine
 10
84.38756100626994
 20
-415.8247545197698
 30
0.0
 11
84.38756100626994
 21
-418.4016775966929
 31
0.0
  0
LINE
  5
8B92
330
18
100
AcDbEntity
  8
0
100
AcDbLine
 10
84.38756100626994
 20
-415.8247545197698
 30
0.0
 11
84.38756100626994
 21
-418.4016775966929
 31
0.0
  0
LINE
  5
8B93
330
18
100
AcDbEntity
  8
0
100
AcDbLine
 10
83.88756100626995
 20
-415.0939852890005
 30
0.0
 11
84.38756100626994
 21
-415.8247545197698
 31
0.0
  0
LINE
  5
8B94
330
18
100
AcDbEntity
  8
0
100
AcDbLine
 10
83.88756100626995
 20
-415.0939852890005
 30
0.0
 11
84.38756100626994
 21
-415.8247545197698
 31
0.0
  0
LINE
  5
8B95
330
18
100
AcDbEntity
  8
0
100
AcDbLine
 10
83.88756100626995
 20
-415.0939852890005
 30
0.0
 11
83.88756100626995
 21
-419.1709083659236
 31
0.0
  0
LINE
  5
8B96
330
18
100
AcDbEntity
  8
0
100
AcDbLine
 10
83.88756100626995
 20
-415.0939852890005
 30
0.0
 11
83.88756100626995
 21
-419.1709083659236
 31
0.0
  0
LINE
  5
8B97
330
18
100
AcDbEntity
  8
0
100
AcDbLine
 10
84.38756100626994
 20
-418.4016775966929
 30
0.0
 11
83.88756100626995
 21
-419.1709083659236
 31
0.0
  0
LINE
  5
8B98
330
18
100
AcDbEntity
  8
0
100
AcDbLine
 10
84.38756100626994
 20
-418.4016775966929
 30
0.0
 11
83.88756100626995
 21
-419.1709083659236
 31
0.0
  0
LINE
  5
8B99
330
18
100
AcDbEntity
  8
0
100
AcDbLine
 10
88.31063792934688
 20
-415.8247545197698
 30
0.0
 11
88.31063792934688
 21
-418.4016775966929
 31
0.0
  0
LINE
  5
8B9A
330
18
100
AcDbEntity
  8
0
100
AcDbLine
 10
88.31063792934688
 20
-415.8247545197698
 30
0.0
 11
88.31063792934688
 21
-418.4016775966929
 31
0.0
  0
MTEXT
  5
8B9B
330
18
100
AcDbEntity
  8
0
100
AcDbMText
 10
82.25675083601677
 20
-398.2977904886079
 30
0.0
 40
2.392731153524477
 41
5.565971209328641
 71
     5
 72
     5
  1
{\fＭＳ ゴシック|b0|i0|c128|p49;RATE}
  7
MSｺﾞｼｯｸ
 73
     1
 44
1.0
  0
MTEXT
  5
8B9C
330
18
100
AcDbEntity
  8
0
100
AcDbMText
 10
87.49505121253818
 20
-403.0579561813355
 30
0.0
 40
2.153846153846153
 41
1.938461538461538
 71
     1
 72
     5
  1
\T1.1;\fＭＳ ゴシック|b0|i0|c128|p18;\H1.4;0
  7
MSｺﾞｼｯｸ
 11
0.0
 21
1.0
 31
0.0
 73
     1
 44
1.0
  0
LINE
  5
8B9D
330
18
100
AcDbEntity
  8
0
100
AcDbLine
 10
86.88756100626994
 20
-400.1324468274621
 30
0.0
 11
89.46448408319303
 21
-397.5170622120775
 31
0.0
  0
MTEXT
  5
8B9E
330
18
100
AcDbEntity
  8
0
100
AcDbMText
 10
87.64920672968893
 20
-391.726253985847
 30
0.0
 40
2.153846153846153
 41
1.938461538461538
 71
     1
 72
     5
  1
\T1.1;\fＭＳ ゴシック|b0|i0|c128|p18;\H1.4;0
  7
MSｺﾞｼｯｸ
 11
0.0
 21
1.0
 31
0.0
 73
     1
 44
1.0
  0
MTEXT
  5
8B9F
330
18
100
AcDbEntity
  8
0
100
AcDbMText
 10
82.25675083601677
 20
-378.6885860275762
 30
0.0
 40
2.392731153524477
 41
7.286126815962822
 71
     5
 72
     5
  1
{\fＭＳ ゴシック|b0|i0|c128|p49;x 10}
  7
MSｺﾞｼｯｸ
 73
     1
 44
1.0
  0
LINE
  5
8BA0
330
18
100
AcDbEntity
  8
0
100
AcDbLine
 10
86.88756100626994
 20
-388.9016775966929
 30
0.0
 11
89.46448408319303
 21
-386.2862929813083
 31
0.0
  0
LINE
  5
8BA1
330
18
100
AcDbEntity
  8
0
100
AcDbLine
 10
86.88756100626994
 20
-377.6709083659236
 30
0.0
 11
89.46448408319303
 21
-375.055523750539
 31
0.0
  0
MTEXT
  5
8BA2
330
18
100
AcDbEntity
  8
0
100
AcDbMText
 10
87.57261202241073
 20
-380.552262112899
 30
0.0
 40
2.153846153846153
 41
1.938461538461538
 71
     1
 72
     5
  1
\T1.1;\fＭＳ ゴシック|b0|i0|c128|p18;\H1.4;0
  7
MSｺﾞｼｯｸ
 11
0.0
 21
1.0
 31
0.0
 73
     1
 44
1.0
  0
MTEXT
  5
8BA4
330
18
100
AcDbEntity
  8
0
100
AcDbMText
 10
95.66220110935887
 20
-388.1042166227456
 30
0.0
 40
2.153846153846153
 41
1.938461538461538
 71
     1
 72
     5
  1
\T1.1;\fＭＳ ゴシック|b0|i0|c128|p18;\H1.4;4
  7
MSｺﾞｼｯｸ
 11
0.5877850844899976
 21
-0.8090171162905557
 31
0.0
 73
     1
 44
1.0
  0
LINE
  5
8BA5
330
18
100
AcDbEntity
  8
0
100
AcDbLine
 10
96.88756100626996
 20
-386.2862929813083
 30
0.0
 11
96.9260225447315
 21
-396.2478314428467
 31
0.0
  0
LINE
  5
8BA6
330
18
100
AcDbEntity
  8
0
100
AcDbLine
 10
101.9260225447314
 20
-318.7478314428467
 30
0.0
 11
101.9260225447314
 21
-478.7478314428467
 31
0.0
  0
LINE
  5
8BA7
330
18
100
AcDbEntity
  8
0
100
AcDbLine
 10
99.4260225447315
 20
-372.7478314428467
 30
0.0
 11
99.4260225447315
 21
-464.5642797982714
 31
0.0
  0
LINE
  5
8BA9
330
18
100
AcDbEntity
  8
0
100
AcDbLine
 10
97.54140716011612
 20
-458.1324468274621
 30
0.0
 11
97.54140716011612
 21
-463.0170622120775
 31
0.0
  0
CIRCLE
  5
8BAA
330
18
100
AcDbEntity
  8
0
100
AcDbCircle
 10
94.54140716011611
 20
-460.5939852890005
 30
0.0
 40
1.923076923076923
  0
CIRCLE
  5
8BAB
330
18
100
AcDbEntity
  8
0
100
AcDbCircle
 10
94.54140716011611
 20
-454.5170622120775
 30
0.0
 40
1.923076923076923
  0
LINE
  5
8BAC
330
18
100
AcDbEntity
  8
0
100
AcDbLine
 10
97.54140716011612
 20
-451.9786006736159
 30
0.0
 11
97.54140716011612
 21
-456.8632160582313
 31
0.0
  0
LINE
  5
8BAD
330
18
100
AcDbEntity
  8
0
100
AcDbLine
 10
90.88756100626994
 20
-420.1709083659237
 30
0.0
 11
90.88756100626994
 21
-424.2478314428467
 31
0.0
  0
LINE
  5
8BAE
330
18
100
AcDbEntity
  8
0
100
AcDbLine
 10
90.88756100626994
 20
-420.1709083659237
 30
0.0
 11
90.88756100626994
 21
-424.2478314428467
 31
0.0
  0
LINE
  5
8BAF
330
18
100
AcDbEntity
  8
0
100
AcDbLine
 10
91.38756100626995
 20
-414.7478314428467
 30
0.0
 11
91.38756100626995
 21
-440.1324468274621
 31
0.0
  0
LINE
  5
8BB0
330
18
100
AcDbEntity
  8
0
100
AcDbLine
 10
96.15679177550072
 20
-414.6709083659236
 30
0.0
 11
96.15679177550072
 21
-440.0555237505391
 31
0.0
  0
LINE
  5
8BB1
330
18
100
AcDbEntity
  8
0
100
AcDbLine
 10
90.88756100626994
 20
-435.4016775966928
 30
0.0
 11
90.88756100626994
 21
-439.4786006736159
 31
0.0
  0
LINE
  5
8BB2
330
18
100
AcDbEntity
  8
0
100
AcDbLine
 10
90.88756100626994
 20
-435.4016775966928
 30
0.0
 11
90.88756100626994
 21
-439.4786006736159
 31
0.0
  0
LINE
  5
8BB3
330
18
100
AcDbEntity
  8
0
100
AcDbLine
 10
94.73371485242381
 20
-445.1324468274621
 30
0.0
 11
94.73371485242381
 21
-440.0555237505391
 31
0.0
  0
LINE
  5
8BB4
330
18
100
AcDbEntity
  8
0
100
AcDbLine
 10
90.88756100626994
 20
-425.2478314428467
 30
0.0
 11
90.88756100626994
 21
-429.3247545197698
 31
0.0
  0
LINE
  5
8BB5
330
18
100
AcDbEntity
  8
0
100
AcDbLine
 10
90.88756100626994
 20
-425.2478314428467
 30
0.0
 11
90.88756100626994
 21
-429.3247545197698
 31
0.0
  0
LINE
  5
8BB6
330
18
100
AcDbEntity
  8
0
100
AcDbLine
 10
90.88756100626994
 20
-430.3247545197698
 30
0.0
 11
90.88756100626994
 21
-434.4016775966929
 31
0.0
  0
LINE
  5
8BB7
330
18
100
AcDbEntity
  8
0
100
AcDbLine
 10
90.88756100626994
 20
-430.3247545197698
 30
0.0
 11
90.88756100626994
 21
-434.4016775966929
 31
0.0
  0
MTEXT
  5
8BB8
330
18
100
AcDbEntity
  8
0
100
AcDbMText
 10
95.8651901353615
 20
-404.7347434817559
 30
0.0
 40
2.153846153846153
 41
1.938461538461538
 71
     1
 72
     5
  1
\T1.1;\fＭＳ ゴシック|b0|i0|c128|p18;\H1.4;6
  7
MSｺﾞｼｯｸ
 11
-0.5877850844899976
 21
-0.8090171162905557
 31
0.0
 73
     1
 44
1.0
  0
MTEXT
  5
8BB9
330
18
100
AcDbEntity
  8
0
100
AcDbMText
 10
93.96042853275806
 20
-406.4749728968471
 30
0.0
 40
2.153846153846153
 41
1.938461538461538
 71
     1
 72
     5
  1
\T1.1;\fＭＳ ゴシック|b0|i0|c128|p18;\H1.4;7
  7
MSｺﾞｼｯｸ
 11
-0.9510565608316644
 21
-0.3090168573056278
 31
0.0
 73
     1
 44
1.0
  0
MTEXT
  5
8BBA
330
18
100
AcDbEntity
  8
0
100
AcDbMText
 10
91.14788519952515
 20
-407.0409442706792
 30
0.0
 40
2.153846153846153
 41
1.938461538461538
 71
     1
 72
     5
  1
\T1.1;\fＭＳ ゴシック|b0|i0|c128|p18;\H1.4;8
  7
MSｺﾞｼｯｸ
 11
-0.9510565608316644
 21
0.3090168573056278
 31
0.0
 73
     1
 44
1.0
  0
LINE
  5
8BBB
330
18
100
AcDbEntity
  8
0
100
AcDbLine
 10
96.88756100626996
 20
-397.5170622120775
 30
0.0
 11
96.9260225447315
 21
-407.4786006736159
 31
0.0
  0
LINE
  5
8BBC
330
18
100
AcDbEntity
  8
0
100
AcDbLine
 10
94.73371485242381
 20
-409.555523750539
 30
0.0
 11
94.73371485242381
 21
-414.6709083659236
 31
0.0
  0
LINE
  5
8BBD
330
18
100
AcDbEntity
  8
0
100
AcDbLine
 10
90.88756100626994
 20
-415.0939852890005
 30
0.0
 11
90.88756100626994
 21
-419.1709083659236
 31
0.0
  0
LINE
  5
8BBE
330
18
100
AcDbEntity
  8
0
100
AcDbLine
 10
90.88756100626994
 20
-415.0939852890005
 30
0.0
 11
90.88756100626994
 21
-419.1709083659236
 31
0.0
  0
MTEXT
  5
8BBF
330
18
100
AcDbEntity
  8
0
100
AcDbMText
 10
95.50804559220813
 20
-399.4359188182341
 30
0.0
 40
2.153846153846153
 41
1.938461538461538
 71
     1
 72
     5
  1
\T1.1;\fＭＳ ゴシック|b0|i0|c128|p18;\H1.4;4
  7
MSｺﾞｼｯｸ
 11
0.5877850844899976
 21
-0.8090171162905557
 31
0.0
 73
     1
 44
1.0
  0
MTEXT
  5
8BC0
330
18
100
AcDbEntity
  8
0
100
AcDbMText
 10
96.40178636082261
 20
-402.1388679071168
 30
0.0
 40
2.153846153846153
 41
1.938461538461538
 71
     1
 72
     5
  1
\T1.1;\fＭＳ ゴシック|b0|i0|c128|p18;\H1.4;5
  7
MSｺﾞｼｯｸ
 11
0.0
 21
-1.0
 31
0.0
 73
     1
 44
1.0
  0
LINE
  5
8BC1
330
18
100
AcDbEntity
  8
0
370
    40
100
AcDbLine
 10
91.92602254473149
 20
-401.0939852890006
 30
0.0
 11
91.92602254473149
 21
-403.555523750539
 31
0.0
  0
LWPOLYLINE
  5
8BC2
330
18
100
AcDbEntity
  8
0
100
AcDbPolyline
 90
        3
 70
     0
 43
0.0
 10
91.19525331396227
 20
-401.555523750539
 10
90.4260225447315
 20
-402.3247545197698
 10
91.19525331396227
 20
-403.0939852890005
  0
HATCH
  5
8BC3
330
18
100
AcDbEntity
  8
0
100
AcDbHatch
 10
0.0
 20
0.0
 30
0.0
210
0.0
220
0.0
230
1.0
  2
SOLID
 70
     1
 71
     0
 91
        1
 92
        7
 72
     0
 73
     1
 93
        3
 10
91.19525331396227
 20
-401.555523750539
 10
90.4260225447315
 20
-402.3247545197698
 10
91.19525331396227
 20
-403.0939852890005
 97
        1
330
8BC2
 75
     0
 76
     1
 47
0.651316
 98
        1
 10
12.92602254473149
 20
-528.2862929813083
  0
LINE
  5
8BC4
330
18
100
AcDbEntity
  8
0
370
    40
100
AcDbLine
 10
90.92602254473149
 20
-402.3632160582313
 30
0.0
 11
93.07986869857765
 21
-402.3632160582313
 31
0.0
  0
MTEXT
  5
8BC5
330
18
100
AcDbEntity
  8
0
100
AcDbMText
 10
93.06992841248407
 20
-398.1784377467882
 30
0.0
 40
2.153846153846153
 41
1.938461538461538
 71
     1
 72
     5
  1
\T1.1;\fＭＳ ゴシック|b0|i0|c128|p18;\H1.4;3
  7
MSｺﾞｼｯｸ
 11
0.9510565608316644
 21
-0.3090168573056278
 31
0.0
 73
     1
 44
1.0
  0
MTEXT
  5
8BC6
330
18
100
AcDbEntity
  8
0
100
AcDbMText
 10
96.55594187797333
 20
-390.8071657116284
 30
0.0
 40
2.153846153846153
 41
1.938461538461538
 71
     1
 72
     5
  1
\T1.1;\fＭＳ ゴシック|b0|i0|c128|p18;\H1.4;5
  7
MSｺﾞｼｯｸ
 11
0.0
 21
-1.0
 31
0.0
 73
     1
 44
1.0
  0
MTEXT
  5
8BC7
330
18
100
AcDbEntity
  8
0
100
AcDbMText
 10
96.01934565251225
 20
-393.4030412862674
 30
0.0
 40
2.153846153846153
 41
1.938461538461538
 71
     1
 72
     5
  1
\T1.1;\fＭＳ ゴシック|b0|i0|c128|p18;\H1.4;6
  7
MSｺﾞｼｯｸ
 11
-0.5877850844899976
 21
-0.8090171162905557
 31
0.0
 73
     1
 44
1.0
  0
LWPOLYLINE
  5
8BC8
330
18
100
AcDbEntity
  8
0
100
AcDbPolyline
 90
        3
 70
     0
 43
0.0
 10
91.19525331396227
 20
-390.3247545197698
 10
90.4260225447315
 20
-391.0939852890005
 10
91.19525331396227
 20
-391.8632160582313
  0
HATCH
  5
8BC9
330
18
100
AcDbEntity
  8
0
100
AcDbHatch
 10
0.0
 20
0.0
 30
0.0
210
0.0
220
0.0
230
1.0
  2
SOLID
 70
     1
 71
     0
 91
        1
 92
        7
 72
     0
 73
     1
 93
        3
 10
91.19525331396227
 20
-390.3247545197698
 10
90.4260225447315
 20
-391.0939852890005
 10
91.19525331396227
 20
-391.8632160582313
 97
        1
330
8BC8
 75
     0
 76
     1
 47
0.651316
 98
        1
 10
12.92602254473149
 20
-528.2862929813083
  0
LINE
  5
8BCA
330
18
100
AcDbEntity
  8
0
370
    40
100
AcDbLine
 10
90.92602254473149
 20
-391.1324468274621
 30
0.0
 11
93.07986869857765
 21
-391.1324468274621
 31
0.0
  0
MTEXT
  5
8BCB
330
18
100
AcDbEntity
  8
0
100
AcDbMText
 10
94.11458404990881
 20
-395.1432707013585
 30
0.0
 40
2.153846153846153
 41
1.938461538461538
 71
     1
 72
     5
  1
\T1.1;\fＭＳ ゴシック|b0|i0|c128|p18;\H1.4;7
  7
MSｺﾞｼｯｸ
 11
-0.9510565608316644
 21
-0.3090168573056278
 31
0.0
 73
     1
 44
1.0
  0
MTEXT
  5
8BCC
330
18
100
AcDbEntity
  8
0
100
AcDbMText
 10
91.30204071667591
 20
-395.7092420751907
 30
0.0
 40
2.153846153846153
 41
1.938461538461538
 71
     1
 72
     5
  1
\T1.1;\fＭＳ ゴシック|b0|i0|c128|p18;\H1.4;8
  7
MSｺﾞｼｯｸ
 11
-0.9510565608316644
 21
0.3090168573056278
 31
0.0
 73
     1
 44
1.0
  0
LINE
  5
8BCD
330
18
100
AcDbEntity
  8
0
370
    40
100
AcDbLine
 10
91.92602254473149
 20
-389.8632160582313
 30
0.0
 11
91.92602254473149
 21
-392.3247545197698
 31
0.0
  0
MTEXT
  5
8BCE
330
18
100
AcDbEntity
  8
0
100
AcDbMText
 10
94.03798934263063
 20
-383.9692788284106
 30
0.0
 40
2.153846153846153
 41
1.938461538461538
 71
     1
 72
     5
  1
\T1.1;\fＭＳ ゴシック|b0|i0|c128|p18;\H1.4;7
  7
MSｺﾞｼｯｸ
 11
-0.9510565608316644
 21
-0.3090168573056278
 31
0.0
 73
     1
 44
1.0
  0
MTEXT
  5
8BCF
330
18
100
AcDbEntity
  8
0
100
AcDbMText
 10
95.94275094523402
 20
-382.2290494133195
 30
0.0
 40
2.153846153846153
 41
1.938461538461538
 71
     1
 72
     5
  1
\T1.1;\fＭＳ ゴシック|b0|i0|c128|p18;\H1.4;6
  7
MSｺﾞｼｯｸ
 11
-0.5877850844899976
 21
-0.8090171162905557
 31
0.0
 73
     1
 44
1.0
  0
LINE
  5
8BD0
330
18
100
AcDbEntity
  8
0
100
AcDbLine
 10
96.88756100626996
 20
-375.055523750539
 30
0.0
 11
96.9260225447315
 21
-385.0170622120775
 31
0.0
  0
MTEXT
  5
8BD1
330
18
100
AcDbEntity
  8
0
100
AcDbMText
 10
91.22544600939773
 20
-384.5352502022429
 30
0.0
 40
2.153846153846153
 41
1.938461538461538
 71
     1
 72
     5
  1
\T1.1;\fＭＳ ゴシック|b0|i0|c128|p18;\H1.4;8
  7
MSｺﾞｼｯｸ
 11
-0.9510565608316644
 21
0.3090168573056278
 31
0.0
 73
     1
 44
1.0
  0
MTEXT
  5
8BD2
330
18
100
AcDbEntity
  8
0
100
AcDbMText
 10
93.22408392963485
 20
-386.8467355512998
 30
0.0
 40
2.153846153846153
 41
1.938461538461538
 71
     1
 72
     5
  1
\T1.1;\fＭＳ ゴシック|b0|i0|c128|p18;\H1.4;3
  7
MSｺﾞｼｯｸ
 11
0.9510565608316644
 21
-0.3090168573056278
 31
0.0
 73
     1
 44
1.0
  0
MTEXT
  5
8BD3
330
18
100
AcDbEntity
  8
0
100
AcDbMText
 10
96.47934717069515
 20
-379.6331738386804
 30
0.0
 40
2.153846153846153
 41
1.938461538461538
 71
     1
 72
     5
  1
\T1.1;\fＭＳ ゴシック|b0|i0|c128|p18;\H1.4;5
  7
MSｺﾞｼｯｸ
 11
0.0
 21
-1.0
 31
0.0
 73
     1
 44
1.0
  0
MTEXT
  5
8BD4
330
18
100
AcDbEntity
  8
0
100
AcDbMText
 10
95.58560640208071
 20
-376.9302247497976
 30
0.0
 40
2.153846153846153
 41
1.938461538461538
 71
     1
 72
     5
  1
\T1.1;\fＭＳ ゴシック|b0|i0|c128|p18;\H1.4;4
  7
MSｺﾞｼｯｸ
 11
0.5877850844899976
 21
-0.8090171162905557
 31
0.0
 73
     1
 44
1.0
  0
MTEXT
  5
8BD5
330
18
100
AcDbEntity
  8
0
100
AcDbMText
 10
93.14748922235663
 20
-375.6727436783519
 30
0.0
 40
2.153846153846153
 41
1.938461538461538
 71
     1
 72
     5
  1
\T1.1;\fＭＳ ゴシック|b0|i0|c128|p18;\H1.4;3
  7
MSｺﾞｼｯｸ
 11
0.9510565608316644
 21
-0.3090168573056278
 31
0.0
 73
     1
 44
1.0
  0
LWPOLYLINE
  5
8BD6
330
18
100
AcDbEntity
  8
0
100
AcDbPolyline
 90
        3
 70
     0
 43
0.0
 10
91.19525331396227
 20
-379.0939852890006
 10
90.4260225447315
 20
-379.8632160582313
 10
91.19525331396227
 20
-380.632446827462
  0
HATCH
  5
8BD7
330
18
100
AcDbEntity
  8
0
100
AcDbHatch
 10
0.0
 20
0.0
 30
0.0
210
0.0
220
0.0
230
1.0
  2
SOLID
 70
     1
 71
     0
 91
        1
 92
        7
 72
     0
 73
     1
 93
        3
 10
91.19525331396227
 20
-379.0939852890006
 10
90.4260225447315
 20
-379.8632160582313
 10
91.19525331396227
 20
-380.632446827462
 97
        1
330
8BD6
 75
     0
 76
     1
 47
0.651316
 98
        1
 10
12.92602254473149
 20
-528.2862929813083
  0
LINE
  5
8BD8
330
18
100
AcDbEntity
  8
0
370
    40
100
AcDbLine
 10
90.92602254473149
 20
-379.9016775966928
 30
0.0
 11
93.07986869857765
 21
-379.9016775966928
 31
0.0
  0
LINE
  5
8BD9
330
18
100
AcDbEntity
  8
0
370
    40
100
AcDbLine
 10
91.92602254473149
 20
-378.6324468274621
 30
0.0
 11
91.92602254473149
 21
-381.0939852890006
 31
0.0
  0
LINE
  5
8BDA
330
18
100
AcDbEntity
  8
0
100
AcDbLine
 10
76.9260225447315
 20
-318.7478314428467
 30
0.0
 11
101.9260225447314
 21
-318.7478314428467
 31
0.0
  0
LINE
  5
8BDB
330
18
100
AcDbEntity
  8
0
100
AcDbLine
 10
76.9260225447315
 20
-478.7478314428467
 30
0.0
 11
101.9260225447314
 21
-478.7478314428467
 31
0.0
  0
LINE
  5
8C37
330
18
100
AcDbEntity
  8
0
100
AcDbLine
 10
76.9260225447315
 20
-318.7478314428467
 30
0.0
 11
77.92602254473149
 21
-319.7478314428467
 31
0.0
  0
LINE
  5
8C38
330
18
100
AcDbEntity
  8
0
100
AcDbLine
 10
76.9260225447315
 20
-478.7478314428467
 30
0.0
 11
77.92602254473149
 21
-477.7478314428467
 31
0.0
  0
CIRCLE
  5
8D25
330
18
100
AcDbEntity
  8
0
100
AcDbCircle
 10
300.8863448404806
 20
-242.7103643301388
 30
0.0
 40
3.25
  0
LWPOLYLINE
  5
8D28
330
18
100
AcDbEntity
  8
0
100
AcDbPolyline
 90
        4
 70
     1
 43
0.0
 10
307.8863448404806
 20
-244.7103643301388
 10
337.8863448404806
 20
-244.7103643301388
 10
337.8863448404806
 20
-236.7103643301388
 10
307.8863448404806
 20
-236.7103643301388
  0
LWPOLYLINE
  5
8D2B
330
18
100
AcDbEntity
  8
0
100
AcDbPolyline
 90
        4
 70
     0
 43
0.0
 10
400.3863448404806
 20
-199.7103643301388
 10
404.3863448404806
 20
-199.7103643301388
 10
405.3863448404806
 20
-200.7103643301388
 10
405.3863448404806
 20
-273.7103643301388
  0
LWPOLYLINE
  5
8D2C
330
18
100
AcDbEntity
  8
0
100
AcDbPolyline
 90
        4
 70
     0
 43
0.0
 10
262.3863448404806
 20
-273.7103643301388
 10
262.3863448404806
 20
-200.7103643301388
 10
263.3863448404806
 20
-199.7103643301388
 10
267.3863448404806
 20
-199.7103643301388
  0
LWPOLYLINE
  5
8D31
330
18
100
AcDbEntity
  8
0
100
AcDbPolyline
 90
        4
 70
     1
 43
0.0
 10
291.3863448404806
 20
-228.7103643301388
 10
291.3863448404806
 20
-245.7103643301388
 10
288.3863448404806
 20
-245.7103643301388
 10
288.3863448404806
 20
-228.7103643301388
  0
LWPOLYLINE
  5
8D32
330
18
100
AcDbEntity
  8
0
100
AcDbPolyline
 90
        4
 70
     1
 43
0.0
 10
285.8863448404806
 20
-228.7103643301388
 10
285.8863448404806
 20
-245.7103643301388
 10
282.8863448404806
 20
-245.7103643301388
 10
282.8863448404806
 20
-228.7103643301388
  0
LWPOLYLINE
  5
8D33
330
18
100
AcDbEntity
  8
0
100
AcDbPolyline
 90
        4
 70
     1
 43
0.0
 10
274.8863448404806
 20
-228.7103643301388
 10
274.8863448404806
 20
-245.7103643301388
 10
271.8863448404806
 20
-245.7103643301388
 10
271.8863448404806
 20
-228.7103643301388
  0
LWPOLYLINE
  5
8D34
330
18
100
AcDbEntity
  8
0
100
AcDbPolyline
 90
        4
 70
     1
 43
0.0
 10
269.3863448404806
 20
-228.7103643301388
 10
269.3863448404806
 20
-245.7103643301388
 10
266.3863448404806
 20
-245.7103643301388
 10
266.3863448404806
 20
-228.7103643301388
  0
LWPOLYLINE
  5
8D35
330
18
100
AcDbEntity
  8
0
100
AcDbPolyline
 90
        4
 70
     1
 43
0.0
 10
280.3863448404806
 20
-228.7103643301388
 10
280.3863448404806
 20
-245.7103643301388
 10
277.3863448404806
 20
-245.7103643301388
 10
277.3863448404806
 20
-228.7103643301388
  0
LWPOLYLINE
  5
8D36
330
18
100
AcDbEntity
  8
0
100
AcDbPolyline
 90
        4
 70
     1
 43
0.0
 10
296.8863448404806
 20
-228.7103643301388
 10
296.8863448404806
 20
-245.7103643301388
 10
293.8863448404806
 20
-245.7103643301388
 10
293.8863448404806
 20
-228.7103643301388
  0
LWPOLYLINE
  5
8D37
330
18
100
AcDbEntity
  8
0
100
AcDbPolyline
 90
        4
 70
     1
 43
0.0
 10
379.3863448404806
 20
-228.7103643301388
 10
379.3863448404806
 20
-245.7103643301388
 10
376.3863448404806
 20
-245.7103643301388
 10
376.3863448404806
 20
-228.7103643301388
  0
LWPOLYLINE
  5
8D38
330
18
100
AcDbEntity
  8
0
100
AcDbPolyline
 90
        4
 70
     1
 43
0.0
 10
340.8863448404806
 20
-231.7103643301388
 10
340.8863448404806
 20
-245.7103643301388
 10
304.8863448404806
 20
-245.7103643301388
 10
304.8863448404806
 20
-231.7103643301388
  0
LWPOLYLINE
  5
8D39
330
18
100
AcDbEntity
  8
0
100
AcDbPolyline
 90
        4
 70
     1
 43
0.0
 10
368.3863448404806
 20
-228.7103643301388
 10
368.3863448404806
 20
-245.7103643301388
 10
365.3863448404806
 20
-245.7103643301388
 10
365.3863448404806
 20
-228.7103643301388
  0
LWPOLYLINE
  5
8D3A
330
18
100
AcDbEntity
  8
0
100
AcDbPolyline
 90
        4
 70
     1
 43
0.0
 10
362.8863448404806
 20
-228.7103643301388
 10
362.8863448404806
 20
-245.7103643301388
 10
359.8863448404806
 20
-245.7103643301388
 10
359.8863448404806
 20
-228.7103643301388
  0
LWPOLYLINE
  5
8D3B
330
18
100
AcDbEntity
  8
0
100
AcDbPolyline
 90
        4
 70
     1
 43
0.0
 10
357.3863448404806
 20
-228.7103643301388
 10
357.3863448404806
 20
-245.7103643301388
 10
354.3863448404806
 20
-245.7103643301388
 10
354.3863448404806
 20
-228.7103643301388
  0
LWPOLYLINE
  5
8D3C
330
18
100
AcDbEntity
  8
0
100
AcDbPolyline
 90
        4
 70
     1
 43
0.0
 10
346.3863448404806
 20
-228.7103643301388
 10
346.3863448404806
 20
-245.7103643301388
 10
343.3863448404806
 20
-245.7103643301388
 10
343.3863448404806
 20
-228.7103643301388
  0
LWPOLYLINE
  5
8D3D
330
18
100
AcDbEntity
  8
0
100
AcDbPolyline
 90
        4
 70
     1
 43
0.0
 10
351.8863448404806
 20
-228.7103643301388
 10
351.8863448404806
 20
-245.7103643301388
 10
348.8863448404806
 20
-245.7103643301388
 10
348.8863448404806
 20
-228.7103643301388
  0
LWPOLYLINE
  5
8D3E
330
18
100
AcDbEntity
  8
0
100
AcDbPolyline
 90
        4
 70
     1
 43
0.0
 10
373.8863448404806
 20
-228.7103643301388
 10
373.8863448404806
 20
-245.7103643301388
 10
370.8863448404806
 20
-245.7103643301388
 10
370.8863448404806
 20
-228.7103643301388
  0
LWPOLYLINE
  5
8D3F
330
18
100
AcDbEntity
  8
0
100
AcDbPolyline
 90
        4
 70
     1
 43
0.0
 10
384.8863448404806
 20
-228.7103643301388
 10
384.8863448404806
 20
-245.7103643301388
 10
381.8863448404806
 20
-245.7103643301388
 10
381.8863448404806
 20
-228.7103643301388
  0
LWPOLYLINE
  5
8D40
330
18
100
AcDbEntity
  8
0
100
AcDbPolyline
 90
        4
 70
     1
 43
0.0
 10
395.8863448404806
 20
-228.7103643301388
 10
395.8863448404806
 20
-245.7103643301388
 10
392.8863448404806
 20
-245.7103643301388
 10
392.8863448404806
 20
-228.7103643301388
  0
LWPOLYLINE
  5
8D41
330
18
100
AcDbEntity
  8
0
100
AcDbPolyline
 90
        4
 70
     1
 43
0.0
 10
401.3863448404806
 20
-228.7103643301388
 10
401.3863448404806
 20
-245.7103643301388
 10
398.3863448404806
 20
-245.7103643301388
 10
398.3863448404806
 20
-228.7103643301388
  0
LWPOLYLINE
  5
8D42
330
18
100
AcDbEntity
  8
0
100
AcDbPolyline
 90
        4
 70
     1
 43
0.0
 10
390.3863448404806
 20
-228.7103643301388
 10
390.3863448404806
 20
-245.7103643301388
 10
387.3863448404806
 20
-245.7103643301388
 10
387.3863448404806
 20
-228.7103643301388
  0
LINE
  5
8D44
330
18
100
AcDbEntity
  8
0
100
AcDbLine
 10
262.3863448404806
 20
-273.7103643301388
 30
0.0
 11
405.3863448404806
 21
-273.7103643301388
 31
0.0
  0
LWPOLYLINE
  5
8D45
330
18
100
AcDbEntity
  8
0
100
AcDbPolyline
 90
        2
 70
     0
 43
0.0
 10
405.3863448404806
 20
-274.7103643301388
 10
262.3863448404806
 20
-274.7103643301388
  0
LINE
  5
8D48
330
18
100
AcDbEntity
  8
0
100
AcDbLine
 10
260.3863448404806
 20
-246.7103643301388
 30
0.0
 11
260.3863448404806
 21
-274.7103643301388
 31
0.0
  0
LINE
  5
8D49
330
18
100
AcDbEntity
  8
0
100
AcDbLine
 10
261.3863448404806
 20
-273.7103643301388
 30
0.0
 11
261.3863448404806
 21
-246.7103643301388
 31
0.0
  0
LINE
  5
8D4A
330
18
100
AcDbEntity
  8
0
100
AcDbLine
 10
260.3863448404806
 20
-274.7103643301388
 30
0.0
 11
262.3863448404806
 21
-274.7103643301388
 31
0.0
  0
LINE
  5
8D4B
330
18
100
AcDbEntity
  8
0
100
AcDbLine
 10
262.3863448404806
 20
-273.7103643301388
 30
0.0
 11
261.3863448404806
 21
-273.7103643301388
 31
0.0
  0
LINE
  5
8D4F
330
18
100
AcDbEntity
  8
0
100
AcDbLine
 10
261.3863448404806
 20
-246.7103643301388
 30
0.0
 11
260.3863448404806
 21
-246.7103643301388
 31
0.0
  0
LINE
  5
8D50
330
18
100
AcDbEntity
  8
0
100
AcDbLine
 10
407.3863448404806
 20
-246.7103643301388
 30
0.0
 11
407.3863448404806
 21
-274.7103643301388
 31
0.0
  0
LINE
  5
8D51
330
18
100
AcDbEntity
  8
0
100
AcDbLine
 10
407.3863448404806
 20
-274.7103643301388
 30
0.0
 11
407.3863448404806
 21
-246.7103643301388
 31
0.0
  0
LINE
  5
8D52
330
18
100
AcDbEntity
  8
0
100
AcDbLine
 10
406.3863448404807
 20
-273.7103643301388
 30
0.0
 11
406.3863448404807
 21
-246.7103643301388
 31
0.0
  0
LINE
  5
8D53
330
18
100
AcDbEntity
  8
0
100
AcDbLine
 10
407.3863448404806
 20
-274.7103643301388
 30
0.0
 11
405.3863448404806
 21
-274.7103643301388
 31
0.0
  0
LINE
  5
8D54
330
18
100
AcDbEntity
  8
0
100
AcDbLine
 10
405.3863448404806
 20
-273.7103643301388
 30
0.0
 11
406.3863448404807
 21
-273.7103643301388
 31
0.0
  0
LINE
  5
8D56
330
18
100
AcDbEntity
  8
0
100
AcDbLine
 10
406.3863448404807
 20
-246.7103643301388
 30
0.0
 11
407.3863448404806
 21
-246.7103643301388
 31
0.0
  0
LWPOLYLINE
  5
8D5A
330
18
100
AcDbEntity
  8
0
100
AcDbPolyline
 90
        2
 70
     0
 43
0.0
 10
277.3863448404806
 20
-199.7103643301388
 10
390.3863448404806
 20
-199.7103643301388
  0
LWPOLYLINE
  5
8D5F
330
18
100
AcDbEntity
  8
0
100
AcDbPolyline
 90
        4
 70
     1
 43
0.0
 10
291.3863448404806
 20
-204.7103643301388
 10
291.3863448404806
 20
-221.7103643301388
 10
288.3863448404806
 20
-221.7103643301388
 10
288.3863448404806
 20
-204.7103643301388
  0
LWPOLYLINE
  5
8D60
330
18
100
AcDbEntity
  8
0
100
AcDbPolyline
 90
        4
 70
     1
 43
0.0
 10
280.3863448404806
 20
-204.7103643301388
 10
280.3863448404806
 20
-221.7103643301388
 10
277.3863448404806
 20
-221.7103643301388
 10
277.3863448404806
 20
-204.7103643301388
  0
LWPOLYLINE
  5
8D61
330
18
100
AcDbEntity
  8
0
100
AcDbPolyline
 90
        4
 70
     1
 43
0.0
 10
274.8863448404806
 20
-204.7103643301388
 10
274.8863448404806
 20
-221.7103643301388
 10
271.8863448404806
 20
-221.7103643301388
 10
271.8863448404806
 20
-204.7103643301388
  0
LWPOLYLINE
  5
8D62
330
18
100
AcDbEntity
  8
0
100
AcDbPolyline
 90
        4
 70
     1
 43
0.0
 10
285.8863448404806
 20
-204.7103643301388
 10
285.8863448404806
 20
-221.7103643301388
 10
282.8863448404806
 20
-221.7103643301388
 10
282.8863448404806
 20
-204.7103643301388
  0
LWPOLYLINE
  5
8D63
330
18
100
AcDbEntity
  8
0
100
AcDbPolyline
 90
        4
 70
     1
 43
0.0
 10
269.3863448404806
 20
-204.7103643301388
 10
269.3863448404806
 20
-221.7103643301388
 10
266.3863448404806
 20
-221.7103643301388
 10
266.3863448404806
 20
-204.7103643301388
  0
LWPOLYLINE
  5
8D64
330
18
100
AcDbEntity
  8
0
100
AcDbPolyline
 90
        4
 70
     1
 43
0.0
 10
296.8863448404806
 20
-204.7103643301388
 10
296.8863448404806
 20
-221.7103643301388
 10
293.8863448404806
 20
-221.7103643301388
 10
293.8863448404806
 20
-204.7103643301388
  0
LWPOLYLINE
  5
8D65
330
18
100
AcDbEntity
  8
0
100
AcDbPolyline
 90
        4
 70
     1
 43
0.0
 10
302.3863448404806
 20
-204.7103643301388
 10
302.3863448404806
 20
-221.7103643301388
 10
299.3863448404806
 20
-221.7103643301388
 10
299.3863448404806
 20
-204.7103643301388
  0
LWPOLYLINE
  5
8D72
330
18
100
AcDbEntity
  8
0
100
AcDbPolyline
 90
        4
 70
     1
 43
0.0
 10
302.3863448404806
 20
-228.7103643301388
 10
302.3863448404806
 20
-238.7103643301388
 10
299.3863448404806
 20
-238.7103643301388
 10
299.3863448404806
 20
-228.7103643301388
  0
LWPOLYLINE
  5
8D73
330
18
100
AcDbEntity
  8
0
100
AcDbPolyline
 90
        4
 70
     1
 43
0.0
 10
303.1363448404806
 20
-243.4603643301387
 10
301.6363448404806
 20
-243.4603643301387
 10
301.6363448404806
 20
-241.9603643301387
 10
303.1363448404806
 20
-241.9603643301387
  0
LWPOLYLINE
  5
8D74
330
18
100
AcDbEntity
  8
0
100
AcDbPolyline
 90
        4
 70
     1
 43
0.0
 10
298.3863448404806
 20
-243.7103643301387
 10
303.3863448404806
 20
-243.7103643301387
 10
303.3863448404806
 20
-241.7103643301387
 10
298.3863448404806
 20
-241.7103643301387
  0
LINE
  5
8D7E
330
18
100
AcDbEntity
  8
0
100
AcDbLine
 10
277.3863448404806
 20
-199.7103643301388
 30
0.0
 11
277.3863448404806
 21
-197.7103643301388
 31
0.0
  0
LINE
  5
8D7F
330
18
100
AcDbEntity
  8
0
100
AcDbLine
 10
267.3863448404806
 20
-197.7103643301388
 30
0.0
 11
267.3863448404806
 21
-199.7103643301388
 31
0.0
  0
LINE
  5
8D81
330
18
100
AcDbEntity
  8
0
100
AcDbLine
 10
277.3863448404806
 20
-197.7103643301388
 30
0.0
 11
267.3863448404806
 21
-197.7103643301388
 31
0.0
  0
LWPOLYLINE
  5
8D82
330
18
100
AcDbEntity
  8
0
100
AcDbPolyline
 90
        4
 70
     1
 43
0.0
 10
384.8863448404806
 20
-204.7103643301388
 10
384.8863448404806
 20
-221.7103643301388
 10
381.8863448404806
 20
-221.7103643301388
 10
381.8863448404806
 20
-204.7103643301388
  0
LWPOLYLINE
  5
8D83
330
18
100
AcDbEntity
  8
0
100
AcDbPolyline
 90
        4
 70
     1
 43
0.0
 10
335.3863448404806
 20
-211.7103643301388
 10
335.3863448404806
 20
-221.7103643301388
 10
332.3863448404806
 20
-221.7103643301388
 10
332.3863448404806
 20
-211.7103643301388
  0
LWPOLYLINE
  5
8D84
330
18
100
AcDbEntity
  8
0
100
AcDbPolyline
 90
        4
 70
     1
 43
0.0
 10
368.3863448404806
 20
-204.7103643301388
 10
368.3863448404806
 20
-221.7103643301388
 10
365.3863448404806
 20
-221.7103643301388
 10
365.3863448404806
 20
-204.7103643301388
  0
LWPOLYLINE
  5
8D85
330
18
100
AcDbEntity
  8
0
100
AcDbPolyline
 90
        4
 70
     1
 43
0.0
 10
362.8863448404806
 20
-204.7103643301388
 10
362.8863448404806
 20
-221.7103643301388
 10
359.8863448404806
 20
-221.7103643301388
 10
359.8863448404806
 20
-204.7103643301388
  0
LWPOLYLINE
  5
8D86
330
18
100
AcDbEntity
  8
0
100
AcDbPolyline
 90
        4
 70
     1
 43
0.0
 10
357.3863448404806
 20
-204.7103643301388
 10
357.3863448404806
 20
-221.7103643301388
 10
354.3863448404806
 20
-221.7103643301388
 10
354.3863448404806
 20
-204.7103643301388
  0
LWPOLYLINE
  5
8D87
330
18
100
AcDbEntity
  8
0
100
AcDbPolyline
 90
        4
 70
     1
 43
0.0
 10
346.3863448404806
 20
-204.7103643301388
 10
346.3863448404806
 20
-221.7103643301388
 10
343.3863448404806
 20
-221.7103643301388
 10
343.3863448404806
 20
-204.7103643301388
  0
LWPOLYLINE
  5
8D88
330
18
100
AcDbEntity
  8
0
100
AcDbPolyline
 90
        4
 70
     1
 43
0.0
 10
351.8863448404806
 20
-204.7103643301388
 10
351.8863448404806
 20
-221.7103643301388
 10
348.8863448404806
 20
-221.7103643301388
 10
348.8863448404806
 20
-204.7103643301388
  0
LWPOLYLINE
  5
8D89
330
18
100
AcDbEntity
  8
0
100
AcDbPolyline
 90
        4
 70
     1
 43
0.0
 10
373.8863448404806
 20
-204.7103643301388
 10
373.8863448404806
 20
-221.7103643301388
 10
370.8863448404806
 20
-221.7103643301388
 10
370.8863448404806
 20
-204.7103643301388
  0
LWPOLYLINE
  5
8D8A
330
18
100
AcDbEntity
  8
0
100
AcDbPolyline
 90
        4
 70
     1
 43
0.0
 10
329.8863448404806
 20
-204.7103643301388
 10
329.8863448404806
 20
-221.7103643301388
 10
326.8863448404806
 20
-221.7103643301388
 10
326.8863448404806
 20
-204.7103643301388
  0
LWPOLYLINE
  5
8D8B
330
18
100
AcDbEntity
  8
0
100
AcDbPolyline
 90
        4
 70
     1
 43
0.0
 10
307.8863448404806
 20
-204.7103643301388
 10
307.8863448404806
 20
-221.7103643301388
 10
304.8863448404806
 20
-221.7103643301388
 10
304.8863448404806
 20
-204.7103643301388
  0
LWPOLYLINE
  5
8D8C
330
18
100
AcDbEntity
  8
0
100
AcDbPolyline
 90
        4
 70
     1
 43
0.0
 10
318.8863448404806
 20
-204.7103643301388
 10
318.8863448404806
 20
-221.7103643301388
 10
315.8863448404806
 20
-221.7103643301388
 10
315.8863448404806
 20
-204.7103643301388
  0
LWPOLYLINE
  5
8D8D
330
18
100
AcDbEntity
  8
0
100
AcDbPolyline
 90
        4
 70
     1
 43
0.0
 10
313.3863448404806
 20
-204.7103643301388
 10
313.3863448404806
 20
-221.7103643301388
 10
310.3863448404806
 20
-221.7103643301388
 10
310.3863448404806
 20
-204.7103643301388
  0
LWPOLYLINE
  5
8D8E
330
18
100
AcDbEntity
  8
0
100
AcDbPolyline
 90
        4
 70
     1
 43
0.0
 10
324.3863448404806
 20
-204.7103643301388
 10
324.3863448404806
 20
-221.7103643301388
 10
321.3863448404806
 20
-221.7103643301388
 10
321.3863448404806
 20
-204.7103643301388
  0
LWPOLYLINE
  5
8D8F
330
18
100
AcDbEntity
  8
0
100
AcDbPolyline
 90
        4
 70
     1
 43
0.0
 10
340.8863448404806
 20
-204.7103643301388
 10
340.8863448404806
 20
-221.7103643301388
 10
337.8863448404806
 20
-221.7103643301388
 10
337.8863448404806
 20
-204.7103643301388
  0
LWPOLYLINE
  5
8D90
330
18
100
AcDbEntity
  8
0
100
AcDbPolyline
 90
        4
 70
     1
 43
0.0
 10
379.3863448404806
 20
-204.7103643301388
 10
379.3863448404806
 20
-221.7103643301388
 10
376.3863448404806
 20
-221.7103643301388
 10
376.3863448404806
 20
-204.7103643301388
  0
CIRCLE
  5
8D91
330
18
100
AcDbEntity
  8
0
100
AcDbCircle
 10
324.1363448404806
 20
-242.7103643301388
 30
0.0
 40
0.5
  0
CIRCLE
  5
8D92
330
18
100
AcDbEntity
  8
0
100
AcDbCircle
 10
324.1363448404806
 20
-239.2103643301388
 30
0.0
 40
0.5
  0
HATCH
  5
8D93
330
18
100
AcDbEntity
  8
0
100
AcDbHatch
 10
0.0
 20
0.0
 30
0.0
210
0.0
220
0.0
230
1.0
  2
SOLID
 70
     1
 71
     0
 91
       20
 92
        7
 72
     1
 73
     1
 93
        2
 10
312.1363448404806
 20
-239.2103643301388
 42
1.0
 10
311.1363448404806
 20
-239.2103643301388
 42
1.0
 97
        0
 92
        7
 72
     1
 73
     1
 93
        2
 10
314.6363448404806
 20
-239.2103643301388
 42
1.0
 10
313.6363448404806
 20
-239.2103643301388
 42
1.0
 97
        0
 92
        7
 72
     1
 73
     1
 93
        2
 10
316.1363448404806
 20
-239.2103643301388
 42
1.0
 10
317.1363448404806
 20
-239.2103643301388
 42
1.0
 97
        0
 92
        7
 72
     1
 73
     1
 93
        2
 10
319.6363448404806
 20
-239.2103643301388
 42
1.0
 10
318.6363448404806
 20
-239.2103643301388
 42
1.0
 97
        0
 92
        7
 72
     1
 73
     1
 93
        2
 10
322.1363448404806
 20
-239.2103643301388
 42
1.0
 10
321.1363448404806
 20
-239.2103643301388
 42
1.0
 97
        0
 92
        7
 72
     1
 73
     1
 93
        2
 10
324.6363448404806
 20
-239.2103643301388
 42
1.0
 10
323.6363448404806
 20
-239.2103643301388
 42
1.0
 97
        0
 92
        7
 72
     1
 73
     1
 93
        2
 10
327.1363448404806
 20
-239.2103643301388
 42
1.0
 10
326.1363448404806
 20
-239.2103643301388
 42
1.0
 97
        0
 92
        7
 72
     1
 73
     1
 93
        2
 10
329.6363448404806
 20
-239.2103643301388
 42
1.0
 10
328.6363448404806
 20
-239.2103643301388
 42
1.0
 97
        0
 92
        7
 72
     1
 73
     1
 93
        2
 10
332.1363448404806
 20
-239.2103643301388
 42
1.0
 10
331.1363448404806
 20
-239.2103643301388
 42
1.0
 97
        0
 92
        7
 72
     1
 73
     1
 93
        2
 10
334.6363448404806
 20
-239.2103643301388
 42
1.0
 10
333.6363448404806
 20
-239.2103643301388
 42
1.0
 97
        0
 92
        7
 72
     1
 73
     1
 93
        2
 10
334.6363448404806
 20
-242.7103643301388
 42
1.0
 10
333.6363448404806
 20
-242.7103643301388
 42
1.0
 97
        0
 92
        7
 72
     1
 73
     1
 93
        2
 10
332.1363448404806
 20
-242.7103643301388
 42
1.0
 10
331.1363448404806
 20
-242.7103643301388
 42
1.0
 97
        0
 92
        7
 72
     1
 73
     1
 93
        2
 10
329.6363448404806
 20
-242.7103643301388
 42
1.0
 10
328.6363448404806
 20
-242.7103643301388
 42
1.0
 97
        0
 92
        7
 72
     1
 73
     1
 93
        2
 10
327.1363448404806
 20
-242.7103643301388
 42
1.0
 10
326.1363448404806
 20
-242.7103643301388
 42
1.0
 97
        0
 92
        7
 72
     1
 73
     1
 93
        2
 10
324.6363448404806
 20
-242.7103643301388
 42
1.0
 10
323.6363448404806
 20
-242.7103643301388
 42
1.0
 97
        0
 92
        7
 72
     1
 73
     1
 93
        2
 10
322.1363448404806
 20
-242.7103643301388
 42
1.0
 10
321.1363448404806
 20
-242.7103643301388
 42
1.0
 97
        0
 92
        7
 72
     1
 73
     1
 93
        2
 10
319.6363448404806
 20
-242.7103643301388
 42
1.0
 10
318.6363448404806
 20
-242.7103643301388
 42
1.0
 97
        0
 92
        7
 72
     1
 73
     1
 93
        2
 10
317.1363448404806
 20
-242.7103643301388
 42
1.0
 10
316.1363448404806
 20
-242.7103643301388
 42
1.0
 97
        0
 92
        7
 72
     1
 73
     1
 93
        2
 10
314.6363448404806
 20
-242.7103643301388
 42
1.0
 10
313.6363448404806
 20
-242.7103643301388
 42
1.0
 97
        0
 92
        7
 72
     1
 73
     1
 93
        2
 10
312.1363448404806
 20
-242.7103643301388
 42
1.0
 10
311.1363448404806
 20
-242.7103643301388
 42
1.0
 97
        0
 75
     0
 76
     1
 47
0.0523552323646742
 98
       20
 10
311.6857531398927
 20
-239.3100867855114
 10
314.3056231866296
 20
-239.2053764413001
 10
316.9254932333663
 20
-239.2053764413001
 10
319.1261840250547
 20
-239.1530212691944
 10
321.58886170249
 20
-239.3100867855114
 10
324.3659241185282
 20
-239.3100867855114
 10
326.6714106159279
 20
-239.2053764413001
 10
329.0816904405076
 20
-239.3100867855114
 10
331.7015604872445
 20
-239.3624419576169
 10
334.1118415010896
 20
-239.3624419576169
 10
334.269033870391
 20
-242.7131769494742
 10
331.5967659707987
 20
-242.7131769494742
 10
329.0816904405076
 20
-242.9225976378967
 10
326.4618203937707
 20
-242.7131769494742
 10
324.1563350856367
 20
-242.7131769494742
 10
321.6412595553456
 20
-242.8178872936854
 10
319.021389508609
 20
-242.6608217773686
 10
316.7159042004748
 20
-242.9225976378967
 10
313.9388417844368
 20
-242.7655321215798
 10
311.6857531398927
 20
-242.7131769494742
  0
CIRCLE
  5
8D94
330
18
100
AcDbEntity
  8
0
100
AcDbCircle
 10
314.1363448404806
 20
-242.7103643301388
 30
0.0
 40
0.5
  0
CIRCLE
  5
8D95
330
18
100
AcDbEntity
  8
0
100
AcDbCircle
 10
314.1363448404806
 20
-239.2103643301388
 30
0.0
 40
0.5
  0
CIRCLE
  5
8D96
330
18
100
AcDbEntity
  8
0
100
AcDbCircle
 10
311.6363448404806
 20
-242.7103643301388
 30
0.0
 40
0.5
  0
CIRCLE
  5
8D97
330
18
100
AcDbEntity
  8
0
100
AcDbCircle
 10
311.6363448404806
 20
-239.2103643301388
 30
0.0
 40
0.5
  0
CIRCLE
  5
8D98
330
18
100
AcDbEntity
  8
0
100
AcDbCircle
 10
321.6363448404806
 20
-242.7103643301388
 30
0.0
 40
0.5
  0
CIRCLE
  5
8D99
330
18
100
AcDbEntity
  8
0
100
AcDbCircle
 10
319.1363448404806
 20
-242.7103643301388
 30
0.0
 40
0.5
  0
CIRCLE
  5
8D9A
330
18
100
AcDbEntity
  8
0
100
AcDbCircle
 10
316.6363448404806
 20
-242.7103643301388
 30
0.0
 40
0.5
  0
CIRCLE
  5
8D9B
330
18
100
AcDbEntity
  8
0
100
AcDbCircle
 10
321.6363448404806
 20
-239.2103643301388
 30
0.0
 40
0.5
  0
CIRCLE
  5
8D9C
330
18
100
AcDbEntity
  8
0
100
AcDbCircle
 10
319.1363448404806
 20
-239.2103643301388
 30
0.0
 40
0.5
  0
CIRCLE
  5
8D9D
330
18
100
AcDbEntity
  8
0
100
AcDbCircle
 10
316.6363448404806
 20
-239.2103643301388
 30
0.0
 40
0.5
  0
CIRCLE
  5
8D9E
330
18
100
AcDbEntity
  8
0
100
AcDbCircle
 10
334.1363448404806
 20
-242.7103643301388
 30
0.0
 40
0.5
  0
CIRCLE
  5
8D9F
330
18
100
AcDbEntity
  8
0
100
AcDbCircle
 10
334.1363448404806
 20
-239.2103643301388
 30
0.0
 40
0.5
  0
CIRCLE
  5
8DA0
330
18
100
AcDbEntity
  8
0
100
AcDbCircle
 10
331.6363448404806
 20
-242.7103643301388
 30
0.0
 40
0.5
  0
CIRCLE
  5
8DA1
330
18
100
AcDbEntity
  8
0
100
AcDbCircle
 10
329.1363448404806
 20
-242.7103643301388
 30
0.0
 40
0.5
  0
CIRCLE
  5
8DA2
330
18
100
AcDbEntity
  8
0
100
AcDbCircle
 10
326.6363448404806
 20
-242.7103643301388
 30
0.0
 40
0.5
  0
CIRCLE
  5
8DA3
330
18
100
AcDbEntity
  8
0
100
AcDbCircle
 10
331.6363448404806
 20
-239.2103643301388
 30
0.0
 40
0.5
  0
CIRCLE
  5
8DA4
330
18
100
AcDbEntity
  8
0
100
AcDbCircle
 10
326.6363448404806
 20
-239.2103643301388
 30
0.0
 40
0.5
  0
CIRCLE
  5
8DA5
330
18
100
AcDbEntity
  8
0
100
AcDbCircle
 10
329.1363448404806
 20
-239.2103643301388
 30
0.0
 40
0.5
  0
LINE
  5
8DA6
330
18
100
AcDbEntity
  8
0
100
AcDbLine
 10
335.8228365135843
 20
-205.7103643301388
 30
0.0
 11
335.8228365135843
 21
-204.7103643301388
 31
0.0
  0
LINE
  5
8DA7
330
18
100
AcDbEntity
  8
0
100
AcDbLine
 10
331.949853167377
 20
-204.7103643301388
 30
0.0
 11
331.949853167377
 21
-205.7103643301388
 31
0.0
  0
CIRCLE
  5
8DA8
330
18
100
AcDbEntity
  8
0
100
AcDbCircle
 10
333.8863448404806
 20
-205.2103643301388
 30
0.0
 40
3.0
  0
LINE
  5
8DA9
330
18
100
AcDbEntity
  8
0
100
AcDbLine
 10
333.3863448404806
 20
-207.1468560032425
 30
0.0
 11
334.3863448404806
 21
-207.1468560032425
 31
0.0
  0
LINE
  5
8DAA
330
18
100
AcDbEntity
  8
0
100
AcDbLine
 10
331.949853167377
 20
-205.7103643301388
 30
0.0
 11
333.3863448404805
 21
-205.7103643301388
 31
0.0
  0
LINE
  5
8DAB
330
18
100
AcDbEntity
  8
0
100
AcDbLine
 10
333.3863448404805
 20
-205.7103643301388
 30
0.0
 11
333.3863448404806
 21
-207.1468560032425
 31
0.0
  0
LINE
  5
8DAC
330
18
100
AcDbEntity
  8
0
100
AcDbLine
 10
334.3863448404806
 20
-205.7103643301388
 30
0.0
 11
335.8228365135843
 21
-205.7103643301388
 31
0.0
  0
LINE
  5
8DAD
330
18
100
AcDbEntity
  8
0
100
AcDbLine
 10
334.3863448404806
 20
-205.7103643301388
 30
0.0
 11
334.3863448404806
 21
-207.1468560032425
 31
0.0
  0
ARC
  5
8DAE
330
18
100
AcDbEntity
  8
0
100
AcDbCircle
 10
333.8863448404806
 20
-203.2103643301388
 30
0.0
 40
2.0
100
AcDbArc
 50
7.180755781458561
 51
172.8192442185414
  0
LINE
  5
8DAF
330
18
100
AcDbEntity
  8
0
100
AcDbLine
 10
334.3863448404806
 20
-203.2738726570351
 30
0.0
 11
333.3863448404806
 21
-203.2738726570351
 31
0.0
  0
LINE
  5
8DB0
330
18
100
AcDbEntity
  8
0
100
AcDbLine
 10
331.949853167377
 20
-204.7103643301388
 30
0.0
 11
333.3863448404806
 21
-204.7103643301388
 31
0.0
  0
LINE
  5
8DB1
330
18
100
AcDbEntity
  8
0
100
AcDbLine
 10
333.3863448404806
 20
-203.2738726570351
 30
0.0
 11
333.3863448404806
 21
-204.7103643301388
 31
0.0
  0
LINE
  5
8DB2
330
18
100
AcDbEntity
  8
0
100
AcDbLine
 10
334.3863448404806
 20
-204.7103643301388
 30
0.0
 11
335.8228365135843
 21
-204.7103643301388
 31
0.0
  0
LINE
  5
8DB3
330
18
100
AcDbEntity
  8
0
100
AcDbLine
 10
334.3863448404806
 20
-203.2738726570351
 30
0.0
 11
334.3863448404806
 21
-204.7103643301388
 31
0.0
  0
LWPOLYLINE
  5
8DB4
330
18
100
AcDbEntity
  8
0
100
AcDbPolyline
 90
        4
 70
     1
 43
0.0
 10
395.8863448404806
 20
-204.7103643301388
 10
395.8863448404806
 20
-221.7103643301388
 10
392.8863448404806
 20
-221.7103643301388
 10
392.8863448404806
 20
-204.7103643301388
  0
LWPOLYLINE
  5
8DB5
330
18
100
AcDbEntity
  8
0
100
AcDbPolyline
 90
        4
 70
     1
 43
0.0
 10
390.3863448404806
 20
-204.7103643301388
 10
390.3863448404806
 20
-221.7103643301388
 10
387.3863448404806
 20
-221.7103643301388
 10
387.3863448404806
 20
-204.7103643301388
  0
LWPOLYLINE
  5
8DB6
330
18
100
AcDbEntity
  8
0
100
AcDbPolyline
 90
        4
 70
     1
 43
0.0
 10
401.3863448404806
 20
-204.7103643301388
 10
401.3863448404806
 20
-221.7103643301388
 10
398.3863448404806
 20
-221.7103643301388
 10
398.3863448404806
 20
-204.7103643301388
  0
LINE
  5
8DB7
330
18
100
AcDbEntity
  8
0
100
AcDbLine
 10
400.3863448404806
 20
-199.7103643301388
 30
0.0
 11
400.3863448404806
 21
-197.7103643301388
 31
0.0
  0
LINE
  5
8DB8
330
18
100
AcDbEntity
  8
0
100
AcDbLine
 10
390.3863448404806
 20
-197.7103643301388
 30
0.0
 11
390.3863448404806
 21
-199.7103643301388
 31
0.0
  0
LINE
  5
8DBA
330
18
100
AcDbEntity
  8
0
100
AcDbLine
 10
400.3863448404806
 20
-197.7103643301388
 30
0.0
 11
390.3863448404806
 21
-197.7103643301388
 31
0.0
  0
LINE
  5
8DFD
330
18
100
AcDbEntity
  8
0
100
AcDbLine
 10
409.3863448404806
 20
-248.7103643301388
 30
0.0
 11
409.3863448404806
 21
-196.7103643301388
 31
0.0
  0
LINE
  5
8DFE
330
18
100
AcDbEntity
  8
0
100
AcDbLine
 10
407.3863448404806
 20
-248.7103643301388
 30
0.0
 11
409.3863448404806
 21
-248.7103643301388
 31
0.0
  0
LINE
  5
8DFF
330
18
100
AcDbEntity
  8
0
100
AcDbLine
 10
407.3863448404806
 20
-198.7103643301388
 30
0.0
 11
407.3863448404806
 21
-248.7103643301388
 31
0.0
  0
LINE
  5
8E00
330
18
100
AcDbEntity
  8
0
100
AcDbLine
 10
409.3863448404806
 20
-195.7103643301388
 30
0.0
 11
258.3863448404806
 21
-195.7103643301388
 31
0.0
  0
LINE
  5
8E01
330
18
100
AcDbEntity
  8
0
100
AcDbLine
 10
408.3863448404806
 20
-195.7103643301388
 30
0.0
 11
259.3863448404806
 21
-195.7103643301388
 31
0.0
  0
ARC
  5
8E02
330
18
100
AcDbEntity
  8
0
100
AcDbCircle
 10
406.3863448404807
 20
-198.7103643301388
 30
0.0
 40
1.0
100
AcDbArc
 50
0.0
 51
90.0
  0
LINE
  5
8E03
330
18
100
AcDbEntity
  8
0
100
AcDbLine
 10
407.3863448404806
 20
-200.7103643301388
 30
0.0
 11
409.3863448404806
 21
-200.7103643301388
 31
0.0
  0
LINE
  5
8E04
330
18
100
AcDbEntity
  8
0
100
AcDbLine
 10
409.3863448404806
 20
-183.9787018511035
 30
0.0
 11
409.3863448404806
 21
-195.7103643301388
 31
0.0
  0
ARC
  5
8E05
330
18
100
AcDbEntity
  8
0
100
AcDbCircle
 10
408.3863448404806
 20
-196.7103643301388
 30
0.0
 40
1.0
100
AcDbArc
 50
0.0
 51
90.0
  0
LINE
  5
8E06
330
18
100
AcDbEntity
  8
0
100
AcDbLine
 10
408.2863448404807
 20
-184.310364330139
 30
0.0
 11
408.1863448404805
 21
-192.2103643301388
 31
0.0
  0
ARC
  5
8E07
330
18
100
AcDbEntity
  8
0
100
AcDbCircle
 10
408.8863448404806
 20
-184.3103643301387
 30
0.0
 40
0.5999999999999944
100
AcDbArc
 50
33.5573097619113
 51
180.0
  0
LINE
  5
8E08
330
18
100
AcDbEntity
  8
0
100
AcDbLine
 10
408.2863448404807
 20
-184.310364330139
 30
0.0
 11
409.3863448404806
 21
-184.310364330139
 31
0.0
  0
LINE
  5
8E09
330
18
100
AcDbEntity
  8
0
100
AcDbLine
 10
404.5863448404809
 20
-192.2103643301388
 30
0.0
 11
408.1863448404805
 21
-192.2103643301388
 31
0.0
  0
LINE
  5
8E0A
330
18
100
AcDbEntity
  8
0
100
AcDbLine
 10
261.3863448404806
 20
-197.7103643301388
 30
0.0
 11
406.3863448404807
 21
-197.7103643301388
 31
0.0
  0
LINE
  5
8E0B
330
18
100
AcDbEntity
  8
0
100
AcDbLine
 10
319.5863448404809
 20
-192.2103643301388
 30
0.0
 11
323.1863448404808
 21
-192.2103643301388
 31
0.0
  0
LINE
  5
8E0C
330
18
100
AcDbEntity
  8
0
100
AcDbLine
 10
269.5863448404811
 20
-192.2103643301388
 30
0.0
 11
273.1863448404808
 21
-192.2103643301388
 31
0.0
  0
ARC
  5
8E0D
330
18
100
AcDbEntity
  8
0
100
AcDbCircle
 10
258.8863448404808
 20
-184.3103643301387
 30
0.0
 40
0.5999999999999944
100
AcDbArc
 50
0.0
 51
146.4426902380729
  0
LINE
  5
8E0E
330
18
100
AcDbEntity
  8
0
100
AcDbLine
 10
259.4863448404808
 20
-184.3103643301453
 30
0.0
 11
258.3863448404808
 21
-184.3103643301453
 31
0.0
  0
LINE
  5
8E0F
330
18
100
AcDbEntity
  8
0
100
AcDbLine
 10
258.3863448404808
 20
-183.9787018511032
 30
0.0
 11
258.3863448404811
 21
-195.7103643301388
 31
0.0
  0
LINE
  5
8E10
330
18
100
AcDbEntity
  8
0
100
AcDbLine
 10
264.5863448404811
 20
-192.2103643301388
 30
0.0
 11
268.1863448404806
 21
-192.2103643301388
 31
0.0
  0
LINE
  5
8E11
330
18
100
AcDbEntity
  8
0
100
AcDbLine
 10
264.5863448404809
 20
-192.2103643301388
 30
0.0
 11
264.4863448404807
 21
-184.3103643301387
 31
0.0
  0
LINE
  5
8E12
330
18
100
AcDbEntity
  8
0
100
AcDbLine
 10
263.2863448404809
 20
-184.3103643301387
 30
0.0
 11
263.1863448404808
 21
-192.2103643301388
 31
0.0
  0
LINE
  5
8E13
330
18
100
AcDbEntity
  8
0
100
AcDbLine
 10
263.2863448404809
 20
-184.3103643301453
 30
0.0
 11
264.4863448404807
 21
-184.3103643301387
 31
0.0
  0
ARC
  5
8E14
330
18
100
AcDbEntity
  8
0
100
AcDbCircle
 10
263.8863448404809
 20
-184.3103643301387
 30
0.0
 40
0.5999999999999944
100
AcDbArc
 50
0.0
 51
180.0
  0
LINE
  5
8E15
330
18
100
AcDbEntity
  8
0
100
AcDbLine
 10
259.5863448404809
 20
-192.2103643301388
 30
0.0
 11
259.4863448404808
 21
-184.3103643301387
 31
0.0
  0
LINE
  5
8E16
330
18
100
AcDbEntity
  8
0
100
AcDbLine
 10
259.5863448404809
 20
-192.2103643301388
 30
0.0
 11
263.1863448404808
 21
-192.2103643301388
 31
0.0
  0
LINE
  5
8E17
330
18
100
AcDbEntity
  8
0
100
AcDbLine
 10
269.5863448404809
 20
-192.2103643301388
 30
0.0
 11
269.4863448404808
 21
-184.3103643301387
 31
0.0
  0
LINE
  5
8E18
330
18
100
AcDbEntity
  8
0
100
AcDbLine
 10
268.2863448404809
 20
-184.3103643301387
 30
0.0
 11
268.1863448404808
 21
-192.2103643301388
 31
0.0
  0
ARC
  5
8E19
330
18
100
AcDbEntity
  8
0
100
AcDbCircle
 10
268.8863448404808
 20
-184.3103643301387
 30
0.0
 40
0.5999999999999944
100
AcDbArc
 50
0.0
 51
180.0
  0
LINE
  5
8E1A
330
18
100
AcDbEntity
  8
0
100
AcDbLine
 10
268.2863448404809
 20
-184.3103643301387
 30
0.0
 11
269.4863448404808
 21
-184.3103643301453
 31
0.0
  0
LINE
  5
8E1B
330
18
100
AcDbEntity
  8
0
100
AcDbLine
 10
294.5863448404811
 20
-192.2103643301388
 30
0.0
 11
298.1863448404808
 21
-192.2103643301388
 31
0.0
  0
ARC
  5
8E1C
330
18
100
AcDbEntity
  8
0
100
AcDbCircle
 10
283.8863448404808
 20
-184.3103643301387
 30
0.0
 40
0.5999999999999944
100
AcDbArc
 50
0.0
 51
180.0
  0
LINE
  5
8E1D
330
18
100
AcDbEntity
  8
0
100
AcDbLine
 10
283.2863448404809
 20
-184.3103643301387
 30
0.0
 11
284.4863448404808
 21
-184.3103643301387
 31
0.0
  0
LINE
  5
8E1E
330
18
100
AcDbEntity
  8
0
100
AcDbLine
 10
274.5863448404809
 20
-192.2103643301388
 30
0.0
 11
278.1863448404808
 21
-192.2103643301388
 31
0.0
  0
LINE
  5
8E1F
330
18
100
AcDbEntity
  8
0
100
AcDbLine
 10
274.5863448404809
 20
-192.2103643301388
 30
0.0
 11
274.4863448404808
 21
-184.3103643301387
 31
0.0
  0
LINE
  5
8E20
330
18
100
AcDbEntity
  8
0
100
AcDbLine
 10
273.2863448404809
 20
-184.3103643301387
 30
0.0
 11
273.1863448404808
 21
-192.2103643301388
 31
0.0
  0
ARC
  5
8E21
330
18
100
AcDbEntity
  8
0
100
AcDbCircle
 10
273.8863448404809
 20
-184.3103643301387
 30
0.0
 40
0.5999999999999944
100
AcDbArc
 50
0.0
 51
180.0
  0
LINE
  5
8E22
330
18
100
AcDbEntity
  8
0
100
AcDbLine
 10
273.2863448404809
 20
-184.3103643301387
 30
0.0
 11
274.4863448404808
 21
-184.3103643301453
 31
0.0
  0
LINE
  5
8E23
330
18
100
AcDbEntity
  8
0
100
AcDbLine
 10
283.2863448404809
 20
-184.3103643301387
 30
0.0
 11
283.1863448404808
 21
-192.2103643301388
 31
0.0
  0
LINE
  5
8E24
330
18
100
AcDbEntity
  8
0
100
AcDbLine
 10
278.286344840481
 20
-184.3103643301387
 30
0.0
 11
278.1863448404808
 21
-192.2103643301388
 31
0.0
  0
LINE
  5
8E25
330
18
100
AcDbEntity
  8
0
100
AcDbLine
 10
279.5863448404809
 20
-192.2103643301388
 30
0.0
 11
279.4863448404807
 21
-184.3103643301387
 31
0.0
  0
ARC
  5
8E26
330
18
100
AcDbEntity
  8
0
100
AcDbCircle
 10
278.8863448404808
 20
-184.3103643301387
 30
0.0
 40
0.5999999999999944
100
AcDbArc
 50
0.0
 51
180.0
  0
LINE
  5
8E27
330
18
100
AcDbEntity
  8
0
100
AcDbLine
 10
278.286344840481
 20
-184.3103643301387
 30
0.0
 11
279.4863448404807
 21
-184.3103643301387
 31
0.0
  0
LINE
  5
8E28
330
18
100
AcDbEntity
  8
0
100
AcDbLine
 10
279.5863448404809
 20
-192.2103643301388
 30
0.0
 11
283.1863448404808
 21
-192.2103643301388
 31
0.0
  0
LINE
  5
8E29
330
18
100
AcDbEntity
  8
0
100
AcDbLine
 10
289.5863448404811
 20
-192.2103643301388
 30
0.0
 11
293.1863448404806
 21
-192.2103643301388
 31
0.0
  0
LINE
  5
8E2A
330
18
100
AcDbEntity
  8
0
100
AcDbLine
 10
289.5863448404809
 20
-192.2103643301388
 30
0.0
 11
289.4863448404807
 21
-184.3103643301387
 31
0.0
  0
LINE
  5
8E2B
330
18
100
AcDbEntity
  8
0
100
AcDbLine
 10
288.2863448404809
 20
-184.3103643301387
 30
0.0
 11
288.1863448404808
 21
-192.2103643301388
 31
0.0
  0
ARC
  5
8E2C
330
18
100
AcDbEntity
  8
0
100
AcDbCircle
 10
288.8863448404809
 20
-184.3103643301387
 30
0.0
 40
0.5999999999999944
100
AcDbArc
 50
0.0
 51
180.0
  0
LINE
  5
8E2D
330
18
100
AcDbEntity
  8
0
100
AcDbLine
 10
288.2863448404809
 20
-184.3103643301453
 30
0.0
 11
289.4863448404807
 21
-184.3103643301453
 31
0.0
  0
LINE
  5
8E2E
330
18
100
AcDbEntity
  8
0
100
AcDbLine
 10
284.5863448404809
 20
-192.2103643301388
 30
0.0
 11
284.4863448404808
 21
-184.3103643301387
 31
0.0
  0
LINE
  5
8E2F
330
18
100
AcDbEntity
  8
0
100
AcDbLine
 10
284.5863448404811
 20
-192.2103643301388
 30
0.0
 11
288.1863448404808
 21
-192.2103643301388
 31
0.0
  0
LINE
  5
8E30
330
18
100
AcDbEntity
  8
0
100
AcDbLine
 10
294.5863448404809
 20
-192.2103643301388
 30
0.0
 11
294.4863448404808
 21
-184.3103643301387
 31
0.0
  0
LINE
  5
8E31
330
18
100
AcDbEntity
  8
0
100
AcDbLine
 10
293.2863448404809
 20
-184.3103643301387
 30
0.0
 11
293.1863448404808
 21
-192.2103643301388
 31
0.0
  0
ARC
  5
8E32
330
18
100
AcDbEntity
  8
0
100
AcDbCircle
 10
293.8863448404808
 20
-184.3103643301387
 30
0.0
 40
0.5999999999999944
100
AcDbArc
 50
0.0
 51
180.0
  0
LINE
  5
8E33
330
18
100
AcDbEntity
  8
0
100
AcDbLine
 10
293.2863448404809
 20
-184.3103643301387
 30
0.0
 11
294.4863448404808
 21
-184.3103643301387
 31
0.0
  0
LINE
  5
8E34
330
18
100
AcDbEntity
  8
0
100
AcDbLine
 10
304.5863448404811
 20
-192.2103643301388
 30
0.0
 11
308.1863448404808
 21
-192.2103643301388
 31
0.0
  0
LINE
  5
8E35
330
18
100
AcDbEntity
  8
0
100
AcDbLine
 10
299.5863448404809
 20
-192.2103643301388
 30
0.0
 11
303.1863448404806
 21
-192.2103643301388
 31
0.0
  0
LINE
  5
8E36
330
18
100
AcDbEntity
  8
0
100
AcDbLine
 10
299.5863448404809
 20
-192.2103643301388
 30
0.0
 11
299.4863448404808
 21
-184.3103643301387
 31
0.0
  0
LINE
  5
8E37
330
18
100
AcDbEntity
  8
0
100
AcDbLine
 10
298.2863448404809
 20
-184.3103643301387
 30
0.0
 11
298.1863448404808
 21
-192.2103643301388
 31
0.0
  0
LINE
  5
8E38
330
18
100
AcDbEntity
  8
0
100
AcDbLine
 10
298.2863448404809
 20
-184.3103643301476
 30
0.0
 11
299.4863448404808
 21
-184.3103643301476
 31
0.0
  0
ARC
  5
8E39
330
18
100
AcDbEntity
  8
0
100
AcDbCircle
 10
298.8863448404809
 20
-184.3103643301387
 30
0.0
 40
0.5999999999999944
100
AcDbArc
 50
0.0
 51
180.0
  0
LINE
  5
8E3A
330
18
100
AcDbEntity
  8
0
100
AcDbLine
 10
304.5863448404809
 20
-192.2103643301388
 30
0.0
 11
304.4863448404807
 21
-184.3103643301387
 31
0.0
  0
LINE
  5
8E3B
330
18
100
AcDbEntity
  8
0
100
AcDbLine
 10
303.286344840481
 20
-184.3103643301387
 30
0.0
 11
303.1863448404808
 21
-192.2103643301388
 31
0.0
  0
ARC
  5
8E3C
330
18
100
AcDbEntity
  8
0
100
AcDbCircle
 10
303.8863448404808
 20
-184.3103643301387
 30
0.0
 40
0.5999999999999944
100
AcDbArc
 50
0.0
 51
180.0
  0
LINE
  5
8E3D
330
18
100
AcDbEntity
  8
0
100
AcDbLine
 10
303.286344840481
 20
-184.3103643301387
 30
0.0
 11
304.4863448404807
 21
-184.3103643301387
 31
0.0
  0
ARC
  5
8E3E
330
18
100
AcDbEntity
  8
0
100
AcDbCircle
 10
313.8863448404809
 20
-184.3103643301387
 30
0.0
 40
0.5999999999999944
100
AcDbArc
 50
0.0
 51
180.0
  0
LINE
  5
8E3F
330
18
100
AcDbEntity
  8
0
100
AcDbLine
 10
313.2863448404809
 20
-184.3103643301387
 30
0.0
 11
314.4863448404807
 21
-184.3103643301387
 31
0.0
  0
LINE
  5
8E40
330
18
100
AcDbEntity
  8
0
100
AcDbLine
 10
313.2863448404809
 20
-184.3103643301387
 30
0.0
 11
313.1863448404808
 21
-192.2103643301388
 31
0.0
  0
ARC
  5
8E41
330
18
100
AcDbEntity
  8
0
100
AcDbCircle
 10
308.8863448404808
 20
-184.3103643301387
 30
0.0
 40
0.5999999999999944
100
AcDbArc
 50
0.0
 51
180.0
  0
LINE
  5
8E42
330
18
100
AcDbEntity
  8
0
100
AcDbLine
 10
308.2863448404809
 20
-184.3103643301387
 30
0.0
 11
309.4863448404808
 21
-184.3103643301387
 31
0.0
  0
LINE
  5
8E43
330
18
100
AcDbEntity
  8
0
100
AcDbLine
 10
308.2863448404809
 20
-184.3103643301387
 30
0.0
 11
308.1863448404808
 21
-192.2103643301388
 31
0.0
  0
LINE
  5
8E44
330
18
100
AcDbEntity
  8
0
100
AcDbLine
 10
309.5863448404809
 20
-192.2103643301388
 30
0.0
 11
309.4863448404808
 21
-184.3103643301387
 31
0.0
  0
LINE
  5
8E45
330
18
100
AcDbEntity
  8
0
100
AcDbLine
 10
309.5863448404809
 20
-192.2103643301388
 30
0.0
 11
313.1863448404808
 21
-192.2103643301388
 31
0.0
  0
LINE
  5
8E46
330
18
100
AcDbEntity
  8
0
100
AcDbLine
 10
318.2863448404809
 20
-184.3103643301387
 30
0.0
 11
318.1863448404808
 21
-192.2103643301388
 31
0.0
  0
LINE
  5
8E47
330
18
100
AcDbEntity
  8
0
100
AcDbLine
 10
319.5863448404809
 20
-192.2103643301388
 30
0.0
 11
319.4863448404808
 21
-184.3103643301387
 31
0.0
  0
ARC
  5
8E48
330
18
100
AcDbEntity
  8
0
100
AcDbCircle
 10
318.8863448404808
 20
-184.3103643301387
 30
0.0
 40
0.5999999999999944
100
AcDbArc
 50
0.0
 51
180.0
  0
LINE
  5
8E49
330
18
100
AcDbEntity
  8
0
100
AcDbLine
 10
318.2863448404809
 20
-184.3103643301387
 30
0.0
 11
319.4863448404808
 21
-184.3103643301387
 31
0.0
  0
LINE
  5
8E4A
330
18
100
AcDbEntity
  8
0
100
AcDbLine
 10
314.5863448404809
 20
-192.2103643301388
 30
0.0
 11
314.4863448404807
 21
-184.3103643301387
 31
0.0
  0
LINE
  5
8E4B
330
18
100
AcDbEntity
  8
0
100
AcDbLine
 10
314.5863448404811
 20
-192.2103643301388
 30
0.0
 11
318.1863448404806
 21
-192.2103643301388
 31
0.0
  0
LINE
  5
8E4C
330
18
100
AcDbEntity
  8
0
100
AcDbLine
 10
368.2863448404809
 20
-184.3103643301387
 30
0.0
 11
368.1863448404808
 21
-192.2103643301388
 31
0.0
  0
ARC
  5
8E4D
330
18
100
AcDbEntity
  8
0
100
AcDbCircle
 10
343.8863448404808
 20
-184.3103643301387
 30
0.0
 40
0.5999999999999944
100
AcDbArc
 50
0.0
 51
180.0
  0
LINE
  5
8E4E
330
18
100
AcDbEntity
  8
0
100
AcDbLine
 10
343.2863448404809
 20
-184.3103643301453
 30
0.0
 11
344.4863448404808
 21
-184.3103643301453
 31
0.0
  0
LINE
  5
8E4F
330
18
100
AcDbEntity
  8
0
100
AcDbLine
 10
329.5863448404809
 20
-192.2103643301388
 30
0.0
 11
333.1863448404808
 21
-192.2103643301388
 31
0.0
  0
LINE
  5
8E50
330
18
100
AcDbEntity
  8
0
100
AcDbLine
 10
324.5863448404814
 20
-192.2103643301388
 30
0.0
 11
328.1863448404806
 21
-192.2103643301388
 31
0.0
  0
LINE
  5
8E51
330
18
100
AcDbEntity
  8
0
100
AcDbLine
 10
323.2863448404809
 20
-184.3103643301387
 30
0.0
 11
323.1863448404808
 21
-192.2103643301388
 31
0.0
  0
LINE
  5
8E52
330
18
100
AcDbEntity
  8
0
100
AcDbLine
 10
324.5863448404809
 20
-192.2103643301388
 30
0.0
 11
324.4863448404808
 21
-184.3103643301387
 31
0.0
  0
ARC
  5
8E53
330
18
100
AcDbEntity
  8
0
100
AcDbCircle
 10
323.8863448404809
 20
-184.3103643301387
 30
0.0
 40
0.5999999999999944
100
AcDbArc
 50
0.0
 51
180.0
  0
LINE
  5
8E54
330
18
100
AcDbEntity
  8
0
100
AcDbLine
 10
323.2863448404809
 20
-184.3103643301387
 30
0.0
 11
324.4863448404808
 21
-184.3103643301387
 31
0.0
  0
LINE
  5
8E55
330
18
100
AcDbEntity
  8
0
100
AcDbLine
 10
329.5863448404809
 20
-192.2103643301388
 30
0.0
 11
329.4863448404807
 21
-184.3103643301387
 31
0.0
  0
LINE
  5
8E56
330
18
100
AcDbEntity
  8
0
100
AcDbLine
 10
328.286344840481
 20
-184.3103643301387
 30
0.0
 11
328.1863448404808
 21
-192.2103643301388
 31
0.0
  0
ARC
  5
8E57
330
18
100
AcDbEntity
  8
0
100
AcDbCircle
 10
328.8863448404808
 20
-184.3103643301387
 30
0.0
 40
0.5999999999999944
100
AcDbArc
 50
0.0
 51
180.0
  0
LINE
  5
8E58
330
18
100
AcDbEntity
  8
0
100
AcDbLine
 10
328.286344840481
 20
-184.3103643301387
 30
0.0
 11
329.4863448404807
 21
-184.3103643301387
 31
0.0
  0
LINE
  5
8E59
330
18
100
AcDbEntity
  8
0
100
AcDbLine
 10
334.5863448404811
 20
-192.2103643301388
 30
0.0
 11
338.1863448404808
 21
-192.2103643301388
 31
0.0
  0
LINE
  5
8E5A
330
18
100
AcDbEntity
  8
0
100
AcDbLine
 10
333.2863448404809
 20
-184.3103643301387
 30
0.0
 11
333.1863448404808
 21
-192.2103643301388
 31
0.0
  0
LINE
  5
8E5B
330
18
100
AcDbEntity
  8
0
100
AcDbLine
 10
334.5863448404809
 20
-192.2103643301388
 30
0.0
 11
334.4863448404808
 21
-184.3103643301387
 31
0.0
  0
ARC
  5
8E5C
330
18
100
AcDbEntity
  8
0
100
AcDbCircle
 10
333.8863448404808
 20
-184.3103643301387
 30
0.0
 40
0.5999999999999944
100
AcDbArc
 50
0.0
 51
180.0
  0
LINE
  5
8E5D
330
18
100
AcDbEntity
  8
0
100
AcDbLine
 10
333.2863448404809
 20
-184.3103643301387
 30
0.0
 11
334.4863448404808
 21
-184.3103643301387
 31
0.0
  0
LINE
  5
8E5E
330
18
100
AcDbEntity
  8
0
100
AcDbLine
 10
343.2863448404809
 20
-184.3103643301387
 30
0.0
 11
343.1863448404808
 21
-192.2103643301388
 31
0.0
  0
LINE
  5
8E5F
330
18
100
AcDbEntity
  8
0
100
AcDbLine
 10
339.5863448404809
 20
-192.2103643301388
 30
0.0
 11
339.4863448404807
 21
-184.3103643301387
 31
0.0
  0
LINE
  5
8E60
330
18
100
AcDbEntity
  8
0
100
AcDbLine
 10
338.2863448404809
 20
-184.3103643301387
 30
0.0
 11
338.1863448404808
 21
-192.2103643301388
 31
0.0
  0
ARC
  5
8E61
330
18
100
AcDbEntity
  8
0
100
AcDbCircle
 10
338.8863448404809
 20
-184.3103643301387
 30
0.0
 40
0.5999999999999944
100
AcDbArc
 50
0.0
 51
180.0
  0
LINE
  5
8E62
330
18
100
AcDbEntity
  8
0
100
AcDbLine
 10
338.2863448404809
 20
-184.3103643301387
 30
0.0
 11
339.4863448404807
 21
-184.3103643301387
 31
0.0
  0
LINE
  5
8E63
330
18
100
AcDbEntity
  8
0
100
AcDbLine
 10
339.5863448404811
 20
-192.2103643301388
 30
0.0
 11
343.1863448404808
 21
-192.2103643301388
 31
0.0
  0
LINE
  5
8E64
330
18
100
AcDbEntity
  8
0
100
AcDbLine
 10
354.5863448404809
 20
-192.2103643301388
 30
0.0
 11
358.1863448404806
 21
-192.2103643301388
 31
0.0
  0
LINE
  5
8E65
330
18
100
AcDbEntity
  8
0
100
AcDbLine
 10
349.5863448404809
 20
-192.2103643301388
 30
0.0
 11
353.1863448404803
 21
-192.2103643301388
 31
0.0
  0
LINE
  5
8E66
330
18
100
AcDbEntity
  8
0
100
AcDbLine
 10
349.5863448404809
 20
-192.2103643301388
 30
0.0
 11
349.4863448404808
 21
-184.3103643301387
 31
0.0
  0
LINE
  5
8E67
330
18
100
AcDbEntity
  8
0
100
AcDbLine
 10
348.2863448404809
 20
-184.3103643301387
 30
0.0
 11
348.1863448404808
 21
-192.2103643301388
 31
0.0
  0
ARC
  5
8E68
330
18
100
AcDbEntity
  8
0
100
AcDbCircle
 10
348.8863448404809
 20
-184.3103643301387
 30
0.0
 40
0.5999999999999944
100
AcDbArc
 50
0.0
 51
180.0
  0
LINE
  5
8E69
330
18
100
AcDbEntity
  8
0
100
AcDbLine
 10
348.2863448404809
 20
-184.3103643301387
 30
0.0
 11
349.4863448404808
 21
-184.3103643301387
 31
0.0
  0
LINE
  5
8E6A
330
18
100
AcDbEntity
  8
0
100
AcDbLine
 10
344.5863448404809
 20
-192.2103643301388
 30
0.0
 11
344.4863448404808
 21
-184.3103643301387
 31
0.0
  0
LINE
  5
8E6B
330
18
100
AcDbEntity
  8
0
100
AcDbLine
 10
344.5863448404811
 20
-192.2103643301388
 30
0.0
 11
348.1863448404808
 21
-192.2103643301388
 31
0.0
  0
LINE
  5
8E6C
330
18
100
AcDbEntity
  8
0
100
AcDbLine
 10
354.5863448404809
 20
-192.2103643301388
 30
0.0
 11
354.4863448404807
 21
-184.3103643301387
 31
0.0
  0
LINE
  5
8E6D
330
18
100
AcDbEntity
  8
0
100
AcDbLine
 10
353.286344840481
 20
-184.3103643301387
 30
0.0
 11
353.1863448404808
 21
-192.2103643301388
 31
0.0
  0
ARC
  5
8E6E
330
18
100
AcDbEntity
  8
0
100
AcDbCircle
 10
353.8863448404808
 20
-184.3103643301387
 30
0.0
 40
0.5999999999999944
100
AcDbArc
 50
0.0
 51
180.0
  0
LINE
  5
8E6F
330
18
100
AcDbEntity
  8
0
100
AcDbLine
 10
353.286344840481
 20
-184.3103643301387
 30
0.0
 11
354.4863448404807
 21
-184.3103643301387
 31
0.0
  0
LINE
  5
8E70
330
18
100
AcDbEntity
  8
0
100
AcDbLine
 10
359.5863448404809
 20
-192.2103643301388
 30
0.0
 11
363.1863448404806
 21
-192.2103643301388
 31
0.0
  0
LINE
  5
8E71
330
18
100
AcDbEntity
  8
0
100
AcDbLine
 10
359.5863448404809
 20
-192.2103643301388
 30
0.0
 11
359.4863448404808
 21
-184.3103643301387
 31
0.0
  0
LINE
  5
8E72
330
18
100
AcDbEntity
  8
0
100
AcDbLine
 10
358.2863448404809
 20
-184.3103643301387
 30
0.0
 11
358.1863448404808
 21
-192.2103643301388
 31
0.0
  0
ARC
  5
8E73
330
18
100
AcDbEntity
  8
0
100
AcDbCircle
 10
358.8863448404808
 20
-184.3103643301387
 30
0.0
 40
0.5999999999999944
100
AcDbArc
 50
0.0
 51
180.0
  0
LINE
  5
8E74
330
18
100
AcDbEntity
  8
0
100
AcDbLine
 10
358.2863448404812
 20
-184.3103643301476
 30
0.0
 11
359.486344840481
 21
-184.3103643301476
 31
0.0
  0
LINE
  5
8E75
330
18
100
AcDbEntity
  8
0
100
AcDbLine
 10
363.2863448404809
 20
-184.3103643301387
 30
0.0
 11
363.1863448404808
 21
-192.2103643301388
 31
0.0
  0
LINE
  5
8E76
330
18
100
AcDbEntity
  8
0
100
AcDbLine
 10
364.5863448404809
 20
-192.2103643301388
 30
0.0
 11
364.4863448404807
 21
-184.3103643301387
 31
0.0
  0
ARC
  5
8E77
330
18
100
AcDbEntity
  8
0
100
AcDbCircle
 10
363.8863448404809
 20
-184.3103643301387
 30
0.0
 40
0.5999999999999944
100
AcDbArc
 50
0.0
 51
180.0
  0
LINE
  5
8E78
330
18
100
AcDbEntity
  8
0
100
AcDbLine
 10
363.2863448404809
 20
-184.3103643301387
 30
0.0
 11
364.4863448404807
 21
-184.3103643301387
 31
0.0
  0
LINE
  5
8E79
330
18
100
AcDbEntity
  8
0
100
AcDbLine
 10
364.5863448404806
 20
-192.2103643301388
 30
0.0
 11
368.1863448404806
 21
-192.2103643301388
 31
0.0
  0
LINE
  5
8E7A
330
18
100
AcDbEntity
  8
0
100
AcDbLine
 10
389.5863448404809
 20
-192.2103643301388
 30
0.0
 11
393.1863448404806
 21
-192.2103643301388
 31
0.0
  0
LINE
  5
8E7B
330
18
100
AcDbEntity
  8
0
100
AcDbLine
 10
379.5863448404809
 20
-192.2103643301388
 30
0.0
 11
383.1863448404806
 21
-192.2103643301388
 31
0.0
  0
ARC
  5
8E7C
330
18
100
AcDbEntity
  8
0
100
AcDbCircle
 10
373.8863448404809
 20
-184.3103643301387
 30
0.0
 40
0.5999999999999944
100
AcDbArc
 50
0.0
 51
180.0
  0
LINE
  5
8E7D
330
18
100
AcDbEntity
  8
0
100
AcDbLine
 10
373.2863448404811
 20
-184.3103643301387
 30
0.0
 11
374.486344840481
 21
-184.3103643301387
 31
0.0
  0
LINE
  5
8E7E
330
18
100
AcDbEntity
  8
0
100
AcDbLine
 10
373.2863448404809
 20
-184.3103643301387
 30
0.0
 11
373.1863448404808
 21
-192.2103643301388
 31
0.0
  0
LINE
  5
8E7F
330
18
100
AcDbEntity
  8
0
100
AcDbLine
 10
369.5863448404809
 20
-192.2103643301388
 30
0.0
 11
369.4863448404808
 21
-184.3103643301387
 31
0.0
  0
ARC
  5
8E80
330
18
100
AcDbEntity
  8
0
100
AcDbCircle
 10
368.8863448404808
 20
-184.3103643301387
 30
0.0
 40
0.5999999999999944
100
AcDbArc
 50
0.0
 51
180.0
  0
LINE
  5
8E81
330
18
100
AcDbEntity
  8
0
100
AcDbLine
 10
368.2863448404812
 20
-184.3103643301387
 30
0.0
 11
369.486344840481
 21
-184.3103643301387
 31
0.0
  0
LINE
  5
8E82
330
18
100
AcDbEntity
  8
0
100
AcDbLine
 10
369.5863448404809
 20
-192.2103643301388
 30
0.0
 11
373.1863448404806
 21
-192.2103643301388
 31
0.0
  0
ARC
  5
8E83
330
18
100
AcDbEntity
  8
0
100
AcDbCircle
 10
378.8863448404808
 20
-184.3103643301387
 30
0.0
 40
0.5999999999999944
100
AcDbArc
 50
0.0
 51
180.0
  0
LINE
  5
8E84
330
18
100
AcDbEntity
  8
0
100
AcDbLine
 10
378.286344840481
 20
-184.3103643301387
 30
0.0
 11
379.4863448404807
 21
-184.3103643301387
 31
0.0
  0
LINE
  5
8E85
330
18
100
AcDbEntity
  8
0
100
AcDbLine
 10
378.286344840481
 20
-184.3103643301387
 30
0.0
 11
378.1863448404808
 21
-192.2103643301388
 31
0.0
  0
LINE
  5
8E86
330
18
100
AcDbEntity
  8
0
100
AcDbLine
 10
379.5863448404809
 20
-192.2103643301388
 30
0.0
 11
379.4863448404807
 21
-184.3103643301387
 31
0.0
  0
LINE
  5
8E87
330
18
100
AcDbEntity
  8
0
100
AcDbLine
 10
374.5863448404809
 20
-192.2103643301388
 30
0.0
 11
374.4863448404808
 21
-184.3103643301387
 31
0.0
  0
LINE
  5
8E88
330
18
100
AcDbEntity
  8
0
100
AcDbLine
 10
374.5863448404809
 20
-192.2103643301388
 30
0.0
 11
378.1863448404808
 21
-192.2103643301388
 31
0.0
  0
LINE
  5
8E89
330
18
100
AcDbEntity
  8
0
100
AcDbLine
 10
384.5863448404809
 20
-192.2103643301388
 30
0.0
 11
388.1863448404808
 21
-192.2103643301388
 31
0.0
  0
LINE
  5
8E8A
330
18
100
AcDbEntity
  8
0
100
AcDbLine
 10
384.5863448404809
 20
-192.2103643301388
 30
0.0
 11
384.4863448404808
 21
-184.3103643301387
 31
0.0
  0
ARC
  5
8E8B
330
18
100
AcDbEntity
  8
0
100
AcDbCircle
 10
383.8863448404808
 20
-184.3103643301387
 30
0.0
 40
0.5999999999999944
100
AcDbArc
 50
0.0
 51
180.0
  0
LINE
  5
8E8C
330
18
100
AcDbEntity
  8
0
100
AcDbLine
 10
383.2863448404809
 20
-184.3103643301387
 30
0.0
 11
384.4863448404808
 21
-184.3103643301387
 31
0.0
  0
LINE
  5
8E8D
330
18
100
AcDbEntity
  8
0
100
AcDbLine
 10
383.2863448404809
 20
-184.3103643301387
 30
0.0
 11
383.1863448404808
 21
-192.2103643301388
 31
0.0
  0
LINE
  5
8E8E
330
18
100
AcDbEntity
  8
0
100
AcDbLine
 10
389.5863448404809
 20
-192.2103643301388
 30
0.0
 11
389.4863448404807
 21
-184.3103643301387
 31
0.0
  0
LINE
  5
8E8F
330
18
100
AcDbEntity
  8
0
100
AcDbLine
 10
388.2863448404809
 20
-184.3103643301387
 30
0.0
 11
388.1863448404808
 21
-192.2103643301388
 31
0.0
  0
ARC
  5
8E90
330
18
100
AcDbEntity
  8
0
100
AcDbCircle
 10
388.8863448404809
 20
-184.3103643301387
 30
0.0
 40
0.5999999999999944
100
AcDbArc
 50
0.0
 51
180.0
  0
LINE
  5
8E91
330
18
100
AcDbEntity
  8
0
100
AcDbLine
 10
388.2863448404812
 20
-184.3103643301387
 30
0.0
 11
389.486344840481
 21
-184.3103643301387
 31
0.0
  0
LINE
  5
8E92
330
18
100
AcDbEntity
  8
0
100
AcDbLine
 10
404.5863448404809
 20
-192.2103643301388
 30
0.0
 11
404.4863448404807
 21
-184.3103643301387
 31
0.0
  0
ARC
  5
8E93
330
18
100
AcDbEntity
  8
0
100
AcDbCircle
 10
398.8863448404809
 20
-184.3103643301387
 30
0.0
 40
0.5999999999999944
100
AcDbArc
 50
0.0
 51
180.0
  0
LINE
  5
8E94
330
18
100
AcDbEntity
  8
0
100
AcDbLine
 10
398.2863448404809
 20
-184.3103643301387
 30
0.0
 11
399.4863448404808
 21
-184.3103643301387
 31
0.0
  0
LINE
  5
8E95
330
18
100
AcDbEntity
  8
0
100
AcDbLine
 10
398.2863448404809
 20
-184.3103643301387
 30
0.0
 11
398.1863448404808
 21
-192.2103643301388
 31
0.0
  0
LINE
  5
8E96
330
18
100
AcDbEntity
  8
0
100
AcDbLine
 10
394.5863448404809
 20
-192.2103643301388
 30
0.0
 11
394.4863448404808
 21
-184.3103643301387
 31
0.0
  0
LINE
  5
8E97
330
18
100
AcDbEntity
  8
0
100
AcDbLine
 10
393.2863448404809
 20
-184.3103643301387
 30
0.0
 11
393.1863448404808
 21
-192.2103643301388
 31
0.0
  0
ARC
  5
8E98
330
18
100
AcDbEntity
  8
0
100
AcDbCircle
 10
393.8863448404808
 20
-184.3103643301387
 30
0.0
 40
0.5999999999999944
100
AcDbArc
 50
0.0
 51
180.0
  0
LINE
  5
8E99
330
18
100
AcDbEntity
  8
0
100
AcDbLine
 10
393.2863448404812
 20
-184.3103643301465
 30
0.0
 11
394.486344840481
 21
-184.3103643301465
 31
0.0
  0
LINE
  5
8E9A
330
18
100
AcDbEntity
  8
0
100
AcDbLine
 10
394.5863448404809
 20
-192.2103643301388
 30
0.0
 11
398.1863448404806
 21
-192.2103643301388
 31
0.0
  0
ARC
  5
8E9B
330
18
100
AcDbEntity
  8
0
100
AcDbCircle
 10
403.8863448404809
 20
-184.3103643301387
 30
0.0
 40
0.5999999999999944
100
AcDbArc
 50
0.0
 51
180.0
  0
LINE
  5
8E9C
330
18
100
AcDbEntity
  8
0
100
AcDbLine
 10
403.286344840481
 20
-184.3103643301387
 30
0.0
 11
404.4863448404807
 21
-184.3103643301387
 31
0.0
  0
LINE
  5
8E9D
330
18
100
AcDbEntity
  8
0
100
AcDbLine
 10
403.286344840481
 20
-184.3103643301387
 30
0.0
 11
403.1863448404808
 21
-192.2103643301388
 31
0.0
  0
LINE
  5
8E9E
330
18
100
AcDbEntity
  8
0
100
AcDbLine
 10
399.5863448404809
 20
-192.2103643301388
 30
0.0
 11
399.4863448404808
 21
-184.3103643301387
 31
0.0
  0
LINE
  5
8E9F
330
18
100
AcDbEntity
  8
0
100
AcDbLine
 10
399.5863448404811
 20
-192.2103643301388
 30
0.0
 11
403.1863448404806
 21
-192.2103643301388
 31
0.0
  0
LINE
  5
8EA0
330
18
100
AcDbEntity
  8
0
100
AcDbLine
 10
260.3863448404806
 20
-248.7103643301388
 30
0.0
 11
260.3863448404806
 21
-198.7103643301388
 31
0.0
  0
LINE
  5
8EA1
330
18
100
AcDbEntity
  8
0
100
AcDbLine
 10
258.3863448404806
 20
-196.7103643301388
 30
0.0
 11
258.3863448404806
 21
-248.7103643301388
 31
0.0
  0
ARC
  5
8EA2
330
18
100
AcDbEntity
  8
0
100
AcDbCircle
 10
259.3863448404806
 20
-196.7103643301388
 30
0.0
 40
1.0
100
AcDbArc
 50
90.0
 51
180.0
  0
ARC
  5
8EA3
330
18
100
AcDbEntity
  8
0
100
AcDbCircle
 10
261.3863448404806
 20
-198.7103643301388
 30
0.0
 40
1.0
100
AcDbArc
 50
90.0
 51
180.0
  0
LINE
  5
8EA4
330
18
100
AcDbEntity
  8
0
100
AcDbLine
 10
258.3863448404806
 20
-248.7103643301388
 30
0.0
 11
260.3863448404806
 21
-248.7103643301388
 31
0.0
  0
LINE
  5
8EA5
330
18
100
AcDbEntity
  8
0
 48
0.2
100
AcDbLine
 10
258.3863448404806
 20
-243.9103643301388
 30
0.0
 11
222.3863448404805
 21
-243.9103643301387
 31
0.0
  0
LINE
  5
8EA7
330
18
100
AcDbEntity
  8
0
 48
0.2
100
AcDbLine
 10
258.3863448404806
 20
-241.0603643301386
 30
0.0
 11
256.3863448404806
 21
-241.0603643301387
 31
0.0
  0
LINE
  5
8EA9
330
18
100
AcDbEntity
  8
0
 48
0.2
100
AcDbLine
 10
258.3863448404806
 20
-231.2103643301387
 30
0.0
 11
222.3863448404806
 21
-231.2103643301387
 31
0.0
  0
LINE
  5
8EAA
330
18
100
AcDbEntity
  8
0
 48
0.2
100
AcDbLine
 10
258.3863448404806
 20
-234.0603643301386
 30
0.0
 11
256.3863448404806
 21
-234.0603643301386
 31
0.0
  0
LINE
  5
8EAB
330
18
100
AcDbEntity
  8
0
 48
0.2
100
AcDbLine
 10
256.3863448404806
 20
-241.0603643301387
 30
0.0
 11
256.3863448404806
 21
-234.0603643301386
 31
0.0
  0
LINE
  5
8EAC
330
18
100
AcDbEntity
  8
0
100
AcDbLine
 10
258.3863448404806
 20
-231.2103643301387
 30
0.0
 11
258.3863448404806
 21
-216.5103643301387
 31
0.0
  0
LINE
  5
8EAE
330
18
100
AcDbEntity
  8
0
100
AcDbLine
 10
258.3863448404806
 20
-213.4103643301377
 30
0.0
 11
258.3863448404807
 21
-216.5103643301378
 31
0.0
  0
LINE
  5
8EAF
330
18
100
AcDbEntity
  8
0
100
AcDbLine
 10
248.8863448404807
 20
-207.0103643301377
 30
0.0
 11
248.8863448404807
 21
-216.5103643301378
 31
0.0
  0
LINE
  5
8EB0
330
18
100
AcDbEntity
  8
0
100
AcDbLine
 10
257.6863448404807
 20
-222.0103643301377
 30
0.0
 11
250.3863448404807
 21
-222.0103643301377
 31
0.0
  0
LINE
  5
8EB1
330
18
100
AcDbEntity
  8
0
100
AcDbLine
 10
248.8863448404807
 20
-216.5103643301377
 30
0.0
 11
250.3863448404807
 21
-222.0103643301377
 31
0.0
  0
LINE
  5
8EB2
330
18
100
AcDbEntity
  8
0
100
AcDbLine
 10
257.6863448404807
 20
-222.0103643301377
 30
0.0
 11
258.3863448404807
 21
-216.5103643301378
 31
0.0
  0
LINE
  5
8EB5
330
18
100
AcDbEntity
  8
0
100
AcDbLine
 10
257.6863448404807
 20
-207.0103643301377
 30
0.0
 11
248.8863448404807
 21
-207.0103643301377
 31
0.0
  0
LINE
  5
8EB6
330
18
100
AcDbEntity
  8
0
100
AcDbLine
 10
258.386344840481
 20
-208.0103643301377
 30
0.0
 11
258.386344840481
 21
-208.5103643301377
 31
0.0
  0
LINE
  5
8EB7
330
18
100
AcDbEntity
  8
0
100
AcDbLine
 10
257.6863448404807
 20
-207.0103643301377
 30
0.0
 11
257.6863448404808
 21
-208.0103643301377
 31
0.0
  0
LINE
  5
8EB8
330
18
100
AcDbEntity
  8
0
100
AcDbLine
 10
258.386344840481
 20
-208.0103643301377
 30
0.0
 11
257.6863448404808
 21
-208.0103643301377
 31
0.0
  0
LINE
  5
8EBA
330
18
100
AcDbEntity
  8
0
 48
0.2
100
AcDbLine
 10
238.3863448404802
 20
-246.5603643301387
 30
0.0
 11
222.3863448404806
 21
-246.5603643301387
 31
0.0
  0
LINE
  5
8EBB
330
18
100
AcDbEntity
  8
0
 48
0.2
100
AcDbLine
 10
238.3863448404802
 20
-228.5603643301387
 30
0.0
 11
222.3863448404806
 21
-228.5603643301385
 31
0.0
  0
LINE
  5
8EBC
330
18
100
AcDbEntity
  8
0
 48
0.2
100
AcDbLine
 10
222.3863448404806
 20
-246.5603643301387
 30
0.0
 11
222.3863448404806
 21
-228.5603643301385
 31
0.0
  0
LINE
  5
8EBD
330
18
100
AcDbEntity
  8
0
 48
0.2
100
AcDbLine
 10
237.5863448404806
 20
-241.4103643301388
 30
0.0
 11
229.5863448404805
 21
-241.4103643301388
 31
0.0
  0
LINE
  5
8EBE
330
18
100
AcDbEntity
  8
0
 48
0.2
100
AcDbLine
 10
237.5863448404806
 20
-233.7103643301388
 30
0.0
 11
229.5863448404805
 21
-233.7103643301387
 31
0.0
  0
LINE
  5
8EBF
330
18
100
AcDbEntity
  8
0
 48
0.2
100
AcDbLine
 10
229.5863448404805
 20
-241.4103643301388
 30
0.0
 11
229.5863448404805
 21
-233.7103643301387
 31
0.0
  0
LINE
  5
8EC0
330
18
100
AcDbEntity
  8
0
 48
0.2
100
AcDbLine
 10
237.5863448404806
 20
-243.9103643301388
 30
0.0
 11
237.5863448404804
 21
-231.2103643301388
 31
0.0
  0
LINE
  5
8EC1
330
18
100
AcDbEntity
  8
0
 48
0.2
100
AcDbLine
 10
243.3863448404805
 20
-243.9103643301387
 30
0.0
 11
238.3863448404805
 21
-246.5603643301387
 31
0.0
  0
ARC
  5
8EC2
330
18
100
AcDbEntity
  8
0
 48
0.2
100
AcDbCircle
 10
238.7563448404804
 20
-237.5603643301388
 30
0.0
 40
2.669999999999886
100
AcDbArc
 50
115.9892335838274
 51
244.0107664161725
  0
LINE
  5
8EC3
330
18
100
AcDbEntity
  8
0
 48
0.2
100
AcDbLine
 10
238.3863448404805
 20
-228.5603643301387
 30
0.0
 11
243.3863448404805
 21
-231.2103643301387
 31
0.0
  0
LWPOLYLINE
  5
9444
330
18
100
AcDbEntity
  8
0
100
AcDbPolyline
 90
        8
 70
     1
 43
0.0
 10
407.3863448404806
 20
-319.7478314428468
 10
407.3863448404805
 20
-477.7478314428468
 10
406.3863448404805
 20
-478.7478314428468
 10
261.3863448404805
 20
-478.7478314428468
 10
260.3863448404806
 20
-477.7478314428468
 10
260.3863448404806
 20
-319.7478314428468
 10
261.3863448404806
 20
-318.7478314428468
 10
406.3863448404807
 20
-318.7478314428468
  0
LWPOLYLINE
  5
9448
330
18
100
AcDbEntity
  8
0
100
AcDbPolyline
 90
        8
 70
     1
 43
0.0
 10
281.3863448404805
 20
-470.2478314428468
 10
281.3863448404805
 20
-470.2478314428468
 42
-0.4142135623730951
 10
279.6363448404805
 20
-471.9978314428468
 10
268.1363448404805
 20
-471.9978314428468
 42
-0.4142135623730951
 10
266.3863448404805
 20
-470.2478314428468
 10
266.3863448404805
 20
-470.2478314428468
 42
-0.4142135623730951
 10
268.1363448404805
 20
-468.4978314428469
 10
279.6363448404805
 20
-468.4978314428469
 42
-0.4142135623730951
  0
LWPOLYLINE
  5
9449
330
18
100
AcDbEntity
  8
0
100
AcDbPolyline
 90
        8
 70
     1
 43
0.0
 10
281.3863448404806
 20
-463.7478314428468
 10
281.3863448404806
 20
-463.7478314428468
 42
-0.4142135623730951
 10
279.6363448404806
 20
-465.4978314428468
 10
268.1363448404806
 20
-465.4978314428468
 42
-0.4142135623730951
 10
266.3863448404806
 20
-463.7478314428468
 10
266.3863448404806
 20
-463.7478314428468
 42
-0.4142135623730951
 10
268.1363448404806
 20
-461.9978314428468
 10
279.6363448404806
 20
-461.9978314428468
 42
-0.4142135623730951
  0
LWPOLYLINE
  5
944A
330
18
100
AcDbEntity
  8
0
100
AcDbPolyline
 90
        8
 70
     1
 43
0.0
 10
281.3863448404806
 20
-457.2478314428468
 10
281.3863448404806
 20
-457.2478314428468
 42
-0.4142135623730951
 10
279.6363448404806
 20
-458.9978314428468
 10
268.1363448404806
 20
-458.9978314428468
 42
-0.4142135623730951
 10
266.3863448404806
 20
-457.2478314428468
 10
266.3863448404806
 20
-457.2478314428468
 42
-0.4142135623730951
 10
268.1363448404806
 20
-455.4978314428468
 10
279.6363448404806
 20
-455.4978314428468
 42
-0.4142135623730951
  0
LWPOLYLINE
  5
944B
330
18
100
AcDbEntity
  8
0
100
AcDbPolyline
 90
        8
 70
     1
 43
0.0
 10
281.3863448404806
 20
-340.2478314428468
 10
281.3863448404806
 20
-340.2478314428468
 42
-0.4142135623730951
 10
279.6363448404806
 20
-341.9978314428468
 10
268.1363448404806
 20
-341.9978314428468
 42
-0.4142135623730951
 10
266.3863448404806
 20
-340.2478314428468
 10
266.3863448404806
 20
-340.2478314428468
 42
-0.4142135623730951
 10
268.1363448404806
 20
-338.4978314428468
 10
279.6363448404806
 20
-338.4978314428468
 42
-0.4142135623730951
  0
LWPOLYLINE
  5
944C
330
18
100
AcDbEntity
  8
0
100
AcDbPolyline
 90
        8
 70
     1
 43
0.0
 10
281.3863448404806
 20
-333.7478314428468
 10
281.3863448404806
 20
-333.7478314428468
 42
-0.4142135623730951
 10
279.6363448404806
 20
-335.4978314428468
 10
268.1363448404806
 20
-335.4978314428468
 42
-0.4142135623730951
 10
266.3863448404806
 20
-333.7478314428468
 10
266.3863448404806
 20
-333.7478314428468
 42
-0.4142135623730951
 10
268.1363448404806
 20
-331.9978314428468
 10
279.6363448404806
 20
-331.9978314428468
 42
-0.4142135623730951
  0
LWPOLYLINE
  5
944D
330
18
100
AcDbEntity
  8
0
100
AcDbPolyline
 90
        8
 70
     1
 43
0.0
 10
281.3863448404806
 20
-327.2478314428468
 10
281.3863448404806
 20
-327.2478314428468
 42
-0.4142135623730951
 10
279.6363448404806
 20
-328.9978314428468
 10
268.1363448404806
 20
-328.9978314428468
 42
-0.4142135623730951
 10
266.3863448404806
 20
-327.2478314428468
 10
266.3863448404806
 20
-327.2478314428468
 42
-0.4142135623730951
 10
268.1363448404806
 20
-325.4978314428468
 10
279.6363448404806
 20
-325.4978314428468
 42
-0.4142135623730951
  0
LWPOLYLINE
  5
9458
330
18
100
AcDbEntity
  8
0
100
AcDbPolyline
 90
        8
 70
     1
 43
0.0
 10
377.3863448404806
 20
-444.2478314428468
 10
377.3863448404806
 20
-444.2478314428468
 42
-0.4142135623730951
 10
375.6363448404806
 20
-445.9978314428468
 10
364.1363448404806
 20
-445.9978314428468
 42
-0.4142135623730951
 10
362.3863448404806
 20
-444.2478314428468
 10
362.3863448404806
 20
-444.2478314428468
 42
-0.4142135623730951
 10
364.1363448404806
 20
-442.4978314428468
 10
375.6363448404806
 20
-442.4978314428468
 42
-0.4142135623730951
  0
LWPOLYLINE
  5
9459
330
18
100
AcDbEntity
  8
0
100
AcDbPolyline
 90
        8
 70
     1
 43
0.0
 10
377.3863448404806
 20
-392.2478314428468
 10
377.3863448404806
 20
-392.2478314428468
 42
-0.4142135623730951
 10
375.6363448404806
 20
-393.9978314428468
 10
364.1363448404806
 20
-393.9978314428468
 42
-0.4142135623730951
 10
362.3863448404806
 20
-392.2478314428468
 10
362.3863448404806
 20
-392.2478314428468
 42
-0.4142135623730951
 10
364.1363448404806
 20
-390.4978314428468
 10
375.6363448404806
 20
-390.4978314428468
 42
-0.4142135623730951
  0
LWPOLYLINE
  5
945A
330
18
100
AcDbEntity
  8
0
100
AcDbPolyline
 90
        8
 70
     1
 43
0.0
 10
377.3863448404806
 20
-398.7478314428468
 10
377.3863448404806
 20
-398.7478314428468
 42
-0.4142135623730951
 10
375.6363448404806
 20
-400.4978314428468
 10
364.1363448404806
 20
-400.4978314428468
 42
-0.4142135623730951
 10
362.3863448404806
 20
-398.7478314428468
 10
362.3863448404806
 20
-398.7478314428468
 42
-0.4142135623730951
 10
364.1363448404806
 20
-396.9978314428468
 10
375.6363448404806
 20
-396.9978314428468
 42
-0.4142135623730951
  0
LWPOLYLINE
  5
945B
330
18
100
AcDbEntity
  8
0
100
AcDbPolyline
 90
        8
 70
     1
 43
0.0
 10
377.3863448404806
 20
-405.2478314428468
 10
377.3863448404806
 20
-405.2478314428468
 42
-0.4142135623730951
 10
375.6363448404806
 20
-406.9978314428468
 10
364.1363448404806
 20
-406.9978314428468
 42
-0.4142135623730951
 10
362.3863448404806
 20
-405.2478314428468
 10
362.3863448404806
 20
-405.2478314428468
 42
-0.4142135623730951
 10
364.1363448404806
 20
-403.4978314428468
 10
375.6363448404806
 20
-403.4978314428468
 42
-0.4142135623730951
  0
LWPOLYLINE
  5
945C
330
18
100
AcDbEntity
  8
0
100
AcDbPolyline
 90
        8
 70
     1
 43
0.0
 10
377.3863448404806
 20
-411.7478314428468
 10
377.3863448404806
 20
-411.7478314428468
 42
-0.4142135623730951
 10
375.6363448404806
 20
-413.4978314428468
 10
364.1363448404806
 20
-413.4978314428468
 42
-0.4142135623730951
 10
362.3863448404806
 20
-411.7478314428468
 10
362.3863448404806
 20
-411.7478314428468
 42
-0.4142135623730951
 10
364.1363448404806
 20
-409.9978314428468
 10
375.6363448404806
 20
-409.9978314428468
 42
-0.4142135623730951
  0
LWPOLYLINE
  5
945D
330
18
100
AcDbEntity
  8
0
100
AcDbPolyline
 90
        8
 70
     1
 43
0.0
 10
377.3863448404806
 20
-418.2478314428468
 10
377.3863448404806
 20
-418.2478314428468
 42
-0.4142135623730951
 10
375.6363448404806
 20
-419.9978314428468
 10
364.1363448404806
 20
-419.9978314428468
 42
-0.4142135623730951
 10
362.3863448404806
 20
-418.2478314428468
 10
362.3863448404806
 20
-418.2478314428468
 42
-0.4142135623730951
 10
364.1363448404806
 20
-416.4978314428468
 10
375.6363448404806
 20
-416.4978314428468
 42
-0.4142135623730951
  0
LWPOLYLINE
  5
945E
330
18
100
AcDbEntity
  8
0
100
AcDbPolyline
 90
        8
 70
     1
 43
0.0
 10
377.3863448404806
 20
-424.7478314428468
 10
377.3863448404806
 20
-424.7478314428468
 42
-0.4142135623730951
 10
375.6363448404806
 20
-426.4978314428468
 10
364.1363448404806
 20
-426.4978314428468
 42
-0.4142135623730951
 10
362.3863448404806
 20
-424.7478314428468
 10
362.3863448404806
 20
-424.7478314428468
 42
-0.4142135623730951
 10
364.1363448404806
 20
-422.9978314428469
 10
375.6363448404806
 20
-422.9978314428469
 42
-0.4142135623730951
  0
LWPOLYLINE
  5
945F
330
18
100
AcDbEntity
  8
0
100
AcDbPolyline
 90
        8
 70
     1
 43
0.0
 10
377.3863448404806
 20
-431.2478314428468
 10
377.3863448404806
 20
-431.2478314428468
 42
-0.4142135623730951
 10
375.6363448404806
 20
-432.9978314428468
 10
364.1363448404806
 20
-432.9978314428468
 42
-0.4142135623730951
 10
362.3863448404806
 20
-431.2478314428468
 10
362.3863448404806
 20
-431.2478314428468
 42
-0.4142135623730951
 10
364.1363448404806
 20
-429.4978314428468
 10
375.6363448404806
 20
-429.4978314428468
 42
-0.4142135623730951
  0
LWPOLYLINE
  5
9460
330
18
100
AcDbEntity
  8
0
100
AcDbPolyline
 90
        8
 70
     1
 43
0.0
 10
377.3863448404806
 20
-437.7478314428469
 10
377.3863448404806
 20
-437.7478314428469
 42
-0.4142135623730951
 10
375.6363448404806
 20
-439.4978314428469
 10
364.1363448404806
 20
-439.4978314428469
 42
-0.4142135623730951
 10
362.3863448404806
 20
-437.7478314428469
 10
362.3863448404806
 20
-437.7478314428469
 42
-0.4142135623730951
 10
364.1363448404806
 20
-435.9978314428468
 10
375.6363448404806
 20
-435.9978314428468
 42
-0.4142135623730951
  0
LWPOLYLINE
  5
9461
330
18
100
AcDbEntity
  8
0
100
AcDbPolyline
 90
        8
 70
     1
 43
0.0
 10
377.3863448404806
 20
-333.7478314428468
 10
377.3863448404806
 20
-333.7478314428468
 42
-0.4142135623730951
 10
375.6363448404806
 20
-335.4978314428468
 10
364.1363448404806
 20
-335.4978314428468
 42
-0.4142135623730951
 10
362.3863448404806
 20
-333.7478314428468
 10
362.3863448404806
 20
-333.7478314428468
 42
-0.4142135623730951
 10
364.1363448404806
 20
-331.9978314428468
 10
375.6363448404806
 20
-331.9978314428468
 42
-0.4142135623730951
  0
LWPOLYLINE
  5
9462
330
18
100
AcDbEntity
  8
0
100
AcDbPolyline
 90
        8
 70
     1
 43
0.0
 10
377.3863448404806
 20
-340.2478314428468
 10
377.3863448404806
 20
-340.2478314428468
 42
-0.4142135623730951
 10
375.6363448404806
 20
-341.9978314428468
 10
364.1363448404806
 20
-341.9978314428468
 42
-0.4142135623730951
 10
362.3863448404806
 20
-340.2478314428468
 10
362.3863448404806
 20
-340.2478314428468
 42
-0.4142135623730951
 10
364.1363448404806
 20
-338.4978314428468
 10
375.6363448404806
 20
-338.4978314428468
 42
-0.4142135623730951
  0
LWPOLYLINE
  5
9463
330
18
100
AcDbEntity
  8
0
100
AcDbPolyline
 90
        8
 70
     1
 43
0.0
 10
377.3863448404806
 20
-346.7478314428468
 10
377.3863448404806
 20
-346.7478314428468
 42
-0.4142135623730951
 10
375.6363448404806
 20
-348.4978314428468
 10
364.1363448404806
 20
-348.4978314428468
 42
-0.4142135623730951
 10
362.3863448404806
 20
-346.7478314428468
 10
362.3863448404806
 20
-346.7478314428468
 42
-0.4142135623730951
 10
364.1363448404806
 20
-344.9978314428468
 10
375.6363448404806
 20
-344.9978314428468
 42
-0.4142135623730951
  0
LWPOLYLINE
  5
9464
330
18
100
AcDbEntity
  8
0
100
AcDbPolyline
 90
        8
 70
     1
 43
0.0
 10
377.3863448404806
 20
-353.2478314428468
 10
377.3863448404806
 20
-353.2478314428468
 42
-0.4142135623730951
 10
375.6363448404806
 20
-354.9978314428468
 10
364.1363448404806
 20
-354.9978314428468
 42
-0.4142135623730951
 10
362.3863448404806
 20
-353.2478314428468
 10
362.3863448404806
 20
-353.2478314428468
 42
-0.4142135623730951
 10
364.1363448404806
 20
-351.4978314428468
 10
375.6363448404806
 20
-351.4978314428468
 42
-0.4142135623730951
  0
LWPOLYLINE
  5
9465
330
18
100
AcDbEntity
  8
0
100
AcDbPolyline
 90
        8
 70
     1
 43
0.0
 10
377.3863448404806
 20
-359.7478314428468
 10
377.3863448404806
 20
-359.7478314428468
 42
-0.4142135623730951
 10
375.6363448404806
 20
-361.4978314428468
 10
364.1363448404806
 20
-361.4978314428468
 42
-0.4142135623730951
 10
362.3863448404806
 20
-359.7478314428468
 10
362.3863448404806
 20
-359.7478314428468
 42
-0.4142135623730951
 10
364.1363448404806
 20
-357.9978314428468
 10
375.6363448404806
 20
-357.9978314428468
 42
-0.4142135623730951
  0
LWPOLYLINE
  5
9466
330
18
100
AcDbEntity
  8
0
100
AcDbPolyline
 90
        8
 70
     1
 43
0.0
 10
377.3863448404806
 20
-366.2478314428468
 10
377.3863448404806
 20
-366.2478314428468
 42
-0.4142135623730951
 10
375.6363448404806
 20
-367.9978314428468
 10
364.1363448404806
 20
-367.9978314428468
 42
-0.4142135623730951
 10
362.3863448404806
 20
-366.2478314428468
 10
362.3863448404806
 20
-366.2478314428468
 42
-0.4142135623730951
 10
364.1363448404806
 20
-364.4978314428468
 10
375.6363448404806
 20
-364.4978314428468
 42
-0.4142135623730951
  0
LWPOLYLINE
  5
9467
330
18
100
AcDbEntity
  8
0
100
AcDbPolyline
 90
        8
 70
     1
 43
0.0
 10
377.3863448404806
 20
-372.7478314428468
 10
377.3863448404806
 20
-372.7478314428468
 42
-0.4142135623730951
 10
375.6363448404806
 20
-374.4978314428468
 10
364.1363448404806
 20
-374.4978314428468
 42
-0.4142135623730951
 10
362.3863448404806
 20
-372.7478314428468
 10
362.3863448404806
 20
-372.7478314428468
 42
-0.4142135623730951
 10
364.1363448404806
 20
-370.9978314428468
 10
375.6363448404806
 20
-370.9978314428468
 42
-0.4142135623730951
  0
LWPOLYLINE
  5
9468
330
18
100
AcDbEntity
  8
0
100
AcDbPolyline
 90
        8
 70
     1
 43
0.0
 10
377.3863448404806
 20
-379.2478314428468
 10
377.3863448404806
 20
-379.2478314428468
 42
-0.4142135623730951
 10
375.6363448404806
 20
-380.9978314428468
 10
364.1363448404806
 20
-380.9978314428468
 42
-0.4142135623730951
 10
362.3863448404806
 20
-379.2478314428468
 10
362.3863448404806
 20
-379.2478314428468
 42
-0.4142135623730951
 10
364.1363448404806
 20
-377.4978314428468
 10
375.6363448404806
 20
-377.4978314428468
 42
-0.4142135623730951
  0
LWPOLYLINE
  5
9469
330
18
100
AcDbEntity
  8
0
100
AcDbPolyline
 90
        8
 70
     1
 43
0.0
 10
377.3863448404806
 20
-385.7478314428468
 10
377.3863448404806
 20
-385.7478314428468
 42
-0.4142135623730951
 10
375.6363448404806
 20
-387.4978314428468
 10
364.1363448404806
 20
-387.4978314428468
 42
-0.4142135623730951
 10
362.3863448404806
 20
-385.7478314428468
 10
362.3863448404806
 20
-385.7478314428468
 42
-0.4142135623730951
 10
364.1363448404806
 20
-383.9978314428468
 10
375.6363448404806
 20
-383.9978314428468
 42
-0.4142135623730951
  0
LWPOLYLINE
  5
946A
330
18
100
AcDbEntity
  8
0
100
AcDbPolyline
 90
        8
 70
     1
 43
0.0
 10
377.3863448404806
 20
-327.2478314428468
 10
377.3863448404806
 20
-327.2478314428468
 42
-0.4142135623730951
 10
375.6363448404806
 20
-328.9978314428468
 10
364.1363448404806
 20
-328.9978314428468
 42
-0.4142135623730951
 10
362.3863448404806
 20
-327.2478314428468
 10
362.3863448404806
 20
-327.2478314428468
 42
-0.4142135623730951
 10
364.1363448404806
 20
-325.4978314428468
 10
375.6363448404806
 20
-325.4978314428468
 42
-0.4142135623730951
  0
LWPOLYLINE
  5
946B
330
18
100
AcDbEntity
  8
0
100
AcDbPolyline
 90
        8
 70
     1
 43
0.0
 10
329.3863448404806
 20
-340.2478314428468
 10
329.3863448404806
 20
-340.2478314428468
 42
-0.4142135623730951
 10
327.6363448404806
 20
-341.9978314428468
 10
316.1363448404806
 20
-341.9978314428468
 42
-0.4142135623730951
 10
314.3863448404806
 20
-340.2478314428468
 10
314.3863448404806
 20
-340.2478314428468
 42
-0.4142135623730951
 10
316.1363448404806
 20
-338.4978314428468
 10
327.6363448404806
 20
-338.4978314428468
 42
-0.4142135623730951
  0
LWPOLYLINE
  5
946C
330
18
100
AcDbEntity
  8
0
100
AcDbPolyline
 90
        8
 70
     1
 43
0.0
 10
329.3863448404806
 20
-333.7478314428468
 10
329.3863448404806
 20
-333.7478314428468
 42
-0.4142135623730951
 10
327.6363448404806
 20
-335.4978314428468
 10
316.1363448404806
 20
-335.4978314428468
 42
-0.4142135623730951
 10
314.3863448404806
 20
-333.7478314428468
 10
314.3863448404806
 20
-333.7478314428468
 42
-0.4142135623730951
 10
316.1363448404806
 20
-331.9978314428468
 10
327.6363448404806
 20
-331.9978314428468
 42
-0.4142135623730951
  0
LWPOLYLINE
  5
946D
330
18
100
AcDbEntity
  8
0
100
AcDbPolyline
 90
        8
 70
     1
 43
0.0
 10
329.3863448404806
 20
-327.2478314428468
 10
329.3863448404806
 20
-327.2478314428468
 42
-0.4142135623730951
 10
327.6363448404806
 20
-328.9978314428468
 10
316.1363448404806
 20
-328.9978314428468
 42
-0.4142135623730951
 10
314.3863448404806
 20
-327.2478314428468
 10
314.3863448404806
 20
-327.2478314428468
 42
-0.4142135623730951
 10
316.1363448404806
 20
-325.4978314428468
 10
327.6363448404806
 20
-325.4978314428468
 42
-0.4142135623730951
  0
LWPOLYLINE
  5
946E
330
18
100
AcDbEntity
  8
0
100
AcDbPolyline
 90
        8
 70
     1
 43
0.0
 10
305.3863448404806
 20
-340.2478314428468
 10
305.3863448404806
 20
-340.2478314428468
 42
-0.4142135623730951
 10
303.6363448404806
 20
-341.9978314428468
 10
292.1363448404806
 20
-341.9978314428468
 42
-0.4142135623730951
 10
290.3863448404806
 20
-340.2478314428468
 10
290.3863448404806
 20
-340.2478314428468
 42
-0.4142135623730951
 10
292.1363448404806
 20
-338.4978314428468
 10
303.6363448404806
 20
-338.4978314428468
 42
-0.4142135623730951
  0
LWPOLYLINE
  5
946F
330
18
100
AcDbEntity
  8
0
100
AcDbPolyline
 90
        8
 70
     1
 43
0.0
 10
305.3863448404806
 20
-333.7478314428468
 10
305.3863448404806
 20
-333.7478314428468
 42
-0.4142135623730951
 10
303.6363448404806
 20
-335.4978314428468
 10
292.1363448404806
 20
-335.4978314428468
 42
-0.4142135623730951
 10
290.3863448404806
 20
-333.7478314428468
 10
290.3863448404806
 20
-333.7478314428468
 42
-0.4142135623730951
 10
292.1363448404806
 20
-331.9978314428468
 10
303.6363448404806
 20
-331.9978314428468
 42
-0.4142135623730951
  0
LWPOLYLINE
  5
9470
330
18
100
AcDbEntity
  8
0
100
AcDbPolyline
 90
        8
 70
     1
 43
0.0
 10
305.3863448404806
 20
-327.2478314428468
 10
305.3863448404806
 20
-327.2478314428468
 42
-0.4142135623730951
 10
303.6363448404806
 20
-328.9978314428468
 10
292.1363448404806
 20
-328.9978314428468
 42
-0.4142135623730951
 10
290.3863448404806
 20
-327.2478314428468
 10
290.3863448404806
 20
-327.2478314428468
 42
-0.4142135623730951
 10
292.1363448404806
 20
-325.4978314428468
 10
303.6363448404806
 20
-325.4978314428468
 42
-0.4142135623730951
  0
LWPOLYLINE
  5
9471
330
18
100
AcDbEntity
  8
0
100
AcDbPolyline
 90
        8
 70
     1
 43
0.0
 10
353.3863448404806
 20
-340.2478314428468
 10
353.3863448404806
 20
-340.2478314428468
 42
-0.4142135623730951
 10
351.6363448404806
 20
-341.9978314428468
 10
340.1363448404806
 20
-341.9978314428468
 42
-0.4142135623730951
 10
338.3863448404806
 20
-340.2478314428468
 10
338.3863448404806
 20
-340.2478314428468
 42
-0.4142135623730951
 10
340.1363448404806
 20
-338.4978314428468
 10
351.6363448404806
 20
-338.4978314428468
 42
-0.4142135623730951
  0
LWPOLYLINE
  5
9472
330
18
100
AcDbEntity
  8
0
100
AcDbPolyline
 90
        8
 70
     1
 43
0.0
 10
353.3863448404806
 20
-333.7478314428468
 10
353.3863448404806
 20
-333.7478314428468
 42
-0.4142135623730951
 10
351.6363448404806
 20
-335.4978314428468
 10
340.1363448404806
 20
-335.4978314428468
 42
-0.4142135623730951
 10
338.3863448404806
 20
-333.7478314428468
 10
338.3863448404806
 20
-333.7478314428468
 42
-0.4142135623730951
 10
340.1363448404806
 20
-331.9978314428468
 10
351.6363448404806
 20
-331.9978314428468
 42
-0.4142135623730951
  0
LWPOLYLINE
  5
9473
330
18
100
AcDbEntity
  8
0
100
AcDbPolyline
 90
        8
 70
     1
 43
0.0
 10
353.3863448404806
 20
-327.2478314428468
 10
353.3863448404806
 20
-327.2478314428468
 42
-0.4142135623730951
 10
351.6363448404806
 20
-328.9978314428468
 10
340.1363448404806
 20
-328.9978314428468
 42
-0.4142135623730951
 10
338.3863448404806
 20
-327.2478314428468
 10
338.3863448404806
 20
-327.2478314428468
 42
-0.4142135623730951
 10
340.1363448404806
 20
-325.4978314428468
 10
351.6363448404806
 20
-325.4978314428468
 42
-0.4142135623730951
  0
LWPOLYLINE
  5
9476
330
18
100
AcDbEntity
  8
0
100
AcDbPolyline
 90
        8
 70
     1
 43
0.0
 10
401.3863448404806
 20
-385.7478314428468
 10
401.3863448404806
 20
-385.7478314428468
 42
-0.4142135623730951
 10
399.6363448404806
 20
-387.4978314428468
 10
388.1363448404806
 20
-387.4978314428468
 42
-0.4142135623730951
 10
386.3863448404806
 20
-385.7478314428468
 10
386.3863448404806
 20
-385.7478314428468
 42
-0.4142135623730951
 10
388.1363448404806
 20
-383.9978314428468
 10
399.6363448404806
 20
-383.9978314428468
 42
-0.4142135623730951
  0
LWPOLYLINE
  5
9477
330
18
100
AcDbEntity
  8
0
100
AcDbPolyline
 90
        8
 70
     1
 43
0.0
 10
401.3863448404806
 20
-353.2478314428468
 10
401.3863448404806
 20
-353.2478314428468
 42
-0.4142135623730951
 10
399.6363448404806
 20
-354.9978314428468
 10
388.1363448404806
 20
-354.9978314428468
 42
-0.4142135623730951
 10
386.3863448404806
 20
-353.2478314428468
 10
386.3863448404806
 20
-353.2478314428468
 42
-0.4142135623730951
 10
388.1363448404806
 20
-351.4978314428468
 10
399.6363448404806
 20
-351.4978314428468
 42
-0.4142135623730951
  0
LWPOLYLINE
  5
9478
330
18
100
AcDbEntity
  8
0
100
AcDbPolyline
 90
        8
 70
     1
 43
0.0
 10
401.3863448404806
 20
-346.7478314428468
 10
401.3863448404806
 20
-346.7478314428468
 42
-0.4142135623730951
 10
399.6363448404806
 20
-348.4978314428468
 10
388.1363448404806
 20
-348.4978314428468
 42
-0.4142135623730951
 10
386.3863448404806
 20
-346.7478314428468
 10
386.3863448404806
 20
-346.7478314428468
 42
-0.4142135623730951
 10
388.1363448404806
 20
-344.9978314428468
 10
399.6363448404806
 20
-344.9978314428468
 42
-0.4142135623730951
  0
LWPOLYLINE
  5
9479
330
18
100
AcDbEntity
  8
0
100
AcDbPolyline
 90
        8
 70
     1
 43
0.0
 10
401.3863448404806
 20
-340.2478314428468
 10
401.3863448404806
 20
-340.2478314428468
 42
-0.4142135623730951
 10
399.6363448404806
 20
-341.9978314428468
 10
388.1363448404806
 20
-341.9978314428468
 42
-0.4142135623730951
 10
386.3863448404806
 20
-340.2478314428468
 10
386.3863448404806
 20
-340.2478314428468
 42
-0.4142135623730951
 10
388.1363448404806
 20
-338.4978314428468
 10
399.6363448404806
 20
-338.4978314428468
 42
-0.4142135623730951
  0
LWPOLYLINE
  5
947A
330
18
100
AcDbEntity
  8
0
100
AcDbPolyline
 90
        8
 70
     1
 43
0.0
 10
401.3863448404806
 20
-333.7478314428468
 10
401.3863448404806
 20
-333.7478314428468
 42
-0.4142135623730951
 10
399.6363448404806
 20
-335.4978314428468
 10
388.1363448404806
 20
-335.4978314428468
 42
-0.4142135623730951
 10
386.3863448404806
 20
-333.7478314428468
 10
386.3863448404806
 20
-333.7478314428468
 42
-0.4142135623730951
 10
388.1363448404806
 20
-331.9978314428468
 10
399.6363448404806
 20
-331.9978314428468
 42
-0.4142135623730951
  0
LWPOLYLINE
  5
947B
330
18
100
AcDbEntity
  8
0
100
AcDbPolyline
 90
        8
 70
     1
 43
0.0
 10
401.3863448404806
 20
-327.2478314428468
 10
401.3863448404806
 20
-327.2478314428468
 42
-0.4142135623730951
 10
399.6363448404806
 20
-328.9978314428468
 10
388.1363448404806
 20
-328.9978314428468
 42
-0.4142135623730951
 10
386.3863448404806
 20
-327.2478314428468
 10
386.3863448404806
 20
-327.2478314428468
 42
-0.4142135623730951
 10
388.1363448404806
 20
-325.4978314428468
 10
399.6363448404806
 20
-325.4978314428468
 42
-0.4142135623730951
  0
LWPOLYLINE
  5
947E
330
18
100
AcDbEntity
  8
0
100
AcDbPolyline
 90
        8
 70
     1
 43
0.0
 10
401.3863448404806
 20
-379.2478314428468
 10
401.3863448404806
 20
-379.2478314428468
 42
-0.4142135623730951
 10
399.6363448404806
 20
-380.9978314428468
 10
388.1363448404806
 20
-380.9978314428468
 42
-0.4142135623730951
 10
386.3863448404806
 20
-379.2478314428468
 10
386.3863448404806
 20
-379.2478314428468
 42
-0.4142135623730951
 10
388.1363448404806
 20
-377.4978314428468
 10
399.6363448404806
 20
-377.4978314428468
 42
-0.4142135623730951
  0
LWPOLYLINE
  5
947F
330
18
100
AcDbEntity
  8
0
100
AcDbPolyline
 90
        8
 70
     1
 43
0.0
 10
401.3863448404806
 20
-372.7478314428468
 10
401.3863448404806
 20
-372.7478314428468
 42
-0.4142135623730951
 10
399.6363448404806
 20
-374.4978314428468
 10
388.1363448404806
 20
-374.4978314428468
 42
-0.4142135623730951
 10
386.3863448404806
 20
-372.7478314428468
 10
386.3863448404806
 20
-372.7478314428468
 42
-0.4142135623730951
 10
388.1363448404806
 20
-370.9978314428468
 10
399.6363448404806
 20
-370.9978314428468
 42
-0.4142135623730951
  0
LWPOLYLINE
  5
9480
330
18
100
AcDbEntity
  8
0
100
AcDbPolyline
 90
        8
 70
     1
 43
0.0
 10
401.3863448404806
 20
-366.2478314428468
 10
401.3863448404806
 20
-366.2478314428468
 42
-0.4142135623730951
 10
399.6363448404806
 20
-367.9978314428468
 10
388.1363448404806
 20
-367.9978314428468
 42
-0.4142135623730951
 10
386.3863448404806
 20
-366.2478314428468
 10
386.3863448404806
 20
-366.2478314428468
 42
-0.4142135623730951
 10
388.1363448404806
 20
-364.4978314428468
 10
399.6363448404806
 20
-364.4978314428468
 42
-0.4142135623730951
  0
LWPOLYLINE
  5
9481
330
18
100
AcDbEntity
  8
0
100
AcDbPolyline
 90
        8
 70
     1
 43
0.0
 10
401.3863448404806
 20
-359.7478314428468
 10
401.3863448404806
 20
-359.7478314428468
 42
-0.4142135623730951
 10
399.6363448404806
 20
-361.4978314428468
 10
388.1363448404806
 20
-361.4978314428468
 42
-0.4142135623730951
 10
386.3863448404806
 20
-359.7478314428468
 10
386.3863448404806
 20
-359.7478314428468
 42
-0.4142135623730951
 10
388.1363448404806
 20
-357.9978314428468
 10
399.6363448404806
 20
-357.9978314428468
 42
-0.4142135623730951
  0
LWPOLYLINE
  5
9482
330
18
100
AcDbEntity
  8
0
100
AcDbPolyline
 90
        8
 70
     1
 43
0.0
 10
401.3863448404806
 20
-418.2478314428468
 10
401.3863448404806
 20
-418.2478314428468
 42
-0.4142135623730951
 10
399.6363448404806
 20
-419.9978314428468
 10
388.1363448404806
 20
-419.9978314428468
 42
-0.4142135623730951
 10
386.3863448404806
 20
-418.2478314428468
 10
386.3863448404806
 20
-418.2478314428468
 42
-0.4142135623730951
 10
388.1363448404806
 20
-416.4978314428468
 10
399.6363448404806
 20
-416.4978314428468
 42
-0.4142135623730951
  0
LWPOLYLINE
  5
9483
330
18
100
AcDbEntity
  8
0
100
AcDbPolyline
 90
        8
 70
     1
 43
0.0
 10
401.3863448404806
 20
-411.7478314428468
 10
401.3863448404806
 20
-411.7478314428468
 42
-0.4142135623730951
 10
399.6363448404806
 20
-413.4978314428468
 10
388.1363448404806
 20
-413.4978314428468
 42
-0.4142135623730951
 10
386.3863448404806
 20
-411.7478314428468
 10
386.3863448404806
 20
-411.7478314428468
 42
-0.4142135623730951
 10
388.1363448404806
 20
-409.9978314428468
 10
399.6363448404806
 20
-409.9978314428468
 42
-0.4142135623730951
  0
LWPOLYLINE
  5
9484
330
18
100
AcDbEntity
  8
0
100
AcDbPolyline
 90
        8
 70
     1
 43
0.0
 10
401.3863448404806
 20
-405.2478314428468
 10
401.3863448404806
 20
-405.2478314428468
 42
-0.4142135623730951
 10
399.6363448404806
 20
-406.9978314428468
 10
388.1363448404806
 20
-406.9978314428468
 42
-0.4142135623730951
 10
386.3863448404806
 20
-405.2478314428468
 10
386.3863448404806
 20
-405.2478314428468
 42
-0.4142135623730951
 10
388.1363448404806
 20
-403.4978314428468
 10
399.6363448404806
 20
-403.4978314428468
 42
-0.4142135623730951
  0
LWPOLYLINE
  5
9485
330
18
100
AcDbEntity
  8
0
100
AcDbPolyline
 90
        8
 70
     1
 43
0.0
 10
401.3863448404806
 20
-398.7478314428468
 10
401.3863448404806
 20
-398.7478314428468
 42
-0.4142135623730951
 10
399.6363448404806
 20
-400.4978314428468
 10
388.1363448404806
 20
-400.4978314428468
 42
-0.4142135623730951
 10
386.3863448404806
 20
-398.7478314428468
 10
386.3863448404806
 20
-398.7478314428468
 42
-0.4142135623730951
 10
388.1363448404806
 20
-396.9978314428468
 10
399.6363448404806
 20
-396.9978314428468
 42
-0.4142135623730951
  0
LWPOLYLINE
  5
9486
330
18
100
AcDbEntity
  8
0
100
AcDbPolyline
 90
        8
 70
     1
 43
0.0
 10
401.3863448404806
 20
-392.2478314428468
 10
401.3863448404806
 20
-392.2478314428468
 42
-0.4142135623730951
 10
399.6363448404806
 20
-393.9978314428468
 10
388.1363448404806
 20
-393.9978314428468
 42
-0.4142135623730951
 10
386.3863448404806
 20
-392.2478314428468
 10
386.3863448404806
 20
-392.2478314428468
 42
-0.4142135623730951
 10
388.1363448404806
 20
-390.4978314428468
 10
399.6363448404806
 20
-390.4978314428468
 42
-0.4142135623730951
  0
LWPOLYLINE
  5
9487
330
18
100
AcDbEntity
  8
0
100
AcDbPolyline
 90
        8
 70
     1
 43
0.0
 10
401.3863448404806
 20
-444.2478314428468
 10
401.3863448404806
 20
-444.2478314428468
 42
-0.4142135623730951
 10
399.6363448404806
 20
-445.9978314428468
 10
388.1363448404806
 20
-445.9978314428468
 42
-0.4142135623730951
 10
386.3863448404806
 20
-444.2478314428468
 10
386.3863448404806
 20
-444.2478314428468
 42
-0.4142135623730951
 10
388.1363448404806
 20
-442.4978314428468
 10
399.6363448404806
 20
-442.4978314428468
 42
-0.4142135623730951
  0
LWPOLYLINE
  5
9488
330
18
100
AcDbEntity
  8
0
100
AcDbPolyline
 90
        8
 70
     1
 43
0.0
 10
401.3863448404806
 20
-437.7478314428469
 10
401.3863448404806
 20
-437.7478314428469
 42
-0.4142135623730951
 10
399.6363448404806
 20
-439.4978314428469
 10
388.1363448404806
 20
-439.4978314428469
 42
-0.4142135623730951
 10
386.3863448404806
 20
-437.7478314428469
 10
386.3863448404806
 20
-437.7478314428469
 42
-0.4142135623730951
 10
388.1363448404806
 20
-435.9978314428468
 10
399.6363448404806
 20
-435.9978314428468
 42
-0.4142135623730951
  0
LWPOLYLINE
  5
9489
330
18
100
AcDbEntity
  8
0
100
AcDbPolyline
 90
        8
 70
     1
 43
0.0
 10
401.3863448404806
 20
-431.2478314428468
 10
401.3863448404806
 20
-431.2478314428468
 42
-0.4142135623730951
 10
399.6363448404806
 20
-432.9978314428468
 10
388.1363448404806
 20
-432.9978314428468
 42
-0.4142135623730951
 10
386.3863448404806
 20
-431.2478314428468
 10
386.3863448404806
 20
-431.2478314428468
 42
-0.4142135623730951
 10
388.1363448404806
 20
-429.4978314428468
 10
399.6363448404806
 20
-429.4978314428468
 42
-0.4142135623730951
  0
LWPOLYLINE
  5
948A
330
18
100
AcDbEntity
  8
0
100
AcDbPolyline
 90
        8
 70
     1
 43
0.0
 10
401.3863448404806
 20
-424.7478314428468
 10
401.3863448404806
 20
-424.7478314428468
 42
-0.4142135623730951
 10
399.6363448404806
 20
-426.4978314428468
 10
388.1363448404806
 20
-426.4978314428468
 42
-0.4142135623730951
 10
386.3863448404806
 20
-424.7478314428468
 10
386.3863448404806
 20
-424.7478314428468
 42
-0.4142135623730951
 10
388.1363448404806
 20
-422.9978314428469
 10
399.6363448404806
 20
-422.9978314428469
 42
-0.4142135623730951
  0
LWPOLYLINE
  5
948B
330
18
100
AcDbEntity
  8
0
100
AcDbPolyline
 90
        8
 70
     1
 43
0.0
 10
377.3863448404806
 20
-450.7478314428468
 10
377.3863448404806
 20
-450.7478314428468
 42
-0.4142135623730951
 10
375.6363448404806
 20
-452.4978314428468
 10
364.1363448404806
 20
-452.4978314428468
 42
-0.4142135623730951
 10
362.3863448404806
 20
-450.7478314428468
 10
362.3863448404806
 20
-450.7478314428468
 42
-0.4142135623730951
 10
364.1363448404806
 20
-448.9978314428468
 10
375.6363448404806
 20
-448.9978314428468
 42
-0.4142135623730951
  0
LWPOLYLINE
  5
948C
330
18
100
AcDbEntity
  8
0
100
AcDbPolyline
 90
        8
 70
     1
 43
0.0
 10
377.3863448404806
 20
-457.2478314428468
 10
377.3863448404806
 20
-457.2478314428468
 42
-0.4142135623730951
 10
375.6363448404806
 20
-458.9978314428468
 10
364.1363448404806
 20
-458.9978314428468
 42
-0.4142135623730951
 10
362.3863448404806
 20
-457.2478314428468
 10
362.3863448404806
 20
-457.2478314428468
 42
-0.4142135623730951
 10
364.1363448404806
 20
-455.4978314428468
 10
375.6363448404806
 20
-455.4978314428468
 42
-0.4142135623730951
  0
LWPOLYLINE
  5
948D
330
18
100
AcDbEntity
  8
0
100
AcDbPolyline
 90
        8
 70
     1
 43
0.0
 10
377.3863448404806
 20
-463.7478314428468
 10
377.3863448404806
 20
-463.7478314428468
 42
-0.4142135623730951
 10
375.6363448404806
 20
-465.4978314428468
 10
364.1363448404806
 20
-465.4978314428468
 42
-0.4142135623730951
 10
362.3863448404806
 20
-463.7478314428468
 10
362.3863448404806
 20
-463.7478314428468
 42
-0.4142135623730951
 10
364.1363448404806
 20
-461.9978314428468
 10
375.6363448404806
 20
-461.9978314428468
 42
-0.4142135623730951
  0
LWPOLYLINE
  5
948E
330
18
100
AcDbEntity
  8
0
100
AcDbPolyline
 90
        8
 70
     1
 43
0.0
 10
377.3863448404805
 20
-470.2478314428468
 10
377.3863448404805
 20
-470.2478314428468
 42
-0.4142135623730951
 10
375.6363448404805
 20
-471.9978314428468
 10
364.1363448404805
 20
-471.9978314428468
 42
-0.4142135623730951
 10
362.3863448404805
 20
-470.2478314428468
 10
362.3863448404805
 20
-470.2478314428468
 42
-0.4142135623730951
 10
364.1363448404805
 20
-468.4978314428469
 10
375.6363448404805
 20
-468.4978314428469
 42
-0.4142135623730951
  0
LWPOLYLINE
  5
948F
330
18
100
AcDbEntity
  8
0
100
AcDbPolyline
 90
        8
 70
     1
 43
0.0
 10
329.3863448404805
 20
-470.2478314428468
 10
329.3863448404805
 20
-470.2478314428468
 42
-0.4142135623730951
 10
327.6363448404805
 20
-471.9978314428468
 10
316.1363448404805
 20
-471.9978314428468
 42
-0.4142135623730951
 10
314.3863448404805
 20
-470.2478314428468
 10
314.3863448404805
 20
-470.2478314428468
 42
-0.4142135623730951
 10
316.1363448404805
 20
-468.4978314428469
 10
327.6363448404805
 20
-468.4978314428469
 42
-0.4142135623730951
  0
LWPOLYLINE
  5
9490
330
18
100
AcDbEntity
  8
0
100
AcDbPolyline
 90
        8
 70
     1
 43
0.0
 10
329.3863448404806
 20
-463.7478314428468
 10
329.3863448404806
 20
-463.7478314428468
 42
-0.4142135623730951
 10
327.6363448404806
 20
-465.4978314428468
 10
316.1363448404806
 20
-465.4978314428468
 42
-0.4142135623730951
 10
314.3863448404806
 20
-463.7478314428468
 10
314.3863448404806
 20
-463.7478314428468
 42
-0.4142135623730951
 10
316.1363448404806
 20
-461.9978314428468
 10
327.6363448404806
 20
-461.9978314428468
 42
-0.4142135623730951
  0
LWPOLYLINE
  5
9491
330
18
100
AcDbEntity
  8
0
100
AcDbPolyline
 90
        8
 70
     1
 43
0.0
 10
329.3863448404806
 20
-457.2478314428468
 10
329.3863448404806
 20
-457.2478314428468
 42
-0.4142135623730951
 10
327.6363448404806
 20
-458.9978314428468
 10
316.1363448404806
 20
-458.9978314428468
 42
-0.4142135623730951
 10
314.3863448404806
 20
-457.2478314428468
 10
314.3863448404806
 20
-457.2478314428468
 42
-0.4142135623730951
 10
316.1363448404806
 20
-455.4978314428468
 10
327.6363448404806
 20
-455.4978314428468
 42
-0.4142135623730951
  0
LWPOLYLINE
  5
9492
330
18
100
AcDbEntity
  8
0
100
AcDbPolyline
 90
        8
 70
     1
 43
0.0
 10
305.3863448404805
 20
-470.2478314428468
 10
305.3863448404805
 20
-470.2478314428468
 42
-0.4142135623730951
 10
303.6363448404805
 20
-471.9978314428468
 10
292.1363448404805
 20
-471.9978314428468
 42
-0.4142135623730951
 10
290.3863448404805
 20
-470.2478314428468
 10
290.3863448404805
 20
-470.2478314428468
 42
-0.4142135623730951
 10
292.1363448404805
 20
-468.4978314428469
 10
303.6363448404805
 20
-468.4978314428469
 42
-0.4142135623730951
  0
LWPOLYLINE
  5
9493
330
18
100
AcDbEntity
  8
0
100
AcDbPolyline
 90
        8
 70
     1
 43
0.0
 10
305.3863448404806
 20
-463.7478314428468
 10
305.3863448404806
 20
-463.7478314428468
 42
-0.4142135623730951
 10
303.6363448404806
 20
-465.4978314428468
 10
292.1363448404806
 20
-465.4978314428468
 42
-0.4142135623730951
 10
290.3863448404806
 20
-463.7478314428468
 10
290.3863448404806
 20
-463.7478314428468
 42
-0.4142135623730951
 10
292.1363448404806
 20
-461.9978314428468
 10
303.6363448404806
 20
-461.9978314428468
 42
-0.4142135623730951
  0
LWPOLYLINE
  5
9494
330
18
100
AcDbEntity
  8
0
100
AcDbPolyline
 90
        8
 70
     1
 43
0.0
 10
305.3863448404806
 20
-457.2478314428468
 10
305.3863448404806
 20
-457.2478314428468
 42
-0.4142135623730951
 10
303.6363448404806
 20
-458.9978314428468
 10
292.1363448404806
 20
-458.9978314428468
 42
-0.4142135623730951
 10
290.3863448404806
 20
-457.2478314428468
 10
290.3863448404806
 20
-457.2478314428468
 42
-0.4142135623730951
 10
292.1363448404806
 20
-455.4978314428468
 10
303.6363448404806
 20
-455.4978314428468
 42
-0.4142135623730951
  0
LWPOLYLINE
  5
9495
330
18
100
AcDbEntity
  8
0
100
AcDbPolyline
 90
        8
 70
     1
 43
0.0
 10
353.3863448404805
 20
-470.2478314428468
 10
353.3863448404805
 20
-470.2478314428468
 42
-0.4142135623730951
 10
351.6363448404805
 20
-471.9978314428468
 10
340.1363448404805
 20
-471.9978314428468
 42
-0.4142135623730951
 10
338.3863448404805
 20
-470.2478314428468
 10
338.3863448404805
 20
-470.2478314428468
 42
-0.4142135623730951
 10
340.1363448404805
 20
-468.4978314428469
 10
351.6363448404805
 20
-468.4978314428469
 42
-0.4142135623730951
  0
LWPOLYLINE
  5
9496
330
18
100
AcDbEntity
  8
0
100
AcDbPolyline
 90
        8
 70
     1
 43
0.0
 10
353.3863448404806
 20
-463.7478314428468
 10
353.3863448404806
 20
-463.7478314428468
 42
-0.4142135623730951
 10
351.6363448404806
 20
-465.4978314428468
 10
340.1363448404806
 20
-465.4978314428468
 42
-0.4142135623730951
 10
338.3863448404806
 20
-463.7478314428468
 10
338.3863448404806
 20
-463.7478314428468
 42
-0.4142135623730951
 10
340.1363448404806
 20
-461.9978314428468
 10
351.6363448404806
 20
-461.9978314428468
 42
-0.4142135623730951
  0
LWPOLYLINE
  5
9497
330
18
100
AcDbEntity
  8
0
100
AcDbPolyline
 90
        8
 70
     1
 43
0.0
 10
353.3863448404806
 20
-457.2478314428468
 10
353.3863448404806
 20
-457.2478314428468
 42
-0.4142135623730951
 10
351.6363448404806
 20
-458.9978314428468
 10
340.1363448404806
 20
-458.9978314428468
 42
-0.4142135623730951
 10
338.3863448404806
 20
-457.2478314428468
 10
338.3863448404806
 20
-457.2478314428468
 42
-0.4142135623730951
 10
340.1363448404806
 20
-455.4978314428468
 10
351.6363448404806
 20
-455.4978314428468
 42
-0.4142135623730951
  0
LWPOLYLINE
  5
9498
330
18
100
AcDbEntity
  8
0
100
AcDbPolyline
 90
        8
 70
     1
 43
0.0
 10
401.3863448404805
 20
-470.2478314428468
 10
401.3863448404805
 20
-470.2478314428468
 42
-0.4142135623730951
 10
399.6363448404805
 20
-471.9978314428468
 10
388.1363448404805
 20
-471.9978314428468
 42
-0.4142135623730951
 10
386.3863448404805
 20
-470.2478314428468
 10
386.3863448404805
 20
-470.2478314428468
 42
-0.4142135623730951
 10
388.1363448404805
 20
-468.4978314428469
 10
399.6363448404805
 20
-468.4978314428469
 42
-0.4142135623730951
  0
LWPOLYLINE
  5
9499
330
18
100
AcDbEntity
  8
0
100
AcDbPolyline
 90
        8
 70
     1
 43
0.0
 10
401.3863448404806
 20
-463.7478314428468
 10
401.3863448404806
 20
-463.7478314428468
 42
-0.4142135623730951
 10
399.6363448404806
 20
-465.4978314428468
 10
388.1363448404806
 20
-465.4978314428468
 42
-0.4142135623730951
 10
386.3863448404806
 20
-463.7478314428468
 10
386.3863448404806
 20
-463.7478314428468
 42
-0.4142135623730951
 10
388.1363448404806
 20
-461.9978314428468
 10
399.6363448404806
 20
-461.9978314428468
 42
-0.4142135623730951
  0
LWPOLYLINE
  5
949A
330
18
100
AcDbEntity
  8
0
100
AcDbPolyline
 90
        8
 70
     1
 43
0.0
 10
401.3863448404806
 20
-457.2478314428468
 10
401.3863448404806
 20
-457.2478314428468
 42
-0.4142135623730951
 10
399.6363448404806
 20
-458.9978314428468
 10
388.1363448404806
 20
-458.9978314428468
 42
-0.4142135623730951
 10
386.3863448404806
 20
-457.2478314428468
 10
386.3863448404806
 20
-457.2478314428468
 42
-0.4142135623730951
 10
388.1363448404806
 20
-455.4978314428468
 10
399.6363448404806
 20
-455.4978314428468
 42
-0.4142135623730951
  0
LWPOLYLINE
  5
949B
330
18
100
AcDbEntity
  8
0
100
AcDbPolyline
 90
        8
 70
     1
 43
0.0
 10
401.3863448404806
 20
-450.7478314428468
 10
401.3863448404806
 20
-450.7478314428468
 42
-0.4142135623730951
 10
399.6363448404806
 20
-452.4978314428468
 10
388.1363448404806
 20
-452.4978314428468
 42
-0.4142135623730951
 10
386.3863448404806
 20
-450.7478314428468
 10
386.3863448404806
 20
-450.7478314428468
 42
-0.4142135623730951
 10
388.1363448404806
 20
-448.9978314428468
 10
399.6363448404806
 20
-448.9978314428468
 42
-0.4142135623730951
  0
LINE
  5
9516
330
18
100
AcDbEntity
  8
0
100
AcDbLine
 10
406.3863448404807
 20
-318.7478314428468
 30
0.0
 11
407.3863448404806
 21
-318.7478314428468
 31
0.0
  0
LINE
  5
9517
330
18
100
AcDbEntity
  8
0
100
AcDbLine
 10
407.3863448404806
 20
-319.7478314428468
 30
0.0
 11
407.3863448404806
 21
-318.7478314428468
 31
0.0
  0
LINE
  5
9582
330
18
100
AcDbEntity
  8
0
100
AcDbLine
 10
274.0205891748287
 20
-443.2519065899965
 30
0.0
 11
322.0205891748287
 21
-443.2519065899965
 31
0.0
  0
TEXT
  5
9583
330
18
100
AcDbEntity
  8
0
100
AcDbText
 10
312.6049680652751
 20
-441.4217483319283
 30
0.0
 40
1.0
  1
MADE　IN　JAPAN
 41
0.8
  7
MSｺﾞｼｯｸ
 11
312.6049680652751
 21
-440.9217483319284
 31
0.0
100
AcDbText
 73
     2
  0
TEXT
  5
9585
330
18
100
AcDbEntity
  8
0
100
AcDbText
 10
275.4915873869839
 20
-411.5029161602738
 30
0.0
 40
2.5
  1
MODEL:NCR-*A**A2D-401-UL
 41
1.1
  7
MSｺﾞｼｯｸ
 11
275.4915873869839
 21
-410.2529161602737
 31
0.0
100
AcDbText
 73
     2
  0
LINE
  5
9586
330
18
100
AcDbEntity
  8
0
100
AcDbLine
 10
274.0205891748287
 20
-402.4019065899965
 30
0.0
 11
322.0205891748287
 21
-402.4019065899964
 31
0.0
  0
LINE
  5
9587
330
18
100
AcDbEntity
  8
0
100
AcDbLine
 10
273.0205891748287
 20
-401.4019065899965
 30
0.0
 11
323.0205891748287
 21
-401.4019065899965
 31
0.0
  0
LINE
  5
9588
330
18
100
AcDbEntity
  8
0
100
AcDbLine
 10
274.0205891748287
 20
-408.4019065899965
 30
0.0
 11
322.0205891748287
 21
-408.4019065899964
 31
0.0
  0
LINE
  5
9589
330
18
100
AcDbEntity
  8
0
100
AcDbLine
 10
273.0205891748287
 20
-443.4019065899965
 30
0.0
 11
323.0205891748287
 21
-443.4019065899965
 31
0.0
  0
LINE
  5
958C
330
18
100
AcDbEntity
  8
0
100
AcDbLine
 10
274.0205891748287
 20
-402.4019065899965
 30
0.0
 11
274.0205891748287
 21
-443.2519065899965
 31
0.0
  0
LINE
  5
958D
330
18
100
AcDbEntity
  8
0
100
AcDbLine
 10
273.0205891748287
 20
-401.4019065899965
 30
0.0
 11
273.0205891748287
 21
-443.4019065899965
 31
0.0
  0
TEXT
  5
958E
330
18
100
AcDbEntity
  8
0
100
AcDbText
 10
286.3336277487109
 20
-413.6115095300126
 30
0.0
 40
1.5
  1
Mot.:×　　EX.:-×××　　
  7
MSｺﾞｼｯｸ
 11
286.3336277487109
 21
-412.8615095300125
 31
0.0
100
AcDbText
 73
     2
  0
TEXT
  5
958F
330
18
100
AcDbEntity
  8
0
100
AcDbText
 10
283.0102360150641
 20
-442.6959416220494
 30
0.0
 40
1.5
  1
NIKKI　DENSO　CO.,LTD.
  7
MSｺﾞｼｯｸ
 11
283.0102360150641
 21
-441.9459416220494
 31
0.0
100
AcDbText
 73
     2
  0
LINE
  5
9599
102
{ACAD_REACTORS
330
959D
102
}
330
18
100
AcDbEntity
  8
0
100
AcDbLine
 10
278.5743066124995
 20
-440.4866440088899
 30
0.0
 11
281.1840978708977
 21
-440.4866440088899
 31
0.0
  0
LINE
  5
959A
102
{ACAD_REACTORS
330
959D
102
}
330
18
100
AcDbEntity
  8
0
100
AcDbLine
 10
281.3705115322119
 20
-439.0885415490339
 30
0.0
 11
278.108272459214
 21
-440.1138166862616
 31
0.0
  0
LINE
  5
959B
102
{ACAD_REACTORS
330
959D
102
}
330
18
100
AcDbEntity
  8
0
100
AcDbLine
 10
276.2441358460727
 20
-439.0885415490339
 30
0.0
 11
281.3705115322119
 21
-439.0885415490339
 31
0.0
  0
LINE
  5
959C
102
{ACAD_REACTORS
330
959D
102
}
330
18
100
AcDbEntity
  8
0
100
AcDbLine
 10
275.7781016927873
 20
-442.8168147753168
 30
0.0
 11
280.9044773789264
 21
-442.8168147753168
 31
0.0
  0
HATCH
  5
959D
330
18
100
AcDbEntity
  8
0
100
AcDbHatch
 10
0.0
 20
0.0
 30
0.0
210
0.0
220
0.0
230
1.0
  2
ANSI37
 70
     0
 71
     1
 91
        2
 92
       17
 93
        1
 72
     2
 10
278.5743066124995
 20
-441.185695238818
 40
0.699051229928066
 50
0.0
 51
360.0
 73
     1
 97
        1
330
95A1
 92
        1
 93
        8
 72
     2
 10
278.5753904128561
 20
-441.183527638105
 40
1.167253487083373
 50
113.5897772726313
 51
269.9468005914085
 73
     1
 72
     2
 10
278.5743066124995
 20
-441.4187123154609
 40
0.9320683065707545
 50
270.0
 51
450.0
 73
     1
 72
     1
 10
278.5743066124995
 20
-440.4866440088899
 11
281.1840978708977
 21
-440.4866440088899
 72
     1
 10
281.1840978708977
 20
-440.4866440088899
 11
280.9044773789264
 21
-442.8168147753168
 72
     1
 10
280.9044773789264
 20
-442.8168147753168
 11
275.7781016927873
 21
-442.8168147753168
 72
     1
 10
275.7781016927873
 20
-442.8168147753168
 11
276.2441358460727
 21
-439.0885415490339
 72
     1
 10
276.2441358460727
 20
-439.0885415490339
 11
281.3705115322119
 21
-439.0885415490339
 72
     1
 10
281.3705115322119
 20
-439.0885415490339
 11
278.108272459214
 21
-440.1138166862616
 97
        8
330
959E
330
95A0
330
9599
330
95A2
330
959C
330
959F
330
959B
330
959A
 75
     0
 76
     1
 52
360.0
 41
0.7456546452566037
 77
     0
 78
     2
 53
44.99999999999999
 43
44.12862863586025
 44
-438.3005018646488
 45
-0.0659071820105242
 46
0.0659071820105243
 79
     0
 53
134.9999999999999
 43
44.12862863586025
 44
-438.3005018646488
 45
-0.0659071820105243
 46
-0.0659071820105242
 79
     0
 98
        1
 10
44.12862863586025
 20
-438.3005018646488
  0
ARC
  5
959E
102
{ACAD_REACTORS
330
959D
102
}
330
18
100
AcDbEntity
  8
0
100
AcDbCircle
 10
278.5753904128561
 20
-441.183527638105
 30
0.0
 40
1.167253487083373
100
AcDbArc
 50
113.5897772726313
 51
269.9468005914085
  0
LINE
  5
959F
102
{ACAD_REACTORS
330
959D
102
}
330
18
100
AcDbEntity
  8
0
100
AcDbLine
 10
275.7781016927873
 20
-442.8168147753168
 30
0.0
 11
276.2441358460727
 21
-439.0885415490339
 31
0.0
  0
ARC
  5
95A0
102
{ACAD_REACTORS
330
959D
102
}
330
18
100
AcDbEntity
  8
0
100
AcDbCircle
 10
278.5743066124995
 20
-441.4187123154609
 30
0.0
 40
0.9320683065707545
100
AcDbArc
 50
270.0
 51
90.0
  0
CIRCLE
  5
95A1
102
{ACAD_REACTORS
330
959D
102
}
330
18
100
AcDbEntity
  8
0
100
AcDbCircle
 10
278.5743066124995
 20
-441.185695238818
 30
0.0
 40
0.699051229928066
  0
LINE
  5
95A2
102
{ACAD_REACTORS
330
959D
102
}
330
18
100
AcDbEntity
  8
0
100
AcDbLine
 10
280.9044773789264
 20
-442.8168147753168
 30
0.0
 11
281.1840978708977
 21
-440.4866440088899
 31
0.0
  0
MTEXT
  5
95AC
330
18
100
AcDbEntity
  8
0
100
AcDbMText
 10
275.941587386984
 20
-403.4814447193521
 30
0.0
 40
4.0
 41
0.0
 71
     1
 72
     5
  1
AC SERVO DRIVER
  7
MSｺﾞｼｯｸ
 73
     1
 44
1.0
  0
LINE
  5
95AD
330
18
100
AcDbEntity
  8
0
100
AcDbLine
 10
322.0205891748287
 20
-402.4019065899964
 30
0.0
 11
322.0205891748287
 21
-443.2519065899965
 31
0.0
  0
LINE
  5
95AE
330
18
100
AcDbEntity
  8
0
100
AcDbLine
 10
323.0205891748287
 20
-401.4019065899965
 30
0.0
 11
323.0205891748287
 21
-443.4019065899965
 31
0.0
  0
TEXT
  5
9B13
330
18
100
AcDbEntity
  8
0
100
AcDbText
 10
312.4790075332639
 20
-433.8311807814851
 30
0.0
 40
5.0
  1
XX
  7
MSｺﾞｼｯｸ
 11
312.4790075332639
 21
-431.3311807814852
 31
0.0
100
AcDbText
 73
     2
  0
TEXT
  5
9B14
330
18
100
AcDbEntity
  8
0
100
AcDbText
 10
314.5951590093674
 20
-426.3697121306613
 30
0.0
 40
2.5
  1
Xxxx
  7
MSｺﾞｼｯｸ
 11
314.5951590093674
 21
-425.1197121306613
 31
0.0
100
AcDbText
 73
     2
  0
TEXT
  5
9B15
330
18
100
AcDbEntity
  8
0
100
AcDbText
 10
275.0874038539218
 20
-427.9841792311279
 30
0.0
 40
1.5
  1
xxxxx     xxx  :xxxxxxxxxx
  7
MSｺﾞｼｯｸ
 11
275.0874038539218
 21
-427.2341792311279
 31
0.0
100
AcDbText
 73
     2
  0
TEXT
  5
9B16
330
18
100
AcDbEntity
  8
0
100
AcDbText
 10
275.1045376124031
 20
-425.8401271312079
 30
0.0
 40
1.5
  1
xxxxxxxxx xxx  :xxxxxxxxxx
  7
MSｺﾞｼｯｸ
 11
275.1045376124031
 21
-425.0901271312079
 31
0.0
100
AcDbText
 73
     2
  0
TEXT
  5
9B17
330
18
100
AcDbEntity
  8
0
100
AcDbText
 10
275.1045376124031
 20
-423.8679468499539
 30
0.0
 40
1.5
  1
xxxxx     xxx  :xxxxxxxxxx
  7
MSｺﾞｼｯｸ
 11
275.1045376124031
 21
-423.117946849954
 31
0.0
100
AcDbText
 73
     2
  0
TEXT
  5
9B18
330
18
100
AcDbEntity
  8
0
100
AcDbText
 10
275.1079732991636
 20
-421.7660088820387
 30
0.0
 40
1.5
  1
xxxxxxx xxxxx:xxxxxxxxxx
  7
MSｺﾞｼｯｸ
 11
275.1079732991636
 21
-421.0160088820386
 31
0.0
100
AcDbText
 73
     2
  0
TEXT
  5
9B19
330
18
100
AcDbEntity
  8
0
100
AcDbText
 10
275.1107223894648
 20
-419.876378004484
 30
0.0
 40
1.5
  1
xxx     xxxxx:xxxxxxxxxx
  7
MSｺﾞｼｯｸ
 11
275.1107223894648
 21
-419.126378004484
 31
0.0
100
AcDbText
 73
     2
  0
TEXT
  5
9B1A
330
18
100
AcDbEntity
  8
0
100
AcDbText
 10
275.1136881833781
 20
-415.8775144899617
 30
0.0
 40
1.5
  1
xx　    xxxxx:xxxxxxxxxx
  7
MSｺﾞｼｯｸ
 11
275.1136881833781
 21
-415.1275144899617
 31
0.0
100
AcDbText
 73
     2
  0
TEXT
  5
9B1B
330
18
100
AcDbEntity
  8
0
100
AcDbText
 10
288.7880869874213
 20
-417.8775144899617
 30
0.0
 40
1.5
  1
xxxxxxx
  7
MSｺﾞｼｯｸ
 11
288.7880869874213
 21
-417.1275144899617
 31
0.0
100
AcDbText
 73
     2
  0
TEXT
  5
9B1C
330
18
100
AcDbEntity
  8
0
100
AcDbText
 10
282.0472222662612
 20
-434.7044869280689
 30
0.0
 40
2.5
  1
Xxxx xxxxx
  7
MSｺﾞｼｯｸ
 11
282.0472222662612
 21
-433.4544869280689
 31
0.0
100
AcDbText
 73
     2
  0
TEXT
  5
9B1D
330
18
100
AcDbEntity
  8
0
100
AcDbText
 10
282.9012588880127
 20
-440.4005673457676
 30
0.0
 40
1.5
  1
xxxxxxx.xx.xxxx
 41
0.8
  7
MSｺﾞｼｯｸ
 11
282.9012588880127
 21
-439.6505673457676
 31
0.0
100
AcDbText
 73
     2
  0
TEXT
  5
9B1E
330
18
100
AcDbEntity
  8
0
100
AcDbText
 10
282.9986284664728
 20
-438.5144730590967
 30
0.0
 40
1.5
  1
xxx.xxxx.xx
 41
0.8
  7
MSｺﾞｼｯｸ
 11
282.9986284664728
 21
-437.7644730590967
 31
0.0
100
AcDbText
 73
     2
  0
TEXT
  5
9B1F
330
18
100
AcDbEntity
  8
0
100
AcDbText
 10
307.4223219528853
 20
-436.990374300382
 30
0.0
 40
1.0
  1
xxx xxxxxx
 41
0.8
  7
MSｺﾞｼｯｸ
 11
307.4223219528853
 21
-436.490374300382
 31
0.0
100
AcDbText
 73
     2
  0
TEXT
  5
9B20
330
18
100
AcDbEntity
  8
0
100
AcDbText
 10
307.4223219528853
 20
-438.2275881804635
 30
0.0
 40
1.0
  1
xxx xxxxx xxxxx
 41
0.8
  7
MSｺﾞｼｯｸ
 11
307.4223219528853
 21
-437.7275881804634
 31
0.0
100
AcDbText
 73
     2
  0
TEXT
  5
9B21
330
18
100
AcDbEntity
  8
0
100
AcDbText
 10
307.4223219528853
 20
-439.5885234913841
 30
0.0
 40
1.0
  1
xxx xxxxx xxxxx xxxxx
 41
0.8
  7
MSｺﾞｼｯｸ
 11
307.4223219528853
 21
-439.0885234913841
 31
0.0
100
AcDbText
 73
     2
  0
TEXT
  5
9B22
330
18
100
AcDbEntity
  8
0
100
AcDbText
 10
312.6555612866665
 20
-442.7877062353082
 30
0.0
 40
1.0
  1
xx-xxxxxx
 41
0.8
  7
MSｺﾞｼｯｸ
 11
312.6555612866665
 21
-442.2877062353081
 31
0.0
100
AcDbText
 73
     2
  0
TEXT
  5
9B54
330
18
100
AcDbEntity
  8
0
100
AcDbText
 10
411.0535953604776
 20
-547.4689952064978
 30
0.0
 40
6.0
  1
ＮＣＲ－＊Ａ＊＊Ａ２Ｄ－４０１－ＵＬ　＊
 41
0.6
  7
MSｺﾞｼｯｸ
100
AcDbText
  0
TEXT
  5
9B55
330
18
100
AcDbEntity
  8
0
100
AcDbText
 10
410.6203042163592
 20
-538.8490562637366
 30
0.0
 40
6.0
  1
ＮＣＲ－＊Ａ＊＊Ａ１Ｅ－２０１＊
 41
0.6
  7
MSｺﾞｼｯｸ
100
AcDbText
  0
TEXT
  5
9B56
330
18
100
AcDbEntity
  8
0
100
AcDbText
 10
433.5941488629328
 20
-558.7117925212648
 30
0.0
 40
6.0
  1
VC外形図 CC-Link付
  7
MSｺﾞｼｯｸ
100
AcDbText
  0
TEXT
  5
9B57
330
18
100
AcDbEntity
  8
0
100
AcDbText
 10
432.6595401876864
 20
-570.069699289112
 30
0.0
 40
7.0
  1
ＳＥ－４９９７０
 41
0.9529999999999999
  7
MSｺﾞｼｯｸ
100
AcDbText
  0
VIEWPORT
  5
9BB8
330
9BB4
100
AcDbEntity
 67
     1
  8
0
100
AcDbViewport
 10
202.4999999999999
 20
128.4999999999999
 30
0.0
 40
486.0
 41
308.3999999999999
 68
     1
 69
     1
 12
202.4999999999999
 22
128.4999999999999
 13
0.0
 23
0.0
 14
0.5
 24
0.5
 15
0.0
 25
0.0
 16
0.0
 26
0.0
 36
1.0
 17
0.0
 27
0.0
 37
0.0
 42
50.0
 43
0.0
 44
0.0
 45
308.3999999999999
 50
0.0
 51
0.0
 72
   100
 90
    32864
  1

281
     0
 71
     1
 74
     0
110
0.0
120
0.0
130
0.0
111
1.0
121
0.0
131
0.0
112
0.0
122
1.0
132
0.0
 79
     0
146
0.0
  0
VIEWPORT
  5
9BB9
330
9BB4
100
AcDbEntity
 67
     1
  8
0
100
AcDbViewport
 10
202.4999999999999
 20
128.4999999999999
 30
0.0
 40
324.0
 41
205.6
 68
     2
 69
     2
 12
258.1850089526045
 22
-376.8900318096253
 13
0.0
 23
0.0
 14
0.5
 24
0.5
 15
0.0
 25
0.0
 16
0.0
 26
0.0
 36
1.0
 17
0.0
 27
0.0
 37
0.0
 42
50.0
 43
0.0
 44
0.0
 45
394.0865216581527
 50
0.0
 51
0.0
 72
   100
 90
    32864
  1

281
     0
 71
     1
 74
     0
110
0.0
120
0.0
130
0.0
111
1.0
121
0.0
131
0.0
112
0.0
122
1.0
132
0.0
 79
     0
146
0.0
  0
ENDSEC
  0
SECTION
  2
OBJECTS
  0
DICTIONARY
  5
C
330
0
100
AcDbDictionary
281
     1
  3
ACAD_GROUP
350
D
  3
ACAD_IMAGE_VARS
350
9BB2
  3
ACAD_LAYOUT
350
73F
  3
ACAD_MLINESTYLE
350
1B
  3
ACAD_PLOTSETTINGS
350
740
  3
ACAD_PLOTSTYLENAME
350
73D
  3
ACAD_SCALELIST
350
9B86
  3
AcadDim
350
61D4
  3
AcDbVariableDictionary
350
7046
  3
APPDATA
350
9BB0
  3
DWGPROPS
350
9BBC
  0
DICTIONARY
  5
9533
330
2
100
AcDbDictionary
280
     1
281
     1
  3
ACAD_LAYERFILTERS
360
9534
  3
ACAD_LAYERSTATES
360
9543
  0
DICTIONARY
  5
D
102
{ACAD_REACTORS
330
C
102
}
330
C
100
AcDbDictionary
281
     1
  3
*A1
350
87B9
  0
RASTERVARIABLES
  5
9BB2
102
{ACAD_REACTORS
330
C
102
}
330
C
100
AcDbRasterVariables
 90
        0
 70
     1
 71
     1
 72
     0
  0
DICTIONARY
  5
73F
102
{ACAD_REACTORS
330
C
102
}
330
C
100
AcDbDictionary
281
     1
  3
Model
350
741
  3
Sheet1
350
9BB5
  0
DICTIONARY
  5
1B
102
{ACAD_REACTORS
330
C
102
}
330
C
100
AcDbDictionary
281
     1
  3
STANDARD
350
1C
  0
DICTIONARY
  5
740
102
{ACAD_REACTORS
330
C
102
}
330
C
100
AcDbDictionary
281
     1
  0
ACDBDICTIONARYWDFLT
  5
73D
102
{ACAD_REACTORS
330
C
102
}
330
C
100
AcDbDictionary
281
     1
  3
Normal
350
73E
100
AcDbDictionaryWithDefault
340
73E
  0
DICTIONARY
  5
9B86
102
{ACAD_REACTORS
330
C
102
}
330
C
100
AcDbDictionary
281
     1
  3
A0
350
9B87
  3
A1
350
9B88
  3
A2
350
9B89
  3
A3
350
9B8A
  3
A4
350
9B8B
  3
A5
350
9B8C
  3
A6
350
9B8D
  3
A7
350
9B8E
  3
A8
350
9B8F
  3
A9
350
9B90
  3
B0
350
9B91
  3
B1
350
9B92
  3
B2
350
9B93
  3
B3
350
9B94
  3
B4
350
9B95
  3
B5
350
9B96
  3
B6
350
9B97
  3
B7
350
9B98
  3
B8
350
9B99
  3
B9
350
9B9A
  3
C0
350
9B9B
  3
C1
350
9B9C
  3
C2
350
9B9D
  3
C3
350
9B9E
  3
C4
350
9B9F
  3
C5
350
9BA0
  3
C6
350
9BA1
  3
C7
350
9BA2
  3
C8
350
9BA3
  3
C9
350
9BA4
  3
D0
350
9BA5
  3
D1
350
9BA6
  3
D2
350
9BA7
  0
XRECORD
  5
61D4
102
{ACAD_REACTORS
330
C
102
}
330
C
100
AcDbXrecord
280
     1
 90
   990106
  3

 60
     0
 61
     0
 62
     1
 63
     3
 64
     0
 65
     0
 66
     0
 67
     3
 68
     1
 69
     0
 70
     0
 71
     0
 72
     0
 40
0.0
170
     0
  0
DICTIONARY
  5
7046
102
{ACAD_REACTORS
330
C
102
}
330
C
100
AcDbDictionary
281
     1
  3
DIMASSOC
350
7047
  0
DICTIONARY
  5
9BB0
102
{ACAD_REACTORS
330
C
102
}
330
C
100
AcDbDictionary
281
     1
  0
XRECORD
  5
9BBC
102
{ACAD_REACTORS
330
C
102
}
330
C
100
AcDbXrecord
280
     1
  1
DWGPROPS COOKIE
  2

  3

  4

  6

  7

  8
k-yoshida
  9

300
=
301
=
302
=
303
=
304
=
305
=
306
=
307
=
308
=
309
=
 40
0.0
 41
2451224.285162384
 42
2457315.112850937
  1

 90
        0
  0
DICTIONARY
  5
9534
102
{ACAD_REACTORS
330
9533
102
}
330
9533
100
AcDbDictionary
280
     1
281
     1
  3
0
360
9535
  3
11
360
9536
  3
150_
360
9537
  3
160_
360
9538
  3
170_
360
9539
  3
171_
360
953A
  3
350_
360
953B
  3
4
360
953C
  3
5
360
953D
  3
7
360
953E
  3
kiseki
360
953F
  0
DICTIONARY
  5
9543
102
{ACAD_REACTORS
330
9533
102
}
330
9533
100
AcDbDictionary
281
     1
  0
GROUP
  5
87B9
102
{ACAD_REACTORS
330
D
102
}
330
D
100
AcDbGroup
300

 70
     1
 71
     1
340
8275
340
823D
340
821C
340
8260
340
825F
  0
LAYOUT
  5
741
102
{ACAD_REACTORS
330
73F
102
}
330
73F
100
AcDbPlotSettings
  1

  2
HP DesignJet 750C (D/A1) Color
  4
ISO_A3_(420.00_x_297.00_MM)
  6

 40
7.5
 41
20.0
 42
7.5
 43
20.0
 44
420.0
 45
297.0
 46
0.0
 47
0.0
 48
0.0
 49
0.0
140
0.0
141
0.0
142
1.0
143
3.680637403031927
 70
  1712
 72
     1
 73
     0
 74
     0
  7

 75
     0
147
0.2716920713722708
148
494.5392977664546
149
693.8196142700157
100
AcDbLayout
  1
Model
 70
     1
 71
     0
 10
0.0
 20
0.0
 11
12.0
 21
9.0
 12
0.0
 22
0.0
 32
0.0
 14
12.92602254473149
 24
-570.069699289112
 34
0.0
 15
503.4439953604776
 25
-183.7103643301387
 35
0.0
146
0.0
 13
0.0
 23
0.0
 33
0.0
 16
1.0
 26
0.0
 36
0.0
 17
0.0
 27
1.0
 37
0.0
 76
     0
330
18
  0
LAYOUT
  5
9BB5
102
{ACAD_REACTORS
330
73F
102
}
330
73F
100
AcDbPlotSettings
  1

  2
none_device
  4
ISO_A3_(420.00_x_297.00_MM)
  6

 40
7.5
 41
20.0
 42
7.5
 43
20.0
 44
420.0
 45
297.0
 46
0.0
 47
0.0
 48
0.0
 49
0.0
140
0.0
141
0.0
142
1.0
143
1.0
 70
   688
 72
     1
 73
     0
 74
     5
  7

 75
    16
147
1.0
148
0.0
149
0.0
100
AcDbLayout
  1
Sheet1
 70
     1
 71
     1
 10
0.0
 20
0.0
 11
0.0
 21
0.0
 12
0.0
 22
0.0
 32
0.0
 14
40.49999999999999
 24
25.69999999999998
 34
0.0
 15
364.5
 25
231.3
 35
0.0
146
0.0
 13
0.0
 23
0.0
 33
0.0
 16
1.0
 26
0.0
 36
0.0
 17
0.0
 27
1.0
 37
0.0
 76
     0
330
9BB4
331
9BB8
  0
MLINESTYLE
  5
1C
102
{ACAD_REACTORS
330
1B
102
}
330
1B
100
AcDbMlineStyle
  2
STANDARD
 70
     0
  3

 62
   256
 51
90.0
 52
90.0
 71
     2
 49
0.5
 62
   256
  6
BYLAYER
 49
-0.5
 62
   256
  6
BYLAYER
  0
ACDBPLACEHOLDER
  5
73E
102
{ACAD_REACTORS
330
73D
102
}
330
73D
  0
ACAD_PROXY_OBJECT
  5
9B87
102
{ACAD_REACTORS
330
9B86
102
}
330
9B86
100
AcDbProxyObject
 90
      499
 91
      507
 95
   655383
 70
     0
 93
       41
310
903313A31581
 94
        0
  0
ACAD_PROXY_OBJECT
  5
9B88
102
{ACAD_REACTORS
330
9B86
102
}
330
9B86
100
AcDbProxyObject
 90
      499
 91
      507
 95
   655383
 70
     0
 93
      105
310
903313A324000000000000004000
 94
        0
  0
ACAD_PROXY_OBJECT
  5
9B89
102
{ACAD_REACTORS
330
9B86
102
}
330
9B86
100
AcDbProxyObject
 90
      499
 91
      507
 95
   655383
 70
     0
 93
      105
310
903313A344000000000000104000
 94
        0
  0
ACAD_PROXY_OBJECT
  5
9B8A
102
{ACAD_REACTORS
330
9B86
102
}
330
9B86
100
AcDbProxyObject
 90
      499
 91
      507
 95
   655383
 70
     0
 93
      105
310
903313A354000000000000144000
 94
        0
  0
ACAD_PROXY_OBJECT
  5
9B8B
102
{ACAD_REACTORS
330
9B86
102
}
330
9B86
100
AcDbProxyObject
 90
      499
 91
      507
 95
   655383
 70
     0
 93
      105
310
903313A384000000000000204000
 94
        0
  0
ACAD_PROXY_OBJECT
  5
9B8C
102
{ACAD_REACTORS
330
9B86
102
}
330
9B86
100
AcDbProxyObject
 90
      499
 91
      507
 95
   655383
 70
     0
 93
      113
310
904313A31304000000000000244009
 94
        0
  0
ACAD_PROXY_OBJECT
  5
9B8D
102
{ACAD_REACTORS
330
9B86
102
}
330
9B86
100
AcDbProxyObject
 90
      499
 91
      507
 95
   655383
 70
     0
 93
      113
310
904313A31364000000000000304009
 94
        0
  0
ACAD_PROXY_OBJECT
  5
9B8E
102
{ACAD_REACTORS
330
9B86
102
}
330
9B86
100
AcDbProxyObject
 90
      499
 91
      507
 95
   655383
 70
     0
 93
      113
310
904313A32304000000000000344009
 94
        0
  0
ACAD_PROXY_OBJECT
  5
9B8F
102
{ACAD_REACTORS
330
9B86
102
}
330
9B86
100
AcDbProxyObject
 90
      499
 91
      507
 95
   655383
 70
     0
 93
      113
310
904313A333040000000000003E4009
 94
        0
  0
ACAD_PROXY_OBJECT
  5
9B90
102
{ACAD_REACTORS
330
9B86
102
}
330
9B86
100
AcDbProxyObject
 90
      499
 91
      507
 95
   655383
 70
     0
 93
      113
310
904313A34304000000000000444009
 94
        0
  0
ACAD_PROXY_OBJECT
  5
9B91
102
{ACAD_REACTORS
330
9B86
102
}
330
9B86
100
AcDbProxyObject
 90
      499
 91
      507
 95
   655383
 70
     0
 93
      113
310
904313A35304000000000000494009
 94
        0
  0
ACAD_PROXY_OBJECT
  5
9B92
102
{ACAD_REACTORS
330
9B86
102
}
330
9B86
100
AcDbProxyObject
 90
      499
 91
      507
 95
   655383
 70
     0
 93
      121
310
905313A3130304000000000000594000
 94
        0
  0
ACAD_PROXY_OBJECT
  5
9B93
102
{ACAD_REACTORS
330
9B86
102
}
330
9B86
100
AcDbProxyObject
 90
      499
 91
      507
 95
   655383
 70
     0
 93
      105
310
903323A310000000000000010159
 94
        0
  0
ACAD_PROXY_OBJECT
  5
9B94
102
{ACAD_REACTORS
330
9B86
102
}
330
9B86
100
AcDbProxyObject
 90
      499
 91
      507
 95
   655383
 70
     0
 93
      105
310
903343A310000000000000410159
 94
        0
  0
ACAD_PROXY_OBJECT
  5
9B95
102
{ACAD_REACTORS
330
9B86
102
}
330
9B86
100
AcDbProxyObject
 90
      499
 91
      507
 95
   655383
 70
     0
 93
      105
310
903383A310000000000000810159
 94
        0
  0
ACAD_PROXY_OBJECT
  5
9B96
102
{ACAD_REACTORS
330
9B86
102
}
330
9B86
100
AcDbProxyObject
 90
      499
 91
      507
 95
   655383
 70
     0
 93
      113
310
90431303A310000000000000910140
 94
        0
  0
ACAD_PROXY_OBJECT
  5
9B97
102
{ACAD_REACTORS
330
9B86
102
}
330
9B86
100
AcDbProxyObject
 90
      499
 91
      507
 95
   655383
 70
     0
 93
      121
310
9053130303A310000000000001650100
 94
        0
  0
ACAD_PROXY_OBJECT
  5
9B98
102
{ACAD_REACTORS
330
9B86
102
}
330
9B86
100
AcDbProxyObject
 90
      499
 91
      507
 95
   655383
 70
     0
 93
      257
310
90E312F31323822203D2031272D3022000000000000200FC000000000000284000
 94
        0
  0
ACAD_PROXY_OBJECT
  5
9B99
102
{ACAD_REACTORS
330
9B86
102
}
330
9B86
100
AcDbProxyObject
 90
      499
 91
      507
 95
   655383
 70
     0
 93
      249
310
90D312F363422203D2031272D3022000000000000240FC000000000000284040
 94
        0
  0
ACAD_PROXY_OBJECT
  5
9B9A
102
{ACAD_REACTORS
330
9B86
102
}
330
9B86
100
AcDbProxyObject
 90
      499
 91
      507
 95
   655383
 70
     0
 93
      249
310
90D312F333222203D2031272D3022000000000000280FC000000000000284040
 94
        0
  0
ACAD_PROXY_OBJECT
  5
9B9B
102
{ACAD_REACTORS
330
9B86
102
}
330
9B86
100
AcDbProxyObject
 90
      499
 91
      507
 95
   655383
 70
     0
 93
      249
310
90D312F313622203D2031272D30220000000000002C0FC000000000000284040
 94
        0
  0
ACAD_PROXY_OBJECT
  5
9B9C
102
{ACAD_REACTORS
330
9B86
102
}
330
9B86
100
AcDbProxyObject
 90
      499
 91
      507
 95
   655383
 70
     0
 93
      249
310
90D332F333222203D2031272D30220000000000002E0FC000000000000284040
 94
        0
  0
ACAD_PROXY_OBJECT
  5
9B9D
102
{ACAD_REACTORS
330
9B86
102
}
330
9B86
100
AcDbProxyObject
 90
      499
 91
      507
 95
   655383
 70
     0
 93
      241
310
90C312F3822203D2031272D3022000000000000300FC000000000000284040
 94
        0
  0
ACAD_PROXY_OBJECT
  5
9B9E
102
{ACAD_REACTORS
330
9B86
102
}
330
9B86
100
AcDbProxyObject
 90
      499
 91
      507
 95
   655383
 70
     0
 93
      249
310
90D332F313622203D2031272D3022000000000000320FC000000000000284040
 94
        0
  0
ACAD_PROXY_OBJECT
  5
9B9F
102
{ACAD_REACTORS
330
9B86
102
}
330
9B86
100
AcDbProxyObject
 90
      499
 91
      507
 95
   655383
 70
     0
 93
      241
310
90C312F3422203D2031272D3022000000000000340FC000000000000284040
 94
        0
  0
ACAD_PROXY_OBJECT
  5
9BA0
102
{ACAD_REACTORS
330
9B86
102
}
330
9B86
100
AcDbProxyObject
 90
      499
 91
      507
 95
   655383
 70
     0
 93
      241
310
90C332F3822203D2031272D3022000000000000360FC000000000000284040
 94
        0
  0
ACAD_PROXY_OBJECT
  5
9BA1
102
{ACAD_REACTORS
330
9B86
102
}
330
9B86
100
AcDbProxyObject
 90
      499
 91
      507
 95
   655383
 70
     0
 93
      241
310
90C312F3222203D2031272D3022000000000000380FC000000000000284040
 94
        0
  0
ACAD_PROXY_OBJECT
  5
9BA2
102
{ACAD_REACTORS
330
9B86
102
}
330
9B86
100
AcDbProxyObject
 90
      499
 91
      507
 95
   655383
 70
     0
 93
      241
310
90C332F3422203D2031272D30220000000000003A0FC000000000000284040
 94
        0
  0
ACAD_PROXY_OBJECT
  5
9BA3
102
{ACAD_REACTORS
330
9B86
102
}
330
9B86
100
AcDbProxyObject
 90
      499
 91
      507
 95
   655383
 70
     0
 93
      161
310
90A3122203D2031272D30224000000000000284020
 94
        0
  0
ACAD_PROXY_OBJECT
  5
9BA4
102
{ACAD_REACTORS
330
9B86
102
}
330
9B86
100
AcDbProxyObject
 90
      499
 91
      507
 95
   655383
 70
     0
 93
      257
310
90E312D312F3222203D2031272D30220000000000003E0FC000000000000284000
 94
        0
  0
ACAD_PROXY_OBJECT
  5
9BA5
102
{ACAD_REACTORS
330
9B86
102
}
330
9B86
100
AcDbProxyObject
 90
      499
 91
      507
 95
   655383
 70
     0
 93
      225
310
90A3322203D2031272D302200000000000002100000000000000284000
 94
        0
  0
ACAD_PROXY_OBJECT
  5
9BA6
102
{ACAD_REACTORS
330
9B86
102
}
330
9B86
100
AcDbProxyObject
 90
      499
 91
      507
 95
   655383
 70
     0
 93
      225
310
90A3622203D2031272D302200000000000006100000000000000284000
 94
        0
  0
ACAD_PROXY_OBJECT
  5
9BA7
102
{ACAD_REACTORS
330
9B86
102
}
330
9B86
100
AcDbProxyObject
 90
      499
 91
      507
 95
   655383
 70
     0
 93
      249
310
90D31272D3022203D2031272D30220000000000000A100000000000000284040
 94
        0
  0
DICTIONARYVAR
  5
7047
102
{ACAD_REACTORS
330
7046
102
}
330
7046
100
DictionaryVariables
280
     0
  1
1
  0
XRECORD
  5
9535
102
{ACAD_REACTORS
330
9534
102
}
330
9534
100
AcDbXrecord
280
     1
  1
0
  1
*0
  1
*
  1
*
 70
     0
  1
*
  1
*
  0
XRECORD
  5
9536
102
{ACAD_REACTORS
330
9534
102
}
330
9534
100
AcDbXrecord
280
     1
  1
11
  1
*11
  1
*
  1
*
 70
     0
  1
*
  1
*
  0
XRECORD
  5
9537
102
{ACAD_REACTORS
330
9534
102
}
330
9534
100
AcDbXrecord
280
     1
  1
150_
  1
150_*
  1
*
  1
*
 70
     0
  1
*
  1
*
  0
XRECORD
  5
9538
102
{ACAD_REACTORS
330
9534
102
}
330
9534
100
AcDbXrecord
280
     1
  1
160_
  1
160_*
  1
*
  1
*
 70
     0
  1
*
  1
*
  0
XRECORD
  5
9539
102
{ACAD_REACTORS
330
9534
102
}
330
9534
100
AcDbXrecord
280
     1
  1
170_
  1
170_*
  1
*
  1
*
 70
     0
  1
*
  1
*
  0
XRECORD
  5
953A
102
{ACAD_REACTORS
330
9534
102
}
330
9534
100
AcDbXrecord
280
     1
  1
171_
  1
171_*
  1
*
  1
*
 70
     0
  1
*
  1
*
  0
XRECORD
  5
953B
102
{ACAD_REACTORS
330
9534
102
}
330
9534
100
AcDbXrecord
280
     1
  1
350_
  1
350_*
  1
*
  1
*
 70
     0
  1
*
  1
*
  0
XRECORD
  5
953C
102
{ACAD_REACTORS
330
9534
102
}
330
9534
100
AcDbXrecord
280
     1
  1
4
  1
*4
  1
*
  1
*
 70
     0
  1
*
  1
*
  0
XRECORD
  5
953D
102
{ACAD_REACTORS
330
9534
102
}
330
9534
100
AcDbXrecord
280
     1
  1
5
  1
*5
  1
*
  1
*
 70
     0
  1
*
  1
*
  0
XRECORD
  5
953E
102
{ACAD_REACTORS
330
9534
102
}
330
9534
100
AcDbXrecord
280
     1
  1
7
  1
*7
  1
*
  1
*
 70
     0
  1
*
  1
*
  0
XRECORD
  5
953F
102
{ACAD_REACTORS
330
9534
102
}
330
9534
100
AcDbXrecord
280
     1
  1
kiseki
  1
kiseki*
  1
*
  1
*
 70
     0
  1
*
  1
*
  0
ENDSEC
  0
EOF
