  0
SECTION
  2
HEADER
  9
$ACADVER
  1
AC1015
  9
$ACADMAINTVER
 70
    10
  9
$DWGCODEPAGE
  3
ANSI_932
  9
$INSBASE
 10
0.0
 20
0.0
 30
0.0
  9
$EXTMIN
 10
47.8886462317132
 20
-79.32712564357918
 30
0.0
  9
$EXTMAX
 10
551.3253487844227
 20
303.1552034774525
 30
0.0
  9
$LIMMIN
 10
0.0
 20
0.0
  9
$LIMMAX
 10
420.0
 20
297.0
  9
$ORTHOMODE
 70
     0
  9
$REGENMODE
 70
     1
  9
$FILLMODE
 70
     1
  9
$QTEXTMODE
 70
     0
  9
$MIRRTEXT
 70
     1
  9
$LTSCALE
 40
1.0
  9
$ATTMODE
 70
     1
  9
$TEXTSIZE
 40
3.0
  9
$TRACEWID
 40
1.0
  9
$TEXTSTYLE
  7
STANDARD
  9
$CLAYER
  8
0
  9
$CELTYPE
  6
BYLAYER
  9
$CECOLOR
 62
   256
  9
$CELTSCALE
 40
1.0
  9
$DISPSILH
 70
     0
  9
$DIMSCALE
 40
1.0
  9
$DIMASZ
 40
1.5
  9
$DIMEXO
 40
0.5
  9
$DIMDLI
 40
5.0
  9
$DIMRND
 40
0.0
  9
$DIMDLE
 40
0.0
  9
$DIMEXE
 40
0.75
  9
$DIMTP
 40
0.0
  9
$DIMTM
 40
0.0
  9
$DIMTXT
 40
6.0
  9
$DIMCEN
 40
2.5
  9
$DIMTSZ
 40
0.0
  9
$DIMTOL
 70
     0
  9
$DIMLIM
 70
     0
  9
$DIMTIH
 70
     0
  9
$DIMTOH
 70
     0
  9
$DIMSE1
 70
     0
  9
$DIMSE2
 70
     0
  9
$DIMTAD
 70
     1
  9
$DIMZIN
 70
     9
  9
$DIMBLK
  1

  9
$DIMASO
 70
     1
  9
$DIMSHO
 70
     1
  9
$DIMPOST
  1

  9
$DIMAPOST
  1

  9
$DIMALT
 70
     0
  9
$DIMALTD
 70
     4
  9
$DIMALTF
 40
0.0394
  9
$DIMLFAC
 40
1.0
  9
$DIMTOFL
 70
     1
  9
$DIMTVP
 40
0.0
  9
$DIMTIX
 70
     0
  9
$DIMSOXD
 70
     0
  9
$DIMSAH
 70
     1
  9
$DIMBLK1
  1
OPEN
  9
$DIMBLK2
  1
OPEN
  9
$DIMSTYLE
  2
STANDARD
  9
$DIMCLRD
 70
     0
  9
$DIMCLRE
 70
     0
  9
$DIMCLRT
 70
     7
  9
$DIMTFAC
 40
1.0
  9
$DIMGAP
 40
0.5
  9
$DIMJUST
 70
     0
  9
$DIMSD1
 70
     0
  9
$DIMSD2
 70
     0
  9
$DIMTOLJ
 70
     1
  9
$DIMTZIN
 70
     9
  9
$DIMALTZ
 70
     0
  9
$DIMALTTZ
 70
     0
  9
$DIMUPT
 70
     0
  9
$DIMDEC
 70
     4
  9
$DIMTDEC
 70
     4
  9
$DIMALTU
 70
     8
  9
$DIMALTTD
 70
     4
  9
$DIMTXSTY
  7
STANDARD
  9
$DIMAUNIT
 70
     0
  9
$DIMADEC
 70
     0
  9
$DIMALTRND
 40
0.0
  9
$DIMAZIN
 70
     2
  9
$DIMDSEP
 70
    46
  9
$DIMATFIT
 70
     3
  9
$DIMFRAC
 70
     0
  9
$DIMLDRBLK
  1
OPEN
  9
$DIMLUNIT
 70
     2
  9
$DIMLWD
 70
    -2
  9
$DIMLWE
 70
    -2
  9
$DIMTMOVE
 70
     2
  9
$LUNITS
 70
     2
  9
$LUPREC
 70
     4
  9
$SKETCHINC
 40
1.0
  9
$FILLETRAD
 40
10.0
  9
$AUNITS
 70
     0
  9
$AUPREC
 70
     0
  9
$MENU
  1
.
  9
$ELEVATION
 40
0.0
  9
$PELEVATION
 40
0.0
  9
$THICKNESS
 40
0.0
  9
$LIMCHECK
 70
     0
  9
$CHAMFERA
 40
10.0
  9
$CHAMFERB
 40
10.0
  9
$CHAMFERC
 40
20.0
  9
$CHAMFERD
 40
0.0
  9
$SKPOLY
 70
     0
  9
$TDCREATE
 40
2451224.660162384
  9
$TDUCREATE
 40
2451224.285162384
  9
$TDUPDATE
 40
2457366.476169699
  9
$TDUUPDATE
 40
2457366.101169699
  9
$TDINDWG
 40
2.3695438889
  9
$TDUSRTIMER
 40
2457315.099656979
  9
$USRTIMER
 70
     1
  9
$ANGBASE
 50
0.0
  9
$ANGDIR
 70
     0
  9
$PDMODE
 70
     0
  9
$PDSIZE
 40
0.0
  9
$PLINEWID
 40
0.0
  9
$SPLFRAME
 70
     0
  9
$SPLINETYPE
 70
     6
  9
$SPLINESEGS
 70
     8
  9
$HANDSEED
  5
9F15
  9
$SURFTAB1
 70
     6
  9
$SURFTAB2
 70
     6
  9
$SURFTYPE
 70
     6
  9
$SURFU
 70
     6
  9
$SURFV
 70
     6
  9
$UCSBASE
  2

  9
$UCSNAME
  2

  9
$UCSORG
 10
0.0
 20
0.0
 30
0.0
  9
$UCSXDIR
 10
1.0
 20
0.0
 30
0.0
  9
$UCSYDIR
 10
0.0
 20
1.0
 30
0.0
  9
$UCSORTHOREF
  2

  9
$UCSORTHOVIEW
 70
     0
  9
$UCSORGTOP
 10
0.0
 20
0.0
 30
0.0
  9
$UCSORGBOTTOM
 10
0.0
 20
0.0
 30
0.0
  9
$UCSORGLEFT
 10
0.0
 20
0.0
 30
0.0
  9
$UCSORGRIGHT
 10
0.0
 20
0.0
 30
0.0
  9
$UCSORGFRONT
 10
0.0
 20
0.0
 30
0.0
  9
$UCSORGBACK
 10
0.0
 20
0.0
 30
0.0
  9
$PUCSBASE
  2

  9
$PUCSNAME
  2

  9
$PUCSORG
 10
0.0
 20
0.0
 30
0.0
  9
$PUCSXDIR
 10
1.0
 20
0.0
 30
0.0
  9
$PUCSYDIR
 10
0.0
 20
1.0
 30
0.0
  9
$PUCSORTHOREF
  2

  9
$PUCSORTHOVIEW
 70
     0
  9
$PUCSORGTOP
 10
0.0
 20
0.0
 30
0.0
  9
$PUCSORGBOTTOM
 10
0.0
 20
0.0
 30
0.0
  9
$PUCSORGLEFT
 10
0.0
 20
0.0
 30
0.0
  9
$PUCSORGRIGHT
 10
0.0
 20
0.0
 30
0.0
  9
$PUCSORGFRONT
 10
0.0
 20
0.0
 30
0.0
  9
$PUCSORGBACK
 10
0.0
 20
0.0
 30
0.0
  9
$USERI1
 70
     0
  9
$USERI2
 70
     0
  9
$USERI3
 70
     0
  9
$USERI4
 70
     0
  9
$USERI5
 70
     0
  9
$USERR1
 40
0.0
  9
$USERR2
 40
0.0
  9
$USERR3
 40
0.0
  9
$USERR4
 40
0.0
  9
$USERR5
 40
0.0
  9
$WORLDVIEW
 70
     1
  9
$SHADEDGE
 70
     3
  9
$SHADEDIF
 70
    70
  9
$TILEMODE
 70
     1
  9
$MAXACTVP
 70
    48
  9
$PINSBASE
 10
0.0
 20
0.0
 30
0.0
  9
$PLIMCHECK
 70
     0
  9
$PEXTMIN
 10
40.49999999999999
 20
25.69999999999998
 30
0.0
  9
$PEXTMAX
 10
364.5
 20
231.3
 30
0.0
  9
$PLIMMIN
 10
0.0
 20
0.0
  9
$PLIMMAX
 10
0.0
 20
0.0
  9
$UNITMODE
 70
     0
  9
$VISRETAIN
 70
     1
  9
$PLINEGEN
 70
     0
  9
$PSLTSCALE
 70
     1
  9
$TREEDEPTH
 70
  3020
  9
$CMLSTYLE
  2
STANDARD
  9
$CMLJUST
 70
     0
  9
$CMLSCALE
 40
20.0
  9
$PROXYGRAPHICS
 70
     1
  9
$MEASUREMENT
 70
     1
  9
$CELWEIGHT
370
    -1
  9
$ENDCAPS
280
     0
  9
$JOINSTYLE
280
     0
  9
$LWDISPLAY
290
     1
  9
$INSUNITS
 70
     0
  9
$HYPERLINKBASE
  1

  9
$STYLESHEET
  1

  9
$XEDIT
290
     1
  9
$CEPSNTYPE
380
     0
  9
$PSTYLEMODE
290
     1
  9
$FINGERPRINTGUID
  2
{6B368F64-F7EB-11D4-BFBA-00004C030E53}
  9
$VERSIONGUID
  2
{E43EE14B-C0D4-49C0-B8E0-D08ED33944E7}
  9
$EXTNAMES
290
     1
  9
$PSVPSCALE
 40
0.0
  9
$OLESTARTUP
290
     0
  0
ENDSEC
  0
SECTION
  2
CLASSES
  0
CLASS
  1
HATCH
  2
AcDbHatch
  3
AutoCAD 2000
 90
    32768
280
     0
281
     1
  0
CLASS
  1
LWPOLYLINE
  2
AcDbPolyline
  3
AutoCAD 2000
 90
    32768
280
     0
281
     1
  0
CLASS
  1
ACDBDICTIONARYWDFLT
  2
AcDbDictionaryWithDefault
  3
AutoCAD 2000
 90
        0
280
     0
281
     0
  0
CLASS
  1
ACDBPLACEHOLDER
  2
AcDbPlaceHolder
  3
AutoCAD 2000
 90
        0
280
     0
281
     0
  0
CLASS
  1
LAYOUT
  2
AcDbLayout
  3
AutoCAD 2000
 90
        0
280
     0
281
     0
  0
CLASS
  1
DICTIONARYVAR
  2
AcDbDictionaryVar
  3
AutoCAD 2000
 90
        0
280
     0
281
     0
  0
CLASS
  1
VISUALSTYLE
  2
AcDbVisualStyle
  3
ObjectDBX Classes
 90
    36863
280
     0
281
     0
  0
CLASS
  1
SCALE
  2
AcDbScale
  3
ObjectDBX Classes
 90
     1153
280
     0
281
     0
  0
CLASS
  1
MATERIAL
  2
AcDbMaterial
  3
ObjectDBX Classes
 90
    33921
280
     0
281
     0
  0
CLASS
  1
TABLESTYLE
  2
AcDbTableStyle
  3
ObjectDBX Classes
 90
    36863
280
     0
281
     0
  0
CLASS
  1
MLEADERSTYLE
  2
AcDbMLeaderStyle
  3
ACDB_MLEADERSTYLE_CLASS
 90
    36863
280
     0
281
     0
  0
CLASS
  1
SUN
  2
AcDbSun
  3
SCENEOE
 90
     1153
280
     0
281
     0
  0
CLASS
  1
RASTERVARIABLES
  2
AcDbRasterVariables
  3
ISM
 90
        0
280
     0
281
     0
  0
ENDSEC
  0
SECTION
  2
TABLES
  0
TABLE
  2
VPORT
  5
8
330
0
100
AcDbSymbolTable
 70
     2
  0
VPORT
  5
9F14
330
8
100
AcDbSymbolTableRecord
100
AcDbViewportTableRecord
  2
*Active
 70
     0
 10
0.0
 20
0.0
 11
1.0
 21
1.0
 12
407.691098937121
 22
111.9140398074727
 13
0.0
 23
0.0
 14
10.0
 24
10.0
 15
10.0
 25
10.0
 16
0.0
 26
0.0
 36
1.0
 17
0.0
 27
0.0
 37
0.0
 40
462.9272935828151
 41
1.562182741116751
 42
50.0
 43
0.0
 44
0.0
 50
0.0
 51
0.0
 71
     0
 72
   100
 73
     1
 74
     0
 75
     0
 76
     0
 77
     0
 78
     0
281
     0
 65
     1
110
0.0
120
0.0
130
0.0
111
1.0
121
0.0
131
0.0
112
0.0
122
1.0
132
0.0
 79
     0
146
0.0
  0
ENDTAB
  0
TABLE
  2
LTYPE
  5
5
330
0
100
AcDbSymbolTable
 70
     1
  0
LTYPE
  5
12
330
5
100
AcDbSymbolTableRecord
100
AcDbLinetypeTableRecord
  2
BYBLOCK
 70
     0
  3

 72
    65
 73
     0
 40
0.0
  0
LTYPE
  5
13
330
5
100
AcDbSymbolTableRecord
100
AcDbLinetypeTableRecord
  2
BYLAYER
 70
     0
  3

 72
    65
 73
     0
 40
0.0
  0
LTYPE
  5
14
330
5
100
AcDbSymbolTableRecord
100
AcDbLinetypeTableRecord
  2
CONTINUOUS
 70
     0
  3
Solid line
 72
    65
 73
     0
 40
0.0
  0
ENDTAB
  0
TABLE
  2
LAYER
  5
2
102
{ACAD_XDICTIONARY
360
9B3B
102
}
330
0
100
AcDbSymbolTable
 70
     1
  0
LAYER
  5
E
330
2
100
AcDbSymbolTableRecord
100
AcDbLayerTableRecord
  2
0
 70
     0
 62
     7
  6
CONTINUOUS
370
    -3
390
73E
  0
ENDTAB
  0
TABLE
  2
STYLE
  5
3
330
0
100
AcDbSymbolTable
 70
     2
  0
STYLE
  5
F
330
3
100
AcDbSymbolTableRecord
100
AcDbTextStyleTableRecord
  2
STANDARD
 70
     0
 40
0.0
 41
1.0
 50
0.0
 71
     0
 42
3.0
  3
isocp.shx
  4
bigfont.shx
  0
STYLE
  5
35
330
3
100
AcDbSymbolTableRecord
100
AcDbTextStyleTableRecord
  2
MSｺﾞｼｯｸ
 70
     0
 40
0.0
 41
1.0
 50
0.0
 71
     0
 42
5.0
  3
MS Gothic.ttf
  4

1001
ACAD
1000
MS Gothic
1071
    32817
  0
ENDTAB
  0
TABLE
  2
VIEW
  5
6
330
0
100
AcDbSymbolTable
 70
     0
  0
ENDTAB
  0
TABLE
  2
UCS
  5
7
330
0
100
AcDbSymbolTable
 70
     0
  0
ENDTAB
  0
TABLE
  2
APPID
  5
9
330
0
100
AcDbSymbolTable
 70
     1
  0
APPID
  5
10
330
9
100
AcDbSymbolTableRecord
100
AcDbRegAppTableRecord
  2
ACAD
 70
     0
  0
ENDTAB
  0
TABLE
  2
DIMSTYLE
  5
A
330
0
100
AcDbSymbolTable
 70
     1
100
AcDbDimStyleTable
 71
     0
  0
DIMSTYLE
105
1D
330
A
100
AcDbSymbolTableRecord
100
AcDbDimStyleTableRecord
  2
STANDARD
 70
     0
 78
     8
 79
     2
140
3.0
340
F
341
89E
342
89E
  0
ENDTAB
  0
TABLE
  2
BLOCK_RECORD
  5
1
330
0
100
AcDbSymbolTable
 70
     9
  0
BLOCK_RECORD
  5
18
330
1
100
AcDbSymbolTableRecord
100
AcDbBlockTableRecord
  2
*MODEL_SPACE
340
741
  0
BLOCK_RECORD
  5
9F05
330
1
100
AcDbSymbolTableRecord
100
AcDbBlockTableRecord
  2
*Paper_Space
340
9F06
  0
BLOCK_RECORD
  5
24
330
1
100
AcDbSymbolTableRecord
100
AcDbBlockTableRecord
  2
_OPEN
340
0
  0
BLOCK_RECORD
  5
89E
330
1
100
AcDbSymbolTableRecord
100
AcDbBlockTableRecord
  2
_Open30
340
0
  0
BLOCK_RECORD
  5
7058
330
1
100
AcDbSymbolTableRecord
100
AcDbBlockTableRecord
  2
A$C444F17A9
340
0
102
{BLKREFS
331
7EB1
102
}
  0
BLOCK_RECORD
  5
7064
330
1
100
AcDbSymbolTableRecord
100
AcDbBlockTableRecord
  2
A$C6C1277F2
340
0
102
{BLKREFS
331
7EB0
102
}
  0
BLOCK_RECORD
  5
7091
330
1
100
AcDbSymbolTableRecord
100
AcDbBlockTableRecord
  2
A$C2F696F30
340
0
102
{BLKREFS
331
7EA4
102
}
  0
BLOCK_RECORD
  5
70A9
330
1
100
AcDbSymbolTableRecord
100
AcDbBlockTableRecord
  2
A$C57095CDF
340
0
102
{BLKREFS
331
7EAC
102
}
  0
BLOCK_RECORD
  5
70DC
330
1
100
AcDbSymbolTableRecord
100
AcDbBlockTableRecord
  2
A$C3A6E1F00
340
0
102
{BLKREFS
331
7EA6
102
}
  0
BLOCK_RECORD
  5
711F
330
1
100
AcDbSymbolTableRecord
100
AcDbBlockTableRecord
  2
A$C5A3A0BB0
340
0
102
{BLKREFS
331
7E7D
102
}
  0
BLOCK_RECORD
  5
7160
330
1
100
AcDbSymbolTableRecord
100
AcDbBlockTableRecord
  2
A$C3413120B
340
0
102
{BLKREFS
331
7E8C
102
}
  0
ENDTAB
  0
ENDSEC
  0
SECTION
  2
BLOCKS
  0
BLOCK
  5
19
330
18
100
AcDbEntity
  8
0
100
AcDbBlockBegin
  2
*MODEL_SPACE
 70
     0
 10
0.0
 20
0.0
 30
0.0
  3
*MODEL_SPACE
  1

  0
ENDBLK
  5
1A
330
18
100
AcDbEntity
  8
0
100
AcDbBlockEnd
  0
BLOCK
  5
9F07
330
9F05
100
AcDbEntity
 67
     1
  8
0
100
AcDbBlockBegin
  2
*Paper_Space
 70
     0
 10
0.0
 20
0.0
 30
0.0
  3
*Paper_Space
  1

  0
ENDBLK
  5
9F08
330
9F05
100
AcDbEntity
 67
     1
  8
0
100
AcDbBlockEnd
  0
BLOCK
  5
25
330
24
100
AcDbEntity
  8
0
100
AcDbBlockBegin
  2
_OPEN
 70
     0
 10
0.0
 20
0.0
 30
0.0
  3
_OPEN
  1

  0
LINE
  5
26
330
24
100
AcDbEntity
  8
0
  6
ByBlock
 62
     0
100
AcDbLine
 10
-1.0
 20
0.1666666666666666
 30
0.0
 11
0.0
 21
0.0
 31
0.0
  0
LINE
  5
27
330
24
100
AcDbEntity
  8
0
  6
ByBlock
 62
     0
100
AcDbLine
 10
0.0
 20
0.0
 30
0.0
 11
-1.0
 21
-0.1666666666666666
 31
0.0
  0
LINE
  5
28
330
24
100
AcDbEntity
  8
0
  6
ByBlock
 62
     0
100
AcDbLine
 10
0.0
 20
0.0
 30
0.0
 11
-1.0
 21
0.0
 31
0.0
  0
ENDBLK
  5
29
330
24
100
AcDbEntity
  8
0
100
AcDbBlockEnd
  0
BLOCK
  5
8A2
330
89E
100
AcDbEntity
  8
0
100
AcDbBlockBegin
  2
_Open30
 70
     0
 10
0.0
 20
0.0
 30
0.0
  3
_Open30
  1

  0
LINE
  5
89F
330
89E
100
AcDbEntity
  8
0
  6
ByBlock
 62
     0
370
    -2
100
AcDbLine
 10
-1.0
 20
0.26794919
 30
0.0
 11
0.0
 21
0.0
 31
0.0
  0
LINE
  5
8A0
330
89E
100
AcDbEntity
  8
0
  6
ByBlock
 62
     0
370
    -2
100
AcDbLine
 10
0.0
 20
0.0
 30
0.0
 11
-1.0
 21
-0.26794919
 31
0.0
  0
LINE
  5
8A1
330
89E
100
AcDbEntity
  8
0
  6
ByBlock
 62
     0
370
    -2
100
AcDbLine
 10
0.0
 20
0.0
 30
0.0
 11
-1.0
 21
0.0
 31
0.0
  0
ENDBLK
  5
8A3
330
89E
100
AcDbEntity
  8
0
100
AcDbBlockEnd
  0
BLOCK
  5
7062
330
7058
100
AcDbEntity
  8
0
100
AcDbBlockBegin
  2
A$C444F17A9
 70
     0
 10
0.0
 20
0.0
 30
0.0
  3
A$C444F17A9
  1

  0
LWPOLYLINE
  5
7059
330
7058
100
AcDbEntity
  8
0
100
AcDbPolyline
 90
        4
 70
     1
 43
0.2
 10
0.1000006076973037
 20
13.1000004860266
 10
7.625000607697302
 20
13.1000004860266
 10
7.625000607697302
 20
0.1000004860266017
 10
0.1000006076973037
 20
0.1000004860266017
  0
ELLIPSE
  5
705A
330
7058
100
AcDbEntity
  8
0
100
AcDbEllipse
 10
6.125000607697302
 20
3.07500048602651
 30
0.0
 11
0.5
 21
0.0
 31
0.0
210
0.0
220
0.0
230
1.0
 40
0.95
 41
0.0
 42
6.283184999999999
  0
LWPOLYLINE
  5
705B
330
7058
100
AcDbEntity
  8
0
100
AcDbPolyline
 90
        6
 70
     1
 43
0.2
 10
2.175000607697299
 20
3.525000486026556
 10
1.725000607697296
 20
3.100000486026601
 10
2.175000607697299
 20
2.70000048602651
 10
4.275000607697307
 20
2.70000048602651
 10
4.700000607697305
 20
3.100000486026601
 10
4.275000607697307
 20
3.525000486026556
  0
LWPOLYLINE
  5
705C
330
7058
100
AcDbEntity
  8
0
100
AcDbPolyline
 90
        6
 70
     1
 43
0.2
 10
3.250000607697302
 20
10.80000048602664
 10
2.825000607697305
 20
10.42500048602664
 10
3.250000607697302
 20
10.00000048602669
 10
5.375000607697302
 20
10.00000048602669
 10
5.775000607697307
 20
10.42500048602664
 10
5.375000607697302
 20
10.80000048602664
  0
LWPOLYLINE
  5
705D
330
7058
100
AcDbEntity
  8
0
100
AcDbPolyline
 90
        6
 70
     1
 43
0.2
 10
5.525000607697307
 20
6.70000048602651
 10
5.125000607697302
 20
6.275000486026556
 10
4.700000607697305
 20
3.500000486026692
 10
5.125000607697302
 20
3.100000486026601
 10
5.525000607697307
 20
3.500000486026692
 10
5.975000607697296
 20
6.275000486026556
  0
LWPOLYLINE
  5
705E
330
7058
100
AcDbEntity
  8
0
100
AcDbPolyline
 90
        6
 70
     1
 43
0.2
 10
6.100000607697296
 20
10.42500048602664
 10
5.675000607697299
 20
10.02500048602655
 10
5.275000607697307
 20
7.225000486026601
 10
5.675000607697299
 20
6.82500048602651
 10
6.100000607697296
 20
7.225000486026601
 10
6.525000607697307
 20
10.02500048602655
  0
LWPOLYLINE
  5
705F
330
7058
100
AcDbEntity
  8
0
100
AcDbPolyline
 90
        6
 70
     1
 43
0.2
 10
1.875000607697302
 20
6.70000048602651
 10
1.450000607697305
 20
6.275000486026556
 10
1.050000607697299
 20
3.500000486026692
 10
1.450000607697305
 20
3.100000486026601
 10
1.875000607697302
 20
3.500000486026692
 10
2.300000607697299
 20
6.275000486026556
  0
LWPOLYLINE
  5
7060
330
7058
100
AcDbEntity
  8
0
100
AcDbPolyline
 90
        6
 70
     1
 43
0.2
 10
2.725000607697296
 20
7.225000486026601
 10
2.275000607697307
 20
6.82500048602651
 10
2.725000607697296
 20
6.425000486026647
 10
4.825000607697305
 20
6.425000486026647
 10
5.225000607697296
 20
6.82500048602651
 10
4.825000607697305
 20
7.225000486026601
  0
LWPOLYLINE
  5
7061
330
7058
100
AcDbEntity
  8
0
100
AcDbPolyline
 90
        6
 70
     1
 43
0.2
 10
2.425000607697299
 20
10.42500048602664
 10
2.025000607697307
 20
10.02500048602655
 10
1.600000607697296
 20
7.225000486026601
 10
2.025000607697307
 20
6.82500048602651
 10
2.425000607697299
 20
7.225000486026601
 10
2.875000607697302
 20
10.02500048602655
  0
ENDBLK
  5
7063
330
7058
100
AcDbEntity
  8
0
100
AcDbBlockEnd
  0
BLOCK
  5
708F
330
7064
100
AcDbEntity
  8
0
100
AcDbBlockBegin
  2
A$C6C1277F2
 70
     0
 10
0.0
 20
0.0
 30
0.0
  3
A$C6C1277F2
  1

  0
ELLIPSE
  5
7065
330
7064
100
AcDbEntity
  8
0
100
AcDbEllipse
 10
4.724999973973268
 20
26.39999951743493
 30
0.0
 11
0.0
 21
0.775
 31
0.0
210
0.0
220
0.0
230
1.0
 40
0.9677419999999999
 41
0.0
 42
6.283184999999999
  0
LWPOLYLINE
  5
7066
330
7064
100
AcDbEntity
  8
0
100
AcDbPolyline
 90
        4
 70
     1
 43
0.2
 10
0.0999999739732616
 20
28.77499951743493
 10
0.0999999739732616
 20
0.0999995174349806
 10
9.324999973973262
 20
0.0999995174349806
 10
9.324999973973262
 20
28.77499951743493
  0
ELLIPSE
  5
7067
330
7064
100
AcDbEntity
  8
0
100
AcDbEllipse
 10
4.724999973973268
 20
3.399999517434935
 30
0.0
 11
0.0
 21
0.775
 31
0.0
210
0.0
220
0.0
230
1.0
 40
0.9677419999999999
 41
0.0
 42
6.283184999999999
  0
LINE
  5
7068
330
7064
100
AcDbEntity
  8
0
100
AcDbLine
 10
0.8999999739732658
 20
4.299999517435026
 30
0.0
 11
0.8999999739732658
 21
6.374999517434844
 31
0.0
  0
LINE
  5
7069
330
7064
100
AcDbEntity
  8
0
100
AcDbLine
 10
8.524999973973265
 20
4.299999517435026
 30
0.0
 11
8.524999973973265
 21
6.374999517434844
 31
0.0
  0
LINE
  5
706A
330
7064
100
AcDbEntity
  8
0
100
AcDbLine
 10
6.599999973973268
 20
4.274999517434935
 30
0.0
 11
6.599999973973268
 21
5.249999517434844
 31
0.0
  0
LINE
  5
706B
330
7064
100
AcDbEntity
  8
0
100
AcDbLine
 10
6.599999973973268
 20
5.274999517434935
 30
0.0
 11
3.024999973973265
 21
5.274999517434935
 31
0.0
  0
LINE
  5
706C
330
7064
100
AcDbEntity
  8
0
100
AcDbLine
 10
3.024999973973265
 20
4.299999517435026
 30
0.0
 11
3.024999973973265
 21
5.274999517434935
 31
0.0
  0
LINE
  5
706D
330
7064
100
AcDbEntity
  8
0
100
AcDbLine
 10
3.024999973973265
 20
4.299999517435026
 30
0.0
 11
0.8999999739732658
 21
4.299999517435026
 31
0.0
  0
LINE
  5
706E
330
7064
100
AcDbEntity
  8
0
100
AcDbLine
 10
8.524999973973265
 20
4.299999517435026
 30
0.0
 11
6.599999973973268
 21
4.299999517435026
 31
0.0
  0
LINE
  5
706F
330
7064
100
AcDbEntity
  8
0
100
AcDbLine
 10
8.524999973973265
 20
6.374999517434844
 30
0.0
 11
0.8999999739732658
 21
6.374999517434844
 31
0.0
  0
LINE
  5
7070
330
7064
100
AcDbEntity
  8
0
100
AcDbLine
 10
0.8999999739732658
 20
25.17499951743502
 30
0.0
 11
0.8999999739732658
 21
23.09999951743498
 31
0.0
  0
LINE
  5
7071
330
7064
100
AcDbEntity
  8
0
100
AcDbLine
 10
8.524999973973265
 20
25.17499951743502
 30
0.0
 11
8.524999973973265
 21
23.09999951743498
 31
0.0
  0
LINE
  5
7072
330
7064
100
AcDbEntity
  8
0
100
AcDbLine
 10
6.599999973973268
 20
25.19999951743489
 30
0.0
 11
6.599999973973268
 21
24.22499951743498
 31
0.0
  0
LINE
  5
7073
330
7064
100
AcDbEntity
  8
0
100
AcDbLine
 10
6.599999973973268
 20
24.19999951743489
 30
0.0
 11
3.024999973973265
 21
24.19999951743489
 31
0.0
  0
LINE
  5
7074
330
7064
100
AcDbEntity
  8
0
100
AcDbLine
 10
3.024999973973265
 20
25.17499951743502
 30
0.0
 11
3.024999973973265
 21
24.19999951743489
 31
0.0
  0
LINE
  5
7075
330
7064
100
AcDbEntity
  8
0
100
AcDbLine
 10
3.024999973973265
 20
25.17499951743502
 30
0.0
 11
0.8999999739732658
 21
25.17499951743502
 31
0.0
  0
LINE
  5
7076
330
7064
100
AcDbEntity
  8
0
100
AcDbLine
 10
8.524999973973265
 20
25.17499951743502
 30
0.0
 11
6.599999973973268
 21
25.17499951743502
 31
0.0
  0
LWPOLYLINE
  5
7077
330
7064
100
AcDbEntity
  8
0
100
AcDbPolyline
 90
        4
 70
     1
 43
0.0
 10
3.474999973973268
 20
11.29999951743502
 10
3.12499997397326
 20
11.29999951743502
 10
3.12499997397326
 20
10.32499951743488
 10
3.474999973973268
 20
10.32499951743488
  0
LWPOLYLINE
  5
7078
330
7064
100
AcDbEntity
  8
0
100
AcDbPolyline
 90
        4
 70
     1
 43
0.0
 10
3.474999973973268
 20
12.47499951743498
 10
3.12499997397326
 20
12.47499951743498
 10
3.12499997397326
 20
11.49999951743484
 10
3.474999973973268
 20
11.49999951743484
  0
LWPOLYLINE
  5
7079
330
7064
100
AcDbEntity
  8
0
100
AcDbPolyline
 90
        4
 70
     1
 43
0.0
 10
3.474999973973268
 20
13.74999951743484
 10
3.12499997397326
 20
13.74999951743484
 10
3.12499997397326
 20
12.77499951743493
 10
3.474999973973268
 20
12.77499951743493
  0
LWPOLYLINE
  5
707A
330
7064
100
AcDbEntity
  8
0
100
AcDbPolyline
 90
        4
 70
     1
 43
0.0
 10
3.474999973973268
 20
15.07499951743489
 10
3.12499997397326
 20
15.07499951743489
 10
3.12499997397326
 20
14.12499951743484
 10
3.474999973973268
 20
14.12499951743484
  0
LWPOLYLINE
  5
707B
330
7064
100
AcDbEntity
  8
0
100
AcDbPolyline
 90
        4
 70
     1
 43
0.0
 10
3.474999973973268
 20
16.34999951743498
 10
3.12499997397326
 20
16.34999951743498
 10
3.12499997397326
 20
15.37499951743484
 10
3.474999973973268
 20
15.37499951743484
  0
LWPOLYLINE
  5
707C
330
7064
100
AcDbEntity
  8
0
100
AcDbPolyline
 90
        4
 70
     1
 43
0.0
 10
3.474999973973268
 20
17.57499951743489
 10
3.12499997397326
 20
17.57499951743489
 10
3.12499997397326
 20
16.59999951743498
 10
3.474999973973268
 20
16.59999951743498
  0
LWPOLYLINE
  5
707D
330
7064
100
AcDbEntity
  8
0
100
AcDbPolyline
 90
        4
 70
     1
 43
0.0
 10
3.474999973973268
 20
18.84999951743498
 10
3.12499997397326
 20
18.84999951743498
 10
3.12499997397326
 20
17.84999951743498
 10
3.474999973973268
 20
17.84999951743498
  0
LWPOLYLINE
  5
707E
330
7064
100
AcDbEntity
  8
0
100
AcDbPolyline
 90
        4
 70
     1
 43
0.0
 10
6.24999997397326
 20
11.29999951743502
 10
5.899999973973265
 20
11.29999951743502
 10
5.899999973973265
 20
10.32499951743488
 10
6.24999997397326
 20
10.32499951743488
  0
LWPOLYLINE
  5
707F
330
7064
100
AcDbEntity
  8
0
100
AcDbPolyline
 90
        4
 70
     1
 43
0.0
 10
6.24999997397326
 20
12.47499951743498
 10
5.899999973973265
 20
12.47499951743498
 10
5.899999973973265
 20
11.49999951743484
 10
6.24999997397326
 20
11.49999951743484
  0
LWPOLYLINE
  5
7080
330
7064
100
AcDbEntity
  8
0
100
AcDbPolyline
 90
        4
 70
     1
 43
0.0
 10
6.24999997397326
 20
13.74999951743484
 10
5.899999973973265
 20
13.74999951743484
 10
5.899999973973265
 20
12.77499951743493
 10
6.24999997397326
 20
12.77499951743493
  0
LWPOLYLINE
  5
7081
330
7064
100
AcDbEntity
  8
0
100
AcDbPolyline
 90
        4
 70
     1
 43
0.0
 10
6.24999997397326
 20
15.07499951743489
 10
5.899999973973265
 20
15.07499951743489
 10
5.899999973973265
 20
14.12499951743484
 10
6.24999997397326
 20
14.12499951743484
  0
LWPOLYLINE
  5
7082
330
7064
100
AcDbEntity
  8
0
100
AcDbPolyline
 90
        4
 70
     1
 43
0.0
 10
6.24999997397326
 20
16.34999951743498
 10
5.899999973973265
 20
16.34999951743498
 10
5.899999973973265
 20
15.37499951743484
 10
6.24999997397326
 20
15.37499951743484
  0
LWPOLYLINE
  5
7083
330
7064
100
AcDbEntity
  8
0
100
AcDbPolyline
 90
        4
 70
     1
 43
0.0
 10
6.24999997397326
 20
17.57499951743489
 10
5.899999973973265
 20
17.57499951743489
 10
5.899999973973265
 20
16.59999951743498
 10
6.24999997397326
 20
16.59999951743498
  0
LWPOLYLINE
  5
7084
330
7064
100
AcDbEntity
  8
0
100
AcDbPolyline
 90
        4
 70
     1
 43
0.0
 10
6.24999997397326
 20
18.84999951743498
 10
5.899999973973265
 20
18.84999951743498
 10
5.899999973973265
 20
17.84999951743498
 10
6.24999997397326
 20
17.84999951743498
  0
LWPOLYLINE
  5
7085
330
7064
100
AcDbEntity
  8
0
100
AcDbPolyline
 90
        4
 70
     1
 43
0.0
 10
6.599999973973268
 20
19.69999951743488
 10
2.899999973973265
 20
19.69999951743488
 10
2.899999973973265
 20
9.47499951743498
 10
6.599999973973268
 20
9.47499951743498
  0
ELLIPSE
  5
7086
330
7064
100
AcDbEntity
  8
0
100
AcDbEllipse
 10
6.549999973973257
 20
10.02499951743493
 30
0.0
 11
0.0
 21
1.25
 31
0.0
210
0.0
220
0.0
230
1.0
 40
0.98
 41
3.380894
 42
4.528311
  0
ELLIPSE
  5
7087
330
7064
100
AcDbEntity
  8
0
100
AcDbEllipse
 10
6.549999973973257
 20
19.37499951743484
 30
0.0
 11
0.0
 21
1.25
 31
0.0
210
0.0
220
0.0
230
1.0
 40
0.98
 41
4.509903999999999
 42
6.059223999999999
  0
ELLIPSE
  5
7088
330
7064
100
AcDbEntity
  8
0
100
AcDbEllipse
 10
2.87499997397326
 20
9.049999517435026
 30
0.0
 11
0.0
 21
1.25
 31
0.0
210
0.0
220
0.0
230
1.0
 40
0.98
 41
1.708854999999999
 42
3.380894
  0
ELLIPSE
  5
7089
330
7064
100
AcDbEntity
  8
0
100
AcDbEllipse
 10
2.87499997397326
 20
20.29999951743502
 30
0.0
 11
0.0
 21
1.25
 31
0.0
210
0.0
220
0.0
230
1.0
 40
0.98
 41
6.03468
 42
8.053399307179585
  0
LINE
  5
708A
330
7064
100
AcDbEntity
  8
0
100
AcDbLine
 10
6.849999973973268
 20
20.54999951743502
 30
0.0
 11
3.149999973973265
 21
21.47499951743498
 31
0.0
  0
LINE
  5
708B
330
7064
100
AcDbEntity
  8
0
100
AcDbLine
 10
7.774999973973265
 20
10.02499951743493
 30
0.0
 11
7.774999973973265
 21
19.37499951743484
 31
0.0
  0
LINE
  5
708C
330
7064
100
AcDbEntity
  8
0
100
AcDbLine
 10
3.149999973973265
 20
7.799999517435026
 30
0.0
 11
6.849999973973268
 21
8.774999517434935
 31
0.0
  0
LINE
  5
708D
330
7064
100
AcDbEntity
  8
0
100
AcDbLine
 10
1.649999973973265
 20
20.29999951743502
 30
0.0
 11
1.649999973973265
 21
8.949999517434889
 31
0.0
  0
LINE
  5
708E
330
7064
100
AcDbEntity
  8
0
100
AcDbLine
 10
8.524999973973265
 20
23.09999951743498
 30
0.0
 11
0.8999999739732658
 21
23.09999951743498
 31
0.0
  0
ENDBLK
  5
7090
330
7064
100
AcDbEntity
  8
0
100
AcDbBlockEnd
  0
BLOCK
  5
70A7
330
7091
100
AcDbEntity
  8
0
100
AcDbBlockBegin
  2
A$C2F696F30
 70
     0
 10
0.0
 20
0.0
 30
0.0
  3
A$C2F696F30
  1

  0
LINE
  5
7092
330
7091
100
AcDbEntity
  8
0
100
AcDbLine
 10
1.400000765164122
 20
-0.0000001933823341
 30
0.0
 11
5.400000765164122
 21
-0.0000001933823341
 31
0.0
  0
LINE
  5
7093
330
7091
100
AcDbEntity
  8
0
100
AcDbLine
 10
1.400000765164122
 20
13.77499980661764
 30
0.0
 11
5.400000765164122
 21
13.77499980661764
 31
0.0
  0
LWPOLYLINE
  5
7094
330
7091
100
AcDbEntity
  8
0
100
AcDbPolyline
 90
        4
 70
     1
 43
0.2
 10
15.40000076516412
 20
13.34999980661768
 10
15.40000076516412
 20
0.3499998066176886
 10
0.4000007651641227
 20
0.3499998066176886
 10
0.4000007651641227
 20
13.34999980661768
  0
LWPOLYLINE
  5
7095
330
7091
100
AcDbEntity
  8
0
100
AcDbPolyline
 90
        4
 70
     1
 43
0.2
 10
1.400000765164122
 20
12.34999980661768
 10
3.400000765164122
 20
12.34999980661768
 10
3.400000765164122
 20
1.349999806617688
 10
1.400000765164122
 20
1.349999806617688
  0
LWPOLYLINE
  5
7096
330
7091
100
AcDbEntity
  8
0
100
AcDbPolyline
 90
        4
 70
     1
 43
0.2
 10
3.950000765164119
 20
3.349999806617688
 10
3.950000765164119
 20
2.349999806617688
 10
3.400000765164122
 20
2.349999806617688
 10
3.400000765164122
 20
3.349999806617688
  0
LWPOLYLINE
  5
7097
330
7091
100
AcDbEntity
  8
0
100
AcDbPolyline
 90
        4
 70
     1
 43
0.2
 10
3.950000765164119
 20
5.749999806617665
 10
3.950000765164119
 20
4.749999806617665
 10
3.400000765164122
 20
4.749999806617665
 10
3.400000765164122
 20
5.749999806617665
  0
LINE
  5
7098
330
7091
100
AcDbEntity
  8
0
100
AcDbLine
 10
0.0000007651641241
 20
1.349999806617688
 30
0.0
 11
0.0000007651641241
 21
5.349999806617688
 31
0.0
  0
LWPOLYLINE
  5
7099
330
7091
100
AcDbEntity
  8
0
100
AcDbPolyline
 90
        4
 70
     1
 43
0.2
 10
3.950000765164119
 20
8.949999806617711
 10
3.950000765164119
 20
7.949999806617711
 10
3.400000765164122
 20
7.949999806617711
 10
3.400000765164122
 20
8.949999806617711
  0
LWPOLYLINE
  5
709A
330
7091
100
AcDbEntity
  8
0
100
AcDbPolyline
 90
        4
 70
     1
 43
0.2
 10
3.950000765164119
 20
11.34999980661768
 10
3.950000765164119
 20
10.34999980661768
 10
3.400000765164122
 20
10.34999980661768
 10
3.400000765164122
 20
11.34999980661768
  0
LINE
  5
709B
330
7091
100
AcDbEntity
  8
0
100
AcDbLine
 10
0.0000007651641241
 20
12.34999980661768
 30
0.0
 11
0.0000007651641241
 21
8.349999806617688
 31
0.0
  0
LWPOLYLINE
  5
709C
330
7091
100
AcDbEntity
  8
0
100
AcDbPolyline
 90
        4
 70
     1
 43
0.2
 10
10.40000076516412
 20
12.34999980661768
 10
12.40000076516412
 20
12.34999980661768
 10
12.40000076516412
 20
1.349999806617688
 10
10.40000076516412
 20
1.349999806617688
  0
LINE
  5
709D
330
7091
100
AcDbEntity
  8
0
100
AcDbLine
 10
9.400000765164122
 20
13.34999980661768
 30
0.0
 11
9.400000765164122
 21
0.3499998066176886
 31
0.0
  0
LINE
  5
709E
330
7091
100
AcDbEntity
  8
0
100
AcDbLine
 10
6.400000765164122
 20
13.34999980661768
 30
0.0
 11
6.400000765164122
 21
0.3499998066176886
 31
0.0
  0
LWPOLYLINE
  5
709F
330
7091
100
AcDbEntity
  8
0
100
AcDbPolyline
 90
        4
 70
     1
 43
0.2
 10
12.95000076516412
 20
3.349999806617688
 10
12.95000076516412
 20
2.349999806617688
 10
12.40000076516412
 20
2.349999806617688
 10
12.40000076516412
 20
3.349999806617688
  0
LWPOLYLINE
  5
70A0
330
7091
100
AcDbEntity
  8
0
100
AcDbPolyline
 90
        4
 70
     1
 43
0.2
 10
12.95000076516412
 20
5.749999806617665
 10
12.95000076516412
 20
4.749999806617665
 10
12.40000076516412
 20
4.749999806617665
 10
12.40000076516412
 20
5.749999806617665
  0
LINE
  5
70A1
330
7091
100
AcDbEntity
  8
0
100
AcDbLine
 10
14.40000076516412
 20
-0.0000001933823341
 30
0.0
 11
10.40000076516412
 21
-0.0000001933823341
 31
0.0
  0
LINE
  5
70A2
330
7091
100
AcDbEntity
  8
0
100
AcDbLine
 10
15.80000076516412
 20
1.349999806617688
 30
0.0
 11
15.80000076516412
 21
5.349999806617688
 31
0.0
  0
LWPOLYLINE
  5
70A3
330
7091
100
AcDbEntity
  8
0
100
AcDbPolyline
 90
        4
 70
     1
 43
0.2
 10
12.95000076516412
 20
8.949999806617711
 10
12.95000076516412
 20
7.949999806617711
 10
12.40000076516412
 20
7.949999806617711
 10
12.40000076516412
 20
8.949999806617711
  0
LWPOLYLINE
  5
70A4
330
7091
100
AcDbEntity
  8
0
100
AcDbPolyline
 90
        4
 70
     1
 43
0.2
 10
12.95000076516412
 20
11.34999980661768
 10
12.95000076516412
 20
10.34999980661768
 10
12.40000076516412
 20
10.34999980661768
 10
12.40000076516412
 20
11.34999980661768
  0
LINE
  5
70A5
330
7091
100
AcDbEntity
  8
0
100
AcDbLine
 10
14.40000076516412
 20
13.77499980661764
 30
0.0
 11
10.40000076516412
 21
13.77499980661764
 31
0.0
  0
LINE
  5
70A6
330
7091
100
AcDbEntity
  8
0
100
AcDbLine
 10
15.80000076516412
 20
12.34999980661768
 30
0.0
 11
15.80000076516412
 21
8.349999806617688
 31
0.0
  0
ENDBLK
  5
70A8
330
7091
100
AcDbEntity
  8
0
100
AcDbBlockEnd
  0
BLOCK
  5
70DA
330
70A9
100
AcDbEntity
  8
0
100
AcDbBlockBegin
  2
A$C57095CDF
 70
     0
 10
0.0
 20
0.0
 30
0.0
  3
A$C57095CDF
  1

  0
LWPOLYLINE
  5
70AA
330
70A9
100
AcDbEntity
  8
0
100
AcDbPolyline
 90
        4
 70
     1
 43
0.0
 10
3.474999973973268
 20
16.69999991295117
 10
3.12499997397326
 20
16.69999991295117
 10
3.12499997397326
 20
15.72499991295103
 10
3.474999973973268
 20
15.72499991295103
  0
LWPOLYLINE
  5
70AB
330
70A9
100
AcDbEntity
  8
0
100
AcDbPolyline
 90
        4
 70
     1
 43
0.0
 10
6.24999997397326
 20
16.69999991295117
 10
5.899999973973265
 20
16.69999991295117
 10
5.899999973973265
 20
15.72499991295103
 10
6.24999997397326
 20
15.72499991295103
  0
LWPOLYLINE
  5
70AC
330
70A9
100
AcDbEntity
  8
0
100
AcDbPolyline
 90
        4
 70
     1
 43
0.0
 10
6.599999973973268
 20
24.09999991295103
 10
2.899999973973265
 20
24.09999991295103
 10
2.899999973973265
 20
9.94999991295117
 10
6.599999973973268
 20
9.94999991295117
  0
LINE
  5
70AD
330
70A9
100
AcDbEntity
  8
0
100
AcDbLine
 10
7.774999973973265
 20
9.899999912950988
 30
0.0
 11
7.774999973973265
 21
24.02499991295099
 31
0.0
  0
LINE
  5
70AE
330
70A9
100
AcDbEntity
  8
0
100
AcDbLine
 10
1.649999973973265
 20
24.94999991295117
 30
0.0
 11
1.649999973973265
 21
8.849999912951034
 31
0.0
  0
LWPOLYLINE
  5
70AF
330
70A9
100
AcDbEntity
  8
0
100
AcDbPolyline
 90
        4
 70
     1
 43
0.2
 10
0.0999999739732616
 20
33.42499991295108
 10
0.0999999739732616
 20
0.0999999129510343
 10
9.324999973973262
 20
0.0999999129510343
 10
9.324999973973262
 20
33.42499991295108
  0
LWPOLYLINE
  5
70B0
330
70A9
100
AcDbEntity
  8
0
100
AcDbPolyline
 90
        4
 70
     1
 43
0.0
 10
3.449999973973262
 20
11.87499991295112
 10
3.099999973973261
 20
11.87499991295112
 10
3.099999973973261
 20
10.89999991295098
 10
3.449999973973262
 20
10.89999991295098
  0
LWPOLYLINE
  5
70B1
330
70A9
100
AcDbEntity
  8
0
100
AcDbPolyline
 90
        4
 70
     1
 43
0.0
 10
6.224999973973268
 20
11.87499991295112
 10
5.87499997397326
 20
11.87499991295112
 10
5.87499997397326
 20
10.89999991295098
 10
6.224999973973268
 20
10.89999991295098
  0
LWPOLYLINE
  5
70B2
330
70A9
100
AcDbEntity
  8
0
100
AcDbPolyline
 90
        4
 70
     1
 43
0.0
 10
3.449999973973262
 20
13.07499991295117
 10
3.099999973973261
 20
13.07499991295117
 10
3.099999973973261
 20
12.09999991295103
 10
3.449999973973262
 20
12.09999991295103
  0
LWPOLYLINE
  5
70B3
330
70A9
100
AcDbEntity
  8
0
100
AcDbPolyline
 90
        4
 70
     1
 43
0.0
 10
6.224999973973268
 20
13.07499991295117
 10
5.87499997397326
 20
13.07499991295117
 10
5.87499997397326
 20
12.09999991295103
 10
6.224999973973268
 20
12.09999991295103
  0
LWPOLYLINE
  5
70B4
330
70A9
100
AcDbEntity
  8
0
100
AcDbPolyline
 90
        4
 70
     1
 43
0.0
 10
3.474999973973268
 20
14.27499991295098
 10
3.12499997397326
 20
14.27499991295098
 10
3.12499997397326
 20
13.29999991295108
 10
3.474999973973268
 20
13.29999991295108
  0
LWPOLYLINE
  5
70B5
330
70A9
100
AcDbEntity
  8
0
100
AcDbPolyline
 90
        4
 70
     1
 43
0.0
 10
6.24999997397326
 20
14.27499991295098
 10
5.899999973973265
 20
14.27499991295098
 10
5.899999973973265
 20
13.29999991295108
 10
6.24999997397326
 20
13.29999991295108
  0
LINE
  5
70B6
330
70A9
100
AcDbEntity
  8
0
100
AcDbLine
 10
0.8999999739732658
 20
4.274999912950988
 30
0.0
 11
0.8999999739732658
 21
6.349999912951034
 31
0.0
  0
LINE
  5
70B7
330
70A9
100
AcDbEntity
  8
0
100
AcDbLine
 10
8.524999973973265
 20
4.274999912950988
 30
0.0
 11
8.524999973973265
 21
6.349999912951034
 31
0.0
  0
LINE
  5
70B8
330
70A9
100
AcDbEntity
  8
0
100
AcDbLine
 10
6.599999973973268
 20
4.249999912951125
 30
0.0
 11
6.599999973973268
 21
5.224999912951034
 31
0.0
  0
LINE
  5
70B9
330
70A9
100
AcDbEntity
  8
0
100
AcDbLine
 10
6.599999973973268
 20
5.249999912951125
 30
0.0
 11
3.024999973973265
 21
5.249999912951125
 31
0.0
  0
LINE
  5
70BA
330
70A9
100
AcDbEntity
  8
0
100
AcDbLine
 10
3.024999973973265
 20
4.274999912950988
 30
0.0
 11
3.024999973973265
 21
5.249999912951125
 31
0.0
  0
LINE
  5
70BB
330
70A9
100
AcDbEntity
  8
0
100
AcDbLine
 10
3.024999973973265
 20
4.274999912950988
 30
0.0
 11
0.8999999739732658
 21
4.274999912950988
 31
0.0
  0
LINE
  5
70BC
330
70A9
100
AcDbEntity
  8
0
100
AcDbLine
 10
8.524999973973265
 20
4.274999912950988
 30
0.0
 11
6.599999973973268
 21
4.274999912950988
 31
0.0
  0
LINE
  5
70BD
330
70A9
100
AcDbEntity
  8
0
100
AcDbLine
 10
8.524999973973265
 20
6.349999912951034
 30
0.0
 11
0.8999999739732658
 21
6.349999912951034
 31
0.0
  0
LWPOLYLINE
  5
70BE
330
70A9
100
AcDbEntity
  8
0
100
AcDbPolyline
 90
        4
 70
     1
 43
0.0
 10
3.474999973973268
 20
15.52499991295098
 10
3.12499997397326
 20
15.52499991295098
 10
3.12499997397326
 20
14.54999991295108
 10
3.474999973973268
 20
14.54999991295108
  0
LWPOLYLINE
  5
70BF
330
70A9
100
AcDbEntity
  8
0
100
AcDbPolyline
 90
        4
 70
     1
 43
0.0
 10
6.24999997397326
 20
15.52499991295098
 10
5.899999973973265
 20
15.52499991295098
 10
5.899999973973265
 20
14.54999991295108
 10
6.24999997397326
 20
14.54999991295108
  0
ELLIPSE
  5
70C0
330
70A9
100
AcDbEntity
  8
0
100
AcDbEllipse
 10
6.549999973973257
 20
9.999999912951125
 30
0.0
 11
0.0
 21
1.25
 31
0.0
210
0.0
220
0.0
230
1.0
 40
0.98
 41
3.380894
 42
4.528311
  0
ELLIPSE
  5
70C1
330
70A9
100
AcDbEntity
  8
0
100
AcDbEllipse
 10
2.87499997397326
 20
9.024999912950988
 30
0.0
 11
0.0
 21
1.25
 31
0.0
210
0.0
220
0.0
230
1.0
 40
0.98
 41
1.708854999999999
 42
3.380894
  0
LINE
  5
70C2
330
70A9
100
AcDbEntity
  8
0
100
AcDbLine
 10
3.149999973973265
 20
7.774999912950988
 30
0.0
 11
6.849999973973268
 21
8.749999912951125
 31
0.0
  0
ELLIPSE
  5
70C3
330
70A9
100
AcDbEntity
  8
0
100
AcDbEllipse
 10
4.724999973973268
 20
3.374999912951125
 30
0.0
 11
0.0
 21
0.775
 31
0.0
210
0.0
220
0.0
230
1.0
 40
0.9677419999999999
 41
0.0
 42
6.283184999999999
  0
LINE
  5
70C4
330
70A9
100
AcDbEntity
  8
0
100
AcDbLine
 10
0.8999999739732658
 20
29.82499991295117
 30
0.0
 11
0.8999999739732658
 21
27.74999991295112
 31
0.0
  0
LINE
  5
70C5
330
70A9
100
AcDbEntity
  8
0
100
AcDbLine
 10
8.524999973973265
 20
29.82499991295117
 30
0.0
 11
8.524999973973265
 21
27.74999991295112
 31
0.0
  0
LINE
  5
70C6
330
70A9
100
AcDbEntity
  8
0
100
AcDbLine
 10
6.599999973973268
 20
29.84999991295103
 30
0.0
 11
6.599999973973268
 21
28.87499991295112
 31
0.0
  0
LINE
  5
70C7
330
70A9
100
AcDbEntity
  8
0
100
AcDbLine
 10
6.599999973973268
 20
28.84999991295103
 30
0.0
 11
3.024999973973265
 21
28.84999991295103
 31
0.0
  0
LINE
  5
70C8
330
70A9
100
AcDbEntity
  8
0
100
AcDbLine
 10
3.024999973973265
 20
29.82499991295117
 30
0.0
 11
3.024999973973265
 21
28.84999991295103
 31
0.0
  0
LINE
  5
70C9
330
70A9
100
AcDbEntity
  8
0
100
AcDbLine
 10
3.024999973973265
 20
29.82499991295117
 30
0.0
 11
0.8999999739732658
 21
29.82499991295117
 31
0.0
  0
LINE
  5
70CA
330
70A9
100
AcDbEntity
  8
0
100
AcDbLine
 10
8.524999973973265
 20
29.82499991295117
 30
0.0
 11
6.599999973973268
 21
29.82499991295117
 31
0.0
  0
LWPOLYLINE
  5
70CB
330
70A9
100
AcDbEntity
  8
0
100
AcDbPolyline
 90
        4
 70
     1
 43
0.0
 10
3.474999973973268
 20
17.97499991295103
 10
3.12499997397326
 20
17.97499991295103
 10
3.12499997397326
 20
16.99999991295112
 10
3.474999973973268
 20
16.99999991295112
  0
LWPOLYLINE
  5
70CC
330
70A9
100
AcDbEntity
  8
0
100
AcDbPolyline
 90
        4
 70
     1
 43
0.0
 10
3.474999973973268
 20
19.29999991295107
 10
3.12499997397326
 20
19.29999991295107
 10
3.12499997397326
 20
18.34999991295103
 10
3.474999973973268
 20
18.34999991295103
  0
LWPOLYLINE
  5
70CD
330
70A9
100
AcDbEntity
  8
0
100
AcDbPolyline
 90
        4
 70
     1
 43
0.0
 10
3.474999973973268
 20
20.57499991295117
 10
3.12499997397326
 20
20.57499991295117
 10
3.12499997397326
 20
19.59999991295103
 10
3.474999973973268
 20
19.59999991295103
  0
LWPOLYLINE
  5
70CE
330
70A9
100
AcDbEntity
  8
0
100
AcDbPolyline
 90
        4
 70
     1
 43
0.0
 10
3.474999973973268
 20
21.79999991295108
 10
3.12499997397326
 20
21.79999991295108
 10
3.12499997397326
 20
20.82499991295116
 10
3.474999973973268
 20
20.82499991295116
  0
LWPOLYLINE
  5
70CF
330
70A9
100
AcDbEntity
  8
0
100
AcDbPolyline
 90
        4
 70
     1
 43
0.0
 10
3.474999973973268
 20
23.07499991295117
 10
3.12499997397326
 20
23.07499991295117
 10
3.12499997397326
 20
22.07499991295116
 10
3.474999973973268
 20
22.07499991295116
  0
LWPOLYLINE
  5
70D0
330
70A9
100
AcDbEntity
  8
0
100
AcDbPolyline
 90
        4
 70
     1
 43
0.0
 10
6.24999997397326
 20
17.97499991295103
 10
5.899999973973265
 20
17.97499991295103
 10
5.899999973973265
 20
16.99999991295112
 10
6.24999997397326
 20
16.99999991295112
  0
LWPOLYLINE
  5
70D1
330
70A9
100
AcDbEntity
  8
0
100
AcDbPolyline
 90
        4
 70
     1
 43
0.0
 10
6.24999997397326
 20
19.29999991295107
 10
5.899999973973265
 20
19.29999991295107
 10
5.899999973973265
 20
18.34999991295103
 10
6.24999997397326
 20
18.34999991295103
  0
LWPOLYLINE
  5
70D2
330
70A9
100
AcDbEntity
  8
0
100
AcDbPolyline
 90
        4
 70
     1
 43
0.0
 10
6.24999997397326
 20
20.57499991295117
 10
5.899999973973265
 20
20.57499991295117
 10
5.899999973973265
 20
19.59999991295103
 10
6.24999997397326
 20
19.59999991295103
  0
LWPOLYLINE
  5
70D3
330
70A9
100
AcDbEntity
  8
0
100
AcDbPolyline
 90
        4
 70
     1
 43
0.0
 10
6.24999997397326
 20
21.79999991295108
 10
5.899999973973265
 20
21.79999991295108
 10
5.899999973973265
 20
20.82499991295116
 10
6.24999997397326
 20
20.82499991295116
  0
LWPOLYLINE
  5
70D4
330
70A9
100
AcDbEntity
  8
0
100
AcDbPolyline
 90
        4
 70
     1
 43
0.0
 10
6.24999997397326
 20
23.07499991295117
 10
5.899999973973265
 20
23.07499991295117
 10
5.899999973973265
 20
22.07499991295116
 10
6.24999997397326
 20
22.07499991295116
  0
ELLIPSE
  5
70D5
330
70A9
100
AcDbEntity
  8
0
100
AcDbEllipse
 10
6.549999973973257
 20
24.02499991295099
 30
0.0
 11
0.0
 21
1.25
 31
0.0
210
0.0
220
0.0
230
1.0
 40
0.98
 41
4.509903999999999
 42
6.059223999999999
  0
ELLIPSE
  5
70D6
330
70A9
100
AcDbEntity
  8
0
100
AcDbEllipse
 10
2.87499997397326
 20
24.94999991295117
 30
0.0
 11
0.0
 21
1.25
 31
0.0
210
0.0
220
0.0
230
1.0
 40
0.98
 41
6.03468
 42
8.053399307179585
  0
LINE
  5
70D7
330
70A9
100
AcDbEntity
  8
0
100
AcDbLine
 10
6.849999973973268
 20
25.19999991295117
 30
0.0
 11
3.149999973973265
 21
26.12499991295112
 31
0.0
  0
ELLIPSE
  5
70D8
330
70A9
100
AcDbEntity
  8
0
100
AcDbEllipse
 10
4.724999973973268
 20
31.04999991295108
 30
0.0
 11
0.0
 21
0.775
 31
0.0
210
0.0
220
0.0
230
1.0
 40
0.9677419999999999
 41
0.0
 42
6.283184999999999
  0
LINE
  5
70D9
330
70A9
100
AcDbEntity
  8
0
100
AcDbLine
 10
8.524999973973265
 20
27.74999991295112
 30
0.0
 11
0.8999999739732658
 21
27.74999991295112
 31
0.0
  0
ENDBLK
  5
70DB
330
70A9
100
AcDbEntity
  8
0
100
AcDbBlockEnd
  0
BLOCK
  5
711D
330
70DC
100
AcDbEntity
  8
0
100
AcDbBlockBegin
  2
A$C3A6E1F00
 70
     0
 10
0.0
 20
0.0
 30
0.0
  3
A$C3A6E1F00
  1

  0
LWPOLYLINE
  5
70DD
330
70DC
100
AcDbEntity
  8
0
100
AcDbPolyline
 90
        4
 70
     1
 43
0.0
 10
3.449999973973262
 20
15.9499995198721
 10
3.099999973973261
 20
15.9499995198721
 10
3.099999973973261
 20
14.9749995198722
 10
3.449999973973262
 20
14.9749995198722
  0
LWPOLYLINE
  5
70DE
330
70DC
100
AcDbEntity
  8
0
100
AcDbPolyline
 90
        4
 70
     1
 43
0.0
 10
6.224999973973268
 20
15.9499995198721
 10
5.87499997397326
 20
15.9499995198721
 10
5.87499997397326
 20
14.9749995198722
 10
6.224999973973268
 20
14.9749995198722
  0
LWPOLYLINE
  5
70DF
330
70DC
100
AcDbEntity
  8
0
100
AcDbPolyline
 90
        4
 70
     1
 43
0.0
 10
6.599999973973268
 20
34.0749995198721
 10
2.899999973973265
 20
34.0749995198721
 10
2.899999973973265
 20
10.27499951987215
 10
6.599999973973268
 20
10.27499951987215
  0
LINE
  5
70E0
330
70DC
100
AcDbEntity
  8
0
100
AcDbLine
 10
7.774999973973265
 20
9.824999519872108
 30
0.0
 11
7.774999973973265
 21
33.99999951987206
 31
0.0
  0
LINE
  5
70E1
330
70DC
100
AcDbEntity
  8
0
100
AcDbLine
 10
1.649999973973265
 20
34.92499951987224
 30
0.0
 11
1.649999973973265
 21
8.899999519872153
 31
0.0
  0
LWPOLYLINE
  5
70E2
330
70DC
100
AcDbEntity
  8
0
100
AcDbPolyline
 90
        4
 70
     1
 43
0.2
 10
0.0999999739732616
 20
43.39999951987215
 10
0.0999999739732616
 20
0.099999519872199
 10
9.324999973973262
 20
0.099999519872199
 10
9.324999973973262
 20
43.39999951987215
  0
LWPOLYLINE
  5
70E3
330
70DC
100
AcDbEntity
  8
0
100
AcDbPolyline
 90
        4
 70
     1
 43
0.0
 10
3.449999973973262
 20
12.29999951987224
 10
3.099999973973261
 20
12.29999951987224
 10
3.099999973973261
 20
11.3249995198721
 10
3.449999973973262
 20
11.3249995198721
  0
LWPOLYLINE
  5
70E4
330
70DC
100
AcDbEntity
  8
0
100
AcDbPolyline
 90
        4
 70
     1
 43
0.0
 10
6.224999973973268
 20
12.29999951987224
 10
5.87499997397326
 20
12.29999951987224
 10
5.87499997397326
 20
11.3249995198721
 10
6.224999973973268
 20
11.3249995198721
  0
LWPOLYLINE
  5
70E5
330
70DC
100
AcDbEntity
  8
0
100
AcDbPolyline
 90
        4
 70
     1
 43
0.0
 10
3.449999973973262
 20
13.52499951987215
 10
3.099999973973261
 20
13.52499951987215
 10
3.099999973973261
 20
12.54999951987224
 10
3.449999973973262
 20
12.54999951987224
  0
LWPOLYLINE
  5
70E6
330
70DC
100
AcDbEntity
  8
0
100
AcDbPolyline
 90
        4
 70
     1
 43
0.0
 10
6.224999973973268
 20
13.52499951987215
 10
5.87499997397326
 20
13.52499951987215
 10
5.87499997397326
 20
12.54999951987224
 10
6.224999973973268
 20
12.54999951987224
  0
LWPOLYLINE
  5
70E7
330
70DC
100
AcDbEntity
  8
0
100
AcDbPolyline
 90
        4
 70
     1
 43
0.0
 10
3.449999973973262
 20
14.74999951987206
 10
3.099999973973261
 20
14.74999951987206
 10
3.099999973973261
 20
13.77499951987215
 10
3.449999973973262
 20
13.77499951987215
  0
LWPOLYLINE
  5
70E8
330
70DC
100
AcDbEntity
  8
0
100
AcDbPolyline
 90
        4
 70
     1
 43
0.0
 10
6.224999973973268
 20
14.74999951987206
 10
5.87499997397326
 20
14.74999951987206
 10
5.87499997397326
 20
13.77499951987215
 10
6.224999973973268
 20
13.77499951987215
  0
LINE
  5
70E9
330
70DC
100
AcDbEntity
  8
0
100
AcDbLine
 10
0.8999999739732658
 20
4.374999519872176
 30
0.0
 11
0.8999999739732658
 21
6.449999519872108
 31
0.0
  0
LINE
  5
70EA
330
70DC
100
AcDbEntity
  8
0
100
AcDbLine
 10
8.524999973973265
 20
4.374999519872176
 30
0.0
 11
8.524999973973265
 21
6.449999519872108
 31
0.0
  0
LINE
  5
70EB
330
70DC
100
AcDbEntity
  8
0
100
AcDbLine
 10
6.599999973973268
 20
4.349999519872199
 30
0.0
 11
6.599999973973268
 21
5.324999519872108
 31
0.0
  0
LINE
  5
70EC
330
70DC
100
AcDbEntity
  8
0
100
AcDbLine
 10
6.599999973973268
 20
5.349999519872199
 30
0.0
 11
3.024999973973265
 21
5.349999519872199
 31
0.0
  0
LINE
  5
70ED
330
70DC
100
AcDbEntity
  8
0
100
AcDbLine
 10
3.024999973973265
 20
4.374999519872176
 30
0.0
 11
3.024999973973265
 21
5.349999519872199
 31
0.0
  0
LINE
  5
70EE
330
70DC
100
AcDbEntity
  8
0
100
AcDbLine
 10
3.024999973973265
 20
4.374999519872176
 30
0.0
 11
0.8999999739732658
 21
4.374999519872176
 31
0.0
  0
LINE
  5
70EF
330
70DC
100
AcDbEntity
  8
0
100
AcDbLine
 10
8.524999973973265
 20
4.374999519872176
 30
0.0
 11
6.599999973973268
 21
4.374999519872176
 31
0.0
  0
LINE
  5
70F0
330
70DC
100
AcDbEntity
  8
0
100
AcDbLine
 10
8.524999973973265
 20
6.449999519872108
 30
0.0
 11
0.8999999739732658
 21
6.449999519872108
 31
0.0
  0
ELLIPSE
  5
70F1
330
70DC
100
AcDbEntity
  8
0
100
AcDbEllipse
 10
6.549999973973257
 20
10.04999951987224
 30
0.0
 11
0.0
 21
1.25
 31
0.0
210
0.0
220
0.0
230
1.0
 40
0.98
 41
3.380894
 42
4.528311
  0
ELLIPSE
  5
70F2
330
70DC
100
AcDbEntity
  8
0
100
AcDbEllipse
 10
2.87499997397326
 20
9.074999519872108
 30
0.0
 11
0.0
 21
1.25
 31
0.0
210
0.0
220
0.0
230
1.0
 40
0.98
 41
1.708854999999999
 42
3.380894
  0
LINE
  5
70F3
330
70DC
100
AcDbEntity
  8
0
100
AcDbLine
 10
3.149999973973265
 20
7.824999519872108
 30
0.0
 11
6.849999973973268
 21
8.799999519872244
 31
0.0
  0
ELLIPSE
  5
70F4
330
70DC
100
AcDbEntity
  8
0
100
AcDbEllipse
 10
4.724999973973268
 20
3.474999519872199
 30
0.0
 11
0.0
 21
0.775
 31
0.0
210
0.0
220
0.0
230
1.0
 40
0.9677419999999999
 41
0.0
 42
6.283184999999999
  0
LINE
  5
70F5
330
70DC
100
AcDbEntity
  8
0
100
AcDbLine
 10
0.8999999739732658
 20
39.79999951987224
 30
0.0
 11
0.8999999739732658
 21
37.72499951987219
 31
0.0
  0
LINE
  5
70F6
330
70DC
100
AcDbEntity
  8
0
100
AcDbLine
 10
8.524999973973265
 20
39.79999951987224
 30
0.0
 11
8.524999973973265
 21
37.72499951987219
 31
0.0
  0
LWPOLYLINE
  5
70F7
330
70DC
100
AcDbEntity
  8
0
100
AcDbPolyline
 90
        4
 70
     1
 43
0.0
 10
3.449999973973262
 20
17.12499951987206
 10
3.099999973973261
 20
17.12499951987206
 10
3.099999973973261
 20
16.14999951987215
 10
3.449999973973262
 20
16.14999951987215
  0
LWPOLYLINE
  5
70F8
330
70DC
100
AcDbEntity
  8
0
100
AcDbPolyline
 90
        4
 70
     1
 43
0.0
 10
6.224999973973268
 20
17.12499951987206
 10
5.87499997397326
 20
17.12499951987206
 10
5.87499997397326
 20
16.14999951987215
 10
6.224999973973268
 20
16.14999951987215
  0
LWPOLYLINE
  5
70F9
330
70DC
100
AcDbEntity
  8
0
100
AcDbPolyline
 90
        4
 70
     1
 43
0.0
 10
3.449999973973262
 20
18.29999951987224
 10
3.099999973973261
 20
18.29999951987224
 10
3.099999973973261
 20
17.3249995198721
 10
3.449999973973262
 20
17.3249995198721
  0
LWPOLYLINE
  5
70FA
330
70DC
100
AcDbEntity
  8
0
100
AcDbPolyline
 90
        4
 70
     1
 43
0.0
 10
6.224999973973268
 20
18.29999951987224
 10
5.87499997397326
 20
18.29999951987224
 10
5.87499997397326
 20
17.3249995198721
 10
6.224999973973268
 20
17.3249995198721
  0
LWPOLYLINE
  5
70FB
330
70DC
100
AcDbEntity
  8
0
100
AcDbPolyline
 90
        4
 70
     1
 43
0.0
 10
3.449999973973262
 20
19.4749995198722
 10
3.099999973973261
 20
19.4749995198722
 10
3.099999973973261
 20
18.49999951987206
 10
3.449999973973262
 20
18.49999951987206
  0
LWPOLYLINE
  5
70FC
330
70DC
100
AcDbEntity
  8
0
100
AcDbPolyline
 90
        4
 70
     1
 43
0.0
 10
6.224999973973268
 20
19.4749995198722
 10
5.87499997397326
 20
19.4749995198722
 10
5.87499997397326
 20
18.49999951987206
 10
6.224999973973268
 20
18.49999951987206
  0
LWPOLYLINE
  5
70FD
330
70DC
100
AcDbEntity
  8
0
100
AcDbPolyline
 90
        4
 70
     1
 43
0.0
 10
3.449999973973262
 20
20.67499951987224
 10
3.099999973973261
 20
20.67499951987224
 10
3.099999973973261
 20
19.6999995198721
 10
3.449999973973262
 20
19.6999995198721
  0
LWPOLYLINE
  5
70FE
330
70DC
100
AcDbEntity
  8
0
100
AcDbPolyline
 90
        4
 70
     1
 43
0.0
 10
6.224999973973268
 20
20.67499951987224
 10
5.87499997397326
 20
20.67499951987224
 10
5.87499997397326
 20
19.6999995198721
 10
6.224999973973268
 20
19.6999995198721
  0
LWPOLYLINE
  5
70FF
330
70DC
100
AcDbEntity
  8
0
100
AcDbPolyline
 90
        4
 70
     1
 43
0.0
 10
3.449999973973262
 20
21.8499995198722
 10
3.099999973973261
 20
21.8499995198722
 10
3.099999973973261
 20
20.87499951987206
 10
3.449999973973262
 20
20.87499951987206
  0
LWPOLYLINE
  5
7100
330
70DC
100
AcDbEntity
  8
0
100
AcDbPolyline
 90
        4
 70
     1
 43
0.0
 10
6.224999973973268
 20
21.8499995198722
 10
5.87499997397326
 20
21.8499995198722
 10
5.87499997397326
 20
20.87499951987206
 10
6.224999973973268
 20
20.87499951987206
  0
LWPOLYLINE
  5
7101
330
70DC
100
AcDbEntity
  8
0
100
AcDbPolyline
 90
        4
 70
     1
 43
0.0
 10
3.449999973973262
 20
23.04999951987224
 10
3.099999973973261
 20
23.04999951987224
 10
3.099999973973261
 20
22.0749995198721
 10
3.449999973973262
 20
22.0749995198721
  0
LWPOLYLINE
  5
7102
330
70DC
100
AcDbEntity
  8
0
100
AcDbPolyline
 90
        4
 70
     1
 43
0.0
 10
6.224999973973268
 20
23.04999951987224
 10
5.87499997397326
 20
23.04999951987224
 10
5.87499997397326
 20
22.0749995198721
 10
6.224999973973268
 20
22.0749995198721
  0
LWPOLYLINE
  5
7103
330
70DC
100
AcDbEntity
  8
0
100
AcDbPolyline
 90
        4
 70
     1
 43
0.0
 10
3.474999973973268
 20
24.24999951987206
 10
3.12499997397326
 20
24.24999951987206
 10
3.12499997397326
 20
23.27499951987215
 10
3.474999973973268
 20
23.27499951987215
  0
LWPOLYLINE
  5
7104
330
70DC
100
AcDbEntity
  8
0
100
AcDbPolyline
 90
        4
 70
     1
 43
0.0
 10
6.24999997397326
 20
24.24999951987206
 10
5.899999973973265
 20
24.24999951987206
 10
5.899999973973265
 20
23.27499951987215
 10
6.24999997397326
 20
23.27499951987215
  0
LWPOLYLINE
  5
7105
330
70DC
100
AcDbEntity
  8
0
100
AcDbPolyline
 90
        4
 70
     1
 43
0.0
 10
3.474999973973268
 20
25.49999951987206
 10
3.12499997397326
 20
25.49999951987206
 10
3.12499997397326
 20
24.52499951987215
 10
3.474999973973268
 20
24.52499951987215
  0
LWPOLYLINE
  5
7106
330
70DC
100
AcDbEntity
  8
0
100
AcDbPolyline
 90
        4
 70
     1
 43
0.0
 10
3.474999973973268
 20
26.67499951987224
 10
3.12499997397326
 20
26.67499951987224
 10
3.12499997397326
 20
25.6999995198721
 10
3.474999973973268
 20
25.6999995198721
  0
LWPOLYLINE
  5
7107
330
70DC
100
AcDbEntity
  8
0
100
AcDbPolyline
 90
        4
 70
     1
 43
0.0
 10
3.474999973973268
 20
27.94999951987211
 10
3.12499997397326
 20
27.94999951987211
 10
3.12499997397326
 20
26.9749995198722
 10
3.474999973973268
 20
26.9749995198722
  0
LWPOLYLINE
  5
7108
330
70DC
100
AcDbEntity
  8
0
100
AcDbPolyline
 90
        4
 70
     1
 43
0.0
 10
3.474999973973268
 20
29.27499951987215
 10
3.12499997397326
 20
29.27499951987215
 10
3.12499997397326
 20
28.32499951987211
 10
3.474999973973268
 20
28.32499951987211
  0
LWPOLYLINE
  5
7109
330
70DC
100
AcDbEntity
  8
0
100
AcDbPolyline
 90
        4
 70
     1
 43
0.0
 10
3.474999973973268
 20
30.54999951987224
 10
3.12499997397326
 20
30.54999951987224
 10
3.12499997397326
 20
29.57499951987211
 10
3.474999973973268
 20
29.57499951987211
  0
LWPOLYLINE
  5
710A
330
70DC
100
AcDbEntity
  8
0
100
AcDbPolyline
 90
        4
 70
     1
 43
0.0
 10
3.474999973973268
 20
31.77499951987215
 10
3.12499997397326
 20
31.77499951987215
 10
3.12499997397326
 20
30.79999951987224
 10
3.474999973973268
 20
30.79999951987224
  0
LWPOLYLINE
  5
710B
330
70DC
100
AcDbEntity
  8
0
100
AcDbPolyline
 90
        4
 70
     1
 43
0.0
 10
3.474999973973268
 20
33.04999951987224
 10
3.12499997397326
 20
33.04999951987224
 10
3.12499997397326
 20
32.04999951987224
 10
3.474999973973268
 20
32.04999951987224
  0
LWPOLYLINE
  5
710C
330
70DC
100
AcDbEntity
  8
0
100
AcDbPolyline
 90
        4
 70
     1
 43
0.0
 10
6.24999997397326
 20
25.49999951987206
 10
5.899999973973265
 20
25.49999951987206
 10
5.899999973973265
 20
24.52499951987215
 10
6.24999997397326
 20
24.52499951987215
  0
LWPOLYLINE
  5
710D
330
70DC
100
AcDbEntity
  8
0
100
AcDbPolyline
 90
        4
 70
     1
 43
0.0
 10
6.24999997397326
 20
26.67499951987224
 10
5.899999973973265
 20
26.67499951987224
 10
5.899999973973265
 20
25.6999995198721
 10
6.24999997397326
 20
25.6999995198721
  0
LWPOLYLINE
  5
710E
330
70DC
100
AcDbEntity
  8
0
100
AcDbPolyline
 90
        4
 70
     1
 43
0.0
 10
6.24999997397326
 20
27.94999951987211
 10
5.899999973973265
 20
27.94999951987211
 10
5.899999973973265
 20
26.9749995198722
 10
6.24999997397326
 20
26.9749995198722
  0
LWPOLYLINE
  5
710F
330
70DC
100
AcDbEntity
  8
0
100
AcDbPolyline
 90
        4
 70
     1
 43
0.0
 10
6.24999997397326
 20
29.27499951987215
 10
5.899999973973265
 20
29.27499951987215
 10
5.899999973973265
 20
28.32499951987211
 10
6.24999997397326
 20
28.32499951987211
  0
LWPOLYLINE
  5
7110
330
70DC
100
AcDbEntity
  8
0
100
AcDbPolyline
 90
        4
 70
     1
 43
0.0
 10
6.24999997397326
 20
30.54999951987224
 10
5.899999973973265
 20
30.54999951987224
 10
5.899999973973265
 20
29.57499951987211
 10
6.24999997397326
 20
29.57499951987211
  0
LWPOLYLINE
  5
7111
330
70DC
100
AcDbEntity
  8
0
100
AcDbPolyline
 90
        4
 70
     1
 43
0.0
 10
6.24999997397326
 20
31.77499951987215
 10
5.899999973973265
 20
31.77499951987215
 10
5.899999973973265
 20
30.79999951987224
 10
6.24999997397326
 20
30.79999951987224
  0
LWPOLYLINE
  5
7112
330
70DC
100
AcDbEntity
  8
0
100
AcDbPolyline
 90
        4
 70
     1
 43
0.0
 10
6.24999997397326
 20
33.04999951987224
 10
5.899999973973265
 20
33.04999951987224
 10
5.899999973973265
 20
32.04999951987224
 10
6.24999997397326
 20
32.04999951987224
  0
ELLIPSE
  5
7113
330
70DC
100
AcDbEntity
  8
0
100
AcDbEllipse
 10
6.549999973973257
 20
33.99999951987206
 30
0.0
 11
0.0
 21
1.25
 31
0.0
210
0.0
220
0.0
230
1.0
 40
0.98
 41
4.509903999999999
 42
6.059223999999999
  0
ELLIPSE
  5
7114
330
70DC
100
AcDbEntity
  8
0
100
AcDbEllipse
 10
2.87499997397326
 20
34.92499951987224
 30
0.0
 11
0.0
 21
1.25
 31
0.0
210
0.0
220
0.0
230
1.0
 40
0.98
 41
6.03468
 42
8.053399307179585
  0
LINE
  5
7115
330
70DC
100
AcDbEntity
  8
0
100
AcDbLine
 10
6.849999973973268
 20
35.17499951987224
 30
0.0
 11
3.149999973973265
 21
36.09999951987219
 31
0.0
  0
LINE
  5
7116
330
70DC
100
AcDbEntity
  8
0
100
AcDbLine
 10
8.524999973973265
 20
37.72499951987219
 30
0.0
 11
0.8999999739732658
 21
37.72499951987219
 31
0.0
  0
LINE
  5
7117
330
70DC
100
AcDbEntity
  8
0
100
AcDbLine
 10
6.599999973973268
 20
39.82499951987211
 30
0.0
 11
6.599999973973268
 21
38.8499995198722
 31
0.0
  0
LINE
  5
7118
330
70DC
100
AcDbEntity
  8
0
100
AcDbLine
 10
6.599999973973268
 20
38.8249995198721
 30
0.0
 11
3.024999973973265
 21
38.8249995198721
 31
0.0
  0
LINE
  5
7119
330
70DC
100
AcDbEntity
  8
0
100
AcDbLine
 10
3.024999973973265
 20
39.79999951987224
 30
0.0
 11
3.024999973973265
 21
38.8249995198721
 31
0.0
  0
LINE
  5
711A
330
70DC
100
AcDbEntity
  8
0
100
AcDbLine
 10
3.024999973973265
 20
39.79999951987224
 30
0.0
 11
0.8999999739732658
 21
39.79999951987224
 31
0.0
  0
LINE
  5
711B
330
70DC
100
AcDbEntity
  8
0
100
AcDbLine
 10
8.524999973973265
 20
39.79999951987224
 30
0.0
 11
6.599999973973268
 21
39.79999951987224
 31
0.0
  0
ELLIPSE
  5
711C
330
70DC
100
AcDbEntity
  8
0
100
AcDbEllipse
 10
4.724999973973268
 20
41.02499951987215
 30
0.0
 11
0.0
 21
0.775
 31
0.0
210
0.0
220
0.0
230
1.0
 40
0.9677419999999999
 41
0.0
 42
6.283184999999999
  0
ENDBLK
  5
711E
330
70DC
100
AcDbEntity
  8
0
100
AcDbBlockEnd
  0
BLOCK
  5
715E
330
711F
100
AcDbEntity
  8
0
100
AcDbBlockBegin
  2
A$C5A3A0BB0
 70
     0
 10
0.0
 20
0.0
 30
0.0
  3
A$C5A3A0BB0
  1

  0
LWPOLYLINE
  5
7120
330
711F
100
AcDbEntity
  8
0
100
AcDbPolyline
 90
        4
 70
     1
 43
0.2
 10
0.0999993794071088
 20
51.09999997583827
 10
15.0999993794071
 20
51.09999997583827
 10
15.0999993794071
 20
0.0999999758382728
 10
0.0999993794071088
 20
0.0999999758382728
  0
LINE
  5
7121
330
711F
100
AcDbEntity
  8
0
100
AcDbLine
 10
5.099999379407108
 20
4.099999975838272
 30
0.0
 11
7.099999379407108
 21
5.099999975838272
 31
0.0
  0
LINE
  5
7122
330
711F
100
AcDbEntity
  8
0
100
AcDbLine
 10
3.099999379407108
 20
4.099999975838272
 30
0.0
 11
2.099999379407108
 21
5.099999975838272
 31
0.0
  0
LWPOLYLINE
  5
7123
330
711F
100
AcDbEntity
  8
0
100
AcDbPolyline
 90
        4
 70
     1
 43
0.2
 10
2.099999379407108
 20
5.099999975838272
 10
7.099999379407108
 20
5.099999975838272
 10
7.099999379407108
 20
1.099999975838272
 10
2.099999379407108
 20
1.099999975838272
  0
LINE
  5
7124
330
711F
100
AcDbEntity
  8
0
100
AcDbLine
 10
10.0999993794071
 20
51.09999997583827
 30
0.0
 11
10.0999993794071
 21
0.0999999758382728
 31
0.0
  0
LINE
  5
7125
330
711F
100
AcDbEntity
  8
0
100
AcDbLine
 10
5.099999379407108
 20
2.099999975838272
 30
0.0
 11
7.099999379407108
 21
1.099999975838272
 31
0.0
  0
LINE
  5
7126
330
711F
100
AcDbEntity
  8
0
100
AcDbLine
 10
3.099999379407108
 20
2.099999975838272
 30
0.0
 11
2.099999379407108
 21
1.099999975838272
 31
0.0
  0
LWPOLYLINE
  5
7127
330
711F
100
AcDbEntity
  8
0
100
AcDbPolyline
 90
        4
 70
     1
 43
0.2
 10
3.099999379407108
 20
4.099999975838272
 10
5.099999379407108
 20
4.099999975838272
 10
5.099999379407108
 20
2.099999975838272
 10
3.099999379407108
 20
2.099999975838272
  0
LINE
  5
7128
330
711F
100
AcDbEntity
  8
0
100
AcDbLine
 10
5.099999379407108
 20
49.09999997583827
 30
0.0
 11
7.099999379407108
 21
50.09999997583827
 31
0.0
  0
LINE
  5
7129
330
711F
100
AcDbEntity
  8
0
100
AcDbLine
 10
3.099999379407108
 20
49.09999997583827
 30
0.0
 11
2.099999379407108
 21
50.09999997583827
 31
0.0
  0
LWPOLYLINE
  5
712A
330
711F
100
AcDbEntity
  8
0
100
AcDbPolyline
 90
        4
 70
     1
 43
0.2
 10
2.099999379407108
 20
50.09999997583827
 10
7.099999379407108
 20
50.09999997583827
 10
7.099999379407108
 20
46.09999997583827
 10
2.099999379407108
 20
46.09999997583827
  0
LINE
  5
712B
330
711F
100
AcDbEntity
  8
0
100
AcDbLine
 10
5.099999379407108
 20
27.09999997583827
 30
0.0
 11
7.099999379407108
 21
26.09999997583827
 31
0.0
  0
LINE
  5
712C
330
711F
100
AcDbEntity
  8
0
100
AcDbLine
 10
3.099999379407108
 20
27.09999997583827
 30
0.0
 11
2.099999379407108
 21
26.09999997583827
 31
0.0
  0
LWPOLYLINE
  5
712D
330
711F
100
AcDbEntity
  8
0
100
AcDbPolyline
 90
        4
 70
     1
 43
0.2
 10
2.099999379407108
 20
30.09999997583827
 10
7.099999379407108
 20
30.09999997583827
 10
7.099999379407108
 20
26.09999997583827
 10
2.099999379407108
 20
26.09999997583827
  0
LINE
  5
712E
330
711F
100
AcDbEntity
  8
0
100
AcDbLine
 10
5.099999379407108
 20
9.099999975838272
 30
0.0
 11
7.099999379407108
 21
10.09999997583827
 31
0.0
  0
LINE
  5
712F
330
711F
100
AcDbEntity
  8
0
100
AcDbLine
 10
5.099999379407108
 20
7.099999975838272
 30
0.0
 11
7.099999379407108
 21
6.099999975838272
 31
0.0
  0
LINE
  5
7130
330
711F
100
AcDbEntity
  8
0
100
AcDbLine
 10
3.099999379407108
 20
7.099999975838272
 30
0.0
 11
2.099999379407108
 21
6.099999975838272
 31
0.0
  0
LINE
  5
7131
330
711F
100
AcDbEntity
  8
0
100
AcDbLine
 10
3.099999379407108
 20
9.099999975838272
 30
0.0
 11
2.099999379407108
 21
10.09999997583827
 31
0.0
  0
LWPOLYLINE
  5
7132
330
711F
100
AcDbEntity
  8
0
100
AcDbPolyline
 90
        4
 70
     1
 43
0.2
 10
3.099999379407108
 20
9.099999975838272
 10
5.099999379407108
 20
9.099999975838272
 10
5.099999379407108
 20
7.099999975838272
 10
3.099999379407108
 20
7.099999975838272
  0
LWPOLYLINE
  5
7133
330
711F
100
AcDbEntity
  8
0
100
AcDbPolyline
 90
        4
 70
     1
 43
0.2
 10
2.099999379407108
 20
10.09999997583827
 10
7.099999379407108
 20
10.09999997583827
 10
7.099999379407108
 20
6.099999975838272
 10
2.099999379407108
 20
6.099999975838272
  0
LINE
  5
7134
330
711F
100
AcDbEntity
  8
0
100
AcDbLine
 10
5.099999379407108
 20
14.09999997583827
 30
0.0
 11
7.099999379407108
 21
15.09999997583827
 31
0.0
  0
LINE
  5
7135
330
711F
100
AcDbEntity
  8
0
100
AcDbLine
 10
5.099999379407108
 20
12.09999997583827
 30
0.0
 11
7.099999379407108
 21
11.09999997583827
 31
0.0
  0
LINE
  5
7136
330
711F
100
AcDbEntity
  8
0
100
AcDbLine
 10
3.099999379407108
 20
12.09999997583827
 30
0.0
 11
2.099999379407108
 21
11.09999997583827
 31
0.0
  0
LINE
  5
7137
330
711F
100
AcDbEntity
  8
0
100
AcDbLine
 10
3.099999379407108
 20
14.09999997583827
 30
0.0
 11
2.099999379407108
 21
15.09999997583827
 31
0.0
  0
LWPOLYLINE
  5
7138
330
711F
100
AcDbEntity
  8
0
100
AcDbPolyline
 90
        4
 70
     1
 43
0.2
 10
3.099999379407108
 20
14.09999997583827
 10
5.099999379407108
 20
14.09999997583827
 10
5.099999379407108
 20
12.09999997583827
 10
3.099999379407108
 20
12.09999997583827
  0
LWPOLYLINE
  5
7139
330
711F
100
AcDbEntity
  8
0
100
AcDbPolyline
 90
        4
 70
     1
 43
0.2
 10
2.099999379407108
 20
15.09999997583827
 10
7.099999379407108
 20
15.09999997583827
 10
7.099999379407108
 20
11.09999997583827
 10
2.099999379407108
 20
11.09999997583827
  0
LINE
  5
713A
330
711F
100
AcDbEntity
  8
0
100
AcDbLine
 10
5.099999379407108
 20
19.09999997583827
 30
0.0
 11
7.099999379407108
 21
20.09999997583827
 31
0.0
  0
LINE
  5
713B
330
711F
100
AcDbEntity
  8
0
100
AcDbLine
 10
5.099999379407108
 20
17.09999997583827
 30
0.0
 11
7.099999379407108
 21
16.09999997583827
 31
0.0
  0
LINE
  5
713C
330
711F
100
AcDbEntity
  8
0
100
AcDbLine
 10
3.099999379407108
 20
17.09999997583827
 30
0.0
 11
2.099999379407108
 21
16.09999997583827
 31
0.0
  0
LINE
  5
713D
330
711F
100
AcDbEntity
  8
0
100
AcDbLine
 10
3.099999379407108
 20
19.09999997583827
 30
0.0
 11
2.099999379407108
 21
20.09999997583827
 31
0.0
  0
LWPOLYLINE
  5
713E
330
711F
100
AcDbEntity
  8
0
100
AcDbPolyline
 90
        4
 70
     1
 43
0.2
 10
3.099999379407108
 20
19.09999997583827
 10
5.099999379407108
 20
19.09999997583827
 10
5.099999379407108
 20
17.09999997583827
 10
3.099999379407108
 20
17.09999997583827
  0
LWPOLYLINE
  5
713F
330
711F
100
AcDbEntity
  8
0
100
AcDbPolyline
 90
        4
 70
     1
 43
0.2
 10
2.099999379407108
 20
20.09999997583827
 10
7.099999379407108
 20
20.09999997583827
 10
7.099999379407108
 20
16.09999997583827
 10
2.099999379407108
 20
16.09999997583827
  0
LINE
  5
7140
330
711F
100
AcDbEntity
  8
0
100
AcDbLine
 10
5.099999379407108
 20
24.09999997583827
 30
0.0
 11
7.099999379407108
 21
25.09999997583827
 31
0.0
  0
LINE
  5
7141
330
711F
100
AcDbEntity
  8
0
100
AcDbLine
 10
5.099999379407108
 20
22.09999997583827
 30
0.0
 11
7.099999379407108
 21
21.09999997583827
 31
0.0
  0
LINE
  5
7142
330
711F
100
AcDbEntity
  8
0
100
AcDbLine
 10
3.099999379407108
 20
22.09999997583827
 30
0.0
 11
2.099999379407108
 21
21.09999997583827
 31
0.0
  0
LINE
  5
7143
330
711F
100
AcDbEntity
  8
0
100
AcDbLine
 10
3.099999379407108
 20
24.09999997583827
 30
0.0
 11
2.099999379407108
 21
25.09999997583827
 31
0.0
  0
LWPOLYLINE
  5
7144
330
711F
100
AcDbEntity
  8
0
100
AcDbPolyline
 90
        4
 70
     1
 43
0.2
 10
3.099999379407108
 20
24.09999997583827
 10
5.099999379407108
 20
24.09999997583827
 10
5.099999379407108
 20
22.09999997583827
 10
3.099999379407108
 20
22.09999997583827
  0
LWPOLYLINE
  5
7145
330
711F
100
AcDbEntity
  8
0
100
AcDbPolyline
 90
        4
 70
     1
 43
0.2
 10
2.099999379407108
 20
25.09999997583827
 10
7.099999379407108
 20
25.09999997583827
 10
7.099999379407108
 20
21.09999997583827
 10
2.099999379407108
 20
21.09999997583827
  0
LINE
  5
7146
330
711F
100
AcDbEntity
  8
0
100
AcDbLine
 10
5.099999379407108
 20
29.09999997583827
 30
0.0
 11
7.099999379407108
 21
30.09999997583827
 31
0.0
  0
LINE
  5
7147
330
711F
100
AcDbEntity
  8
0
100
AcDbLine
 10
3.099999379407108
 20
29.09999997583827
 30
0.0
 11
2.099999379407108
 21
30.09999997583827
 31
0.0
  0
LWPOLYLINE
  5
7148
330
711F
100
AcDbEntity
  8
0
100
AcDbPolyline
 90
        4
 70
     1
 43
0.2
 10
3.099999379407108
 20
29.09999997583827
 10
5.099999379407108
 20
29.09999997583827
 10
5.099999379407108
 20
27.09999997583827
 10
3.099999379407108
 20
27.09999997583827
  0
LINE
  5
7149
330
711F
100
AcDbEntity
  8
0
100
AcDbLine
 10
5.099999379407108
 20
34.09999997583827
 30
0.0
 11
7.099999379407108
 21
35.09999997583827
 31
0.0
  0
LINE
  5
714A
330
711F
100
AcDbEntity
  8
0
100
AcDbLine
 10
5.099999379407108
 20
32.09999997583827
 30
0.0
 11
7.099999379407108
 21
31.09999997583827
 31
0.0
  0
LINE
  5
714B
330
711F
100
AcDbEntity
  8
0
100
AcDbLine
 10
3.099999379407108
 20
32.09999997583827
 30
0.0
 11
2.099999379407108
 21
31.09999997583827
 31
0.0
  0
LINE
  5
714C
330
711F
100
AcDbEntity
  8
0
100
AcDbLine
 10
3.099999379407108
 20
34.09999997583827
 30
0.0
 11
2.099999379407108
 21
35.09999997583827
 31
0.0
  0
LWPOLYLINE
  5
714D
330
711F
100
AcDbEntity
  8
0
100
AcDbPolyline
 90
        4
 70
     1
 43
0.2
 10
3.099999379407108
 20
34.09999997583827
 10
5.099999379407108
 20
34.09999997583827
 10
5.099999379407108
 20
32.09999997583827
 10
3.099999379407108
 20
32.09999997583827
  0
LWPOLYLINE
  5
714E
330
711F
100
AcDbEntity
  8
0
100
AcDbPolyline
 90
        4
 70
     1
 43
0.2
 10
2.099999379407108
 20
35.09999997583827
 10
7.099999379407108
 20
35.09999997583827
 10
7.099999379407108
 20
31.09999997583827
 10
2.099999379407108
 20
31.09999997583827
  0
LINE
  5
714F
330
711F
100
AcDbEntity
  8
0
100
AcDbLine
 10
5.099999379407108
 20
39.09999997583827
 30
0.0
 11
7.099999379407108
 21
40.09999997583827
 31
0.0
  0
LINE
  5
7150
330
711F
100
AcDbEntity
  8
0
100
AcDbLine
 10
5.099999379407108
 20
37.09999997583827
 30
0.0
 11
7.099999379407108
 21
36.09999997583827
 31
0.0
  0
LINE
  5
7151
330
711F
100
AcDbEntity
  8
0
100
AcDbLine
 10
3.099999379407108
 20
37.09999997583827
 30
0.0
 11
2.099999379407108
 21
36.09999997583827
 31
0.0
  0
LINE
  5
7152
330
711F
100
AcDbEntity
  8
0
100
AcDbLine
 10
3.099999379407108
 20
39.09999997583827
 30
0.0
 11
2.099999379407108
 21
40.09999997583827
 31
0.0
  0
LWPOLYLINE
  5
7153
330
711F
100
AcDbEntity
  8
0
100
AcDbPolyline
 90
        4
 70
     1
 43
0.2
 10
3.099999379407108
 20
39.09999997583827
 10
5.099999379407108
 20
39.09999997583827
 10
5.099999379407108
 20
37.09999997583827
 10
3.099999379407108
 20
37.09999997583827
  0
LWPOLYLINE
  5
7154
330
711F
100
AcDbEntity
  8
0
100
AcDbPolyline
 90
        4
 70
     1
 43
0.2
 10
2.099999379407108
 20
40.09999997583827
 10
7.099999379407108
 20
40.09999997583827
 10
7.099999379407108
 20
36.09999997583827
 10
2.099999379407108
 20
36.09999997583827
  0
LINE
  5
7155
330
711F
100
AcDbEntity
  8
0
100
AcDbLine
 10
5.099999379407108
 20
44.09999997583827
 30
0.0
 11
7.099999379407108
 21
45.09999997583827
 31
0.0
  0
LINE
  5
7156
330
711F
100
AcDbEntity
  8
0
100
AcDbLine
 10
5.099999379407108
 20
42.09999997583827
 30
0.0
 11
7.099999379407108
 21
41.09999997583827
 31
0.0
  0
LINE
  5
7157
330
711F
100
AcDbEntity
  8
0
100
AcDbLine
 10
3.099999379407108
 20
42.09999997583827
 30
0.0
 11
2.099999379407108
 21
41.09999997583827
 31
0.0
  0
LINE
  5
7158
330
711F
100
AcDbEntity
  8
0
100
AcDbLine
 10
3.099999379407108
 20
44.09999997583827
 30
0.0
 11
2.099999379407108
 21
45.09999997583827
 31
0.0
  0
LWPOLYLINE
  5
7159
330
711F
100
AcDbEntity
  8
0
100
AcDbPolyline
 90
        4
 70
     1
 43
0.2
 10
3.099999379407108
 20
44.09999997583827
 10
5.099999379407108
 20
44.09999997583827
 10
5.099999379407108
 20
42.09999997583827
 10
3.099999379407108
 20
42.09999997583827
  0
LWPOLYLINE
  5
715A
330
711F
100
AcDbEntity
  8
0
100
AcDbPolyline
 90
        4
 70
     1
 43
0.2
 10
2.099999379407108
 20
45.09999997583827
 10
7.099999379407108
 20
45.09999997583827
 10
7.099999379407108
 20
41.09999997583827
 10
2.099999379407108
 20
41.09999997583827
  0
LINE
  5
715B
330
711F
100
AcDbEntity
  8
0
100
AcDbLine
 10
5.099999379407108
 20
47.09999997583827
 30
0.0
 11
7.099999379407108
 21
46.09999997583827
 31
0.0
  0
LINE
  5
715C
330
711F
100
AcDbEntity
  8
0
100
AcDbLine
 10
3.099999379407108
 20
47.09999997583827
 30
0.0
 11
2.099999379407108
 21
46.09999997583827
 31
0.0
  0
LWPOLYLINE
  5
715D
330
711F
100
AcDbEntity
  8
0
100
AcDbPolyline
 90
        4
 70
     1
 43
0.2
 10
3.099999379407108
 20
49.09999997583827
 10
5.099999379407108
 20
49.09999997583827
 10
5.099999379407108
 20
47.09999997583827
 10
3.099999379407108
 20
47.09999997583827
  0
ENDBLK
  5
715F
330
711F
100
AcDbEntity
  8
0
100
AcDbBlockEnd
  0
BLOCK
  5
7175
330
7160
100
AcDbEntity
  8
0
100
AcDbBlockBegin
  2
A$C3413120B
 70
     0
 10
0.0
 20
0.0
 30
0.0
  3
A$C3413120B
  1

  0
LWPOLYLINE
  5
7161
330
7160
100
AcDbEntity
  8
0
100
AcDbPolyline
 90
        4
 70
     1
 43
0.0
 10
-0.0000002802582912
 20
16.02466200946787
 10
14.99999971974171
 20
16.02466200946787
 10
14.99999971974171
 20
0.0
 10
-0.0000002802582912
 20
0.0
  0
LINE
  5
7162
330
7160
100
AcDbEntity
  8
0
100
AcDbLine
 10
9.999999719741708
 20
16.02466200946787
 30
0.0
 11
9.999999719741708
 21
0.0
 31
0.0
  0
LINE
  5
7163
330
7160
100
AcDbEntity
  8
0
100
AcDbLine
 10
4.999999719741708
 20
14.02466200946787
 30
0.0
 11
6.999999719741708
 21
15.02466200946787
 31
0.0
  0
LINE
  5
7164
330
7160
100
AcDbEntity
  8
0
100
AcDbLine
 10
2.999999719741708
 20
14.02466200946787
 30
0.0
 11
1.999999719741708
 21
15.02466200946787
 31
0.0
  0
LWPOLYLINE
  5
7165
330
7160
100
AcDbEntity
  8
0
100
AcDbPolyline
 90
        4
 70
     1
 43
0.2
 10
1.999999719741708
 20
15.02466200946787
 10
6.999999719741708
 20
15.02466200946787
 10
6.999999719741708
 20
11.02466200946787
 10
1.999999719741708
 20
11.02466200946787
  0
LINE
  5
7166
330
7160
100
AcDbEntity
  8
0
100
AcDbLine
 10
4.999999719741708
 20
4.024662009467874
 30
0.0
 11
6.999999719741708
 21
5.024662009467874
 31
0.0
  0
LINE
  5
7167
330
7160
100
AcDbEntity
  8
0
100
AcDbLine
 10
4.999999719741708
 20
2.024662009467874
 30
0.0
 11
6.999999719741708
 21
1.024662009467874
 31
0.0
  0
LINE
  5
7168
330
7160
100
AcDbEntity
  8
0
100
AcDbLine
 10
2.999999719741708
 20
2.024662009467874
 30
0.0
 11
1.999999719741708
 21
1.024662009467874
 31
0.0
  0
LINE
  5
7169
330
7160
100
AcDbEntity
  8
0
100
AcDbLine
 10
2.999999719741708
 20
4.024662009467874
 30
0.0
 11
1.999999719741708
 21
5.024662009467874
 31
0.0
  0
LWPOLYLINE
  5
716A
330
7160
100
AcDbEntity
  8
0
100
AcDbPolyline
 90
        4
 70
     1
 43
0.2
 10
2.999999719741708
 20
4.024662009467874
 10
4.999999719741708
 20
4.024662009467874
 10
4.999999719741708
 20
2.024662009467874
 10
2.999999719741708
 20
2.024662009467874
  0
LWPOLYLINE
  5
716B
330
7160
100
AcDbEntity
  8
0
100
AcDbPolyline
 90
        4
 70
     1
 43
0.2
 10
1.999999719741708
 20
5.024662009467874
 10
6.999999719741708
 20
5.024662009467874
 10
6.999999719741708
 20
1.024662009467874
 10
1.999999719741708
 20
1.024662009467874
  0
LINE
  5
716C
330
7160
100
AcDbEntity
  8
0
100
AcDbLine
 10
4.999999719741708
 20
9.024662009467874
 30
0.0
 11
6.999999719741708
 21
10.02466200946787
 31
0.0
  0
LINE
  5
716D
330
7160
100
AcDbEntity
  8
0
100
AcDbLine
 10
4.999999719741708
 20
7.024662009467874
 30
0.0
 11
6.999999719741708
 21
6.024662009467874
 31
0.0
  0
LINE
  5
716E
330
7160
100
AcDbEntity
  8
0
100
AcDbLine
 10
2.999999719741708
 20
7.024662009467874
 30
0.0
 11
1.999999719741708
 21
6.024662009467874
 31
0.0
  0
LINE
  5
716F
330
7160
100
AcDbEntity
  8
0
100
AcDbLine
 10
2.999999719741708
 20
9.024662009467874
 30
0.0
 11
1.999999719741708
 21
10.02466200946787
 31
0.0
  0
LWPOLYLINE
  5
7170
330
7160
100
AcDbEntity
  8
0
100
AcDbPolyline
 90
        4
 70
     1
 43
0.2
 10
2.999999719741708
 20
9.024662009467874
 10
4.999999719741708
 20
9.024662009467874
 10
4.999999719741708
 20
7.024662009467874
 10
2.999999719741708
 20
7.024662009467874
  0
LWPOLYLINE
  5
7171
330
7160
100
AcDbEntity
  8
0
100
AcDbPolyline
 90
        4
 70
     1
 43
0.2
 10
1.999999719741708
 20
10.02466200946787
 10
6.999999719741708
 20
10.02466200946787
 10
6.999999719741708
 20
6.024662009467874
 10
1.999999719741708
 20
6.024662009467874
  0
LINE
  5
7172
330
7160
100
AcDbEntity
  8
0
100
AcDbLine
 10
4.999999719741708
 20
12.02466200946787
 30
0.0
 11
6.999999719741708
 21
11.02466200946787
 31
0.0
  0
LINE
  5
7173
330
7160
100
AcDbEntity
  8
0
100
AcDbLine
 10
2.999999719741708
 20
12.02466200946787
 30
0.0
 11
1.999999719741708
 21
11.02466200946787
 31
0.0
  0
LWPOLYLINE
  5
7174
330
7160
100
AcDbEntity
  8
0
100
AcDbPolyline
 90
        4
 70
     1
 43
0.2
 10
2.999999719741708
 20
14.02466200946787
 10
4.999999719741708
 20
14.02466200946787
 10
4.999999719741708
 20
12.02466200946787
 10
2.999999719741708
 20
12.02466200946787
  0
ENDBLK
  5
7176
330
7160
100
AcDbEntity
  8
0
100
AcDbBlockEnd
  0
ENDSEC
  0
SECTION
  2
ENTITIES
  0
LINE
  5
75C2
330
18
100
AcDbEntity
  8
0
100
AcDbLine
 10
292.9783281057205
 20
147.2730011160863
 30
0.0
 11
292.9783281057205
 21
132.0730011160862
 31
0.0
  0
LINE
  5
75C3
330
18
100
AcDbEntity
  8
0
100
AcDbLine
 10
293.6783281057205
 20
147.2730011160863
 30
0.0
 11
293.6783281057205
 21
132.0730011160862
 31
0.0
  0
CIRCLE
  5
75C4
330
18
100
AcDbEntity
  8
0
100
AcDbCircle
 10
289.4783281057204
 20
139.6530011160863
 30
0.0
 40
2.0
  0
LINE
  5
75C5
330
18
100
AcDbEntity
  8
0
100
AcDbLine
 10
288.2922469946654
 20
138.0426559363194
 30
0.0
 11
291.0886732854874
 21
140.8390822271413
 31
0.0
  0
LINE
  5
75C6
330
18
100
AcDbEntity
  8
0
100
AcDbLine
 10
287.8679829259535
 20
138.4669200050312
 30
0.0
 11
290.6644092167752
 21
141.2633462958532
 31
0.0
  0
LINE
  5
75C7
330
18
100
AcDbEntity
  8
0
100
AcDbLine
 10
284.1783281057205
 20
147.2730011160864
 30
0.0
 11
284.1783281057205
 21
132.0730011160865
 31
0.0
  0
LINE
  5
75C8
330
18
100
AcDbEntity
  8
0
100
AcDbLine
 10
285.6783281057205
 20
147.2730011160864
 30
0.0
 11
285.6783281057207
 21
132.0730011160865
 31
0.0
  0
LINE
  5
75CF
330
18
100
AcDbEntity
  8
0
100
AcDbLine
 10
102.8886462317132
 20
168.6730011160863
 30
0.0
 11
102.8886462317132
 21
10.67300111608631
 31
0.0
  0
LINE
  5
75D4
330
18
100
AcDbEntity
  8
0
100
AcDbLine
 10
295.6783281057205
 20
10.67300111608619
 30
0.0
 11
295.6783281057205
 21
168.6730011160864
 31
0.0
  0
LINE
  5
75D5
330
18
100
AcDbEntity
  8
0
100
AcDbLine
 10
295.6783281057205
 20
169.6730011160863
 30
0.0
 11
295.6783281057205
 21
9.673001116086311
 31
0.0
  0
LINE
  5
75D6
330
18
100
AcDbEntity
  8
0
100
AcDbLine
 10
293.6783281057205
 20
169.6730011160863
 30
0.0
 11
293.6783281057205
 21
9.673001116086311
 31
0.0
  0
LINE
  5
75D7
330
18
100
AcDbEntity
  8
0
100
AcDbLine
 10
442.6783281057205
 20
168.6730011160864
 30
0.0
 11
442.6783281057205
 21
10.67300111608616
 31
0.0
  0
LINE
  5
75D8
330
18
100
AcDbEntity
  8
0
100
AcDbLine
 10
442.6783281057205
 20
184.6730011160862
 30
0.0
 11
442.6783281057205
 21
-5.326998883913745
 31
0.0
  0
LINE
  5
75D9
330
18
100
AcDbEntity
  8
0
100
AcDbLine
 10
444.6783281057205
 20
184.6730011160862
 30
0.0
 11
444.6783281057205
 21
-5.326998883913745
 31
0.0
  0
LINE
  5
75DA
330
18
100
AcDbEntity
  8
0
100
AcDbLine
 10
441.6783281057205
 20
9.673001116086169
 30
0.0
 11
296.6783281057205
 21
9.673001116086197
 31
0.0
  0
LINE
  5
75DB
330
18
100
AcDbEntity
  8
0
100
AcDbLine
 10
370.6783281057205
 20
9.673001116086027
 30
0.0
 11
442.6783281057205
 21
9.673001116086254
 31
0.0
  0
ARC
  5
75DC
330
18
100
AcDbEntity
  8
0
 48
0.2
100
AcDbCircle
 10
260.7783281057204
 20
89.32300111608624
 30
0.0
 40
3.100000000000022
100
AcDbArc
 50
40.87863514651568
 51
180.0
  0
LINE
  5
75DD
330
18
100
AcDbEntity
  8
0
 48
0.2
100
AcDbLine
 10
278.6783281057203
 20
89.32300111608617
 30
0.0
 11
257.6783281057203
 21
89.32300111608617
 31
0.0
  0
ARC
  5
75DE
330
18
100
AcDbEntity
  8
0
 48
0.2
100
AcDbCircle
 10
260.7783281057206
 20
73.52300111608653
 30
0.0
 40
3.100000000000022
100
AcDbArc
 50
180.0
 51
319.1213648534843
  0
LINE
  5
75DF
330
18
100
AcDbEntity
  8
0
 48
0.2
100
AcDbLine
 10
278.6783281057205
 20
73.52300111608645
 30
0.0
 11
257.6783281057205
 21
73.52300111608622
 31
0.0
  0
LINE
  5
75E0
330
18
100
AcDbEntity
  8
0
100
AcDbLine
 10
75.13864623171321
 20
-5.326998883913915
 30
0.0
 11
55.88864623171321
 21
-5.326998883913688
 31
0.0
  0
LINE
  5
75E1
330
18
100
AcDbEntity
  8
0
100
AcDbLine
 10
47.8886462317132
 20
9.673001116086311
 30
0.0
 11
101.8886462317132
 21
9.673001116086311
 31
0.0
  0
LINE
  5
75E3
330
18
100
AcDbEntity
  8
0
100
AcDbLine
 10
55.88864623171321
 20
-5.326998883913688
 30
0.0
 11
54.88864623171321
 21
-4.326998883913688
 31
0.0
  0
LINE
  5
75E4
330
18
100
AcDbEntity
  8
0
100
AcDbLine
 10
54.88864623171321
 20
8.014688720908679
 30
0.0
 11
54.88864623171321
 21
-4.326998883913688
 31
0.0
  0
ARC
  5
75E5
330
18
100
AcDbEntity
  8
0
100
AcDbCircle
 10
57.38864623171321
 20
9.673001116086311
 30
0.0
 40
3.0
100
AcDbArc
 50
180.0
 51
0.0
  0
LINE
  5
75E6
330
18
100
AcDbEntity
  8
0
100
AcDbLine
 10
101.8886462317132
 20
-5.326998883913915
 30
0.0
 11
82.6386462317132
 21
-5.326998883913915
 31
0.0
  0
LINE
  5
75E7
330
18
100
AcDbEntity
  8
0
100
AcDbLine
 10
82.6386462317132
 20
-5.326998883913915
 30
0.0
 11
81.6386462317132
 21
-4.326998883913915
 31
0.0
  0
LINE
  5
75E9
330
18
100
AcDbEntity
  8
0
100
AcDbLine
 10
81.6386462317132
 20
-0.3269988839136886
 30
0.0
 11
81.6386462317132
 21
-4.326998883913915
 31
0.0
  0
LINE
  5
75EA
330
18
100
AcDbEntity
  8
0
100
AcDbLine
 10
76.13864623171321
 20
-0.3269988839136886
 30
0.0
 11
76.13864623171321
 21
-4.326998883913915
 31
0.0
  0
LINE
  5
75EB
330
18
100
AcDbEntity
  8
0
100
AcDbLine
 10
76.13864623171321
 20
-4.326998883913915
 30
0.0
 11
75.13864623171321
 21
-5.326998883913915
 31
0.0
  0
ARC
  5
75EC
330
18
100
AcDbEntity
  8
0
100
AcDbCircle
 10
78.88864623171321
 20
-0.326998883913916
 30
0.0
 40
2.75
100
AcDbArc
 50
0.0
 51
180.0
  0
LINE
  5
75EE
330
18
100
AcDbEntity
  8
0
100
AcDbLine
 10
102.8886462317132
 20
-4.326998883913915
 30
0.0
 11
101.8886462317132
 21
-5.326998883913915
 31
0.0
  0
LINE
  5
75EF
330
18
100
AcDbEntity
  8
0
100
AcDbLine
 10
102.8886462317132
 20
10.67300111608631
 30
0.0
 11
102.8886462317132
 21
-4.326998883913915
 31
0.0
  0
LINE
  5
75F5
330
18
100
AcDbEntity
  8
0
100
AcDbLine
 10
56.88864623171321
 20
18.67300111608637
 30
0.0
 11
56.88864623171321
 21
17.07300111608617
 31
0.0
  0
LINE
  5
75F6
330
18
100
AcDbEntity
  8
0
100
AcDbLine
 10
58.88864623171321
 20
17.07300111608617
 30
0.0
 11
54.88864623171321
 21
17.07300111608623
 31
0.0
  0
LINE
  5
75F7
330
18
100
AcDbEntity
  8
0
100
AcDbLine
 10
58.13864623171321
 20
15.87300111608624
 30
0.0
 11
55.63864623171321
 21
15.87300111608624
 31
0.0
  0
LINE
  5
75F8
330
18
100
AcDbEntity
  8
0
100
AcDbLine
 10
57.38864623171321
 20
14.67300111608625
 30
0.0
 11
56.38864623171321
 21
14.67300111608625
 31
0.0
  0
CIRCLE
  5
75F9
330
18
100
AcDbEntity
  8
0
100
AcDbCircle
 10
56.88864623171321
 20
16.67300111608631
 30
0.0
 40
3.0
  0
LINE
  5
7602
330
18
100
AcDbEntity
  8
0
 48
0.2
100
AcDbLine
 10
257.6783281057205
 20
73.52300111608645
 30
0.0
 11
257.6783281057203
 21
89.32300111608617
 31
0.0
  0
LINE
  5
7619
330
18
100
AcDbEntity
  8
0
100
AcDbLine
 10
295.6783281057205
 20
9.673001116086311
 30
0.0
 11
356.6783281057205
 21
9.673001116086254
 31
0.0
  0
LINE
  5
761A
330
18
100
AcDbEntity
  8
0
100
AcDbLine
 10
296.6783281057205
 20
9.673001116086197
 30
0.0
 11
295.6783281057205
 21
10.67300111608619
 31
0.0
  0
LINE
  5
761B
330
18
100
AcDbEntity
  8
0
100
AcDbLine
 10
293.6783281057205
 20
9.673001116086311
 30
0.0
 11
295.6783281057205
 21
9.673001116086311
 31
0.0
  0
ARC
  5
761C
330
18
100
AcDbEntity
  8
0
100
AcDbCircle
 10
363.6783281057205
 20
9.673001116086311
 30
0.0
 40
3.0
100
AcDbArc
 50
180.0
 51
0.0
  0
LINE
  5
7623
330
18
100
AcDbEntity
  8
0
 48
0.2
100
AcDbLine
 10
273.6783281057205
 20
73.52300111608645
 30
0.0
 11
273.6783281057203
 21
89.32300111608617
 31
0.0
  0
LINE
  5
7624
330
18
100
AcDbEntity
  8
0
 48
0.2
100
AcDbLine
 10
278.6783281057205
 20
73.52300111608645
 30
0.0
 11
278.6783281057203
 21
89.32300111608617
 31
0.0
  0
LINE
  5
7626
330
18
100
AcDbEntity
  8
0
100
AcDbLine
 10
284.1783281057205
 20
112.5730011160864
 30
0.0
 11
284.1783281057205
 21
61.77300111608651
 31
0.0
  0
LINE
  5
7627
330
18
100
AcDbEntity
  8
0
100
AcDbLine
 10
285.6783281057205
 20
112.5730011160864
 30
0.0
 11
285.6783281057205
 21
61.77300111608651
 31
0.0
  0
LINE
  5
7628
330
18
100
AcDbEntity
  8
0
100
AcDbLine
 10
293.6783281057205
 20
112.5730011160863
 30
0.0
 11
293.6783281057205
 21
61.77300111608627
 31
0.0
  0
LINE
  5
7629
330
18
100
AcDbEntity
  8
0
100
AcDbLine
 10
292.9783281057205
 20
112.5730011160863
 30
0.0
 11
292.9783281057202
 21
61.77300111608627
 31
0.0
  0
LINE
  5
762A
330
18
100
AcDbEntity
  8
0
 48
0.2
100
AcDbLine
 10
280.9283281057205
 20
73.68806462554755
 30
0.0
 11
283.4283281057205
 21
73.68806462554755
 31
0.0
  0
LINE
  5
762B
330
18
100
AcDbEntity
  8
0
 48
0.2
100
AcDbLine
 10
280.783990538423
 20
73.93806462554755
 30
0.0
 11
283.572665673018
 21
73.93806462554755
 31
0.0
  0
CIRCLE
  5
762C
330
18
100
AcDbEntity
  8
0
 48
0.2
100
AcDbCircle
 10
282.1783281057205
 20
71.5230011160865
 30
0.0
 40
1.5
  0
LINE
  5
762D
330
18
100
AcDbEntity
  8
0
 48
0.2
100
AcDbLine
 10
280.9283281057205
 20
69.35793760662534
 30
0.0
 11
283.4283281057205
 21
69.35793760662534
 31
0.0
  0
LINE
  5
762E
330
18
100
AcDbEntity
  8
0
 48
0.2
100
AcDbLine
 10
280.783990538423
 20
69.10793760662534
 30
0.0
 11
283.572665673018
 21
69.10793760662534
 31
0.0
  0
LINE
  5
762F
330
18
100
AcDbEntity
  8
0
 48
0.2
100
AcDbLine
 10
293.6783281057205
 20
64.77300111608625
 30
0.0
 11
272.8783281057203
 21
64.77300111608645
 31
0.0
  0
LINE
  5
7630
330
18
100
AcDbEntity
  8
0
 48
0.2
100
AcDbLine
 10
279.6783281057205
 20
71.52300111608645
 30
0.0
 11
280.9283281057205
 21
69.35793760662534
 31
0.0
  0
LINE
  5
7631
330
18
100
AcDbEntity
  8
0
 48
0.2
100
AcDbLine
 10
279.3896529711257
 20
71.52300111608645
 30
0.0
 11
280.783990538423
 21
69.10793760662534
 31
0.0
  0
LINE
  5
7632
330
18
100
AcDbEntity
  8
0
 48
0.2
100
AcDbLine
 10
279.6783281057205
 20
71.52300111608645
 30
0.0
 11
280.9283281057205
 21
73.68806462554755
 31
0.0
  0
LINE
  5
7633
330
18
100
AcDbEntity
  8
0
 48
0.2
100
AcDbLine
 10
279.3896529711257
 20
71.52300111608645
 30
0.0
 11
280.783990538423
 21
73.93806462554755
 31
0.0
  0
LINE
  5
7634
330
18
100
AcDbEntity
  8
0
 48
0.2
100
AcDbLine
 10
264.8783281057205
 20
73.52300111608645
 30
0.0
 11
263.1222305447449
 21
71.49417846333051
 31
0.0
  0
LINE
  5
7635
330
18
100
AcDbEntity
  8
0
 48
0.2
100
AcDbLine
 10
268.8783281057205
 20
73.52300111608645
 30
0.0
 11
272.8783281057205
 21
70.42300111608631
 31
0.0
  0
ARC
  5
7636
330
18
100
AcDbEntity
  8
0
 48
0.2
100
AcDbCircle
 10
274.0483281057204
 20
67.37300111608641
 30
0.0
 40
2.669999999999886
100
AcDbArc
 50
115.9892335838278
 51
244.0107664161721
  0
LINE
  5
7637
330
18
100
AcDbEntity
  8
0
 48
0.2
100
AcDbLine
 10
272.8783281057203
 20
64.77300111608645
 30
0.0
 11
272.8783281057203
 21
70.42300111608631
 31
0.0
  0
LINE
  5
7638
330
18
100
AcDbEntity
  8
0
100
AcDbLine
 10
287.8679829259533
 20
68.2069200050314
 30
0.0
 11
290.6644092167752
 21
71.00334629585336
 31
0.0
  0
LINE
  5
7639
330
18
100
AcDbEntity
  8
0
100
AcDbLine
 10
288.2922469946652
 20
67.78265593631954
 30
0.0
 11
291.0886732854871
 21
70.57908222714144
 31
0.0
  0
CIRCLE
  5
763A
330
18
100
AcDbEntity
  8
0
100
AcDbCircle
 10
289.4783281057202
 20
69.39300111608645
 30
0.0
 40
2.0
  0
CIRCLE
  5
763B
330
18
100
AcDbEntity
  8
0
100
AcDbCircle
 10
289.4783281057202
 20
74.47300111608644
 30
0.0
 40
2.0
  0
LINE
  5
763C
330
18
100
AcDbEntity
  8
0
100
AcDbLine
 10
288.2922469946652
 20
72.86265593631952
 30
0.0
 11
291.0886732854871
 21
75.65908222714142
 31
0.0
  0
LINE
  5
763D
330
18
100
AcDbEntity
  8
0
100
AcDbLine
 10
287.8679829259533
 20
73.28692000503139
 30
0.0
 11
290.6644092167752
 21
76.08334629585335
 31
0.0
  0
LINE
  5
763E
330
18
100
AcDbEntity
  8
0
100
AcDbLine
 10
288.2922469946652
 20
62.70265593631956
 30
0.0
 11
291.0886732854871
 21
65.49908222714146
 31
0.0
  0
LINE
  5
763F
330
18
100
AcDbEntity
  8
0
100
AcDbLine
 10
287.8679829259533
 20
63.12692000503142
 30
0.0
 11
290.6644092167752
 21
65.92334629585337
 31
0.0
  0
CIRCLE
  5
7641
330
18
100
AcDbEntity
  8
0
100
AcDbCircle
 10
289.4783281057202
 20
64.31300111608647
 30
0.0
 40
2.0
  0
LINE
  5
7642
330
18
100
AcDbEntity
  8
0
 48
0.2
100
AcDbLine
 10
283.4283281057205
 20
69.35793760662534
 30
0.0
 11
284.6783281057205
 21
71.52300111608645
 31
0.0
  0
LINE
  5
7643
330
18
100
AcDbEntity
  8
0
 48
0.2
100
AcDbLine
 10
283.572665673018
 20
69.10793760662534
 30
0.0
 11
284.9670032403153
 21
71.52300111608645
 31
0.0
  0
LINE
  5
7644
330
18
100
AcDbEntity
  8
0
 48
0.2
100
AcDbLine
 10
284.6783281057205
 20
71.52300111608645
 30
0.0
 11
283.4283281057205
 21
73.68806462554755
 31
0.0
  0
LINE
  5
7645
330
18
100
AcDbEntity
  8
0
 48
0.2
100
AcDbLine
 10
284.9670032403153
 20
71.52300111608645
 30
0.0
 11
283.572665673018
 21
73.93806462554755
 31
0.0
  0
LINE
  5
7646
330
18
100
AcDbEntity
  8
0
100
AcDbLine
 10
293.6783281057205
 20
61.77300111608627
 30
0.0
 11
284.1783281057205
 21
61.77300111608651
 31
0.0
  0
LINE
  5
7656
330
18
100
AcDbEntity
  8
0
100
AcDbLine
 10
288.2922469946654
 20
108.4226559363194
 30
0.0
 11
291.0886732854874
 21
111.2190822271413
 31
0.0
  0
CIRCLE
  5
7657
330
18
100
AcDbEntity
  8
0
100
AcDbCircle
 10
289.4783281057204
 20
110.0330011160863
 30
0.0
 40
2.0
  0
LINE
  5
7658
330
18
100
AcDbEntity
  8
0
 48
0.2
100
AcDbLine
 10
293.6783281057205
 20
98.07300111608618
 30
0.0
 11
272.8783281057203
 21
98.07300111608618
 31
0.0
  0
LINE
  5
7659
330
18
100
AcDbEntity
  8
0
 48
0.2
100
AcDbLine
 10
280.783990538423
 20
93.73806462554728
 30
0.0
 11
283.572665673018
 21
93.73806462554728
 31
0.0
  0
LINE
  5
765A
330
18
100
AcDbEntity
  8
0
 48
0.2
100
AcDbLine
 10
280.9283281057205
 20
93.48806462554728
 30
0.0
 11
283.4283281057205
 21
93.48806462554728
 31
0.0
  0
LINE
  5
765B
330
18
100
AcDbEntity
  8
0
 48
0.2
100
AcDbLine
 10
280.783990538423
 20
88.90793760662507
 30
0.0
 11
283.572665673018
 21
88.90793760662507
 31
0.0
  0
LINE
  5
765C
330
18
100
AcDbEntity
  8
0
 48
0.2
100
AcDbLine
 10
280.9283281057205
 20
89.15793760662507
 30
0.0
 11
283.4283281057205
 21
89.15793760662507
 31
0.0
  0
CIRCLE
  5
765D
330
18
100
AcDbEntity
  8
0
 48
0.2
100
AcDbCircle
 10
282.1783281057205
 20
91.32300111608623
 30
0.0
 40
1.5
  0
LINE
  5
765E
330
18
100
AcDbEntity
  8
0
 48
0.2
100
AcDbLine
 10
279.3896529711257
 20
91.32300111608618
 30
0.0
 11
280.783990538423
 21
88.90793760662507
 31
0.0
  0
LINE
  5
765F
330
18
100
AcDbEntity
  8
0
 48
0.2
100
AcDbLine
 10
279.6783281057205
 20
91.32300111608618
 30
0.0
 11
280.9283281057205
 21
89.15793760662507
 31
0.0
  0
LINE
  5
7660
330
18
100
AcDbEntity
  8
0
 48
0.2
100
AcDbLine
 10
279.3896529711257
 20
91.32300111608618
 30
0.0
 11
280.783990538423
 21
93.73806462554728
 31
0.0
  0
LINE
  5
7661
330
18
100
AcDbEntity
  8
0
 48
0.2
100
AcDbLine
 10
279.6783281057205
 20
91.32300111608618
 30
0.0
 11
280.9283281057205
 21
93.48806462554728
 31
0.0
  0
LINE
  5
7662
330
18
100
AcDbEntity
  8
0
 48
0.2
100
AcDbLine
 10
264.8783281057203
 20
89.32300111608617
 30
0.0
 11
263.1222305447449
 21
91.35182376884211
 31
0.0
  0
LINE
  5
7663
330
18
100
AcDbEntity
  8
0
 48
0.2
100
AcDbLine
 10
268.8783281057203
 20
89.32300111608617
 30
0.0
 11
272.8783281057203
 21
92.42300111608608
 31
0.0
  0
ARC
  5
7664
330
18
100
AcDbEntity
  8
0
 48
0.2
100
AcDbCircle
 10
274.0483281057202
 20
95.47300111608633
 30
0.0
 40
2.669999999999886
100
AcDbArc
 50
115.9892335838278
 51
244.0107664161721
  0
LINE
  5
7665
330
18
100
AcDbEntity
  8
0
 48
0.2
100
AcDbLine
 10
272.8783281057203
 20
92.42300111608631
 30
0.0
 11
272.8783281057203
 21
98.07300111608618
 31
0.0
  0
LINE
  5
7666
330
18
100
AcDbEntity
  8
0
100
AcDbLine
 10
287.8679829259535
 20
103.7669200050312
 30
0.0
 11
290.6644092167752
 21
106.5633462958532
 31
0.0
  0
LINE
  5
7667
330
18
100
AcDbEntity
  8
0
100
AcDbLine
 10
288.2922469946654
 20
103.3426559363194
 30
0.0
 11
291.0886732854874
 21
106.1390822271413
 31
0.0
  0
CIRCLE
  5
7668
330
18
100
AcDbEntity
  8
0
100
AcDbCircle
 10
289.4783281057204
 20
104.9530011160863
 30
0.0
 40
2.0
  0
LINE
  5
7669
330
18
100
AcDbEntity
  8
0
100
AcDbLine
 10
287.8679829259535
 20
98.68692000503131
 30
0.0
 11
290.6644092167752
 21
101.4833462958532
 31
0.0
  0
LINE
  5
766A
330
18
100
AcDbEntity
  8
0
100
AcDbLine
 10
288.2922469946654
 20
98.26265593631944
 30
0.0
 11
291.0886732854874
 21
101.0590822271413
 31
0.0
  0
CIRCLE
  5
766B
330
18
100
AcDbEntity
  8
0
100
AcDbCircle
 10
289.4783281057204
 20
99.87300111608636
 30
0.0
 40
2.0
  0
LINE
  5
766C
330
18
100
AcDbEntity
  8
0
100
AcDbLine
 10
288.2922469946654
 20
88.10265593631948
 30
0.0
 11
291.0886732854874
 21
90.89908222714138
 31
0.0
  0
LINE
  5
766D
330
18
100
AcDbEntity
  8
0
100
AcDbLine
 10
287.8679829259535
 20
88.52692000503134
 30
0.0
 11
290.6644092167752
 21
91.32334629585329
 31
0.0
  0
LINE
  5
766E
330
18
100
AcDbEntity
  8
0
100
AcDbLine
 10
287.8679829259533
 20
83.44692000503135
 30
0.0
 11
290.6644092167752
 21
86.24334629585332
 31
0.0
  0
LINE
  5
766F
330
18
100
AcDbEntity
  8
0
100
AcDbLine
 10
288.2922469946652
 20
83.02265593631949
 30
0.0
 11
291.0886732854871
 21
85.81908222714139
 31
0.0
  0
CIRCLE
  5
7670
330
18
100
AcDbEntity
  8
0
100
AcDbCircle
 10
289.4783281057202
 20
84.6330011160864
 30
0.0
 40
2.0
  0
CIRCLE
  5
7671
330
18
100
AcDbEntity
  8
0
100
AcDbCircle
 10
289.4783281057204
 20
89.71300111608639
 30
0.0
 40
2.0
  0
LINE
  5
7672
330
18
100
AcDbEntity
  8
0
100
AcDbLine
 10
288.2922469946652
 20
77.94265593631951
 30
0.0
 11
291.0886732854871
 21
80.73908222714141
 31
0.0
  0
LINE
  5
7673
330
18
100
AcDbEntity
  8
0
100
AcDbLine
 10
287.8679829259533
 20
78.36692000503138
 30
0.0
 11
290.6644092167752
 21
81.16334629585333
 31
0.0
  0
CIRCLE
  5
7674
330
18
100
AcDbEntity
  8
0
100
AcDbCircle
 10
289.4783281057202
 20
79.55300111608642
 30
0.0
 40
2.0
  0
LINE
  5
7675
330
18
100
AcDbEntity
  8
0
 48
0.2
100
AcDbLine
 10
284.9670032403153
 20
91.32300111608618
 30
0.0
 11
283.572665673018
 21
88.90793760662507
 31
0.0
  0
LINE
  5
7676
330
18
100
AcDbEntity
  8
0
 48
0.2
100
AcDbLine
 10
284.6783281057205
 20
91.32300111608618
 30
0.0
 11
283.4283281057205
 21
89.15793760662507
 31
0.0
  0
LINE
  5
7677
330
18
100
AcDbEntity
  8
0
 48
0.2
100
AcDbLine
 10
283.572665673018
 20
93.73806462554728
 30
0.0
 11
284.9670032403153
 21
91.32300111608618
 31
0.0
  0
LINE
  5
7678
330
18
100
AcDbEntity
  8
0
 48
0.2
100
AcDbLine
 10
283.4283281057205
 20
93.48806462554728
 30
0.0
 11
284.6783281057205
 21
91.32300111608618
 31
0.0
  0
LINE
  5
7679
330
18
100
AcDbEntity
  8
0
100
AcDbLine
 10
287.8679829259535
 20
93.60692000503133
 30
0.0
 11
290.6644092167752
 21
96.40334629585328
 31
0.0
  0
LINE
  5
767A
330
18
100
AcDbEntity
  8
0
100
AcDbLine
 10
288.2922469946654
 20
93.18265593631947
 30
0.0
 11
291.0886732854874
 21
95.97908222714137
 31
0.0
  0
CIRCLE
  5
767B
330
18
100
AcDbEntity
  8
0
100
AcDbCircle
 10
289.4783281057204
 20
94.79300111608637
 30
0.0
 40
2.0
  0
CIRCLE
  5
767C
330
18
100
AcDbEntity
  8
0
100
AcDbCircle
 10
289.4783281057204
 20
134.5730011160864
 30
0.0
 40
2.0
  0
LINE
  5
767D
330
18
100
AcDbEntity
  8
0
100
AcDbLine
 10
288.2922469946654
 20
132.9626559363194
 30
0.0
 11
291.0886732854874
 21
135.7590822271413
 31
0.0
  0
LINE
  5
767E
330
18
100
AcDbEntity
  8
0
100
AcDbLine
 10
287.8679829259535
 20
133.3869200050313
 30
0.0
 11
290.6644092167752
 21
136.1833462958533
 31
0.0
  0
LINE
  5
767F
330
18
100
AcDbEntity
  8
0
100
AcDbLine
 10
287.8679829259535
 20
108.8469200050312
 30
0.0
 11
290.6644092167752
 21
111.6433462958532
 31
0.0
  0
LINE
  5
7680
330
18
100
AcDbEntity
  8
0
100
AcDbLine
 10
293.6783281057205
 20
112.5730011160863
 30
0.0
 11
284.1783281057205
 21
112.5730011160864
 31
0.0
  0
LINE
  5
7681
330
18
100
AcDbEntity
  8
0
100
AcDbLine
 10
293.6783281057202
 20
132.0730011160862
 30
0.0
 11
284.1783281057203
 21
132.0730011160865
 31
0.0
  0
LINE
  5
76EA
330
18
100
AcDbEntity
  8
0
100
AcDbLine
 10
441.6783281057205
 20
9.673001116086169
 30
0.0
 11
442.6783281057205
 21
10.67300111608616
 31
0.0
  0
LINE
  5
76EB
330
18
100
AcDbEntity
  8
0
100
AcDbLine
 10
442.6783281057205
 20
-5.326998883913745
 30
0.0
 11
444.6783281057205
 21
-5.326998883913745
 31
0.0
  0
LINE
  5
7744
330
18
100
AcDbEntity
  8
0
100
AcDbLine
 10
296.6783281057205
 20
169.6730011160864
 30
0.0
 11
441.6783281057205
 21
169.6730011160864
 31
0.0
  0
LINE
  5
7746
330
18
100
AcDbEntity
  8
0
100
AcDbLine
 10
376.1783281057205
 20
169.6730011160863
 30
0.0
 11
442.6783281057205
 21
169.6730011160862
 31
0.0
  0
LINE
  5
774B
330
18
100
AcDbEntity
  8
0
100
AcDbLine
 10
74.1386462317132
 20
184.6730011160863
 30
0.0
 11
53.88864623171333
 21
184.6730011160865
 31
0.0
  0
LINE
  5
774D
330
18
100
AcDbEntity
  8
0
100
AcDbLine
 10
47.8886462317132
 20
169.6730011160863
 30
0.0
 11
101.8886462317132
 21
169.6730011160863
 31
0.0
  0
ARC
  5
7752
330
18
100
AcDbEntity
  8
0
100
AcDbCircle
 10
57.38864623171321
 20
169.6730011160863
 30
0.0
 40
3.0
100
AcDbArc
 50
0.0
 51
180.0
  0
LINE
  5
7755
330
18
100
AcDbEntity
  8
0
100
AcDbLine
 10
53.88864623171333
 20
184.6730011160865
 30
0.0
 11
52.88864623171332
 21
183.6730011160865
 31
0.0
  0
LINE
  5
7757
330
18
100
AcDbEntity
  8
0
100
AcDbLine
 10
101.8886462317132
 20
184.6730011160863
 30
0.0
 11
81.6386462317132
 21
184.6730011160863
 31
0.0
  0
LINE
  5
775C
330
18
100
AcDbEntity
  8
0
100
AcDbLine
 10
81.6386462317132
 20
184.6730011160863
 30
0.0
 11
80.63864623171321
 21
183.6730011160863
 31
0.0
  0
LINE
  5
775D
330
18
100
AcDbEntity
  8
0
100
AcDbLine
 10
75.13864623171321
 20
183.6730011160863
 30
0.0
 11
74.1386462317132
 21
184.6730011160863
 31
0.0
  0
ARC
  5
775E
330
18
100
AcDbEntity
  8
0
100
AcDbCircle
 10
77.8886462317132
 20
179.6730011160865
 30
0.0
 40
2.75
100
AcDbArc
 50
180.0
 51
0.0
  0
LINE
  5
775F
330
18
100
AcDbEntity
  8
0
100
AcDbLine
 10
80.63864623171321
 20
179.6730011160863
 30
0.0
 11
80.63864623171321
 21
183.6730011160863
 31
0.0
  0
LINE
  5
7760
330
18
100
AcDbEntity
  8
0
100
AcDbLine
 10
75.13864623171321
 20
179.6730011160863
 30
0.0
 11
75.13864623171321
 21
183.6730011160863
 31
0.0
  0
LINE
  5
7761
330
18
100
AcDbEntity
  8
0
100
AcDbLine
 10
102.8886462317132
 20
168.6730011160863
 30
0.0
 11
102.8886462317132
 21
183.6730011160863
 31
0.0
  0
LINE
  5
7763
330
18
100
AcDbEntity
  8
0
100
AcDbLine
 10
102.8886462317132
 20
183.6730011160863
 30
0.0
 11
101.8886462317132
 21
184.6730011160863
 31
0.0
  0
LINE
  5
776E
330
18
100
AcDbEntity
  8
0
100
AcDbLine
 10
293.6783281057205
 20
169.6730011160865
 30
0.0
 11
362.1783281057205
 21
169.6730011160863
 31
0.0
  0
LINE
  5
7772
330
18
100
AcDbEntity
  8
0
100
AcDbLine
 10
295.6783281057205
 20
168.6730011160864
 30
0.0
 11
296.6783281057205
 21
169.6730011160864
 31
0.0
  0
LINE
  5
7773
330
18
100
AcDbEntity
  8
0
100
AcDbLine
 10
293.6783281057205
 20
169.6730011160863
 30
0.0
 11
295.6783281057205
 21
169.6730011160863
 31
0.0
  0
LINE
  5
7774
330
18
100
AcDbEntity
  8
0
100
AcDbLine
 10
288.2922469946654
 20
143.1226559363194
 30
0.0
 11
291.0886732854874
 21
145.9190822271412
 31
0.0
  0
CIRCLE
  5
7775
330
18
100
AcDbEntity
  8
0
100
AcDbCircle
 10
289.4783281057204
 20
144.7330011160863
 30
0.0
 40
2.0
  0
LINE
  5
7776
330
18
100
AcDbEntity
  8
0
100
AcDbLine
 10
287.8679829259535
 20
143.5469200050313
 30
0.0
 11
290.6644092167752
 21
146.3433462958532
 31
0.0
  0
LINE
  5
7777
330
18
100
AcDbEntity
  8
0
100
AcDbLine
 10
293.6783281057205
 20
147.2730011160863
 30
0.0
 11
284.1783281057205
 21
147.2730011160864
 31
0.0
  0
ARC
  5
77EC
330
18
100
AcDbEntity
  8
0
100
AcDbCircle
 10
369.1783281057205
 20
169.6730011160863
 30
0.0
 40
3.0
100
AcDbArc
 50
0.0
 51
180.0
  0
LINE
  5
790D
330
18
100
AcDbEntity
  8
0
100
AcDbLine
 10
441.6783281057205
 20
169.6730011160864
 30
0.0
 11
442.6783281057205
 21
168.6730011160864
 31
0.0
  0
LINE
  5
7911
330
18
100
AcDbEntity
  8
0
100
AcDbLine
 10
442.6783281057205
 20
184.6730011160862
 30
0.0
 11
444.6783281057205
 21
184.6730011160862
 31
0.0
  0
LINE
  5
7A8F
330
18
100
AcDbEntity
  8
0
100
AcDbLine
 10
79.55531289837995
 20
14.09101221861453
 30
0.0
 11
79.55531289837995
 21
16.00633444941957
 31
0.0
  0
LINE
  5
7A90
330
18
100
AcDbEntity
  8
0
100
AcDbLine
 10
78.22197956504658
 20
14.09101221861453
 30
0.0
 11
78.22197956504658
 21
16.00633444941957
 31
0.0
  0
CIRCLE
  5
7A91
330
18
100
AcDbEntity
  8
0
100
AcDbCircle
 10
78.88864623171321
 20
16.67300111608631
 30
0.0
 40
3.333333333333333
  0
CIRCLE
  5
7A92
330
18
100
AcDbEntity
  8
0
100
AcDbCircle
 10
78.88864623171321
 20
16.67300111608631
 30
0.0
 40
4.0
  0
ARC
  5
7A93
330
18
100
AcDbEntity
  8
0
100
AcDbCircle
 10
78.88864623171321
 20
16.67300111608631
 30
0.0
 40
2.666666666666666
100
AcDbArc
 50
255.52248781407
 51
284.4775121859298
  0
LINE
  5
7A94
330
18
100
AcDbEntity
  8
0
100
AcDbLine
 10
76.30665733424212
 20
16.00633444941957
 30
0.0
 11
78.22197956504658
 21
16.00633444941957
 31
0.0
  0
LINE
  5
7A95
330
18
100
AcDbEntity
  8
0
100
AcDbLine
 10
76.30665733424212
 20
17.33966778275305
 30
0.0
 11
78.22197956504658
 21
17.33966778275305
 31
0.0
  0
ARC
  5
7A97
330
18
100
AcDbEntity
  8
0
100
AcDbCircle
 10
78.88864623171321
 20
16.67300111608631
 30
0.0
 40
2.666666666666666
100
AcDbArc
 50
345.5224878140705
 51
14.47751218592947
  0
LINE
  5
7A98
330
18
100
AcDbEntity
  8
0
100
AcDbLine
 10
79.55531289837995
 20
16.00633444941957
 30
0.0
 11
81.47063512918498
 21
16.00633444941957
 31
0.0
  0
LINE
  5
7A99
330
18
100
AcDbEntity
  8
0
100
AcDbLine
 10
79.55531289837995
 20
17.33966778275305
 30
0.0
 11
79.55531289837995
 21
19.25499001355808
 31
0.0
  0
LINE
  5
7A9A
330
18
100
AcDbEntity
  8
0
100
AcDbLine
 10
79.55531289837995
 20
17.33966778275305
 30
0.0
 11
81.47063512918498
 21
17.33966778275305
 31
0.0
  0
LINE
  5
7A9B
330
18
100
AcDbEntity
  8
0
100
AcDbLine
 10
78.22197956504658
 20
17.33966778275305
 30
0.0
 11
78.22197956504658
 21
19.25499001355808
 31
0.0
  0
LINE
  5
7A9D
330
18
100
AcDbEntity
  8
0
100
AcDbLine
 10
68.55531289837995
 20
14.09101221861453
 30
0.0
 11
68.55531289837995
 21
16.00633444941957
 31
0.0
  0
LINE
  5
7A9E
330
18
100
AcDbEntity
  8
0
100
AcDbLine
 10
67.22197956504658
 20
14.09101221861453
 30
0.0
 11
67.22197956504658
 21
16.00633444941957
 31
0.0
  0
CIRCLE
  5
7A9F
330
18
100
AcDbEntity
  8
0
100
AcDbCircle
 10
67.8886462317132
 20
16.67300111608631
 30
0.0
 40
3.333333333333333
  0
CIRCLE
  5
7AA0
330
18
100
AcDbEntity
  8
0
100
AcDbCircle
 10
67.8886462317132
 20
16.67300111608631
 30
0.0
 40
4.0
  0
ARC
  5
7AA1
330
18
100
AcDbEntity
  8
0
100
AcDbCircle
 10
67.8886462317132
 20
16.67300111608631
 30
0.0
 40
2.666666666666666
100
AcDbArc
 50
255.52248781407
 51
284.4775121859298
  0
LINE
  5
7AA2
330
18
100
AcDbEntity
  8
0
100
AcDbLine
 10
65.30665733424211
 20
16.00633444941957
 30
0.0
 11
67.22197956504658
 21
16.00633444941957
 31
0.0
  0
LINE
  5
7AA3
330
18
100
AcDbEntity
  8
0
100
AcDbLine
 10
65.30665733424211
 20
17.33966778275305
 30
0.0
 11
67.22197956504658
 21
17.33966778275305
 31
0.0
  0
ARC
  5
7AA4
330
18
100
AcDbEntity
  8
0
100
AcDbCircle
 10
67.8886462317132
 20
16.67300111608631
 30
0.0
 40
2.666666666666666
100
AcDbArc
 50
165.5224878140705
 51
194.4775121859294
  0
ARC
  5
7AA5
330
18
100
AcDbEntity
  8
0
100
AcDbCircle
 10
67.8886462317132
 20
16.67300111608631
 30
0.0
 40
2.666666666666666
100
AcDbArc
 50
345.5224878140705
 51
14.47751218592947
  0
LINE
  5
7AA6
330
18
100
AcDbEntity
  8
0
100
AcDbLine
 10
68.55531289837995
 20
16.00633444941957
 30
0.0
 11
70.47063512918498
 21
16.00633444941957
 31
0.0
  0
LINE
  5
7AA7
330
18
100
AcDbEntity
  8
0
100
AcDbLine
 10
68.55531289837995
 20
17.33966778275305
 30
0.0
 11
68.55531289837995
 21
19.25499001355808
 31
0.0
  0
LINE
  5
7AA8
330
18
100
AcDbEntity
  8
0
100
AcDbLine
 10
68.55531289837995
 20
17.33966778275305
 30
0.0
 11
70.47063512918498
 21
17.33966778275305
 31
0.0
  0
LINE
  5
7AA9
330
18
100
AcDbEntity
  8
0
100
AcDbLine
 10
67.22197956504658
 20
17.33966778275305
 30
0.0
 11
67.22197956504658
 21
19.25499001355808
 31
0.0
  0
ARC
  5
7AAA
330
18
100
AcDbEntity
  8
0
100
AcDbCircle
 10
67.8886462317132
 20
16.67300111608631
 30
0.0
 40
2.666666666666666
100
AcDbArc
 50
75.52248781407008
 51
104.4775121859299
  0
LINE
  5
7B05
330
18
100
AcDbEntity
  8
0
100
AcDbLine
 10
47.8886462317132
 20
169.6730011160863
 30
0.0
 11
47.8886462317132
 21
9.673001116086311
 31
0.0
  0
LINE
  5
7B5F
330
18
100
AcDbEntity
  8
0
100
AcDbLine
 10
52.88864623171332
 20
183.6730011160865
 30
0.0
 11
52.88864623171332
 21
169.6730011160862
 31
0.0
  0
ARC
  5
7CAE
330
18
100
AcDbEntity
  8
0
100
AcDbCircle
 10
291.2783281057203
 20
14.93966778275292
 30
0.0
 40
1.599999999999999
100
AcDbArc
 50
180.0
 51
270.0
  0
ARC
  5
7CAF
330
18
100
AcDbEntity
  8
0
100
AcDbCircle
 10
291.2783281057203
 20
18.4063344494195
 30
0.0
 40
1.599999999999999
100
AcDbArc
 50
90.0
 51
180.0
  0
LINE
  5
7CB0
330
18
100
AcDbEntity
  8
0
100
AcDbLine
 10
289.6783281057205
 20
18.40633444941977
 30
0.0
 11
289.6783281057205
 21
14.93966778275324
 31
0.0
  0
LWPOLYLINE
  5
7CB1
330
18
100
AcDbEntity
  8
0
100
AcDbPolyline
 90
        4
 70
     1
 43
0.0
 10
293.0116614390539
 20
20.6730011160862
 10
293.0116614390539
 20
12.67300111608619
 10
293.6783281057205
 20
12.67300111608619
 10
293.6783281057205
 20
20.6730011160862
  0
LWPOLYLINE
  5
7CB2
330
18
100
AcDbEntity
  8
0
100
AcDbPolyline
 90
        4
 70
     1
 43
0.0
 10
292.3449947723872
 20
20.00633444941951
 10
292.3449947723872
 20
13.33966778275282
 10
293.0116614390539
 20
13.33966778275282
 10
293.0116614390539
 20
20.00633444941951
  0
LINE
  5
7CB3
330
18
100
AcDbEntity
  8
0
100
AcDbLine
 10
291.2783281057203
 20
13.33966778275288
 30
0.0
 11
292.3449947723872
 21
13.33966778275288
 31
0.0
  0
LINE
  5
7CB4
330
18
100
AcDbEntity
  8
0
100
AcDbLine
 10
292.3449947723872
 20
20.00633444941951
 30
0.0
 11
291.2783281057203
 21
20.00633444941951
 31
0.0
  0
LINE
  5
7E7C
330
18
100
AcDbEntity
  8
0
100
AcDbLine
 10
78.88864623171321
 20
114.1730011160865
 30
0.0
 11
78.88864623171116
 21
97.17300111608665
 31
0.0
  0
INSERT
  5
7E7D
330
18
100
AcDbEntity
  8
0
100
AcDbBlockReference
  2
A$C5A3A0BB0
 10
61.83492890527805
 20
61.45447746838261
 30
0.0
  0
MTEXT
  5
7E7E
330
18
100
AcDbEntity
  8
0
100
AcDbMText
 10
55.04700231137542
 20
96.62954948763776
 30
0.0
 40
3.0
 41
4.654799999999999
 71
     1
 72
     5
  1
B1
  7
MSｺﾞｼｯｸ
 73
     1
 44
1.0
  0
MTEXT
  5
7E7F
330
18
100
AcDbEntity
  8
0
100
AcDbMText
 10
53.57999238031528
 20
63.96455254937382
 30
0.0
 40
3.0
 41
4.654799999999999
 71
     1
 72
     5
  1
DBC
  7
MSｺﾞｼｯｸ
 73
     1
 44
1.0
  0
MTEXT
  5
7E80
330
18
100
AcDbEntity
  8
0
100
AcDbMText
 10
53.61462781820603
 20
69.28076777942806
 30
0.0
 40
3.0
 41
4.654799999999999
 71
     1
 72
     5
  1
DBK
  7
MSｺﾞｼｯｸ
 73
     1
 44
1.0
  0
MTEXT
  5
7E81
330
18
100
AcDbEntity
  8
0
100
AcDbMText
 10
55.7066374580678
 20
74.5535036589705
 30
0.0
 40
3.0
 41
4.654799999999999
 71
     1
 72
     5
  1
W
  7
MSｺﾞｼｯｸ
 73
     1
 44
1.0
  0
MTEXT
  5
7E82
330
18
100
AcDbEntity
  8
0
100
AcDbMText
 10
55.19358587201043
 20
91.28164493268071
 30
0.0
 40
3.0
 41
4.654799999999999
 71
     1
 72
     5
  1
B2
  7
MSｺﾞｼｯｸ
 73
     1
 44
1.0
  0
MTEXT
  5
7E83
330
18
100
AcDbEntity
  8
0
100
AcDbMText
 10
56.14640030508747
 20
85.24931655659305
 30
0.0
 40
3.0
 41
4.654799999999999
 71
     1
 72
     5
  1
U
  7
MSｺﾞｼｯｸ
 73
     1
 44
1.0
  0
MTEXT
  5
7E84
330
18
100
AcDbEntity
  8
0
100
AcDbMText
 10
56.07311156604794
 20
79.74931655659304
 30
0.0
 40
3.0
 41
4.654799999999999
 71
     1
 72
     5
  1
V
  7
MSｺﾞｼｯｸ
 73
     1
 44
1.0
  0
MTEXT
  5
7E85
330
18
100
AcDbEntity
  8
0
100
AcDbMText
 10
55.34216337146529
 20
102.0525085063603
 30
0.0
 40
3.0
 41
4.654799999999999
 71
     1
 72
     5
  1
(T)
  7
MSｺﾞｼｯｸ
 73
     1
 44
1.0
  0
MTEXT
  5
7E86
330
18
100
AcDbEntity
  8
0
100
AcDbMText
 10
81.60153088398999
 20
81.9359211724128
 30
0.0
 40
2.399999999999999
 41
7.047999999999999
 71
     3
 72
     5
  1
CN2
  7
MSｺﾞｼｯｸ
 73
     1
 44
1.0
  0
MTEXT
  5
7E87
330
18
100
AcDbEntity
  8
0
100
AcDbMText
 10
80.64697683937936
 20
95.49601695951389
 30
0.0
 40
2.399999999999999
 41
7.047999999999999
 71
     3
 72
     5
  1
J2
  7
MSｺﾞｼｯｸ
 73
     1
 44
1.0
  0
LINE
  5
7E88
330
18
100
AcDbEntity
  8
0
100
AcDbLine
 10
81.88864623171639
 20
97.17300111608631
 30
0.0
 11
78.88864623171116
 21
97.17300111608665
 31
0.0
  0
LINE
  5
7E89
330
18
100
AcDbEntity
  8
0
100
AcDbLine
 10
74.38864623171321
 20
130.1730011160863
 30
0.0
 11
60.88864623171321
 21
130.1730011160863
 31
0.0
  0
LINE
  5
7E8A
330
18
100
AcDbEntity
  8
0
100
AcDbLine
 10
74.38864623171321
 20
148.6730011160865
 30
0.0
 11
60.88864623171321
 21
148.6730011160863
 31
0.0
  0
LINE
  5
7E8B
330
18
100
AcDbEntity
  8
0
100
AcDbLine
 10
74.38864623171321
 20
114.173001116086
 30
0.0
 11
60.88864623171321
 21
114.173001116086
 31
0.0
  0
INSERT
  5
7E8C
330
18
100
AcDbEntity
  8
0
100
AcDbBlockReference
  2
A$C3413120B
 10
61.80624384479211
 20
131.3162694862658
 30
0.0
  0
LINE
  5
7E8D
330
18
100
AcDbEntity
  8
0
100
AcDbLine
 10
76.38864623171321
 20
130.1730011160863
 30
0.0
 11
60.88864623171321
 21
130.1730011160863
 31
0.0
  0
LINE
  5
7E8E
330
18
100
AcDbEntity
  8
0
100
AcDbLine
 10
76.38864623171321
 20
148.6730011160865
 30
0.0
 11
60.88864623171321
 21
148.6730011160863
 31
0.0
  0
LINE
  5
7E8F
330
18
100
AcDbEntity
  8
0
100
AcDbLine
 10
76.38864623171321
 20
114.173001116086
 30
0.0
 11
60.88864623171321
 21
114.173001116086
 31
0.0
  0
MTEXT
  5
7E90
330
18
100
AcDbEntity
  8
0
100
AcDbMText
 10
56.29298386572248
 20
141.2082241271148
 30
0.0
 40
3.299999999999999
 41
4.654799999999999
 71
     1
 72
     5
  1
s
  7
MSｺﾞｼｯｸ
 73
     1
 44
1.0
  0
LINE
  5
7E91
330
18
100
AcDbEntity
  8
0
100
AcDbLine
 10
60.88864623171321
 20
148.6730011160863
 30
0.0
 11
60.88864623171321
 21
130.1730011160863
 31
0.0
  0
LINE
  5
7E92
330
18
100
AcDbEntity
  8
0
100
AcDbLine
 10
60.88864623171321
 20
148.6730011160863
 30
0.0
 11
60.88864623171321
 21
130.1730011160863
 31
0.0
  0
MTEXT
  5
7E93
330
18
100
AcDbEntity
  8
0
100
AcDbMText
 10
56.14640030508747
 20
112.9774578303032
 30
0.0
 40
3.0
 41
4.654799999999999
 71
     1
 72
     5
  1
R
  7
MSｺﾞｼｯｸ
 73
     1
 44
1.0
  0
MTEXT
  5
7E94
330
18
100
AcDbEntity
  8
0
100
AcDbMText
 10
56.14640030508747
 20
107.6295494876377
 30
0.0
 40
3.0
 41
4.654799999999999
 71
     1
 72
     5
  1
S
  7
MSｺﾞｼｯｸ
 73
     1
 44
1.0
  0
MTEXT
  5
7E95
330
18
100
AcDbEntity
  8
0
100
AcDbMText
 10
64.96275613874195
 20
119.5034996940252
 30
0.0
 40
4.0
 41
13.7408
 71
     1
 72
     5
  1
TB2
  7
MSｺﾞｼｯｸ
 73
     1
 44
1.0
  0
MTEXT
  5
7E96
330
18
100
AcDbEntity
  8
0
100
AcDbMText
 10
56.52123184749837
 20
146.7082241271148
 30
0.0
 40
3.299999999999999
 41
4.654799999999999
 71
     1
 72
     5
  1
r
  7
MSｺﾞｼｯｸ
 73
     1
 44
1.0
  0
MTEXT
  5
7E97
330
18
100
AcDbEntity
  8
0
100
AcDbMText
 10
64.96275613874195
 20
154.0034996940252
 30
0.0
 40
4.0
 41
13.7408
 71
     1
 72
     5
  1
TB1
  7
MSｺﾞｼｯｸ
 73
     1
 44
1.0
  0
LINE
  5
7E98
330
18
100
AcDbEntity
  8
0
100
AcDbLine
 10
81.88864623171321
 20
165.1730011160863
 30
0.0
 11
81.88864623171321
 21
114.1730011160863
 31
0.0
  0
MTEXT
  5
7E99
330
18
100
AcDbEntity
  8
0
100
AcDbMText
 10
82.04257740014815
 20
129.1955418117159
 30
0.0
 40
2.2
 41
7.047999999999999
 71
     3
 72
     5
  1
J1
  7
MSｺﾞｼｯｸ
 73
     1
 44
1.0
  0
LINE
  5
7E9A
330
18
100
AcDbEntity
  8
0
100
AcDbLine
 10
78.88864623171321
 20
114.1730011160865
 30
0.0
 11
81.88864623171321
 21
114.1730011160865
 31
0.0
  0
LINE
  5
7E9B
330
18
100
AcDbEntity
  8
0
100
AcDbLine
 10
76.38864623171321
 20
130.1730011160863
 30
0.0
 11
76.38864623171321
 21
131.3162694862658
 31
0.0
  0
MTEXT
  5
7E9C
330
18
100
AcDbEntity
  8
0
100
AcDbMText
 10
80.04257740014816
 20
129.1955418117159
 30
0.0
 40
2.399999999999999
 41
7.047999999999999
 71
     3
 72
     5
  1
J1
  7
MSｺﾞｼｯｸ
 73
     1
 44
1.0
  0
LINE
  5
7E9D
330
18
100
AcDbEntity
  8
0
100
AcDbLine
 10
81.88864623171321
 20
156.9230011160863
 30
0.0
 11
88.3636462317132
 21
156.9230011160863
 31
0.0
  0
LINE
  5
7E9E
330
18
100
AcDbEntity
  8
0
100
AcDbLine
 10
76.38864623171321
 20
148.6730011160865
 30
0.0
 11
76.38864623171321
 21
147.3409314957336
 31
0.0
  0
LINE
  5
7E9F
330
18
100
AcDbEntity
  8
0
100
AcDbLine
 10
76.38864623171321
 20
114.173001116086
 30
0.0
 11
76.38864623171321
 21
59.67300111608631
 31
0.0
  0
LINE
  5
7EA0
330
18
100
AcDbEntity
  8
0
100
AcDbLine
 10
60.88864623171321
 20
59.67300111608643
 30
0.0
 11
60.88864623171321
 21
114.173001116086
 31
0.0
  0
LINE
  5
7EA1
330
18
100
AcDbEntity
  8
0
100
AcDbLine
 10
60.88864623171321
 20
59.67300111608631
 30
0.0
 11
60.88864623171321
 21
114.173001116086
 31
0.0
  0
LINE
  5
7EA2
330
18
100
AcDbEntity
  8
0
100
AcDbLine
 10
74.38864623171321
 20
59.67300111608643
 30
0.0
 11
60.88864623171321
 21
59.67300111608643
 31
0.0
  0
LINE
  5
7EA3
330
18
100
AcDbEntity
  8
0
100
AcDbLine
 10
76.38864623171321
 20
59.67300111608631
 30
0.0
 11
60.88864623171321
 21
59.67300111608631
 31
0.0
  0
INSERT
  5
7EA4
330
18
100
AcDbEntity
  8
0
100
AcDbBlockReference
  2
A$C2F696F30
 10
79.48864546654909
 20
98.82300130946862
 30
0.0
  0
LINE
  5
7EA5
330
18
100
AcDbEntity
  8
0
100
AcDbLine
 10
97.38864623171322
 20
164.1730011160863
 30
0.0
 11
97.38864623171322
 21
19.17300111608642
 31
0.0
  0
INSERT
  5
7EA6
330
18
100
AcDbEntity
  8
0
100
AcDbBlockReference
  2
A$C3A6E1F00
 10
86.56364625773994
 20
21.27300159621416
 30
0.0
  0
LINE
  5
7EA7
330
18
100
AcDbEntity
  8
0
100
AcDbLine
 10
81.88864623171321
 20
19.17300111608642
 30
0.0
 11
81.88864623171639
 21
97.17300111608631
 31
0.0
  0
LINE
  5
7EA8
330
18
100
AcDbEntity
  8
0
100
AcDbLine
 10
81.88864623171321
 20
19.17300111608642
 30
0.0
 11
99.38864623171321
 21
19.17300111608642
 31
0.0
  0
LINE
  5
7EAB
330
18
100
AcDbEntity
  8
0
100
AcDbLine
 10
95.88864623171321
 20
21.37300111608635
 30
0.0
 11
95.88864623171321
 21
19.17300111608642
 31
0.0
  0
INSERT
  5
7EAC
330
18
100
AcDbEntity
  8
0
100
AcDbBlockReference
  2
A$C57095CDF
 10
86.56364625773994
 20
65.24800120313523
 30
0.0
  0
LINE
  5
7EAD
330
18
100
AcDbEntity
  8
0
100
AcDbLine
 10
99.38864623171321
 20
165.1730011160863
 30
0.0
 11
81.88864623171321
 21
165.1730011160863
 31
0.0
  0
LINE
  5
7EAE
330
18
100
AcDbEntity
  8
0
100
AcDbLine
 10
81.88864623171321
 20
162.4230011160863
 30
0.0
 11
95.88864623171321
 21
162.4230011160863
 31
0.0
  0
LINE
  5
7EAF
330
18
100
AcDbEntity
  8
0
100
AcDbLine
 10
81.88864623171321
 20
159.6730011160863
 30
0.0
 11
95.88864623171321
 21
159.6730011160863
 31
0.0
  0
INSERT
  5
7EB0
330
18
100
AcDbEntity
  8
0
100
AcDbBlockReference
  2
A$C6C1277F2
 10
86.56364625773994
 20
113.3980015986513
 30
0.0
  0
INSERT
  5
7EB1
330
18
100
AcDbEntity
  8
0
100
AcDbBlockReference
  2
A$C444F17A9
 10
88.26364562401591
 20
145.5730006300597
 30
0.0
  0
LINE
  5
7EB2
330
18
100
AcDbEntity
  8
0
100
AcDbLine
 10
95.88864623171321
 20
164.1730011160863
 30
0.0
 11
97.38864623171322
 21
164.1730011160863
 31
0.0
  0
LINE
  5
7EB3
330
18
100
AcDbEntity
  8
0
100
AcDbLine
 10
95.88864623171321
 20
158.6730011160863
 30
0.0
 11
95.88864623171321
 21
164.1730011160863
 31
0.0
  0
LINE
  5
7EB4
330
18
100
AcDbEntity
  8
0
100
AcDbLine
 10
99.38864623171321
 20
165.1730011160863
 30
0.0
 11
99.38864623171321
 21
19.17300111608642
 31
0.0
  0
MTEXT
  5
7EB5
330
18
100
AcDbEntity
  8
0
100
AcDbMText
 10
81.09041355131592
 20
43.87582538531126
 30
0.0
 40
2.399999999999999
 41
7.047999999999999
 71
     3
 72
     5
  1
CN1
  7
MSｺﾞｼｯｸ
 73
     1
 44
1.0
  0
ARC
  5
7EBD
330
18
100
AcDbEntity
  8
0
100
AcDbCircle
 10
78.88864623171324
 20
16.67300111608648
 30
0.0
 40
2.666666666666666
100
AcDbArc
 50
75.52248781407008
 51
104.4775121859299
  0
ARC
  5
7EBE
330
18
100
AcDbEntity
  8
0
100
AcDbCircle
 10
78.88864623171324
 20
16.67300111608648
 30
0.0
 40
2.666666666666666
100
AcDbArc
 50
165.5224878140705
 51
194.4775121859294
  0
CIRCLE
  5
80BC
330
18
100
AcDbEntity
  8
0
100
AcDbCircle
 10
116.7732616163286
 20
86.01915496224018
 30
0.0
 40
1.846153846153846
  0
HATCH
  5
80BD
330
18
100
AcDbEntity
  8
0
100
AcDbHatch
 10
0.0
 20
0.0
 30
0.0
210
0.0
220
0.0
230
1.0
  2
SOLID
 70
     1
 71
     0
 91
        1
 92
        7
 72
     0
 73
     1
 93
        3
 10
116.0040308470978
 20
86.86530880839402
 10
115.234800077867
 20
86.09607803916324
 10
116.0040308470978
 20
85.32684726993247
 97
        1
330
80BE
 75
     0
 76
     1
 47
0.651316
 98
        1
 10
47.8886462317132
 20
-39.86546042237523
  0
LWPOLYLINE
  5
80BE
330
18
100
AcDbEntity
  8
0
100
AcDbPolyline
 90
        3
 70
     0
 43
0.0
 10
116.0040308470978
 20
86.86530880839402
 10
115.234800077867
 20
86.09607803916324
 10
116.0040308470978
 20
85.32684726993247
  0
LINE
  5
80BF
330
18
100
AcDbEntity
  8
0
100
AcDbLine
 10
116.734800077867
 20
87.32684726993246
 30
0.0
 11
116.734800077867
 21
84.86530880839401
 31
0.0
  0
MTEXT
  5
80C0
330
18
100
AcDbEntity
  8
0
100
AcDbMText
 10
112.3292341139912
 20
85.42023808770682
 30
0.0
 40
2.153846153846153
 41
1.938461538461538
 71
     1
 72
     5
  1
\T1.1;\fＭＳ ゴシック|b0|i0|c128|p18;\H1.4;0
  7
MSｺﾞｼｯｸ
 11
0.0
 21
1.0
 31
0.0
 73
     1
 44
1.0
  0
MTEXT
  5
80C1
330
18
100
AcDbEntity
  8
0
100
AcDbMText
 10
121.2359692622756
 20
86.33932636192554
 30
0.0
 40
2.153846153846153
 41
1.938461538461538
 71
     1
 72
     5
  1
\T1.1;\fＭＳ ゴシック|b0|i0|c128|p18;\H1.4;5
  7
MSｺﾞｼｯｸ
 11
0.0
 21
-1.0
 31
0.0
 73
     1
 44
1.0
  0
LINE
  5
80C2
330
18
100
AcDbEntity
  8
0
100
AcDbLine
 10
121.6963385394055
 20
90.90377034685554
 30
0.0
 11
121.734800077867
 21
80.94223188531708
 31
0.0
  0
LINE
  5
80C8
330
18
100
AcDbEntity
  8
0
100
AcDbLine
 10
124.3886462317132
 20
115.6730011160863
 30
0.0
 11
124.3886462317132
 21
23.42153684161581
 31
0.0
  0
LINE
  5
80C9
330
18
100
AcDbEntity
  8
0
100
AcDbLine
 10
126.8886462317132
 20
169.6730011160863
 30
0.0
 11
126.8886462317132
 21
9.673001116086311
 31
0.0
  0
LINE
  5
80CB
330
18
100
AcDbEntity
  8
0
100
AcDbLine
 10
102.8886462317132
 20
169.6730011160863
 30
0.0
 11
102.8886462317132
 21
9.673001116086311
 31
0.0
  0
LINE
  5
80CE
330
18
100
AcDbEntity
  8
0
100
AcDbLine
 10
110.8151908824926
 20
115.6730011160863
 30
0.0
 11
110.8151908824926
 21
81.00279081576815
 31
0.0
  0
LINE
  5
80CF
330
18
100
AcDbEntity
  8
0
100
AcDbLine
 10
111.6963385394055
 20
115.6730011160863
 30
0.0
 11
111.6963385394055
 21
73.74992419300941
 31
0.0
  0
CIRCLE
  5
80D0
330
18
100
AcDbEntity
  8
0
100
AcDbCircle
 10
114.8501846932516
 20
27.82684726993247
 30
0.0
 40
1.923076923076923
  0
CIRCLE
  5
80D1
330
18
100
AcDbEntity
  8
0
100
AcDbCircle
 10
119.6194154624824
 20
27.82684726993247
 30
0.0
 40
1.923076923076923
  0
LINE
  5
80D3
330
18
100
AcDbEntity
  8
0
100
AcDbLine
 10
111.6963385394055
 20
23.42153684161581
 30
0.0
 11
111.6963385394055
 21
48.36530880839402
 31
0.0
  0
LINE
  5
80D4
330
18
100
AcDbEntity
  8
0
100
AcDbLine
 10
110.1194154624824
 20
48.36530880839402
 30
0.0
 11
110.1194154624824
 21
23.42153684161581
 31
0.0
  0
LINE
  5
80D5
330
18
100
AcDbEntity
  8
0
100
AcDbLine
 10
122.5040308470978
 20
30.32684726993247
 30
0.0
 11
122.5040308470978
 21
25.44223188531708
 31
0.0
  0
LINE
  5
80D6
330
18
100
AcDbEntity
  8
0
100
AcDbLine
 10
105.1194154624824
 20
23.42153684161581
 30
0.0
 11
105.1194154624824
 21
81.00279081576815
 31
0.0
  0
LINE
  5
80D7
330
18
100
AcDbEntity
  8
0
100
AcDbLine
 10
104.1194154624824
 20
81.00279081576815
 30
0.0
 11
104.1194154624824
 21
23.42153684161581
 31
0.0
  0
LINE
  5
80D9
330
18
100
AcDbEntity
  8
0
100
AcDbLine
 10
101.8886462317132
 20
9.673001116086311
 30
0.0
 11
125.3886462317132
 21
9.673001116086311
 31
0.0
  0
LINE
  5
80DA
330
18
100
AcDbEntity
  8
0
100
AcDbLine
 10
124.3886462317132
 20
23.42153684161581
 30
0.0
 11
102.8886462317132
 21
23.42153684161581
 31
0.0
  0
LINE
  5
80DD
330
18
100
AcDbEntity
  8
0
100
AcDbLine
 10
126.8886462317132
 20
9.673001116086311
 30
0.0
 11
124.3886462317132
 21
9.673001116086311
 31
0.0
  0
LINE
  5
80DE
330
18
100
AcDbEntity
  8
0
100
AcDbLine
 10
111.734800077867
 20
25.44223188531708
 30
0.0
 11
122.4655693086363
 21
25.44223188531708
 31
0.0
  0
MTEXT
  5
80DF
330
18
100
AcDbEntity
  8
0
100
AcDbMText
 10
116.7138673372776
 20
19.98972816338394
 30
0.0
 40
2.392731153524477
 41
18.25893143254529
 71
     5
 72
     5
  1
{\fＭＳ ゴシック|b0|i0|c128|p49;L ERR/L RUN}
  7
MSｺﾞｼｯｸ
 73
     1
 44
1.0
  0
MTEXT
  5
80E0
330
18
100
AcDbEntity
  8
0
100
AcDbMText
 10
116.864706213681
 20
16.05476037308199
 30
0.0
 40
2.392731153524477
 41
11.67959072507596
 71
     5
 72
     5
  1
{\fＭＳ ゴシック|b0|i0|c128|p49;RD/SD}
  7
MSｺﾞｼｯｸ
 73
     1
 44
1.0
  0
MTEXT
  5
80E3
330
18
100
AcDbEntity
  8
0
100
AcDbMText
 10
107.3666673202509
 20
83.49744446278117
 30
0.0
 40
2.392731153524477
 41
7.182299999999999
 71
     5
 72
     5
  1
{\fＭＳ ゴシック|b0|i0|c128|p49;TB7}
  7
MSｺﾞｼｯｸ
 73
     1
 44
1.0
  0
LINE
  5
80E4
330
18
100
AcDbEntity
  8
0
100
AcDbLine
 10
110.8151908824926
 20
81.00279081576815
 30
0.0
 11
102.8886462317132
 21
81.00279081576815
 31
0.0
  0
LINE
  5
815C
330
18
100
AcDbEntity
  8
0
100
AcDbLine
 10
113.1194154624824
 20
57.36530880839402
 30
0.0
 11
113.1194154624824
 21
54.7499241930094
 31
0.0
  0
LINE
  5
815D
330
18
100
AcDbEntity
  8
0
100
AcDbLine
 10
113.1194154624824
 20
57.36530880839402
 30
0.0
 11
113.1194154624824
 21
54.7499241930094
 31
0.0
  0
LINE
  5
815E
330
18
100
AcDbEntity
  8
0
100
AcDbLine
 10
115.6963385394054
 20
58.09607803916325
 30
0.0
 11
115.6963385394054
 21
54.01915496224018
 31
0.0
  0
LINE
  5
815F
330
18
100
AcDbEntity
  8
0
100
AcDbLine
 10
115.6963385394054
 20
58.09607803916325
 30
0.0
 11
115.6963385394054
 21
54.01915496224018
 31
0.0
  0
LINE
  5
8160
330
18
100
AcDbEntity
  8
0
100
AcDbLine
 10
108.6963385394055
 20
58.09607803916325
 30
0.0
 11
108.6963385394055
 21
54.01915496224018
 31
0.0
  0
LINE
  5
8161
330
18
100
AcDbEntity
  8
0
100
AcDbLine
 10
108.6963385394055
 20
58.09607803916325
 30
0.0
 11
108.6963385394055
 21
54.01915496224018
 31
0.0
  0
LINE
  5
8162
330
18
100
AcDbEntity
  8
0
100
AcDbLine
 10
109.1963385394055
 20
57.36530880839402
 30
0.0
 11
109.1963385394055
 21
54.7499241930094
 31
0.0
  0
LINE
  5
8163
330
18
100
AcDbEntity
  8
0
100
AcDbLine
 10
109.1963385394055
 20
57.36530880839402
 30
0.0
 11
109.1963385394055
 21
54.7499241930094
 31
0.0
  0
LINE
  5
8164
330
18
100
AcDbEntity
  8
0
100
AcDbLine
 10
120.9655693086363
 20
73.74992419300941
 30
0.0
 11
120.9655693086363
 21
48.36530880839402
 31
0.0
  0
LINE
  5
8165
330
18
100
AcDbEntity
  8
0
100
AcDbLine
 10
116.1963385394055
 20
73.67300111608631
 30
0.0
 11
116.1963385394055
 21
48.28838573147092
 31
0.0
  0
LINE
  5
8166
330
18
100
AcDbEntity
  8
0
100
AcDbLine
 10
107.8886462317132
 20
73.71146265454786
 30
0.0
 11
107.8886462317132
 21
48.32684726993247
 31
0.0
  0
LINE
  5
8167
330
18
100
AcDbEntity
  8
0
100
AcDbLine
 10
111.734800077867
 20
36.51915496224018
 30
0.0
 11
122.4655693086363
 21
36.51915496224018
 31
0.0
  0
LINE
  5
8168
330
18
100
AcDbEntity
  8
0
100
AcDbLine
 10
111.734800077867
 20
31.63453957762479
 30
0.0
 11
122.4655693086363
 21
31.63453957762479
 31
0.0
  0
LINE
  5
8169
330
18
100
AcDbEntity
  8
0
100
AcDbLine
 10
111.734800077867
 20
30.32684726993247
 30
0.0
 11
122.4655693086363
 21
30.32684726993247
 31
0.0
  0
CIRCLE
  5
816A
330
18
100
AcDbEntity
  8
0
100
AcDbCircle
 10
114.8501846932516
 20
33.98069342377863
 30
0.0
 40
1.923076923076923
  0
CIRCLE
  5
816B
330
18
100
AcDbEntity
  8
0
100
AcDbCircle
 10
119.6194154624824
 20
33.98069342377863
 30
0.0
 40
1.923076923076923
  0
LINE
  5
816C
330
18
100
AcDbEntity
  8
0
100
AcDbLine
 10
122.5040308470978
 20
36.51915496224018
 30
0.0
 11
122.5040308470978
 21
31.63453957762479
 31
0.0
  0
CIRCLE
  5
816D
330
18
100
AcDbEntity
  8
0
100
AcDbCircle
 10
115.6963385394054
 20
45.82684726993247
 30
0.0
 40
2.038461538461538
  0
LINE
  5
816E
330
18
100
AcDbEntity
  8
0
100
AcDbLine
 10
119.6963385394055
 20
43.28838573147092
 30
0.0
 11
111.6963385394055
 21
43.28838573147092
 31
0.0
  0
LINE
  5
816F
330
18
100
AcDbEntity
  8
0
100
AcDbLine
 10
111.6963385394055
 20
48.36530880839402
 30
0.0
 11
119.6963385394055
 21
48.36530880839402
 31
0.0
  0
LINE
  5
8170
330
18
100
AcDbEntity
  8
0
100
AcDbLine
 10
119.6963385394055
 20
43.28838573147092
 30
0.0
 11
111.6963385394055
 21
43.28838573147092
 31
0.0
  0
LINE
  5
8171
330
18
100
AcDbEntity
  8
0
100
AcDbLine
 10
111.6963385394055
 20
48.36530880839402
 30
0.0
 11
119.6963385394055
 21
48.36530880839402
 31
0.0
  0
LINE
  5
8172
330
18
100
AcDbEntity
  8
0
100
AcDbLine
 10
107.8886462317132
 20
48.36530880839402
 30
0.0
 11
120.9655693086363
 21
48.36530880839402
 31
0.0
  0
LINE
  5
8173
330
18
100
AcDbEntity
  8
0
100
AcDbLine
 10
119.6963385394055
 20
43.28838573147092
 30
0.0
 11
119.6963385394055
 21
48.36530880839402
 31
0.0
  0
LINE
  5
8174
330
18
100
AcDbEntity
  8
0
100
AcDbLine
 10
116.8886462317132
 20
44.21146265454786
 30
0.0
 11
114.1194154624824
 21
47.01915496224017
 31
0.0
  0
LINE
  5
8175
330
18
100
AcDbEntity
  8
0
100
AcDbLine
 10
117.3501846932516
 20
44.67300111608631
 30
0.0
 11
114.5424923855593
 21
47.44223188531708
 31
0.0
  0
LINE
  5
8176
330
18
100
AcDbEntity
  8
0
100
AcDbLine
 10
113.1194154624824
 20
52.28838573147095
 30
0.0
 11
115.6963385394054
 21
53.01915496224018
 31
0.0
  0
LINE
  5
8177
330
18
100
AcDbEntity
  8
0
100
AcDbLine
 10
113.1194154624824
 20
52.28838573147095
 30
0.0
 11
115.6963385394054
 21
53.01915496224018
 31
0.0
  0
LINE
  5
8178
330
18
100
AcDbEntity
  8
0
100
AcDbLine
 10
113.1194154624824
 20
54.7499241930094
 30
0.0
 11
115.6963385394054
 21
54.01915496224018
 31
0.0
  0
LINE
  5
8179
330
18
100
AcDbEntity
  8
0
100
AcDbLine
 10
113.1194154624824
 20
54.7499241930094
 30
0.0
 11
115.6963385394054
 21
54.01915496224018
 31
0.0
  0
LINE
  5
817A
330
18
100
AcDbEntity
  8
0
100
AcDbLine
 10
108.6963385394055
 20
53.01915496224018
 30
0.0
 11
115.6963385394054
 21
53.01915496224018
 31
0.0
  0
LINE
  5
817B
330
18
100
AcDbEntity
  8
0
100
AcDbLine
 10
108.6963385394055
 20
53.01915496224018
 30
0.0
 11
115.6963385394054
 21
53.01915496224018
 31
0.0
  0
LINE
  5
817C
330
18
100
AcDbEntity
  8
0
100
AcDbLine
 10
108.6963385394055
 20
54.01915496224018
 30
0.0
 11
115.6963385394054
 21
54.01915496224018
 31
0.0
  0
LINE
  5
817D
330
18
100
AcDbEntity
  8
0
100
AcDbLine
 10
108.6963385394055
 20
54.01915496224018
 30
0.0
 11
115.6963385394054
 21
54.01915496224018
 31
0.0
  0
LINE
  5
817E
330
18
100
AcDbEntity
  8
0
100
AcDbLine
 10
113.1194154624824
 20
49.67300111608631
 30
0.0
 11
115.6963385394054
 21
48.94223188531708
 31
0.0
  0
LINE
  5
817F
330
18
100
AcDbEntity
  8
0
100
AcDbLine
 10
113.1194154624824
 20
49.67300111608631
 30
0.0
 11
115.6963385394054
 21
48.94223188531708
 31
0.0
  0
LINE
  5
8180
330
18
100
AcDbEntity
  8
0
100
AcDbLine
 10
108.6963385394055
 20
48.94223188531708
 30
0.0
 11
115.6963385394054
 21
48.94223188531708
 31
0.0
  0
LINE
  5
8181
330
18
100
AcDbEntity
  8
0
100
AcDbLine
 10
108.6963385394055
 20
48.94223188531708
 30
0.0
 11
115.6963385394054
 21
48.94223188531708
 31
0.0
  0
LINE
  5
8182
330
18
100
AcDbEntity
  8
0
100
AcDbLine
 10
108.6963385394055
 20
53.01915496224018
 30
0.0
 11
109.1963385394055
 21
52.28838573147095
 31
0.0
  0
LINE
  5
8183
330
18
100
AcDbEntity
  8
0
100
AcDbLine
 10
108.6963385394055
 20
53.01915496224018
 30
0.0
 11
109.1963385394055
 21
52.28838573147095
 31
0.0
  0
LINE
  5
8184
330
18
100
AcDbEntity
  8
0
100
AcDbLine
 10
109.1963385394055
 20
54.7499241930094
 30
0.0
 11
108.6963385394055
 21
54.01915496224018
 31
0.0
  0
LINE
  5
8185
330
18
100
AcDbEntity
  8
0
100
AcDbLine
 10
109.1963385394055
 20
54.7499241930094
 30
0.0
 11
108.6963385394055
 21
54.01915496224018
 31
0.0
  0
LINE
  5
8186
330
18
100
AcDbEntity
  8
0
100
AcDbLine
 10
109.1963385394055
 20
52.28838573147095
 30
0.0
 11
113.1194154624824
 21
52.28838573147095
 31
0.0
  0
LINE
  5
8187
330
18
100
AcDbEntity
  8
0
100
AcDbLine
 10
109.1963385394055
 20
52.28838573147095
 30
0.0
 11
113.1194154624824
 21
52.28838573147095
 31
0.0
  0
LINE
  5
8188
330
18
100
AcDbEntity
  8
0
100
AcDbLine
 10
109.1963385394055
 20
54.7499241930094
 30
0.0
 11
113.1194154624824
 21
54.7499241930094
 31
0.0
  0
LINE
  5
8189
330
18
100
AcDbEntity
  8
0
100
AcDbLine
 10
109.1963385394055
 20
54.7499241930094
 30
0.0
 11
113.1194154624824
 21
54.7499241930094
 31
0.0
  0
LINE
  5
818A
330
18
100
AcDbEntity
  8
0
100
AcDbLine
 10
109.1963385394055
 20
49.67300111608631
 30
0.0
 11
108.6963385394055
 21
48.94223188531708
 31
0.0
  0
LINE
  5
818B
330
18
100
AcDbEntity
  8
0
100
AcDbLine
 10
109.1963385394055
 20
49.67300111608631
 30
0.0
 11
108.6963385394055
 21
48.94223188531708
 31
0.0
  0
LINE
  5
818C
330
18
100
AcDbEntity
  8
0
100
AcDbLine
 10
109.1963385394055
 20
49.67300111608631
 30
0.0
 11
113.1194154624824
 21
49.67300111608631
 31
0.0
  0
LINE
  5
818D
330
18
100
AcDbEntity
  8
0
100
AcDbLine
 10
109.1963385394055
 20
49.67300111608631
 30
0.0
 11
113.1194154624824
 21
49.67300111608631
 31
0.0
  0
LINE
  5
818E
330
18
100
AcDbEntity
  8
0
100
AcDbLine
 10
108.6963385394055
 20
53.01915496224018
 30
0.0
 11
108.6963385394055
 21
48.94223188531708
 31
0.0
  0
LINE
  5
818F
330
18
100
AcDbEntity
  8
0
100
AcDbLine
 10
108.6963385394055
 20
53.01915496224018
 30
0.0
 11
108.6963385394055
 21
48.94223188531708
 31
0.0
  0
LINE
  5
8190
330
18
100
AcDbEntity
  8
0
100
AcDbLine
 10
113.1194154624824
 20
52.28838573147095
 30
0.0
 11
113.1194154624824
 21
49.67300111608631
 31
0.0
  0
LINE
  5
8191
330
18
100
AcDbEntity
  8
0
100
AcDbLine
 10
109.1963385394055
 20
52.28838573147095
 30
0.0
 11
109.1963385394055
 21
49.67300111608631
 31
0.0
  0
LINE
  5
8192
330
18
100
AcDbEntity
  8
0
100
AcDbLine
 10
113.1194154624824
 20
52.28838573147095
 30
0.0
 11
113.1194154624824
 21
49.67300111608631
 31
0.0
  0
LINE
  5
8193
330
18
100
AcDbEntity
  8
0
100
AcDbLine
 10
109.1963385394055
 20
52.28838573147095
 30
0.0
 11
109.1963385394055
 21
49.67300111608631
 31
0.0
  0
LINE
  5
8194
330
18
100
AcDbEntity
  8
0
100
AcDbLine
 10
115.6963385394054
 20
53.01915496224018
 30
0.0
 11
115.6963385394054
 21
48.94223188531708
 31
0.0
  0
LINE
  5
8195
330
18
100
AcDbEntity
  8
0
100
AcDbLine
 10
115.6963385394054
 20
53.01915496224018
 30
0.0
 11
115.6963385394054
 21
48.94223188531708
 31
0.0
  0
LINE
  5
8196
330
18
100
AcDbEntity
  8
0
100
AcDbLine
 10
108.6963385394055
 20
73.3268472699325
 30
0.0
 11
108.6963385394055
 21
69.24992419300941
 31
0.0
  0
LINE
  5
8197
330
18
100
AcDbEntity
  8
0
100
AcDbLine
 10
108.6963385394055
 20
73.3268472699325
 30
0.0
 11
108.6963385394055
 21
69.24992419300941
 31
0.0
  0
LINE
  5
8198
330
18
100
AcDbEntity
  8
0
100
AcDbLine
 10
113.1194154624824
 20
72.59607803916324
 30
0.0
 11
113.1194154624824
 21
70.01915496224018
 31
0.0
  0
LINE
  5
8199
330
18
100
AcDbEntity
  8
0
100
AcDbLine
 10
109.1963385394055
 20
72.59607803916324
 30
0.0
 11
109.1963385394055
 21
70.01915496224018
 31
0.0
  0
LINE
  5
819A
330
18
100
AcDbEntity
  8
0
100
AcDbLine
 10
109.1963385394055
 20
72.59607803916324
 30
0.0
 11
109.1963385394055
 21
70.01915496224018
 31
0.0
  0
LINE
  5
819B
330
18
100
AcDbEntity
  8
0
100
AcDbLine
 10
113.1194154624824
 20
72.59607803916324
 30
0.0
 11
113.1194154624824
 21
70.01915496224018
 31
0.0
  0
LINE
  5
819C
330
18
100
AcDbEntity
  8
0
100
AcDbLine
 10
115.6963385394054
 20
73.3268472699325
 30
0.0
 11
115.6963385394054
 21
69.24992419300941
 31
0.0
  0
LINE
  5
819D
330
18
100
AcDbEntity
  8
0
100
AcDbLine
 10
115.6963385394054
 20
73.3268472699325
 30
0.0
 11
115.6963385394054
 21
69.24992419300941
 31
0.0
  0
LINE
  5
819E
330
18
100
AcDbEntity
  8
0
100
AcDbLine
 10
113.1194154624824
 20
62.44223188531709
 30
0.0
 11
115.6963385394054
 21
63.17300111608631
 31
0.0
  0
LINE
  5
819F
330
18
100
AcDbEntity
  8
0
100
AcDbLine
 10
113.1194154624824
 20
62.44223188531709
 30
0.0
 11
115.6963385394054
 21
63.17300111608631
 31
0.0
  0
LINE
  5
81A0
330
18
100
AcDbEntity
  8
0
100
AcDbLine
 10
113.1194154624824
 20
57.36530880839402
 30
0.0
 11
115.6963385394054
 21
58.09607803916325
 31
0.0
  0
LINE
  5
81A1
330
18
100
AcDbEntity
  8
0
100
AcDbLine
 10
113.1194154624824
 20
59.82684726993247
 30
0.0
 11
115.6963385394054
 21
59.09607803916324
 31
0.0
  0
LINE
  5
81A2
330
18
100
AcDbEntity
  8
0
100
AcDbLine
 10
113.1194154624824
 20
57.36530880839402
 30
0.0
 11
115.6963385394054
 21
58.09607803916325
 31
0.0
  0
LINE
  5
81A3
330
18
100
AcDbEntity
  8
0
100
AcDbLine
 10
113.1194154624824
 20
59.82684726993247
 30
0.0
 11
115.6963385394054
 21
59.09607803916324
 31
0.0
  0
LINE
  5
81A4
330
18
100
AcDbEntity
  8
0
100
AcDbLine
 10
108.6963385394055
 20
63.17300111608631
 30
0.0
 11
115.6963385394054
 21
63.17300111608631
 31
0.0
  0
LINE
  5
81A5
330
18
100
AcDbEntity
  8
0
100
AcDbLine
 10
108.6963385394055
 20
58.09607803916325
 30
0.0
 11
115.6963385394054
 21
58.09607803916325
 31
0.0
  0
LINE
  5
81A6
330
18
100
AcDbEntity
  8
0
100
AcDbLine
 10
108.6963385394055
 20
59.09607803916324
 30
0.0
 11
115.6963385394054
 21
59.09607803916324
 31
0.0
  0
LINE
  5
81A7
330
18
100
AcDbEntity
  8
0
100
AcDbLine
 10
108.6963385394055
 20
63.17300111608631
 30
0.0
 11
115.6963385394054
 21
63.17300111608631
 31
0.0
  0
LINE
  5
81A8
330
18
100
AcDbEntity
  8
0
100
AcDbLine
 10
108.6963385394055
 20
58.09607803916325
 30
0.0
 11
115.6963385394054
 21
58.09607803916325
 31
0.0
  0
LINE
  5
81A9
330
18
100
AcDbEntity
  8
0
100
AcDbLine
 10
108.6963385394055
 20
59.09607803916324
 30
0.0
 11
115.6963385394054
 21
59.09607803916324
 31
0.0
  0
LINE
  5
81AA
330
18
100
AcDbEntity
  8
0
100
AcDbLine
 10
113.1194154624824
 20
62.44223188531709
 30
0.0
 11
113.1194154624824
 21
59.82684726993247
 31
0.0
  0
LINE
  5
81AB
330
18
100
AcDbEntity
  8
0
100
AcDbLine
 10
113.1194154624824
 20
62.44223188531709
 30
0.0
 11
113.1194154624824
 21
59.82684726993247
 31
0.0
  0
LINE
  5
81AC
330
18
100
AcDbEntity
  8
0
100
AcDbLine
 10
108.6963385394055
 20
63.17300111608631
 30
0.0
 11
109.1963385394055
 21
62.44223188531709
 31
0.0
  0
LINE
  5
81AD
330
18
100
AcDbEntity
  8
0
100
AcDbLine
 10
108.6963385394055
 20
63.17300111608631
 30
0.0
 11
109.1963385394055
 21
62.44223188531709
 31
0.0
  0
LINE
  5
81AE
330
18
100
AcDbEntity
  8
0
100
AcDbLine
 10
108.6963385394055
 20
58.09607803916325
 30
0.0
 11
109.1963385394055
 21
57.36530880839402
 31
0.0
  0
LINE
  5
81AF
330
18
100
AcDbEntity
  8
0
100
AcDbLine
 10
109.1963385394055
 20
59.82684726993247
 30
0.0
 11
108.6963385394055
 21
59.09607803916324
 31
0.0
  0
LINE
  5
81B0
330
18
100
AcDbEntity
  8
0
100
AcDbLine
 10
108.6963385394055
 20
58.09607803916325
 30
0.0
 11
109.1963385394055
 21
57.36530880839402
 31
0.0
  0
LINE
  5
81B1
330
18
100
AcDbEntity
  8
0
100
AcDbLine
 10
109.1963385394055
 20
59.82684726993247
 30
0.0
 11
108.6963385394055
 21
59.09607803916324
 31
0.0
  0
LINE
  5
81B2
330
18
100
AcDbEntity
  8
0
100
AcDbLine
 10
108.6963385394055
 20
63.17300111608631
 30
0.0
 11
108.6963385394055
 21
59.09607803916324
 31
0.0
  0
LINE
  5
81B3
330
18
100
AcDbEntity
  8
0
100
AcDbLine
 10
108.6963385394055
 20
63.17300111608631
 30
0.0
 11
108.6963385394055
 21
59.09607803916324
 31
0.0
  0
LINE
  5
81B4
330
18
100
AcDbEntity
  8
0
100
AcDbLine
 10
109.1963385394055
 20
62.44223188531709
 30
0.0
 11
109.1963385394055
 21
59.82684726993247
 31
0.0
  0
LINE
  5
81B5
330
18
100
AcDbEntity
  8
0
100
AcDbLine
 10
109.1963385394055
 20
62.44223188531709
 30
0.0
 11
109.1963385394055
 21
59.82684726993247
 31
0.0
  0
LINE
  5
81B6
330
18
100
AcDbEntity
  8
0
100
AcDbLine
 10
109.1963385394055
 20
57.36530880839402
 30
0.0
 11
113.1194154624824
 21
57.36530880839402
 31
0.0
  0
LINE
  5
81B7
330
18
100
AcDbEntity
  8
0
100
AcDbLine
 10
109.1963385394055
 20
59.82684726993247
 30
0.0
 11
113.1194154624824
 21
59.82684726993247
 31
0.0
  0
LINE
  5
81B8
330
18
100
AcDbEntity
  8
0
100
AcDbLine
 10
109.1963385394055
 20
62.44223188531709
 30
0.0
 11
113.1194154624824
 21
62.44223188531709
 31
0.0
  0
LINE
  5
81B9
330
18
100
AcDbEntity
  8
0
100
AcDbLine
 10
109.1963385394055
 20
57.36530880839402
 30
0.0
 11
113.1194154624824
 21
57.36530880839402
 31
0.0
  0
LINE
  5
81BA
330
18
100
AcDbEntity
  8
0
100
AcDbLine
 10
109.1963385394055
 20
62.44223188531709
 30
0.0
 11
113.1194154624824
 21
62.44223188531709
 31
0.0
  0
LINE
  5
81BB
330
18
100
AcDbEntity
  8
0
100
AcDbLine
 10
109.1963385394055
 20
59.82684726993247
 30
0.0
 11
113.1194154624824
 21
59.82684726993247
 31
0.0
  0
LINE
  5
81BC
330
18
100
AcDbEntity
  8
0
100
AcDbLine
 10
115.6963385394054
 20
63.17300111608631
 30
0.0
 11
115.6963385394054
 21
59.09607803916324
 31
0.0
  0
LINE
  5
81BD
330
18
100
AcDbEntity
  8
0
100
AcDbLine
 10
115.6963385394054
 20
63.17300111608631
 30
0.0
 11
115.6963385394054
 21
59.09607803916324
 31
0.0
  0
LINE
  5
81BE
330
18
100
AcDbEntity
  8
0
100
AcDbLine
 10
113.1194154624824
 20
67.51915496224018
 30
0.0
 11
115.6963385394054
 21
68.2499241930094
 31
0.0
  0
LINE
  5
81BF
330
18
100
AcDbEntity
  8
0
100
AcDbLine
 10
113.1194154624824
 20
70.01915496224018
 30
0.0
 11
115.6963385394054
 21
69.24992419300941
 31
0.0
  0
LINE
  5
81C0
330
18
100
AcDbEntity
  8
0
100
AcDbLine
 10
113.1194154624824
 20
67.51915496224018
 30
0.0
 11
115.6963385394054
 21
68.2499241930094
 31
0.0
  0
LINE
  5
81C1
330
18
100
AcDbEntity
  8
0
100
AcDbLine
 10
113.1194154624824
 20
70.01915496224018
 30
0.0
 11
115.6963385394054
 21
69.24992419300941
 31
0.0
  0
LINE
  5
81C2
330
18
100
AcDbEntity
  8
0
100
AcDbLine
 10
113.1194154624824
 20
64.94223188531709
 30
0.0
 11
115.6963385394054
 21
64.17300111608631
 31
0.0
  0
LINE
  5
81C3
330
18
100
AcDbEntity
  8
0
100
AcDbLine
 10
113.1194154624824
 20
64.94223188531709
 30
0.0
 11
115.6963385394054
 21
64.17300111608631
 31
0.0
  0
LINE
  5
81C4
330
18
100
AcDbEntity
  8
0
100
AcDbLine
 10
108.6963385394055
 20
64.17300111608631
 30
0.0
 11
115.6963385394054
 21
64.17300111608631
 31
0.0
  0
LINE
  5
81C5
330
18
100
AcDbEntity
  8
0
100
AcDbLine
 10
108.6963385394055
 20
69.24992419300941
 30
0.0
 11
115.6963385394054
 21
69.24992419300941
 31
0.0
  0
LINE
  5
81C6
330
18
100
AcDbEntity
  8
0
100
AcDbLine
 10
108.6963385394055
 20
64.17300111608631
 30
0.0
 11
115.6963385394054
 21
64.17300111608631
 31
0.0
  0
LINE
  5
81C7
330
18
100
AcDbEntity
  8
0
100
AcDbLine
 10
108.6963385394055
 20
68.2499241930094
 30
0.0
 11
115.6963385394054
 21
68.2499241930094
 31
0.0
  0
LINE
  5
81C8
330
18
100
AcDbEntity
  8
0
100
AcDbLine
 10
108.6963385394055
 20
69.24992419300941
 30
0.0
 11
115.6963385394054
 21
69.24992419300941
 31
0.0
  0
LINE
  5
81C9
330
18
100
AcDbEntity
  8
0
100
AcDbLine
 10
108.6963385394055
 20
68.2499241930094
 30
0.0
 11
115.6963385394054
 21
68.2499241930094
 31
0.0
  0
LINE
  5
81CA
330
18
100
AcDbEntity
  8
0
100
AcDbLine
 10
113.1194154624824
 20
67.51915496224018
 30
0.0
 11
113.1194154624824
 21
64.94223188531709
 31
0.0
  0
LINE
  5
81CB
330
18
100
AcDbEntity
  8
0
100
AcDbLine
 10
113.1194154624824
 20
67.51915496224018
 30
0.0
 11
113.1194154624824
 21
64.94223188531709
 31
0.0
  0
LINE
  5
81CC
330
18
100
AcDbEntity
  8
0
100
AcDbLine
 10
108.6963385394055
 20
68.2499241930094
 30
0.0
 11
109.1963385394055
 21
67.51915496224018
 31
0.0
  0
LINE
  5
81CD
330
18
100
AcDbEntity
  8
0
100
AcDbLine
 10
109.1963385394055
 20
70.01915496224018
 30
0.0
 11
108.6963385394055
 21
69.24992419300941
 31
0.0
  0
LINE
  5
81CE
330
18
100
AcDbEntity
  8
0
100
AcDbLine
 10
108.6963385394055
 20
68.2499241930094
 30
0.0
 11
109.1963385394055
 21
67.51915496224018
 31
0.0
  0
LINE
  5
81CF
330
18
100
AcDbEntity
  8
0
100
AcDbLine
 10
109.1963385394055
 20
70.01915496224018
 30
0.0
 11
108.6963385394055
 21
69.24992419300941
 31
0.0
  0
LINE
  5
81D0
330
18
100
AcDbEntity
  8
0
100
AcDbLine
 10
109.1963385394055
 20
64.94223188531709
 30
0.0
 11
108.6963385394055
 21
64.17300111608631
 31
0.0
  0
LINE
  5
81D1
330
18
100
AcDbEntity
  8
0
100
AcDbLine
 10
109.1963385394055
 20
64.94223188531709
 30
0.0
 11
108.6963385394055
 21
64.17300111608631
 31
0.0
  0
LINE
  5
81D2
330
18
100
AcDbEntity
  8
0
100
AcDbLine
 10
108.6963385394055
 20
68.2499241930094
 30
0.0
 11
108.6963385394055
 21
64.17300111608631
 31
0.0
  0
LINE
  5
81D3
330
18
100
AcDbEntity
  8
0
100
AcDbLine
 10
108.6963385394055
 20
68.2499241930094
 30
0.0
 11
108.6963385394055
 21
64.17300111608631
 31
0.0
  0
LINE
  5
81D4
330
18
100
AcDbEntity
  8
0
100
AcDbLine
 10
109.1963385394055
 20
67.51915496224018
 30
0.0
 11
109.1963385394055
 21
64.94223188531709
 31
0.0
  0
LINE
  5
81D5
330
18
100
AcDbEntity
  8
0
100
AcDbLine
 10
109.1963385394055
 20
67.51915496224018
 30
0.0
 11
109.1963385394055
 21
64.94223188531709
 31
0.0
  0
LINE
  5
81D6
330
18
100
AcDbEntity
  8
0
100
AcDbLine
 10
109.1963385394055
 20
70.01915496224018
 30
0.0
 11
113.1194154624824
 21
70.01915496224018
 31
0.0
  0
LINE
  5
81D7
330
18
100
AcDbEntity
  8
0
100
AcDbLine
 10
109.1963385394055
 20
64.94223188531709
 30
0.0
 11
113.1194154624824
 21
64.94223188531709
 31
0.0
  0
LINE
  5
81D8
330
18
100
AcDbEntity
  8
0
100
AcDbLine
 10
109.1963385394055
 20
67.51915496224018
 30
0.0
 11
113.1194154624824
 21
67.51915496224018
 31
0.0
  0
LINE
  5
81D9
330
18
100
AcDbEntity
  8
0
100
AcDbLine
 10
109.1963385394055
 20
64.94223188531709
 30
0.0
 11
113.1194154624824
 21
64.94223188531709
 31
0.0
  0
LINE
  5
81DA
330
18
100
AcDbEntity
  8
0
100
AcDbLine
 10
109.1963385394055
 20
67.51915496224018
 30
0.0
 11
113.1194154624824
 21
67.51915496224018
 31
0.0
  0
LINE
  5
81DB
330
18
100
AcDbEntity
  8
0
100
AcDbLine
 10
109.1963385394055
 20
70.01915496224018
 30
0.0
 11
113.1194154624824
 21
70.01915496224018
 31
0.0
  0
LINE
  5
81DC
330
18
100
AcDbEntity
  8
0
100
AcDbLine
 10
115.6963385394054
 20
68.2499241930094
 30
0.0
 11
115.6963385394054
 21
64.17300111608631
 31
0.0
  0
LINE
  5
81DD
330
18
100
AcDbEntity
  8
0
100
AcDbLine
 10
115.6963385394054
 20
68.2499241930094
 30
0.0
 11
115.6963385394054
 21
64.17300111608631
 31
0.0
  0
LINE
  5
81DE
330
18
100
AcDbEntity
  8
0
100
AcDbLine
 10
111.6963385394055
 20
80.94223188531708
 30
0.0
 11
121.734800077867
 21
80.94223188531708
 31
0.0
  0
LINE
  5
81DF
330
18
100
AcDbEntity
  8
0
100
AcDbLine
 10
119.6963385394055
 20
78.86530880839401
 30
0.0
 11
119.6963385394055
 21
73.74992419300941
 31
0.0
  0
LINE
  5
81E0
330
18
100
AcDbEntity
  8
0
100
AcDbLine
 10
110.1194154624824
 20
73.74992419300941
 30
0.0
 11
110.1194154624824
 21
81.00279081576815
 31
0.0
  0
LINE
  5
81E1
330
18
100
AcDbEntity
  8
0
100
AcDbLine
 10
113.1194154624824
 20
72.59607803916324
 30
0.0
 11
115.6963385394054
 21
73.3268472699325
 31
0.0
  0
LINE
  5
81E2
330
18
100
AcDbEntity
  8
0
100
AcDbLine
 10
113.1194154624824
 20
72.59607803916324
 30
0.0
 11
115.6963385394054
 21
73.3268472699325
 31
0.0
  0
ELLIPSE
  5
81E3
330
18
100
AcDbEntity
  8
0
100
AcDbEllipse
 10
115.6963385394054
 20
76.28838573147096
 30
0.0
 11
2.038461538461538
 21
0.0
 31
0.0
210
0.0
220
0.0
230
1.0
 40
0.9811320000000002
 41
0.0
 42
6.283184999999999
  0
LINE
  5
81E4
330
18
100
AcDbEntity
  8
0
100
AcDbLine
 10
111.6963385394055
 20
73.74992419300941
 30
0.0
 11
119.6963385394055
 21
73.74992419300941
 31
0.0
  0
LINE
  5
81E5
330
18
100
AcDbEntity
  8
0
100
AcDbLine
 10
111.6963385394055
 20
73.74992419300941
 30
0.0
 11
119.6963385394055
 21
73.74992419300941
 31
0.0
  0
LINE
  5
81E6
330
18
100
AcDbEntity
  8
0
100
AcDbLine
 10
108.6963385394055
 20
73.3268472699325
 30
0.0
 11
115.6963385394054
 21
73.3268472699325
 31
0.0
  0
LINE
  5
81E7
330
18
100
AcDbEntity
  8
0
100
AcDbLine
 10
108.6963385394055
 20
73.3268472699325
 30
0.0
 11
115.6963385394054
 21
73.3268472699325
 31
0.0
  0
LINE
  5
81E8
330
18
100
AcDbEntity
  8
0
100
AcDbLine
 10
107.8886462317132
 20
73.74992419300941
 30
0.0
 11
120.9655693086363
 21
73.74992419300941
 31
0.0
  0
LINE
  5
81E9
330
18
100
AcDbEntity
  8
0
100
AcDbLine
 10
108.6963385394055
 20
73.3268472699325
 30
0.0
 11
109.1963385394055
 21
72.59607803916324
 31
0.0
  0
LINE
  5
81EA
330
18
100
AcDbEntity
  8
0
100
AcDbLine
 10
108.6963385394055
 20
73.3268472699325
 30
0.0
 11
109.1963385394055
 21
72.59607803916324
 31
0.0
  0
LINE
  5
81EB
330
18
100
AcDbEntity
  8
0
100
AcDbLine
 10
109.1963385394055
 20
72.59607803916324
 30
0.0
 11
113.1194154624824
 21
72.59607803916324
 31
0.0
  0
LINE
  5
81EC
330
18
100
AcDbEntity
  8
0
100
AcDbLine
 10
109.1963385394055
 20
72.59607803916324
 30
0.0
 11
113.1194154624824
 21
72.59607803916324
 31
0.0
  0
LINE
  5
81ED
330
18
100
AcDbEntity
  8
0
100
AcDbLine
 10
117.3501846932516
 20
75.13453957762479
 30
0.0
 11
114.5424923855593
 21
77.90377034685554
 31
0.0
  0
LINE
  5
81EE
330
18
100
AcDbEntity
  8
0
100
AcDbLine
 10
116.8886462317132
 20
74.71146265454786
 30
0.0
 11
114.1194154624824
 21
77.48069342377863
 31
0.0
  0
MTEXT
  5
81EF
330
18
100
AcDbEntity
  8
0
100
AcDbMText
 10
113.1623280896861
 20
82.52443485384409
 30
0.0
 40
2.153846153846153
 41
1.938461538461538
 71
     1
 72
     5
  1
\T1.1;\fＭＳ ゴシック|b0|i0|c128|p18;\H1.4;9
  7
MSｺﾞｼｯｸ
 11
-0.5877850844899974
 21
0.8090171162905557
 31
0.0
 73
     1
 44
1.0
  0
LINE
  5
81F0
330
18
100
AcDbEntity
  8
0
100
AcDbLine
 10
111.6963385394055
 20
78.86530880839401
 30
0.0
 11
119.6963385394055
 21
78.86530880839401
 31
0.0
  0
LINE
  5
81F1
330
18
100
AcDbEntity
  8
0
100
AcDbLine
 10
111.6963385394055
 20
78.86530880839401
 30
0.0
 11
119.6963385394055
 21
78.86530880839401
 31
0.0
  0
LINE
  5
81F2
330
18
100
AcDbEntity
  8
0
100
AcDbLine
 10
115.734800077867
 20
86.05761650070169
 30
0.0
 11
117.8886462317132
 21
86.05761650070169
 31
0.0
  0
MTEXT
  5
81F3
330
18
100
AcDbEntity
  8
0
100
AcDbMText
 10
120.6993730368145
 20
83.74345078728641
 30
0.0
 40
2.153846153846153
 41
1.938461538461538
 71
     1
 72
     5
  1
\T1.1;\fＭＳ ゴシック|b0|i0|c128|p18;\H1.4;6
  7
MSｺﾞｼｯｸ
 11
-0.5877850844899974
 21
-0.8090171162905557
 31
0.0
 73
     1
 44
1.0
  0
MTEXT
  5
81F4
330
18
100
AcDbEntity
  8
0
100
AcDbMText
 10
118.7946114342111
 20
82.00322137219524
 30
0.0
 40
2.153846153846153
 41
1.938461538461538
 71
     1
 72
     5
  1
\T1.1;\fＭＳ ゴシック|b0|i0|c128|p18;\H1.4;7
  7
MSｺﾞｼｯｸ
 11
-0.9510565608316644
 21
-0.3090168573056278
 31
0.0
 73
     1
 44
1.0
  0
MTEXT
  5
81F5
330
18
100
AcDbEntity
  8
0
100
AcDbMText
 10
115.9820681009782
 20
81.43724999836308
 30
0.0
 40
2.153846153846153
 41
1.938461538461538
 71
     1
 72
     5
  1
\T1.1;\fＭＳ ゴシック|b0|i0|c128|p18;\H1.4;8
  7
MSｺﾞｼｯｸ
 11
-0.9510565608316644
 21
0.3090168573056278
 31
0.0
 73
     1
 44
1.0
  0
MTEXT
  5
81F7
330
18
100
AcDbEntity
  8
0
100
AcDbMText
 10
107.3666673202509
 20
108.4326649716211
 30
0.0
 40
2.392731153524477
 41
7.286126815962822
 71
     5
 72
     5
  1
{\fＭＳ ゴシック|b0|i0|c128|p49;x 10}
  7
MSｺﾞｼｯｸ
 73
     1
 44
1.0
  0
MTEXT
  5
81F8
330
18
100
AcDbEntity
  8
0
100
AcDbMText
 10
106.9928661064143
 20
97.22740519267745
 30
0.0
 40
2.392731153524477
 41
5.565971209328641
 71
     5
 72
     5
  1
{\fＭＳ ゴシック|b0|i0|c128|p49;x 1}
  7
MSｺﾞｼｯｸ
 73
     1
 44
1.0
  0
MTEXT
  5
81F9
330
18
100
AcDbEntity
  8
0
100
AcDbMText
 10
107.3666673202509
 20
88.82346051058954
 30
0.0
 40
2.392731153524477
 41
5.565971209328641
 71
     5
 72
     5
  1
{\fＭＳ ゴシック|b0|i0|c128|p49;RATE}
  7
MSｺﾞｼｯｸ
 73
     1
 44
1.0
  0
LINE
  5
823D
330
18
100
AcDbEntity
  8
0
100
AcDbLine
 10
121.6963385394055
 20
102.1345395776247
 30
0.0
 11
121.734800077867
 21
92.17300111608631
 31
0.0
  0
LINE
  5
823E
330
18
100
AcDbEntity
  8
0
100
AcDbLine
 10
111.6963385394055
 20
99.51915496224017
 30
0.0
 11
114.2732616163286
 21
102.1345395776247
 31
0.0
  0
MTEXT
  5
823F
330
18
100
AcDbEntity
  8
0
100
AcDbMText
 10
114.908683684706
 20
101.4072796783036
 30
0.0
 40
2.153846153846153
 41
1.938461538461538
 71
     1
 72
     5
  1
\T1.1;\fＭＳ ゴシック|b0|i0|c128|p18;\H1.4;2
  7
MSｺﾞｼｯｸ
 11
0.9510565608316644
 21
0.3090168573056278
 31
0.0
 73
     1
 44
1.0
  0
LINE
  5
8240
330
18
100
AcDbEntity
  8
0
100
AcDbLine
 10
111.6963385394055
 20
92.17300111608631
 30
0.0
 11
121.734800077867
 21
92.17300111608631
 31
0.0
  0
LINE
  5
8241
330
18
100
AcDbEntity
  8
0
100
AcDbLine
 10
111.6963385394055
 20
90.90377034685554
 30
0.0
 11
121.734800077867
 21
90.90377034685554
 31
0.0
  0
MTEXT
  5
8242
330
18
100
AcDbEntity
  8
0
100
AcDbMText
 10
118.8385495803677
 20
93.25839272075198
 30
0.0
 40
2.153846153846153
 41
1.938461538461538
 71
     1
 72
     5
  1
\T1.1;\fＭＳ ゴシック|b0|i0|c128|p18;\H1.4;7
  7
MSｺﾞｼｯｸ
 11
-0.9510565608316644
 21
-0.3090168573056278
 31
0.0
 73
     1
 44
1.0
  0
MTEXT
  5
8243
330
18
100
AcDbEntity
  8
0
100
AcDbMText
 10
116.0260062471348
 20
92.69242134691982
 30
0.0
 40
2.153846153846153
 41
1.938461538461538
 71
     1
 72
     5
  1
\T1.1;\fＭＳ ゴシック|b0|i0|c128|p18;\H1.4;8
  7
MSｺﾞｼｯｸ
 11
-0.9510565608316644
 21
0.3090168573056278
 31
0.0
 73
     1
 44
1.0
  0
LINE
  5
8244
330
18
100
AcDbEntity
  8
0
100
AcDbLine
 10
111.6963385394055
 20
88.28838573147095
 30
0.0
 11
114.2732616163286
 21
90.90377034685554
 31
0.0
  0
MTEXT
  5
8245
330
18
100
AcDbEntity
  8
0
100
AcDbMText
 10
112.8573340267703
 20
88.53933573651113
 30
0.0
 40
2.153846153846153
 41
1.411016689239483
 71
     1
 72
     5
  1
\T1.1;\fＭＳ ゴシック|b0|i0|c128|p18;\H1.4;1
  7
MSｺﾞｼｯｸ
 11
0.5877850844899974
 21
0.8090171162905557
 31
0.0
 73
     1
 44
1.0
  0
MTEXT
  5
8246
330
18
100
AcDbEntity
  8
0
100
AcDbMText
 10
117.9041113139371
 20
90.29975652225402
 30
0.0
 40
2.153846153846153
 41
1.938461538461538
 71
     1
 72
     5
  1
\T1.1;\fＭＳ ゴシック|b0|i0|c128|p18;\H1.4;3
  7
MSｺﾞｼｯｸ
 11
0.9510565608316644
 21
-0.3090168573056278
 31
0.0
 73
     1
 44
1.0
  0
MTEXT
  5
8247
330
18
100
AcDbEntity
  8
0
100
AcDbMText
 10
114.8647455385494
 20
90.15210832974693
 30
0.0
 40
2.153846153846153
 41
1.938461538461538
 71
     1
 72
     5
  1
\T1.1;\fＭＳ ゴシック|b0|i0|c128|p18;\H1.4;2
  7
MSｺﾞｼｯｸ
 11
0.9510565608316644
 21
0.3090168573056278
 31
0.0
 73
     1
 44
1.0
  0
MTEXT
  5
8248
330
18
100
AcDbEntity
  8
0
100
AcDbMText
 10
120.3422284936612
 20
89.0422754508082
 30
0.0
 40
2.153846153846153
 41
1.938461538461538
 71
     1
 72
     5
  1
\T1.1;\fＭＳ ゴシック|b0|i0|c128|p18;\H1.4;4
  7
MSｺﾞｼｯｸ
 11
0.5877850844899974
 21
-0.8090171162905557
 31
0.0
 73
     1
 44
1.0
  0
MTEXT
  5
8249
330
18
100
AcDbEntity
  8
0
100
AcDbMText
 10
112.9012721729269
 20
99.79450708506789
 30
0.0
 40
2.153846153846153
 41
1.411016689239483
 71
     1
 72
     5
  1
\T1.1;\fＭＳ ゴシック|b0|i0|c128|p18;\H1.4;1
  7
MSｺﾞｼｯｸ
 11
0.5877850844899974
 21
0.8090171162905557
 31
0.0
 73
     1
 44
1.0
  0
MTEXT
  5
824A
330
18
100
AcDbEntity
  8
0
100
AcDbMText
 10
113.2062662358428
 20
93.77960620240086
 30
0.0
 40
2.153846153846153
 41
1.938461538461538
 71
     1
 72
     5
  1
\T1.1;\fＭＳ ゴシック|b0|i0|c128|p18;\H1.4;9
  7
MSｺﾞｼｯｸ
 11
-0.5877850844899974
 21
0.8090171162905557
 31
0.0
 73
     1
 44
1.0
  0
MTEXT
  5
824B
330
18
100
AcDbEntity
  8
0
100
AcDbMText
 10
112.3731722601478
 20
96.67540943626356
 30
0.0
 40
2.153846153846153
 41
1.938461538461538
 71
     1
 72
     5
  1
\T1.1;\fＭＳ ゴシック|b0|i0|c128|p18;\H1.4;0
  7
MSｺﾞｼｯｸ
 11
0.0
 21
1.0
 31
0.0
 73
     1
 44
1.0
  0
LINE
  5
824C
330
18
100
AcDbEntity
  8
0
100
AcDbLine
 10
115.734800077867
 20
97.28838573147095
 30
0.0
 11
117.8886462317132
 21
97.28838573147095
 31
0.0
  0
MTEXT
  5
824D
330
18
100
AcDbEntity
  8
0
100
AcDbMText
 10
117.9480494600937
 20
101.5549278708107
 30
0.0
 40
2.153846153846153
 41
1.938461538461538
 71
     1
 72
     5
  1
\T1.1;\fＭＳ ゴシック|b0|i0|c128|p18;\H1.4;3
  7
MSｺﾞｼｯｸ
 11
0.9510565608316644
 21
-0.3090168573056278
 31
0.0
 73
     1
 44
1.0
  0
CIRCLE
  5
824E
330
18
100
AcDbEntity
  8
0
100
AcDbCircle
 10
116.7732616163286
 20
97.2499241930094
 30
0.0
 40
1.846153846153846
  0
HATCH
  5
824F
330
18
100
AcDbEntity
  8
0
100
AcDbHatch
 10
0.0
 20
0.0
 30
0.0
210
0.0
220
0.0
230
1.0
  2
SOLID
 70
     1
 71
     0
 91
        1
 92
        7
 72
     0
 73
     1
 93
        3
 10
116.0040308470978
 20
98.09607803916325
 10
115.234800077867
 20
97.32684726993248
 10
116.0040308470978
 20
96.5576165007017
 97
        1
330
8250
 75
     0
 76
     1
 47
0.651316
 98
        1
 10
47.8886462317132
 20
-39.86546042237523
  0
LWPOLYLINE
  5
8250
330
18
100
AcDbEntity
  8
0
100
AcDbPolyline
 90
        3
 70
     0
 43
0.0
 10
116.0040308470978
 20
98.09607803916325
 10
115.234800077867
 20
97.32684726993248
 10
116.0040308470978
 20
96.5576165007017
  0
LINE
  5
8251
330
18
100
AcDbEntity
  8
0
100
AcDbLine
 10
116.734800077867
 20
98.55761650070171
 30
0.0
 11
116.734800077867
 21
96.09607803916325
 31
0.0
  0
MTEXT
  5
8252
330
18
100
AcDbEntity
  8
0
100
AcDbMText
 10
120.3861666398178
 20
100.2974467993649
 30
0.0
 40
2.153846153846153
 41
1.938461538461538
 71
     1
 72
     5
  1
\T1.1;\fＭＳ ゴシック|b0|i0|c128|p18;\H1.4;4
  7
MSｺﾞｼｯｸ
 11
0.5877850844899974
 21
-0.8090171162905557
 31
0.0
 73
     1
 44
1.0
  0
MTEXT
  5
8253
330
18
100
AcDbEntity
  8
0
100
AcDbMText
 10
121.2799074084322
 20
97.59449771048227
 30
0.0
 40
2.153846153846153
 41
1.938461538461538
 71
     1
 72
     5
  1
\T1.1;\fＭＳ ゴシック|b0|i0|c128|p18;\H1.4;5
  7
MSｺﾞｼｯｸ
 11
0.0
 21
-1.0
 31
0.0
 73
     1
 44
1.0
  0
MTEXT
  5
8254
330
18
100
AcDbEntity
  8
0
100
AcDbMText
 10
120.7433111829711
 20
94.99862213584316
 30
0.0
 40
2.153846153846153
 41
1.938461538461538
 71
     1
 72
     5
  1
\T1.1;\fＭＳ ゴシック|b0|i0|c128|p18;\H1.4;6
  7
MSｺﾞｼｯｸ
 11
-0.5877850844899974
 21
-0.8090171162905557
 31
0.0
 73
     1
 44
1.0
  0
LINE
  5
8255
330
18
100
AcDbEntity
  8
0
100
AcDbLine
 10
111.6963385394055
 20
113.3653088083939
 30
0.0
 11
121.734800077867
 21
113.3653088083939
 31
0.0
  0
LINE
  5
8256
330
18
100
AcDbEntity
  8
0
100
AcDbLine
 10
110.8151908824926
 20
115.6730011160863
 30
0.0
 11
124.3886462317132
 21
115.6730011160863
 31
0.0
  0
LINE
  5
8257
330
18
100
AcDbEntity
  8
0
100
AcDbLine
 10
111.6963385394055
 20
103.4037703468555
 30
0.0
 11
121.734800077867
 21
103.4037703468555
 31
0.0
  0
LINE
  5
8258
330
18
100
AcDbEntity
  8
0
100
AcDbLine
 10
111.6963385394055
 20
102.1345395776247
 30
0.0
 11
121.734800077867
 21
102.1345395776247
 31
0.0
  0
LINE
  5
8259
330
18
100
AcDbEntity
  8
0
100
AcDbLine
 10
116.734800077867
 20
109.7883857314709
 30
0.0
 11
116.734800077867
 21
107.3268472699324
 31
0.0
  0
MTEXT
  5
825A
330
18
100
AcDbEntity
  8
0
100
AcDbMText
 10
112.3246489023867
 20
108.0378267342653
 30
0.0
 40
2.153846153846153
 41
1.938461538461538
 71
     1
 72
     5
  1
\T1.1;\fＭＳ ゴシック|b0|i0|c128|p18;\H1.4;0
  7
MSｺﾞｼｯｸ
 11
0.0
 21
1.0
 31
0.0
 73
     1
 44
1.0
  0
HATCH
  5
825B
330
18
100
AcDbEntity
  8
0
100
AcDbHatch
 10
0.0
 20
0.0
 30
0.0
210
0.0
220
0.0
230
1.0
  2
SOLID
 70
     1
 71
     0
 91
        1
 92
        7
 72
     0
 73
     1
 93
        3
 10
116.0040308470978
 20
109.3268472699324
 10
115.234800077867
 20
108.5576165007017
 10
116.0040308470978
 20
107.7883857314709
 97
        1
330
825C
 75
     0
 76
     1
 47
0.651316
 98
        1
 10
47.8886462317132
 20
-39.86546042237523
  0
LWPOLYLINE
  5
825C
330
18
100
AcDbEntity
  8
0
100
AcDbPolyline
 90
        3
 70
     0
 43
0.0
 10
116.0040308470978
 20
109.3268472699324
 10
115.234800077867
 20
108.5576165007017
 10
116.0040308470978
 20
107.7883857314709
  0
CIRCLE
  5
825D
330
18
100
AcDbEntity
  8
0
100
AcDbCircle
 10
116.7732616163286
 20
108.4806934237786
 30
0.0
 40
1.846153846153846
  0
MTEXT
  5
825E
330
18
100
AcDbEntity
  8
0
100
AcDbMText
 10
121.2313840506711
 20
108.9569150084841
 30
0.0
 40
2.153846153846153
 41
1.938461538461538
 71
     1
 72
     5
  1
\T1.1;\fＭＳ ゴシック|b0|i0|c128|p18;\H1.4;5
  7
MSｺﾞｼｯｸ
 11
0.0
 21
-1.0
 31
0.0
 73
     1
 44
1.0
  0
MTEXT
  5
825F
330
18
100
AcDbEntity
  8
0
100
AcDbMText
 10
113.1577428780816
 20
105.1420235004026
 30
0.0
 40
2.153846153846153
 41
1.938461538461538
 71
     1
 72
     5
  1
\T1.1;\fＭＳ ゴシック|b0|i0|c128|p18;\H1.4;9
  7
MSｺﾞｼｯｸ
 11
-0.5877850844899974
 21
0.8090171162905557
 31
0.0
 73
     1
 44
1.0
  0
LINE
  5
8260
330
18
100
AcDbEntity
  8
0
100
AcDbLine
 10
115.734800077867
 20
108.5191549622401
 30
0.0
 11
117.8886462317132
 21
108.5191549622401
 31
0.0
  0
MTEXT
  5
8261
330
18
100
AcDbEntity
  8
0
100
AcDbMText
 10
118.7900262226066
 20
104.6208100187537
 30
0.0
 40
2.153846153846153
 41
1.938461538461538
 71
     1
 72
     5
  1
\T1.1;\fＭＳ ゴシック|b0|i0|c128|p18;\H1.4;7
  7
MSｺﾞｼｯｸ
 11
-0.9510565608316644
 21
-0.3090168573056278
 31
0.0
 73
     1
 44
1.0
  0
MTEXT
  5
8262
330
18
100
AcDbEntity
  8
0
100
AcDbMText
 10
115.9774828893736
 20
104.0548386449216
 30
0.0
 40
2.153846153846153
 41
1.938461538461538
 71
     1
 72
     5
  1
\T1.1;\fＭＳ ゴシック|b0|i0|c128|p18;\H1.4;8
  7
MSｺﾞｼｯｸ
 11
-0.9510565608316644
 21
0.3090168573056278
 31
0.0
 73
     1
 44
1.0
  0
MTEXT
  5
8263
330
18
100
AcDbEntity
  8
0
100
AcDbMText
 10
120.69478782521
 20
106.3610394338449
 30
0.0
 40
2.153846153846153
 41
1.938461538461538
 71
     1
 72
     5
  1
\T1.1;\fＭＳ ゴシック|b0|i0|c128|p18;\H1.4;6
  7
MSｺﾞｼｯｸ
 11
-0.5877850844899974
 21
-0.8090171162905557
 31
0.0
 73
     1
 44
1.0
  0
MTEXT
  5
8264
330
18
100
AcDbEntity
  8
0
100
AcDbMText
 10
112.8527488151658
 20
111.1569243830696
 30
0.0
 40
2.153846153846153
 41
1.805318338648825
 71
     1
 72
     5
  1
\T1.1;\fＭＳ ゴシック|b0|i0|c128|p18;\H1.4;1
  7
MSｺﾞｼｯｸ
 11
0.5877850844899974
 21
0.8090171162905557
 31
0.0
 73
     1
 44
1.0
  0
LINE
  5
8265
330
18
100
AcDbEntity
  8
0
100
AcDbLine
 10
111.6963385394055
 20
110.7499241930094
 30
0.0
 11
114.2732616163286
 21
113.3653088083939
 31
0.0
  0
MTEXT
  5
8266
330
18
100
AcDbEntity
  8
0
100
AcDbMText
 10
120.3376432820566
 20
111.6598640973667
 30
0.0
 40
2.153846153846153
 41
1.938461538461538
 71
     1
 72
     5
  1
\T1.1;\fＭＳ ゴシック|b0|i0|c128|p18;\H1.4;4
  7
MSｺﾞｼｯｸ
 11
0.5877850844899974
 21
-0.8090171162905557
 31
0.0
 73
     1
 44
1.0
  0
MTEXT
  5
8267
330
18
100
AcDbEntity
  8
0
100
AcDbMText
 10
114.8601603269448
 20
112.7696969763055
 30
0.0
 40
2.153846153846153
 41
1.938461538461538
 71
     1
 72
     5
  1
\T1.1;\fＭＳ ゴシック|b0|i0|c128|p18;\H1.4;2
  7
MSｺﾞｼｯｸ
 11
0.9510565608316644
 21
0.3090168573056278
 31
0.0
 73
     1
 44
1.0
  0
MTEXT
  5
8268
330
18
100
AcDbEntity
  8
0
100
AcDbMText
 10
117.8995261023326
 20
112.9173451688125
 30
0.0
 40
2.153846153846153
 41
1.938461538461538
 71
     1
 72
     5
  1
\T1.1;\fＭＳ ゴシック|b0|i0|c128|p18;\H1.4;3
  7
MSｺﾞｼｯｸ
 11
0.9510565608316644
 21
-0.3090168573056278
 31
0.0
 73
     1
 44
1.0
  0
LINE
  5
8269
330
18
100
AcDbEntity
  8
0
100
AcDbLine
 10
121.6963385394055
 20
113.3653088083939
 30
0.0
 11
121.734800077867
 21
103.4037703468555
 31
0.0
  0
MTEXT
  5
826A
330
18
100
AcDbEntity
  8
0
100
AcDbMText
 10
116.7117019121003
 20
118.3306444125973
 30
0.0
 40
2.392731153524477
 41
10.33162170242641
 71
     5
 72
     5
  1
{\fＭＳ ゴシック|b0|i0|c128|p49;ST No.}
  7
MSｺﾞｼｯｸ
 73
     1
 44
1.0
  0
LINE
  5
826B
330
18
100
AcDbEntity
  8
0
100
AcDbLine
 10
101.8886462317132
 20
169.6730011160863
 30
0.0
 11
126.8886462317132
 21
169.6730011160863
 31
0.0
  0
LWPOLYLINE
  5
826C
330
18
100
AcDbEntity
  8
0
100
AcDbPolyline
 90
        8
 70
     1
 43
0.0
 10
107.430790966033
 20
166.1664890764463
 10
121.6944651959245
 20
166.1664890764463
 42
-0.4142135623730951
 10
122.8429761496163
 20
165.0179781227546
 10
122.8429761496163
 20
158.9091013365203
 42
-0.4142135623730906
 10
121.6944651959245
 20
157.7605903828286
 10
107.4307909660332
 20
157.7605903828285
 42
-0.4142135623730951
 10
106.2822800123415
 20
158.9091013365202
 10
106.2822800123413
 20
165.0179781227546
 42
-0.4142135623730984
  0
MTEXT
  5
8280
330
18
100
AcDbEntity
  8
0
100
AcDbMText
 10
107.0708838399186
 20
163.6624946474806
 30
0.0
 40
3.349823614934269
 41
15.77211809006422
 71
     1
 72
     5
  1
CC-Link
  7
MSｺﾞｼｯｸ
 73
     1
 44
1.0
  0
LINE
  5
828B
330
18
100
AcDbEntity
  8
0
100
AcDbLine
 10
102.8886462317132
 20
169.6730011160863
 30
0.0
 11
103.8886462317132
 21
169.6730011160863
 31
0.0
  0
LINE
  5
828D
330
18
100
AcDbEntity
  8
0
100
AcDbLine
 10
100.8886462317132
 20
9.673001116086311
 30
0.0
 11
101.8886462317132
 21
9.673001116086311
 31
0.0
  0
LINE
  5
82C5
330
18
100
AcDbEntity
  8
0
100
AcDbLine
 10
101.8886462317132
 20
169.6730011160863
 30
0.0
 11
102.8886462317132
 21
168.6730011160863
 31
0.0
  0
LINE
  5
82C6
330
18
100
AcDbEntity
  8
0
100
AcDbLine
 10
101.8886462317132
 20
9.673001116086311
 30
0.0
 11
102.8886462317132
 21
10.67300111608631
 31
0.0
  0
LWPOLYLINE
  5
8485
330
18
100
AcDbEntity
  8
0
100
AcDbPolyline
 90
        2
 70
     0
 43
0.0
 10
440.6783281057205
 20
223.948096696266
 10
297.6783281057205
 20
223.948096696266
  0
LWPOLYLINE
  5
8486
330
18
100
AcDbEntity
  8
0
100
AcDbPolyline
 90
        2
 70
     0
 43
0.0
 10
312.6783281057205
 20
298.9480966962659
 10
425.6783281057205
 20
298.9480966962659
  0
LINE
  5
8487
330
18
100
AcDbEntity
  8
0
100
AcDbLine
 10
297.6783281057205
 20
224.948096696266
 30
0.0
 11
440.6783281057205
 21
224.948096696266
 31
0.0
  0
LINE
  5
8488
330
18
100
AcDbEntity
  8
0
100
AcDbLine
 10
295.6783281057205
 20
251.948096696266
 30
0.0
 11
295.6783281057205
 21
223.948096696266
 31
0.0
  0
LINE
  5
8489
330
18
100
AcDbEntity
  8
0
100
AcDbLine
 10
296.6783281057205
 20
224.948096696266
 30
0.0
 11
296.6783281057205
 21
251.948096696266
 31
0.0
  0
LWPOLYLINE
  5
848A
330
18
100
AcDbEntity
  8
0
100
AcDbPolyline
 90
        4
 70
     0
 43
0.0
 10
297.6783281057205
 20
224.948096696266
 10
297.6783281057205
 20
297.948096696266
 10
298.6783281057205
 20
298.9480966962659
 10
302.6783281057205
 20
298.9480966962659
  0
LWPOLYLINE
  5
848F
330
18
100
AcDbEntity
  8
0
100
AcDbPolyline
 90
        4
 70
     1
 43
0.0
 10
304.6783281057205
 20
293.948096696266
 10
304.6783281057205
 20
276.948096696266
 10
301.6783281057205
 20
276.948096696266
 10
301.6783281057205
 20
293.948096696266
  0
LWPOLYLINE
  5
8490
330
18
100
AcDbEntity
  8
0
100
AcDbPolyline
 90
        4
 70
     1
 43
0.0
 10
310.1783281057205
 20
293.948096696266
 10
310.1783281057205
 20
276.948096696266
 10
307.1783281057205
 20
276.948096696266
 10
307.1783281057205
 20
293.948096696266
  0
LWPOLYLINE
  5
8491
330
18
100
AcDbEntity
  8
0
100
AcDbPolyline
 90
        4
 70
     1
 43
0.0
 10
315.6783281057205
 20
293.948096696266
 10
315.6783281057205
 20
276.948096696266
 10
312.6783281057205
 20
276.948096696266
 10
312.6783281057205
 20
293.948096696266
  0
LINE
  5
8493
330
18
100
AcDbEntity
  8
0
100
AcDbLine
 10
312.6783281057205
 20
300.948096696266
 30
0.0
 11
302.6783281057205
 21
300.948096696266
 31
0.0
  0
LINE
  5
8494
330
18
100
AcDbEntity
  8
0
100
AcDbLine
 10
302.6783281057205
 20
300.948096696266
 30
0.0
 11
302.6783281057205
 21
298.9480966962659
 31
0.0
  0
LINE
  5
8495
330
18
100
AcDbEntity
  8
0
100
AcDbLine
 10
312.6783281057205
 20
298.9480966962659
 30
0.0
 11
312.6783281057205
 21
300.948096696266
 31
0.0
  0
LWPOLYLINE
  5
8496
330
18
100
AcDbEntity
  8
0
100
AcDbPolyline
 90
        4
 70
     1
 43
0.0
 10
304.6783281057205
 20
269.948096696266
 10
304.6783281057205
 20
252.948096696266
 10
301.6783281057205
 20
252.948096696266
 10
301.6783281057205
 20
269.948096696266
  0
LWPOLYLINE
  5
8497
330
18
100
AcDbEntity
  8
0
100
AcDbPolyline
 90
        4
 70
     1
 43
0.0
 10
310.1783281057205
 20
269.948096696266
 10
310.1783281057205
 20
252.948096696266
 10
307.1783281057205
 20
252.948096696266
 10
307.1783281057205
 20
269.948096696266
  0
LWPOLYLINE
  5
8498
330
18
100
AcDbEntity
  8
0
100
AcDbPolyline
 90
        4
 70
     1
 43
0.0
 10
315.6783281057205
 20
269.948096696266
 10
315.6783281057205
 20
252.948096696266
 10
312.6783281057205
 20
252.948096696266
 10
312.6783281057205
 20
269.948096696266
  0
LINE
  5
8499
330
18
100
AcDbEntity
  8
0
100
AcDbLine
 10
296.6783281057205
 20
251.948096696266
 30
0.0
 11
295.6783281057205
 21
251.948096696266
 31
0.0
  0
LINE
  5
849A
330
18
100
AcDbEntity
  8
0
100
AcDbLine
 10
295.6783281057205
 20
223.948096696266
 30
0.0
 11
297.6783281057205
 21
223.948096696266
 31
0.0
  0
LINE
  5
849B
330
18
100
AcDbEntity
  8
0
100
AcDbLine
 10
297.6783281057205
 20
224.948096696266
 30
0.0
 11
296.6783281057205
 21
224.948096696266
 31
0.0
  0
LINE
  5
84A8
330
18
100
AcDbEntity
  8
0
100
AcDbLine
 10
442.6783281057205
 20
223.948096696266
 30
0.0
 11
442.6783281057205
 21
251.948096696266
 31
0.0
  0
LWPOLYLINE
  5
84A9
330
18
100
AcDbEntity
  8
0
100
AcDbPolyline
 90
        4
 70
     0
 43
0.0
 10
435.6783281057205
 20
298.9480966962659
 10
439.6783281057205
 20
298.9480966962659
 10
440.6783281057205
 20
297.948096696266
 10
440.6783281057205
 20
224.948096696266
  0
LINE
  5
84AA
330
18
100
AcDbEntity
  8
0
100
AcDbLine
 10
442.6783281057205
 20
251.948096696266
 30
0.0
 11
442.6783281057205
 21
223.948096696266
 31
0.0
  0
LINE
  5
84AB
330
18
100
AcDbEntity
  8
0
100
AcDbLine
 10
441.6783281057205
 20
224.948096696266
 30
0.0
 11
441.6783281057205
 21
251.948096696266
 31
0.0
  0
LWPOLYLINE
  5
84AD
330
18
100
AcDbEntity
  8
0
100
AcDbPolyline
 90
        4
 70
     1
 43
0.0
 10
403.6783281057205
 20
269.948096696266
 10
403.6783281057205
 20
252.948096696266
 10
400.6783281057205
 20
252.948096696266
 10
400.6783281057205
 20
269.948096696266
  0
LWPOLYLINE
  5
84AE
330
18
100
AcDbEntity
  8
0
100
AcDbPolyline
 90
        4
 70
     1
 43
0.0
 10
403.6783281057205
 20
293.948096696266
 10
403.6783281057205
 20
276.948096696266
 10
400.6783281057205
 20
276.948096696266
 10
400.6783281057205
 20
293.948096696266
  0
LWPOLYLINE
  5
84AF
330
18
100
AcDbEntity
  8
0
100
AcDbPolyline
 90
        4
 70
     1
 43
0.0
 10
376.1783281057205
 20
266.948096696266
 10
376.1783281057205
 20
252.948096696266
 10
340.1783281057205
 20
252.948096696266
 10
340.1783281057205
 20
266.948096696266
  0
LWPOLYLINE
  5
84B0
330
18
100
AcDbEntity
  8
0
100
AcDbPolyline
 90
        4
 70
     1
 43
0.0
 10
359.6783281057205
 20
293.948096696266
 10
359.6783281057205
 20
276.948096696266
 10
356.6783281057205
 20
276.948096696266
 10
356.6783281057205
 20
293.948096696266
  0
LWPOLYLINE
  5
84B1
330
18
100
AcDbEntity
  8
0
100
AcDbPolyline
 90
        4
 70
     1
 43
0.0
 10
337.6783281057205
 20
293.948096696266
 10
337.6783281057205
 20
276.948096696266
 10
334.6783281057205
 20
276.948096696266
 10
334.6783281057205
 20
293.948096696266
  0
LWPOLYLINE
  5
84B2
330
18
100
AcDbEntity
  8
0
100
AcDbPolyline
 90
        4
 70
     1
 43
0.0
 10
321.1783281057205
 20
293.948096696266
 10
321.1783281057205
 20
276.948096696266
 10
318.1783281057205
 20
276.948096696266
 10
318.1783281057205
 20
293.948096696266
  0
LWPOLYLINE
  5
84B3
330
18
100
AcDbEntity
  8
0
100
AcDbPolyline
 90
        4
 70
     1
 43
0.0
 10
326.6783281057205
 20
293.948096696266
 10
326.6783281057205
 20
276.948096696266
 10
323.6783281057205
 20
276.948096696266
 10
323.6783281057205
 20
293.948096696266
  0
LWPOLYLINE
  5
84B4
330
18
100
AcDbEntity
  8
0
100
AcDbPolyline
 90
        4
 70
     1
 43
0.0
 10
332.1783281057205
 20
293.948096696266
 10
332.1783281057205
 20
276.948096696266
 10
329.1783281057205
 20
276.948096696266
 10
329.1783281057205
 20
293.948096696266
  0
LWPOLYLINE
  5
84B5
330
18
100
AcDbEntity
  8
0
100
AcDbPolyline
 90
        4
 70
     1
 43
0.0
 10
343.1783281057205
 20
293.948096696266
 10
343.1783281057205
 20
276.948096696266
 10
340.1783281057205
 20
276.948096696266
 10
340.1783281057205
 20
293.948096696266
  0
LWPOLYLINE
  5
84B6
330
18
100
AcDbEntity
  8
0
100
AcDbPolyline
 90
        4
 70
     1
 43
0.0
 10
348.6783281057205
 20
293.948096696266
 10
348.6783281057205
 20
276.948096696266
 10
345.6783281057205
 20
276.948096696266
 10
345.6783281057205
 20
293.948096696266
  0
LWPOLYLINE
  5
84B7
330
18
100
AcDbEntity
  8
0
100
AcDbPolyline
 90
        4
 70
     1
 43
0.0
 10
354.1783281057205
 20
293.948096696266
 10
354.1783281057205
 20
276.948096696266
 10
351.1783281057205
 20
276.948096696266
 10
351.1783281057205
 20
293.948096696266
  0
CIRCLE
  5
84B9
330
18
100
AcDbEntity
  8
0
100
AcDbCircle
 10
336.1783281057205
 20
255.948096696266
 30
0.0
 40
3.25
  0
LWPOLYLINE
  5
84BA
330
18
100
AcDbEntity
  8
0
100
AcDbPolyline
 90
        4
 70
     1
 43
0.0
 10
337.6783281057205
 20
269.948096696266
 10
337.6783281057205
 20
259.948096696266
 10
334.6783281057205
 20
259.948096696266
 10
334.6783281057205
 20
269.948096696266
  0
LWPOLYLINE
  5
84BB
330
18
100
AcDbEntity
  8
0
100
AcDbPolyline
 90
        4
 70
     1
 43
0.0
 10
321.1783281057205
 20
269.948096696266
 10
321.1783281057205
 20
252.948096696266
 10
318.1783281057205
 20
252.948096696266
 10
318.1783281057205
 20
269.948096696266
  0
LWPOLYLINE
  5
84BC
330
18
100
AcDbEntity
  8
0
100
AcDbPolyline
 90
        4
 70
     1
 43
0.0
 10
326.6783281057205
 20
269.948096696266
 10
326.6783281057205
 20
252.948096696266
 10
323.6783281057205
 20
252.948096696266
 10
323.6783281057205
 20
269.948096696266
  0
LWPOLYLINE
  5
84BD
330
18
100
AcDbEntity
  8
0
100
AcDbPolyline
 90
        4
 70
     1
 43
0.0
 10
332.1783281057205
 20
269.948096696266
 10
332.1783281057205
 20
252.948096696266
 10
329.1783281057205
 20
252.948096696266
 10
329.1783281057205
 20
269.948096696266
  0
LWPOLYLINE
  5
84C1
330
18
100
AcDbEntity
  8
0
100
AcDbPolyline
 90
        4
 70
     1
 43
0.0
 10
381.6783281057205
 20
293.948096696266
 10
381.6783281057205
 20
276.948096696266
 10
378.6783281057205
 20
276.948096696266
 10
378.6783281057205
 20
293.948096696266
  0
LWPOLYLINE
  5
84C3
330
18
100
AcDbEntity
  8
0
100
AcDbPolyline
 90
        4
 70
     1
 43
0.0
 10
365.1783281057205
 20
293.948096696266
 10
365.1783281057205
 20
276.948096696266
 10
362.1783281057205
 20
276.948096696266
 10
362.1783281057205
 20
293.948096696266
  0
LWPOLYLINE
  5
84C4
330
18
100
AcDbEntity
  8
0
100
AcDbPolyline
 90
        4
 70
     1
 43
0.0
 10
376.1783281057205
 20
293.948096696266
 10
376.1783281057205
 20
276.948096696266
 10
373.1783281057205
 20
276.948096696266
 10
373.1783281057205
 20
293.948096696266
  0
ARC
  5
84C6
330
18
100
AcDbEntity
  8
0
100
AcDbCircle
 10
369.1783281057205
 20
295.448096696266
 30
0.0
 40
2.0
100
AcDbArc
 50
7.18075578145977
 51
172.8192442185402
  0
LWPOLYLINE
  5
84CA
330
18
100
AcDbEntity
  8
0
100
AcDbPolyline
 90
        4
 70
     1
 43
0.0
 10
370.6783281057205
 20
286.948096696266
 10
370.6783281057205
 20
276.948096696266
 10
367.6783281057205
 20
276.948096696266
 10
367.6783281057205
 20
286.948096696266
  0
LWPOLYLINE
  5
84CB
330
18
100
AcDbEntity
  8
0
100
AcDbPolyline
 90
        4
 70
     1
 43
0.0
 10
387.1783281057205
 20
293.948096696266
 10
387.1783281057205
 20
276.948096696266
 10
384.1783281057205
 20
276.948096696266
 10
384.1783281057205
 20
293.948096696266
  0
LWPOLYLINE
  5
84CC
330
18
100
AcDbEntity
  8
0
100
AcDbPolyline
 90
        4
 70
     1
 43
0.0
 10
392.6783281057205
 20
293.948096696266
 10
392.6783281057205
 20
276.948096696266
 10
389.6783281057205
 20
276.948096696266
 10
389.6783281057205
 20
293.948096696266
  0
LWPOLYLINE
  5
84CD
330
18
100
AcDbEntity
  8
0
100
AcDbPolyline
 90
        4
 70
     1
 43
0.0
 10
398.1783281057205
 20
293.948096696266
 10
398.1783281057205
 20
276.948096696266
 10
395.1783281057205
 20
276.948096696266
 10
395.1783281057205
 20
293.948096696266
  0
LWPOLYLINE
  5
84CE
330
18
100
AcDbEntity
  8
0
100
AcDbPolyline
 90
        4
 70
     1
 43
0.0
 10
381.6783281057205
 20
269.948096696266
 10
381.6783281057205
 20
252.948096696266
 10
378.6783281057205
 20
252.948096696266
 10
378.6783281057205
 20
269.948096696266
  0
LWPOLYLINE
  5
84CF
330
18
100
AcDbEntity
  8
0
100
AcDbPolyline
 90
        4
 70
     1
 43
0.0
 10
387.1783281057205
 20
269.948096696266
 10
387.1783281057205
 20
252.948096696266
 10
384.1783281057205
 20
252.948096696266
 10
384.1783281057205
 20
269.948096696266
  0
LWPOLYLINE
  5
84D0
330
18
100
AcDbEntity
  8
0
100
AcDbPolyline
 90
        4
 70
     1
 43
0.0
 10
392.6783281057205
 20
269.948096696266
 10
392.6783281057205
 20
252.948096696266
 10
389.6783281057205
 20
252.948096696266
 10
389.6783281057205
 20
269.948096696266
  0
LWPOLYLINE
  5
84D1
330
18
100
AcDbEntity
  8
0
100
AcDbPolyline
 90
        4
 70
     1
 43
0.0
 10
398.1783281057205
 20
269.948096696266
 10
398.1783281057205
 20
252.948096696266
 10
395.1783281057205
 20
252.948096696266
 10
395.1783281057205
 20
269.948096696266
  0
LWPOLYLINE
  5
84D6
330
18
100
AcDbEntity
  8
0
100
AcDbPolyline
 90
        4
 70
     1
 43
0.0
 10
425.6783281057205
 20
293.948096696266
 10
425.6783281057205
 20
276.948096696266
 10
422.6783281057205
 20
276.948096696266
 10
422.6783281057205
 20
293.948096696266
  0
LWPOLYLINE
  5
84D7
330
18
100
AcDbEntity
  8
0
100
AcDbPolyline
 90
        4
 70
     1
 43
0.0
 10
409.1783281057205
 20
293.948096696266
 10
409.1783281057205
 20
276.948096696266
 10
406.1783281057205
 20
276.948096696266
 10
406.1783281057205
 20
293.948096696266
  0
LWPOLYLINE
  5
84D8
330
18
100
AcDbEntity
  8
0
100
AcDbPolyline
 90
        4
 70
     1
 43
0.0
 10
414.6783281057205
 20
293.948096696266
 10
414.6783281057205
 20
276.948096696266
 10
411.6783281057205
 20
276.948096696266
 10
411.6783281057205
 20
293.948096696266
  0
LWPOLYLINE
  5
84D9
330
18
100
AcDbEntity
  8
0
100
AcDbPolyline
 90
        4
 70
     1
 43
0.0
 10
420.1783281057205
 20
293.948096696266
 10
420.1783281057205
 20
276.948096696266
 10
417.1783281057205
 20
276.948096696266
 10
417.1783281057205
 20
293.948096696266
  0
LWPOLYLINE
  5
84DA
330
18
100
AcDbEntity
  8
0
100
AcDbPolyline
 90
        4
 70
     1
 43
0.0
 10
431.1783281057205
 20
293.948096696266
 10
431.1783281057205
 20
276.948096696266
 10
428.1783281057205
 20
276.948096696266
 10
428.1783281057205
 20
293.948096696266
  0
LWPOLYLINE
  5
84DB
330
18
100
AcDbEntity
  8
0
100
AcDbPolyline
 90
        4
 70
     1
 43
0.0
 10
436.6783281057205
 20
293.948096696266
 10
436.6783281057205
 20
276.948096696266
 10
433.6783281057205
 20
276.948096696266
 10
433.6783281057205
 20
293.948096696266
  0
LINE
  5
84DD
330
18
100
AcDbEntity
  8
0
100
AcDbLine
 10
435.6783281057205
 20
300.948096696266
 30
0.0
 11
425.6783281057205
 21
300.948096696266
 31
0.0
  0
LINE
  5
84DE
330
18
100
AcDbEntity
  8
0
100
AcDbLine
 10
425.6783281057205
 20
300.948096696266
 30
0.0
 11
425.6783281057205
 21
298.9480966962659
 31
0.0
  0
LINE
  5
84DF
330
18
100
AcDbEntity
  8
0
100
AcDbLine
 10
435.6783281057205
 20
298.9480966962659
 30
0.0
 11
435.6783281057205
 21
300.948096696266
 31
0.0
  0
LWPOLYLINE
  5
84E0
330
18
100
AcDbEntity
  8
0
100
AcDbPolyline
 90
        4
 70
     1
 43
0.0
 10
425.6783281057205
 20
269.948096696266
 10
425.6783281057205
 20
252.948096696266
 10
422.6783281057205
 20
252.948096696266
 10
422.6783281057205
 20
269.948096696266
  0
LWPOLYLINE
  5
84E1
330
18
100
AcDbEntity
  8
0
100
AcDbPolyline
 90
        4
 70
     1
 43
0.0
 10
409.1783281057205
 20
269.948096696266
 10
409.1783281057205
 20
252.948096696266
 10
406.1783281057205
 20
252.948096696266
 10
406.1783281057205
 20
269.948096696266
  0
LWPOLYLINE
  5
84E2
330
18
100
AcDbEntity
  8
0
100
AcDbPolyline
 90
        4
 70
     1
 43
0.0
 10
414.6783281057205
 20
269.948096696266
 10
414.6783281057205
 20
252.948096696266
 10
411.6783281057205
 20
252.948096696266
 10
411.6783281057205
 20
269.948096696266
  0
LWPOLYLINE
  5
84E3
330
18
100
AcDbEntity
  8
0
100
AcDbPolyline
 90
        4
 70
     1
 43
0.0
 10
420.1783281057205
 20
269.948096696266
 10
420.1783281057205
 20
252.948096696266
 10
417.1783281057205
 20
252.948096696266
 10
417.1783281057205
 20
269.948096696266
  0
LWPOLYLINE
  5
84E4
330
18
100
AcDbEntity
  8
0
100
AcDbPolyline
 90
        4
 70
     1
 43
0.0
 10
431.1783281057205
 20
269.948096696266
 10
431.1783281057205
 20
252.948096696266
 10
428.1783281057205
 20
252.948096696266
 10
428.1783281057205
 20
269.948096696266
  0
LWPOLYLINE
  5
84E5
330
18
100
AcDbEntity
  8
0
100
AcDbPolyline
 90
        4
 70
     1
 43
0.0
 10
436.6783281057205
 20
269.948096696266
 10
436.6783281057205
 20
252.948096696266
 10
433.6783281057205
 20
252.948096696266
 10
433.6783281057205
 20
269.948096696266
  0
LINE
  5
84E6
330
18
100
AcDbEntity
  8
0
100
AcDbLine
 10
441.6783281057205
 20
251.948096696266
 30
0.0
 11
442.6783281057205
 21
251.948096696266
 31
0.0
  0
LINE
  5
84E7
330
18
100
AcDbEntity
  8
0
100
AcDbLine
 10
442.6783281057205
 20
223.948096696266
 30
0.0
 11
440.6783281057205
 21
223.948096696266
 31
0.0
  0
LINE
  5
84E8
330
18
100
AcDbEntity
  8
0
100
AcDbLine
 10
440.6783281057205
 20
224.948096696266
 30
0.0
 11
441.6783281057205
 21
224.948096696266
 31
0.0
  0
LINE
  5
9402
330
18
100
AcDbEntity
  8
0
100
AcDbLine
 10
444.6783281057205
 20
247.948096696266
 30
0.0
 11
444.6783281057205
 21
301.948096696266
 31
0.0
  0
LINE
  5
9403
330
18
100
AcDbEntity
  8
0
100
AcDbLine
 10
442.6783281057205
 20
247.948096696266
 30
0.0
 11
444.6783281057205
 21
247.948096696266
 31
0.0
  0
LINE
  5
9404
330
18
100
AcDbEntity
  8
0
100
AcDbLine
 10
442.6783281057205
 20
299.948096696266
 30
0.0
 11
442.6783281057205
 21
247.948096696266
 31
0.0
  0
LINE
  5
9405
330
18
100
AcDbEntity
  8
0
100
AcDbLine
 10
296.6783281057205
 20
300.948096696266
 30
0.0
 11
441.6783281057205
 21
300.948096696266
 31
0.0
  0
LINE
  5
9406
330
18
100
AcDbEntity
  8
0
100
AcDbLine
 10
443.6783281057205
 20
302.948096696266
 30
0.0
 11
294.6783281057205
 21
302.948096696266
 31
0.0
  0
ARC
  5
9407
330
18
100
AcDbEntity
  8
0
100
AcDbCircle
 10
443.6783281057205
 20
301.948096696266
 30
0.0
 40
1.0
100
AcDbArc
 50
0.0
 51
90.0
  0
LINE
  5
9408
330
18
100
AcDbEntity
  8
0
100
AcDbLine
 10
442.6783281057205
 20
297.948096696266
 30
0.0
 11
444.6783281057205
 21
297.948096696266
 31
0.0
  0
ARC
  5
9409
330
18
100
AcDbEntity
  8
0
100
AcDbCircle
 10
441.6783281057205
 20
299.948096696266
 30
0.0
 40
1.0
100
AcDbArc
 50
0.0
 51
90.0
  0
LINE
  5
940A
330
18
100
AcDbEntity
  8
0
100
AcDbLine
 10
295.6783281057205
 20
247.948096696266
 30
0.0
 11
295.6783281057205
 21
299.948096696266
 31
0.0
  0
LINE
  5
940B
330
18
100
AcDbEntity
  8
0
100
AcDbLine
 10
293.6783281057205
 20
301.948096696266
 30
0.0
 11
293.6783281057205
 21
247.948096696266
 31
0.0
  0
ARC
  5
940C
330
18
100
AcDbEntity
  8
0
100
AcDbCircle
 10
294.6783281057205
 20
301.948096696266
 30
0.0
 40
1.0
100
AcDbArc
 50
90.0
 51
180.0
  0
ARC
  5
940D
330
18
100
AcDbEntity
  8
0
100
AcDbCircle
 10
296.6783281057205
 20
299.948096696266
 30
0.0
 40
1.0
100
AcDbArc
 50
90.0
 51
180.0
  0
LINE
  5
940E
330
18
100
AcDbEntity
  8
0
100
AcDbLine
 10
292.9783281057206
 20
289.6480966962671
 30
0.0
 11
284.1783281057206
 21
289.6480966962671
 31
0.0
  0
LINE
  5
940F
330
18
100
AcDbEntity
  8
0
100
AcDbLine
 10
284.1783281057206
 20
289.6480966962671
 30
0.0
 11
284.1783281057206
 21
280.1480966962671
 31
0.0
  0
LINE
  5
9410
330
18
100
AcDbEntity
  8
0
100
AcDbLine
 10
293.6783281057208
 20
288.6480966962671
 30
0.0
 11
293.6783281057208
 21
288.1480966962671
 31
0.0
  0
LINE
  5
9413
330
18
100
AcDbEntity
  8
0
100
AcDbLine
 10
293.6783281057205
 20
283.2480966962671
 30
0.0
 11
293.6783281057206
 21
280.1480966962671
 31
0.0
  0
LINE
  5
9414
330
18
100
AcDbEntity
  8
0
100
AcDbLine
 10
292.9783281057206
 20
289.6480966962671
 30
0.0
 11
292.9783281057207
 21
288.6480966962671
 31
0.0
  0
LINE
  5
9415
330
18
100
AcDbEntity
  8
0
100
AcDbLine
 10
293.6783281057208
 20
288.6480966962671
 30
0.0
 11
292.9783281057207
 21
288.6480966962671
 31
0.0
  0
LINE
  5
9416
330
18
100
AcDbEntity
  8
0
100
AcDbLine
 10
292.9783281057206
 20
274.648096696267
 30
0.0
 11
285.6783281057206
 21
274.6480966962671
 31
0.0
  0
LINE
  5
9417
330
18
100
AcDbEntity
  8
0
100
AcDbLine
 10
284.1783281057206
 20
280.1480966962671
 30
0.0
 11
285.6783281057206
 21
274.6480966962671
 31
0.0
  0
LINE
  5
9418
330
18
100
AcDbEntity
  8
0
100
AcDbLine
 10
292.9783281057206
 20
274.6480966962671
 30
0.0
 11
293.6783281057206
 21
280.1480966962671
 31
0.0
  0
LINE
  5
941A
330
18
100
AcDbEntity
  8
0
 48
0.2
100
AcDbLine
 10
291.6783281057205
 20
255.5980966962661
 30
0.0
 11
291.6783281057205
 21
262.5980966962663
 31
0.0
  0
LINE
  5
941B
330
18
100
AcDbEntity
  8
0
 48
0.2
100
AcDbLine
 10
264.8783281057204
 20
255.248096696266
 30
0.0
 11
264.8783281057204
 21
262.9480966962661
 31
0.0
  0
ARC
  5
941C
330
18
100
AcDbEntity
  8
0
 48
0.2
100
AcDbCircle
 10
274.0483281057203
 20
259.0980966962661
 30
0.0
 40
2.669999999999886
100
AcDbArc
 50
115.9892335838278
 51
244.0107664161721
  0
LINE
  5
941D
330
18
100
AcDbEntity
  8
0
 48
0.2
100
AcDbLine
 10
272.8783281057204
 20
252.748096696266
 30
0.0
 11
272.8783281057203
 21
265.4480966962661
 31
0.0
  0
LINE
  5
941E
330
18
100
AcDbEntity
  8
0
 48
0.2
100
AcDbLine
 10
257.6783281057205
 20
250.0980966962661
 30
0.0
 11
257.6783281057205
 21
268.0980966962662
 31
0.0
  0
LINE
  5
941F
330
18
100
AcDbEntity
  8
0
 48
0.2
100
AcDbLine
 10
293.6783281057205
 20
252.748096696266
 30
0.0
 11
257.6783281057204
 21
252.7480966962661
 31
0.0
  0
LINE
  5
9420
330
18
100
AcDbEntity
  8
0
 48
0.2
100
AcDbLine
 10
272.8783281057205
 20
255.248096696266
 30
0.0
 11
264.8783281057204
 21
255.248096696266
 31
0.0
  0
LINE
  5
9421
330
18
100
AcDbEntity
  8
0
 48
0.2
100
AcDbLine
 10
273.6783281057201
 20
250.0980966962661
 30
0.0
 11
257.6783281057205
 21
250.0980966962661
 31
0.0
  0
LINE
  5
9422
330
18
100
AcDbEntity
  8
0
 48
0.2
100
AcDbLine
 10
278.6783281057204
 20
252.7480966962661
 30
0.0
 11
273.6783281057204
 21
250.0980966962661
 31
0.0
  0
LINE
  5
9423
330
18
100
AcDbEntity
  8
0
 48
0.2
100
AcDbLine
 10
293.6783281057205
 20
255.5980966962662
 30
0.0
 11
291.6783281057205
 21
255.5980966962661
 31
0.0
  0
LINE
  5
9427
330
18
100
AcDbEntity
  8
0
 48
0.2
100
AcDbLine
 10
293.6783281057205
 20
265.4480966962661
 30
0.0
 11
257.6783281057205
 21
265.4480966962661
 31
0.0
  0
LINE
  5
9428
330
18
100
AcDbEntity
  8
0
 48
0.2
100
AcDbLine
 10
272.8783281057204
 20
262.948096696266
 30
0.0
 11
264.8783281057204
 21
262.9480966962661
 31
0.0
  0
LINE
  5
9429
330
18
100
AcDbEntity
  8
0
 48
0.2
100
AcDbLine
 10
273.6783281057201
 20
268.0980966962661
 30
0.0
 11
257.6783281057205
 21
268.0980966962662
 31
0.0
  0
LINE
  5
942A
330
18
100
AcDbEntity
  8
0
 48
0.2
100
AcDbLine
 10
273.6783281057204
 20
268.0980966962661
 30
0.0
 11
278.6783281057204
 21
265.4480966962661
 31
0.0
  0
LINE
  5
942B
330
18
100
AcDbEntity
  8
0
 48
0.2
100
AcDbLine
 10
293.6783281057205
 20
262.5980966962662
 30
0.0
 11
291.6783281057205
 21
262.5980966962663
 31
0.0
  0
LINE
  5
942D
330
18
100
AcDbEntity
  8
0
100
AcDbLine
 10
293.6783281057205
 20
247.948096696266
 30
0.0
 11
295.6783281057205
 21
247.948096696266
 31
0.0
  0
LWPOLYLINE
  5
942E
330
18
100
AcDbEntity
  8
0
100
AcDbPolyline
 90
        4
 70
     1
 43
0.0
 10
338.4283281057205
 20
255.1980966962661
 10
336.9283281057205
 20
255.1980966962661
 10
336.9283281057205
 20
256.6980966962661
 10
338.4283281057205
 20
256.6980966962661
  0
LWPOLYLINE
  5
942F
330
18
100
AcDbEntity
  8
0
100
AcDbPolyline
 90
        4
 70
     1
 43
0.0
 10
333.6783281057205
 20
254.9480966962661
 10
338.6783281057205
 20
254.9480966962661
 10
338.6783281057205
 20
256.9480966962661
 10
333.6783281057205
 20
256.9480966962661
  0
LWPOLYLINE
  5
9430
330
18
100
AcDbEntity
  8
0
100
AcDbPolyline
 90
        4
 70
     1
 43
0.0
 10
343.1783281057205
 20
253.948096696266
 10
373.1783281057205
 20
253.948096696266
 10
373.1783281057205
 20
261.948096696266
 10
343.1783281057205
 20
261.948096696266
  0
HATCH
  5
9431
330
18
100
AcDbEntity
  8
0
100
AcDbHatch
 10
0.0
 20
0.0
 30
0.0
210
0.0
220
0.0
230
1.0
  2
SOLID
 70
     1
 71
     0
 91
       20
 92
        7
 72
     1
 73
     1
 93
        2
 10
347.4283281057205
 20
259.448096696266
 42
1.0
 10
346.4283281057205
 20
259.448096696266
 42
1.0
 97
        0
 92
        7
 72
     1
 73
     1
 93
        2
 10
349.9283281057205
 20
259.448096696266
 42
1.0
 10
348.9283281057205
 20
259.448096696266
 42
1.0
 97
        0
 92
        7
 72
     1
 73
     1
 93
        2
 10
351.4283281057205
 20
259.448096696266
 42
1.0
 10
352.4283281057205
 20
259.448096696266
 42
1.0
 97
        0
 92
        7
 72
     1
 73
     1
 93
        2
 10
354.9283281057205
 20
259.448096696266
 42
1.0
 10
353.9283281057205
 20
259.448096696266
 42
1.0
 97
        0
 92
        7
 72
     1
 73
     1
 93
        2
 10
357.4283281057205
 20
259.448096696266
 42
1.0
 10
356.4283281057205
 20
259.448096696266
 42
1.0
 97
        0
 92
        7
 72
     1
 73
     1
 93
        2
 10
359.9283281057205
 20
259.448096696266
 42
1.0
 10
358.9283281057205
 20
259.448096696266
 42
1.0
 97
        0
 92
        7
 72
     1
 73
     1
 93
        2
 10
362.4283281057205
 20
259.448096696266
 42
1.0
 10
361.4283281057205
 20
259.448096696266
 42
1.0
 97
        0
 92
        7
 72
     1
 73
     1
 93
        2
 10
364.9283281057205
 20
259.448096696266
 42
1.0
 10
363.9283281057205
 20
259.448096696266
 42
1.0
 97
        0
 92
        7
 72
     1
 73
     1
 93
        2
 10
367.4283281057205
 20
259.448096696266
 42
1.0
 10
366.4283281057205
 20
259.448096696266
 42
1.0
 97
        0
 92
        7
 72
     1
 73
     1
 93
        2
 10
369.9283281057205
 20
259.448096696266
 42
1.0
 10
368.9283281057205
 20
259.448096696266
 42
1.0
 97
        0
 92
        7
 72
     1
 73
     1
 93
        2
 10
369.9283281057205
 20
255.948096696266
 42
1.0
 10
368.9283281057205
 20
255.948096696266
 42
1.0
 97
        0
 92
        7
 72
     1
 73
     1
 93
        2
 10
367.4283281057205
 20
255.948096696266
 42
1.0
 10
366.4283281057205
 20
255.948096696266
 42
1.0
 97
        0
 92
        7
 72
     1
 73
     1
 93
        2
 10
364.9283281057205
 20
255.948096696266
 42
1.0
 10
363.9283281057205
 20
255.948096696266
 42
1.0
 97
        0
 92
        7
 72
     1
 73
     1
 93
        2
 10
362.4283281057205
 20
255.948096696266
 42
1.0
 10
361.4283281057205
 20
255.948096696266
 42
1.0
 97
        0
 92
        7
 72
     1
 73
     1
 93
        2
 10
359.9283281057205
 20
255.948096696266
 42
1.0
 10
358.9283281057205
 20
255.948096696266
 42
1.0
 97
        0
 92
        7
 72
     1
 73
     1
 93
        2
 10
357.4283281057205
 20
255.948096696266
 42
1.0
 10
356.4283281057205
 20
255.948096696266
 42
1.0
 97
        0
 92
        7
 72
     1
 73
     1
 93
        2
 10
354.9283281057205
 20
255.948096696266
 42
1.0
 10
353.9283281057205
 20
255.948096696266
 42
1.0
 97
        0
 92
        7
 72
     1
 73
     1
 93
        2
 10
352.4283281057205
 20
255.948096696266
 42
1.0
 10
351.4283281057205
 20
255.948096696266
 42
1.0
 97
        0
 92
        7
 72
     1
 73
     1
 93
        2
 10
349.9283281057205
 20
255.948096696266
 42
1.0
 10
348.9283281057205
 20
255.948096696266
 42
1.0
 97
        0
 92
        7
 72
     1
 73
     1
 93
        2
 10
347.4283281057205
 20
255.948096696266
 42
1.0
 10
346.4283281057205
 20
255.948096696266
 42
1.0
 97
        0
 75
     0
 76
     1
 47
0.0523552323646742
 98
       20
 10
346.9777364051326
 20
259.3483742408935
 10
349.5976064518695
 20
259.4530845851047
 10
352.2174764986061
 20
259.4530845851047
 10
354.4181672902946
 20
259.5054397572104
 10
356.8808449677299
 20
259.3483742408935
 10
359.6579073837681
 20
259.3483742408935
 10
361.9633938811678
 20
259.4530845851047
 10
364.3736737057474
 20
259.3483742408935
 10
366.9935437524843
 20
259.2960190687879
 10
369.4038247663295
 20
259.2960190687879
 10
369.5610171356308
 20
255.9452840769306
 10
366.8887492360386
 20
255.9452840769306
 10
364.3736737057474
 20
255.7358633885081
 10
361.7538036590106
 20
255.9452840769306
 10
359.4483183508766
 20
255.9452840769306
 10
356.9332428205855
 20
255.8405737327194
 10
354.3133727738488
 20
255.9976392490363
 10
352.0078874657146
 20
255.7358633885081
 10
349.2308250496766
 20
255.892928904825
 10
346.9777364051326
 20
255.9452840769306
  0
CIRCLE
  5
9432
330
18
100
AcDbEntity
  8
0
100
AcDbCircle
 10
359.4283281057205
 20
259.448096696266
 30
0.0
 40
0.5
  0
CIRCLE
  5
9433
330
18
100
AcDbEntity
  8
0
100
AcDbCircle
 10
351.9283281057205
 20
259.448096696266
 30
0.0
 40
0.5
  0
CIRCLE
  5
9434
330
18
100
AcDbEntity
  8
0
100
AcDbCircle
 10
346.9283281057205
 20
259.448096696266
 30
0.0
 40
0.5
  0
CIRCLE
  5
9435
330
18
100
AcDbEntity
  8
0
100
AcDbCircle
 10
349.4283281057205
 20
259.448096696266
 30
0.0
 40
0.5
  0
CIRCLE
  5
9436
330
18
100
AcDbEntity
  8
0
100
AcDbCircle
 10
356.9283281057205
 20
259.448096696266
 30
0.0
 40
0.5
  0
CIRCLE
  5
9437
330
18
100
AcDbEntity
  8
0
100
AcDbCircle
 10
354.4283281057205
 20
259.448096696266
 30
0.0
 40
0.5
  0
CIRCLE
  5
9438
330
18
100
AcDbEntity
  8
0
100
AcDbCircle
 10
346.9283281057205
 20
255.948096696266
 30
0.0
 40
0.5
  0
CIRCLE
  5
9439
330
18
100
AcDbEntity
  8
0
100
AcDbCircle
 10
349.4283281057205
 20
255.948096696266
 30
0.0
 40
0.5
  0
CIRCLE
  5
943A
330
18
100
AcDbEntity
  8
0
100
AcDbCircle
 10
351.9283281057205
 20
255.948096696266
 30
0.0
 40
0.5
  0
CIRCLE
  5
943B
330
18
100
AcDbEntity
  8
0
100
AcDbCircle
 10
354.4283281057205
 20
255.948096696266
 30
0.0
 40
0.5
  0
CIRCLE
  5
943C
330
18
100
AcDbEntity
  8
0
100
AcDbCircle
 10
359.4283281057205
 20
255.948096696266
 30
0.0
 40
0.5
  0
CIRCLE
  5
943D
330
18
100
AcDbEntity
  8
0
100
AcDbCircle
 10
356.9283281057205
 20
255.948096696266
 30
0.0
 40
0.5
  0
CIRCLE
  5
943E
330
18
100
AcDbEntity
  8
0
100
AcDbCircle
 10
366.9283281057205
 20
259.448096696266
 30
0.0
 40
0.5
  0
CIRCLE
  5
943F
330
18
100
AcDbEntity
  8
0
100
AcDbCircle
 10
364.4283281057205
 20
259.448096696266
 30
0.0
 40
0.5
  0
CIRCLE
  5
9440
330
18
100
AcDbEntity
  8
0
100
AcDbCircle
 10
361.9283281057205
 20
259.448096696266
 30
0.0
 40
0.5
  0
CIRCLE
  5
9441
330
18
100
AcDbEntity
  8
0
100
AcDbCircle
 10
369.4283281057205
 20
259.448096696266
 30
0.0
 40
0.5
  0
CIRCLE
  5
9442
330
18
100
AcDbEntity
  8
0
100
AcDbCircle
 10
369.4283281057205
 20
255.948096696266
 30
0.0
 40
0.5
  0
CIRCLE
  5
9443
330
18
100
AcDbEntity
  8
0
100
AcDbCircle
 10
364.4283281057205
 20
255.948096696266
 30
0.0
 40
0.5
  0
CIRCLE
  5
9444
330
18
100
AcDbEntity
  8
0
100
AcDbCircle
 10
361.9283281057205
 20
255.948096696266
 30
0.0
 40
0.5
  0
CIRCLE
  5
9445
330
18
100
AcDbEntity
  8
0
100
AcDbCircle
 10
366.9283281057205
 20
255.948096696266
 30
0.0
 40
0.5
  0
LINE
  5
9446
330
18
100
AcDbEntity
  8
0
100
AcDbLine
 10
368.6783281057205
 20
291.5116050231623
 30
0.0
 11
369.6783281057205
 21
291.5116050231623
 31
0.0
  0
LINE
  5
9447
330
18
100
AcDbEntity
  8
0
100
AcDbLine
 10
369.6783281057205
 20
295.3845883693698
 30
0.0
 11
368.6783281057205
 21
295.3845883693698
 31
0.0
  0
CIRCLE
  5
9448
330
18
100
AcDbEntity
  8
0
100
AcDbCircle
 10
369.1783281057205
 20
293.448096696266
 30
0.0
 40
3.0
  0
LINE
  5
9449
330
18
100
AcDbEntity
  8
0
100
AcDbLine
 10
368.6783281057205
 20
295.3845883693698
 30
0.0
 11
368.6783281057205
 21
293.948096696266
 31
0.0
  0
LINE
  5
944A
330
18
100
AcDbEntity
  8
0
100
AcDbLine
 10
368.6783281057204
 20
292.948096696266
 30
0.0
 11
368.6783281057205
 21
291.5116050231623
 31
0.0
  0
LINE
  5
944B
330
18
100
AcDbEntity
  8
0
100
AcDbLine
 10
367.2418364326168
 20
293.948096696266
 30
0.0
 11
367.2418364326168
 21
292.948096696266
 31
0.0
  0
LINE
  5
944C
330
18
100
AcDbEntity
  8
0
100
AcDbLine
 10
367.2418364326168
 20
292.948096696266
 30
0.0
 11
368.6783281057204
 21
292.948096696266
 31
0.0
  0
LINE
  5
944D
330
18
100
AcDbEntity
  8
0
100
AcDbLine
 10
367.2418364326168
 20
293.948096696266
 30
0.0
 11
368.6783281057205
 21
293.948096696266
 31
0.0
  0
LINE
  5
944E
330
18
100
AcDbEntity
  8
0
100
AcDbLine
 10
369.6783281057205
 20
295.3845883693698
 30
0.0
 11
369.6783281057205
 21
293.948096696266
 31
0.0
  0
LINE
  5
944F
330
18
100
AcDbEntity
  8
0
100
AcDbLine
 10
369.6783281057205
 20
292.948096696266
 30
0.0
 11
371.1148197788241
 21
292.948096696266
 31
0.0
  0
LINE
  5
9450
330
18
100
AcDbEntity
  8
0
100
AcDbLine
 10
369.6783281057205
 20
293.948096696266
 30
0.0
 11
371.1148197788241
 21
293.948096696266
 31
0.0
  0
LINE
  5
9451
330
18
100
AcDbEntity
  8
0
100
AcDbLine
 10
369.6783281057205
 20
292.948096696266
 30
0.0
 11
369.6783281057205
 21
291.5116050231623
 31
0.0
  0
LINE
  5
9452
330
18
100
AcDbEntity
  8
0
100
AcDbLine
 10
371.1148197788241
 20
292.948096696266
 30
0.0
 11
371.1148197788241
 21
293.948096696266
 31
0.0
  0
LWPOLYLINE
  5
98A3
330
18
100
AcDbEntity
  8
0
100
AcDbPolyline
 90
        8
 70
     1
 43
0.0
 10
442.6783281057205
 20
168.6730011160862
 10
442.6783281057205
 20
10.67300111608625
 10
441.6783281057205
 20
9.673001116086254
 10
296.6783281057205
 20
9.673001116086254
 10
295.6783281057205
 20
10.67300111608625
 10
295.6783281057205
 20
168.6730011160862
 10
296.6783281057205
 20
169.6730011160862
 10
441.6783281057205
 20
169.6730011160862
  0
LWPOLYLINE
  5
98A7
330
18
100
AcDbEntity
  8
0
100
AcDbPolyline
 90
        8
 70
     1
 43
0.0
 10
316.6783281057205
 20
18.17300111608625
 10
316.6783281057205
 20
18.17300111608625
 42
-0.4142135623730951
 10
314.9283281057205
 20
16.42300111608625
 10
303.4283281057205
 20
16.42300111608625
 42
-0.4142135623730951
 10
301.6783281057205
 20
18.17300111608625
 10
301.6783281057205
 20
18.17300111608625
 42
-0.4142135623730951
 10
303.4283281057205
 20
19.92300111608625
 10
314.9283281057205
 20
19.92300111608625
 42
-0.4142135623730951
  0
LWPOLYLINE
  5
98A8
330
18
100
AcDbEntity
  8
0
100
AcDbPolyline
 90
        8
 70
     1
 43
0.0
 10
316.6783281057205
 20
24.67300111608625
 10
316.6783281057205
 20
24.67300111608625
 42
-0.4142135623730951
 10
314.9283281057205
 20
22.92300111608625
 10
303.4283281057205
 20
22.92300111608625
 42
-0.4142135623730951
 10
301.6783281057205
 20
24.67300111608625
 10
301.6783281057205
 20
24.67300111608625
 42
-0.4142135623730951
 10
303.4283281057205
 20
26.42300111608625
 10
314.9283281057205
 20
26.42300111608625
 42
-0.4142135623730951
  0
LWPOLYLINE
  5
98A9
330
18
100
AcDbEntity
  8
0
100
AcDbPolyline
 90
        8
 70
     1
 43
0.0
 10
316.6783281057205
 20
31.17300111608625
 10
316.6783281057205
 20
31.17300111608625
 42
-0.4142135623730951
 10
314.9283281057205
 20
29.42300111608625
 10
303.4283281057205
 20
29.42300111608625
 42
-0.4142135623730951
 10
301.6783281057205
 20
31.17300111608625
 10
301.6783281057205
 20
31.17300111608625
 42
-0.4142135623730951
 10
303.4283281057205
 20
32.92300111608625
 10
314.9283281057205
 20
32.92300111608625
 42
-0.4142135623730951
  0
LWPOLYLINE
  5
98AA
330
18
100
AcDbEntity
  8
0
100
AcDbPolyline
 90
        8
 70
     1
 43
0.0
 10
316.6783281057205
 20
148.1730011160862
 10
316.6783281057205
 20
148.1730011160862
 42
-0.4142135623730951
 10
314.9283281057205
 20
146.4230011160862
 10
303.4283281057205
 20
146.4230011160862
 42
-0.4142135623730951
 10
301.6783281057205
 20
148.1730011160862
 10
301.6783281057205
 20
148.1730011160862
 42
-0.4142135623730951
 10
303.4283281057205
 20
149.9230011160862
 10
314.9283281057205
 20
149.9230011160862
 42
-0.4142135623730951
  0
LWPOLYLINE
  5
98AB
330
18
100
AcDbEntity
  8
0
100
AcDbPolyline
 90
        8
 70
     1
 43
0.0
 10
316.6783281057205
 20
154.6730011160862
 10
316.6783281057205
 20
154.6730011160862
 42
-0.4142135623730951
 10
314.9283281057205
 20
152.9230011160862
 10
303.4283281057205
 20
152.9230011160862
 42
-0.4142135623730951
 10
301.6783281057205
 20
154.6730011160862
 10
301.6783281057205
 20
154.6730011160862
 42
-0.4142135623730951
 10
303.4283281057205
 20
156.4230011160862
 10
314.9283281057205
 20
156.4230011160862
 42
-0.4142135623730951
  0
LWPOLYLINE
  5
98AC
330
18
100
AcDbEntity
  8
0
100
AcDbPolyline
 90
        8
 70
     1
 43
0.0
 10
316.6783281057205
 20
161.1730011160862
 10
316.6783281057205
 20
161.1730011160862
 42
-0.4142135623730951
 10
314.9283281057205
 20
159.4230011160862
 10
303.4283281057205
 20
159.4230011160862
 42
-0.4142135623730951
 10
301.6783281057205
 20
161.1730011160862
 10
301.6783281057205
 20
161.1730011160862
 42
-0.4142135623730951
 10
303.4283281057205
 20
162.9230011160862
 10
314.9283281057205
 20
162.9230011160862
 42
-0.4142135623730951
  0
LWPOLYLINE
  5
98B7
330
18
100
AcDbEntity
  8
0
100
AcDbPolyline
 90
        8
 70
     1
 43
0.0
 10
412.6783281057204
 20
44.17300111608625
 10
412.6783281057204
 20
44.17300111608625
 42
-0.4142135623730951
 10
410.9283281057204
 20
42.42300111608625
 10
399.4283281057204
 20
42.42300111608625
 42
-0.4142135623730951
 10
397.6783281057204
 20
44.17300111608625
 10
397.6783281057204
 20
44.17300111608625
 42
-0.4142135623730951
 10
399.4283281057204
 20
45.92300111608625
 10
410.9283281057204
 20
45.92300111608625
 42
-0.4142135623730951
  0
LWPOLYLINE
  5
98B8
330
18
100
AcDbEntity
  8
0
100
AcDbPolyline
 90
        8
 70
     1
 43
0.0
 10
412.6783281057205
 20
96.17300111608626
 10
412.6783281057205
 20
96.17300111608626
 42
-0.4142135623730951
 10
410.9283281057205
 20
94.42300111608625
 10
399.4283281057205
 20
94.42300111608625
 42
-0.4142135623730951
 10
397.6783281057205
 20
96.17300111608626
 10
397.6783281057205
 20
96.17300111608626
 42
-0.4142135623730951
 10
399.4283281057205
 20
97.92300111608625
 10
410.9283281057205
 20
97.92300111608625
 42
-0.4142135623730951
  0
LWPOLYLINE
  5
98B9
330
18
100
AcDbEntity
  8
0
100
AcDbPolyline
 90
        8
 70
     1
 43
0.0
 10
412.6783281057205
 20
89.67300111608626
 10
412.6783281057205
 20
89.67300111608626
 42
-0.4142135623730951
 10
410.9283281057205
 20
87.92300111608625
 10
399.4283281057205
 20
87.92300111608625
 42
-0.4142135623730951
 10
397.6783281057205
 20
89.67300111608626
 10
397.6783281057205
 20
89.67300111608626
 42
-0.4142135623730951
 10
399.4283281057205
 20
91.42300111608625
 10
410.9283281057205
 20
91.42300111608625
 42
-0.4142135623730951
  0
LWPOLYLINE
  5
98BA
330
18
100
AcDbEntity
  8
0
100
AcDbPolyline
 90
        8
 70
     1
 43
0.0
 10
412.6783281057205
 20
83.17300111608625
 10
412.6783281057205
 20
83.17300111608625
 42
-0.4142135623730951
 10
410.9283281057205
 20
81.42300111608625
 10
399.4283281057205
 20
81.42300111608625
 42
-0.4142135623730951
 10
397.6783281057205
 20
83.17300111608625
 10
397.6783281057205
 20
83.17300111608625
 42
-0.4142135623730951
 10
399.4283281057205
 20
84.92300111608626
 10
410.9283281057205
 20
84.92300111608626
 42
-0.4142135623730951
  0
LWPOLYLINE
  5
98BB
330
18
100
AcDbEntity
  8
0
100
AcDbPolyline
 90
        8
 70
     1
 43
0.0
 10
412.6783281057205
 20
76.67300111608625
 10
412.6783281057205
 20
76.67300111608625
 42
-0.4142135623730951
 10
410.9283281057205
 20
74.92300111608625
 10
399.4283281057205
 20
74.92300111608625
 42
-0.4142135623730951
 10
397.6783281057205
 20
76.67300111608625
 10
397.6783281057205
 20
76.67300111608625
 42
-0.4142135623730951
 10
399.4283281057205
 20
78.42300111608626
 10
410.9283281057205
 20
78.42300111608626
 42
-0.4142135623730951
  0
LWPOLYLINE
  5
98BC
330
18
100
AcDbEntity
  8
0
100
AcDbPolyline
 90
        8
 70
     1
 43
0.0
 10
412.6783281057205
 20
70.17300111608625
 10
412.6783281057205
 20
70.17300111608625
 42
-0.4142135623730951
 10
410.9283281057205
 20
68.42300111608626
 10
399.4283281057205
 20
68.42300111608626
 42
-0.4142135623730951
 10
397.6783281057205
 20
70.17300111608625
 10
397.6783281057205
 20
70.17300111608625
 42
-0.4142135623730951
 10
399.4283281057205
 20
71.92300111608625
 10
410.9283281057205
 20
71.92300111608625
 42
-0.4142135623730951
  0
LWPOLYLINE
  5
98BD
330
18
100
AcDbEntity
  8
0
100
AcDbPolyline
 90
        8
 70
     1
 43
0.0
 10
412.6783281057205
 20
63.67300111608625
 10
412.6783281057205
 20
63.67300111608625
 42
-0.4142135623730951
 10
410.9283281057205
 20
61.92300111608625
 10
399.4283281057205
 20
61.92300111608625
 42
-0.4142135623730951
 10
397.6783281057205
 20
63.67300111608625
 10
397.6783281057205
 20
63.67300111608625
 42
-0.4142135623730951
 10
399.4283281057205
 20
65.42300111608625
 10
410.9283281057205
 20
65.42300111608625
 42
-0.4142135623730951
  0
LWPOLYLINE
  5
98BE
330
18
100
AcDbEntity
  8
0
100
AcDbPolyline
 90
        8
 70
     1
 43
0.0
 10
412.6783281057204
 20
57.17300111608626
 10
412.6783281057204
 20
57.17300111608626
 42
-0.4142135623730951
 10
410.9283281057204
 20
55.42300111608625
 10
399.4283281057204
 20
55.42300111608625
 42
-0.4142135623730951
 10
397.6783281057204
 20
57.17300111608626
 10
397.6783281057204
 20
57.17300111608626
 42
-0.4142135623730951
 10
399.4283281057204
 20
58.92300111608625
 10
410.9283281057204
 20
58.92300111608625
 42
-0.4142135623730951
  0
LWPOLYLINE
  5
98BF
330
18
100
AcDbEntity
  8
0
100
AcDbPolyline
 90
        8
 70
     1
 43
0.0
 10
412.6783281057205
 20
50.67300111608625
 10
412.6783281057205
 20
50.67300111608625
 42
-0.4142135623730951
 10
410.9283281057205
 20
48.92300111608625
 10
399.4283281057205
 20
48.92300111608625
 42
-0.4142135623730951
 10
397.6783281057205
 20
50.67300111608625
 10
397.6783281057205
 20
50.67300111608625
 42
-0.4142135623730951
 10
399.4283281057205
 20
52.42300111608625
 10
410.9283281057205
 20
52.42300111608625
 42
-0.4142135623730951
  0
LWPOLYLINE
  5
98C0
330
18
100
AcDbEntity
  8
0
100
AcDbPolyline
 90
        8
 70
     1
 43
0.0
 10
412.6783281057205
 20
154.6730011160862
 10
412.6783281057205
 20
154.6730011160862
 42
-0.4142135623730951
 10
410.9283281057205
 20
152.9230011160862
 10
399.4283281057205
 20
152.9230011160862
 42
-0.4142135623730951
 10
397.6783281057205
 20
154.6730011160862
 10
397.6783281057205
 20
154.6730011160862
 42
-0.4142135623730951
 10
399.4283281057205
 20
156.4230011160862
 10
410.9283281057205
 20
156.4230011160862
 42
-0.4142135623730951
  0
LWPOLYLINE
  5
98C1
330
18
100
AcDbEntity
  8
0
100
AcDbPolyline
 90
        8
 70
     1
 43
0.0
 10
412.6783281057205
 20
148.1730011160862
 10
412.6783281057205
 20
148.1730011160862
 42
-0.4142135623730951
 10
410.9283281057205
 20
146.4230011160862
 10
399.4283281057205
 20
146.4230011160862
 42
-0.4142135623730951
 10
397.6783281057205
 20
148.1730011160862
 10
397.6783281057205
 20
148.1730011160862
 42
-0.4142135623730951
 10
399.4283281057205
 20
149.9230011160862
 10
410.9283281057205
 20
149.9230011160862
 42
-0.4142135623730951
  0
LWPOLYLINE
  5
98C2
330
18
100
AcDbEntity
  8
0
100
AcDbPolyline
 90
        8
 70
     1
 43
0.0
 10
412.6783281057205
 20
141.6730011160862
 10
412.6783281057205
 20
141.6730011160862
 42
-0.4142135623730951
 10
410.9283281057205
 20
139.9230011160862
 10
399.4283281057205
 20
139.9230011160862
 42
-0.4142135623730951
 10
397.6783281057205
 20
141.6730011160862
 10
397.6783281057205
 20
141.6730011160862
 42
-0.4142135623730951
 10
399.4283281057205
 20
143.4230011160862
 10
410.9283281057205
 20
143.4230011160862
 42
-0.4142135623730951
  0
LWPOLYLINE
  5
98C3
330
18
100
AcDbEntity
  8
0
100
AcDbPolyline
 90
        8
 70
     1
 43
0.0
 10
412.6783281057205
 20
135.1730011160862
 10
412.6783281057205
 20
135.1730011160862
 42
-0.4142135623730951
 10
410.9283281057205
 20
133.4230011160862
 10
399.4283281057205
 20
133.4230011160862
 42
-0.4142135623730951
 10
397.6783281057205
 20
135.1730011160862
 10
397.6783281057205
 20
135.1730011160862
 42
-0.4142135623730951
 10
399.4283281057205
 20
136.9230011160862
 10
410.9283281057205
 20
136.9230011160862
 42
-0.4142135623730951
  0
LWPOLYLINE
  5
98C4
330
18
100
AcDbEntity
  8
0
100
AcDbPolyline
 90
        8
 70
     1
 43
0.0
 10
412.6783281057205
 20
128.6730011160862
 10
412.6783281057205
 20
128.6730011160862
 42
-0.4142135623730951
 10
410.9283281057205
 20
126.9230011160862
 10
399.4283281057205
 20
126.9230011160862
 42
-0.4142135623730951
 10
397.6783281057205
 20
128.6730011160862
 10
397.6783281057205
 20
128.6730011160862
 42
-0.4142135623730951
 10
399.4283281057205
 20
130.4230011160862
 10
410.9283281057205
 20
130.4230011160862
 42
-0.4142135623730951
  0
LWPOLYLINE
  5
98C5
330
18
100
AcDbEntity
  8
0
100
AcDbPolyline
 90
        8
 70
     1
 43
0.0
 10
412.6783281057205
 20
122.1730011160862
 10
412.6783281057205
 20
122.1730011160862
 42
-0.4142135623730951
 10
410.9283281057205
 20
120.4230011160862
 10
399.4283281057205
 20
120.4230011160862
 42
-0.4142135623730951
 10
397.6783281057205
 20
122.1730011160862
 10
397.6783281057205
 20
122.1730011160862
 42
-0.4142135623730951
 10
399.4283281057205
 20
123.9230011160862
 10
410.9283281057205
 20
123.9230011160862
 42
-0.4142135623730951
  0
LWPOLYLINE
  5
98C6
330
18
100
AcDbEntity
  8
0
100
AcDbPolyline
 90
        8
 70
     1
 43
0.0
 10
412.6783281057205
 20
115.6730011160862
 10
412.6783281057205
 20
115.6730011160862
 42
-0.4142135623730951
 10
410.9283281057205
 20
113.9230011160862
 10
399.4283281057205
 20
113.9230011160862
 42
-0.4142135623730951
 10
397.6783281057205
 20
115.6730011160862
 10
397.6783281057205
 20
115.6730011160862
 42
-0.4142135623730951
 10
399.4283281057205
 20
117.4230011160862
 10
410.9283281057205
 20
117.4230011160862
 42
-0.4142135623730951
  0
LWPOLYLINE
  5
98C7
330
18
100
AcDbEntity
  8
0
100
AcDbPolyline
 90
        8
 70
     1
 43
0.0
 10
412.6783281057205
 20
109.1730011160862
 10
412.6783281057205
 20
109.1730011160862
 42
-0.4142135623730951
 10
410.9283281057205
 20
107.4230011160862
 10
399.4283281057205
 20
107.4230011160862
 42
-0.4142135623730951
 10
397.6783281057205
 20
109.1730011160862
 10
397.6783281057205
 20
109.1730011160862
 42
-0.4142135623730951
 10
399.4283281057205
 20
110.9230011160862
 10
410.9283281057205
 20
110.9230011160862
 42
-0.4142135623730951
  0
LWPOLYLINE
  5
98C8
330
18
100
AcDbEntity
  8
0
100
AcDbPolyline
 90
        8
 70
     1
 43
0.0
 10
412.6783281057205
 20
102.6730011160862
 10
412.6783281057205
 20
102.6730011160862
 42
-0.4142135623730951
 10
410.9283281057205
 20
100.9230011160862
 10
399.4283281057205
 20
100.9230011160862
 42
-0.4142135623730951
 10
397.6783281057205
 20
102.6730011160862
 10
397.6783281057205
 20
102.6730011160862
 42
-0.4142135623730951
 10
399.4283281057205
 20
104.4230011160862
 10
410.9283281057205
 20
104.4230011160862
 42
-0.4142135623730951
  0
LWPOLYLINE
  5
98C9
330
18
100
AcDbEntity
  8
0
100
AcDbPolyline
 90
        8
 70
     1
 43
0.0
 10
412.6783281057205
 20
161.1730011160862
 10
412.6783281057205
 20
161.1730011160862
 42
-0.4142135623730951
 10
410.9283281057205
 20
159.4230011160862
 10
399.4283281057205
 20
159.4230011160862
 42
-0.4142135623730951
 10
397.6783281057205
 20
161.1730011160862
 10
397.6783281057205
 20
161.1730011160862
 42
-0.4142135623730951
 10
399.4283281057205
 20
162.9230011160862
 10
410.9283281057205
 20
162.9230011160862
 42
-0.4142135623730951
  0
LWPOLYLINE
  5
98CA
330
18
100
AcDbEntity
  8
0
100
AcDbPolyline
 90
        8
 70
     1
 43
0.0
 10
364.6783281057205
 20
148.1730011160862
 10
364.6783281057205
 20
148.1730011160862
 42
-0.4142135623730951
 10
362.9283281057205
 20
146.4230011160862
 10
351.4283281057205
 20
146.4230011160862
 42
-0.4142135623730951
 10
349.6783281057205
 20
148.1730011160862
 10
349.6783281057205
 20
148.1730011160862
 42
-0.4142135623730951
 10
351.4283281057205
 20
149.9230011160862
 10
362.9283281057205
 20
149.9230011160862
 42
-0.4142135623730951
  0
LWPOLYLINE
  5
98CB
330
18
100
AcDbEntity
  8
0
100
AcDbPolyline
 90
        8
 70
     1
 43
0.0
 10
364.6783281057205
 20
154.6730011160862
 10
364.6783281057205
 20
154.6730011160862
 42
-0.4142135623730951
 10
362.9283281057205
 20
152.9230011160862
 10
351.4283281057205
 20
152.9230011160862
 42
-0.4142135623730951
 10
349.6783281057205
 20
154.6730011160862
 10
349.6783281057205
 20
154.6730011160862
 42
-0.4142135623730951
 10
351.4283281057205
 20
156.4230011160862
 10
362.9283281057205
 20
156.4230011160862
 42
-0.4142135623730951
  0
LWPOLYLINE
  5
98CC
330
18
100
AcDbEntity
  8
0
100
AcDbPolyline
 90
        8
 70
     1
 43
0.0
 10
364.6783281057205
 20
161.1730011160862
 10
364.6783281057205
 20
161.1730011160862
 42
-0.4142135623730951
 10
362.9283281057205
 20
159.4230011160862
 10
351.4283281057205
 20
159.4230011160862
 42
-0.4142135623730951
 10
349.6783281057205
 20
161.1730011160862
 10
349.6783281057205
 20
161.1730011160862
 42
-0.4142135623730951
 10
351.4283281057205
 20
162.9230011160862
 10
362.9283281057205
 20
162.9230011160862
 42
-0.4142135623730951
  0
LWPOLYLINE
  5
98CD
330
18
100
AcDbEntity
  8
0
100
AcDbPolyline
 90
        8
 70
     1
 43
0.0
 10
340.6783281057205
 20
148.1730011160862
 10
340.6783281057205
 20
148.1730011160862
 42
-0.4142135623730951
 10
338.9283281057205
 20
146.4230011160862
 10
327.4283281057205
 20
146.4230011160862
 42
-0.4142135623730951
 10
325.6783281057205
 20
148.1730011160862
 10
325.6783281057205
 20
148.1730011160862
 42
-0.4142135623730951
 10
327.4283281057205
 20
149.9230011160862
 10
338.9283281057205
 20
149.9230011160862
 42
-0.4142135623730951
  0
LWPOLYLINE
  5
98CE
330
18
100
AcDbEntity
  8
0
100
AcDbPolyline
 90
        8
 70
     1
 43
0.0
 10
340.6783281057205
 20
154.6730011160862
 10
340.6783281057205
 20
154.6730011160862
 42
-0.4142135623730951
 10
338.9283281057205
 20
152.9230011160862
 10
327.4283281057205
 20
152.9230011160862
 42
-0.4142135623730951
 10
325.6783281057205
 20
154.6730011160862
 10
325.6783281057205
 20
154.6730011160862
 42
-0.4142135623730951
 10
327.4283281057205
 20
156.4230011160862
 10
338.9283281057205
 20
156.4230011160862
 42
-0.4142135623730951
  0
LWPOLYLINE
  5
98CF
330
18
100
AcDbEntity
  8
0
100
AcDbPolyline
 90
        8
 70
     1
 43
0.0
 10
340.6783281057205
 20
161.1730011160862
 10
340.6783281057205
 20
161.1730011160862
 42
-0.4142135623730951
 10
338.9283281057205
 20
159.4230011160862
 10
327.4283281057205
 20
159.4230011160862
 42
-0.4142135623730951
 10
325.6783281057205
 20
161.1730011160862
 10
325.6783281057205
 20
161.1730011160862
 42
-0.4142135623730951
 10
327.4283281057205
 20
162.9230011160862
 10
338.9283281057205
 20
162.9230011160862
 42
-0.4142135623730951
  0
LWPOLYLINE
  5
98D0
330
18
100
AcDbEntity
  8
0
100
AcDbPolyline
 90
        8
 70
     1
 43
0.0
 10
388.6783281057205
 20
148.1730011160862
 10
388.6783281057205
 20
148.1730011160862
 42
-0.4142135623730951
 10
386.9283281057205
 20
146.4230011160862
 10
375.4283281057205
 20
146.4230011160862
 42
-0.4142135623730951
 10
373.6783281057205
 20
148.1730011160862
 10
373.6783281057205
 20
148.1730011160862
 42
-0.4142135623730951
 10
375.4283281057205
 20
149.9230011160862
 10
386.9283281057205
 20
149.9230011160862
 42
-0.4142135623730951
  0
LWPOLYLINE
  5
98D1
330
18
100
AcDbEntity
  8
0
100
AcDbPolyline
 90
        8
 70
     1
 43
0.0
 10
388.6783281057205
 20
154.6730011160862
 10
388.6783281057205
 20
154.6730011160862
 42
-0.4142135623730951
 10
386.9283281057205
 20
152.9230011160862
 10
375.4283281057205
 20
152.9230011160862
 42
-0.4142135623730951
 10
373.6783281057205
 20
154.6730011160862
 10
373.6783281057205
 20
154.6730011160862
 42
-0.4142135623730951
 10
375.4283281057205
 20
156.4230011160862
 10
386.9283281057205
 20
156.4230011160862
 42
-0.4142135623730951
  0
LWPOLYLINE
  5
98D2
330
18
100
AcDbEntity
  8
0
100
AcDbPolyline
 90
        8
 70
     1
 43
0.0
 10
388.6783281057205
 20
161.1730011160862
 10
388.6783281057205
 20
161.1730011160862
 42
-0.4142135623730951
 10
386.9283281057205
 20
159.4230011160862
 10
375.4283281057205
 20
159.4230011160862
 42
-0.4142135623730951
 10
373.6783281057205
 20
161.1730011160862
 10
373.6783281057205
 20
161.1730011160862
 42
-0.4142135623730951
 10
375.4283281057205
 20
162.9230011160862
 10
386.9283281057205
 20
162.9230011160862
 42
-0.4142135623730951
  0
LWPOLYLINE
  5
98D5
330
18
100
AcDbEntity
  8
0
100
AcDbPolyline
 90
        8
 70
     1
 43
0.0
 10
436.6783281057205
 20
102.6730011160862
 10
436.6783281057205
 20
102.6730011160862
 42
-0.4142135623730951
 10
434.9283281057205
 20
100.9230011160862
 10
423.4283281057205
 20
100.9230011160862
 42
-0.4142135623730951
 10
421.6783281057205
 20
102.6730011160862
 10
421.6783281057205
 20
102.6730011160862
 42
-0.4142135623730951
 10
423.4283281057205
 20
104.4230011160862
 10
434.9283281057205
 20
104.4230011160862
 42
-0.4142135623730951
  0
LWPOLYLINE
  5
98D6
330
18
100
AcDbEntity
  8
0
100
AcDbPolyline
 90
        8
 70
     1
 43
0.0
 10
436.6783281057205
 20
135.1730011160862
 10
436.6783281057205
 20
135.1730011160862
 42
-0.4142135623730951
 10
434.9283281057205
 20
133.4230011160862
 10
423.4283281057205
 20
133.4230011160862
 42
-0.4142135623730951
 10
421.6783281057205
 20
135.1730011160862
 10
421.6783281057205
 20
135.1730011160862
 42
-0.4142135623730951
 10
423.4283281057205
 20
136.9230011160862
 10
434.9283281057205
 20
136.9230011160862
 42
-0.4142135623730951
  0
LWPOLYLINE
  5
98D7
330
18
100
AcDbEntity
  8
0
100
AcDbPolyline
 90
        8
 70
     1
 43
0.0
 10
436.6783281057205
 20
141.6730011160862
 10
436.6783281057205
 20
141.6730011160862
 42
-0.4142135623730951
 10
434.9283281057205
 20
139.9230011160862
 10
423.4283281057205
 20
139.9230011160862
 42
-0.4142135623730951
 10
421.6783281057205
 20
141.6730011160862
 10
421.6783281057205
 20
141.6730011160862
 42
-0.4142135623730951
 10
423.4283281057205
 20
143.4230011160862
 10
434.9283281057205
 20
143.4230011160862
 42
-0.4142135623730951
  0
LWPOLYLINE
  5
98D8
330
18
100
AcDbEntity
  8
0
100
AcDbPolyline
 90
        8
 70
     1
 43
0.0
 10
436.6783281057205
 20
148.1730011160862
 10
436.6783281057205
 20
148.1730011160862
 42
-0.4142135623730951
 10
434.9283281057205
 20
146.4230011160862
 10
423.4283281057205
 20
146.4230011160862
 42
-0.4142135623730951
 10
421.6783281057205
 20
148.1730011160862
 10
421.6783281057205
 20
148.1730011160862
 42
-0.4142135623730951
 10
423.4283281057205
 20
149.9230011160862
 10
434.9283281057205
 20
149.9230011160862
 42
-0.4142135623730951
  0
LWPOLYLINE
  5
98D9
330
18
100
AcDbEntity
  8
0
100
AcDbPolyline
 90
        8
 70
     1
 43
0.0
 10
436.6783281057205
 20
154.6730011160862
 10
436.6783281057205
 20
154.6730011160862
 42
-0.4142135623730951
 10
434.9283281057205
 20
152.9230011160862
 10
423.4283281057205
 20
152.9230011160862
 42
-0.4142135623730951
 10
421.6783281057205
 20
154.6730011160862
 10
421.6783281057205
 20
154.6730011160862
 42
-0.4142135623730951
 10
423.4283281057205
 20
156.4230011160862
 10
434.9283281057205
 20
156.4230011160862
 42
-0.4142135623730951
  0
LWPOLYLINE
  5
98DA
330
18
100
AcDbEntity
  8
0
100
AcDbPolyline
 90
        8
 70
     1
 43
0.0
 10
436.6783281057205
 20
161.1730011160862
 10
436.6783281057205
 20
161.1730011160862
 42
-0.4142135623730951
 10
434.9283281057205
 20
159.4230011160862
 10
423.4283281057205
 20
159.4230011160862
 42
-0.4142135623730951
 10
421.6783281057205
 20
161.1730011160862
 10
421.6783281057205
 20
161.1730011160862
 42
-0.4142135623730951
 10
423.4283281057205
 20
162.9230011160862
 10
434.9283281057205
 20
162.9230011160862
 42
-0.4142135623730951
  0
LWPOLYLINE
  5
98DD
330
18
100
AcDbEntity
  8
0
100
AcDbPolyline
 90
        8
 70
     1
 43
0.0
 10
436.6783281057205
 20
109.1730011160862
 10
436.6783281057205
 20
109.1730011160862
 42
-0.4142135623730951
 10
434.9283281057205
 20
107.4230011160862
 10
423.4283281057205
 20
107.4230011160862
 42
-0.4142135623730951
 10
421.6783281057205
 20
109.1730011160862
 10
421.6783281057205
 20
109.1730011160862
 42
-0.4142135623730951
 10
423.4283281057205
 20
110.9230011160862
 10
434.9283281057205
 20
110.9230011160862
 42
-0.4142135623730951
  0
LWPOLYLINE
  5
98DE
330
18
100
AcDbEntity
  8
0
100
AcDbPolyline
 90
        8
 70
     1
 43
0.0
 10
436.6783281057205
 20
115.6730011160862
 10
436.6783281057205
 20
115.6730011160862
 42
-0.4142135623730951
 10
434.9283281057205
 20
113.9230011160862
 10
423.4283281057205
 20
113.9230011160862
 42
-0.4142135623730951
 10
421.6783281057205
 20
115.6730011160862
 10
421.6783281057205
 20
115.6730011160862
 42
-0.4142135623730951
 10
423.4283281057205
 20
117.4230011160862
 10
434.9283281057205
 20
117.4230011160862
 42
-0.4142135623730951
  0
LWPOLYLINE
  5
98DF
330
18
100
AcDbEntity
  8
0
100
AcDbPolyline
 90
        8
 70
     1
 43
0.0
 10
436.6783281057205
 20
122.1730011160862
 10
436.6783281057205
 20
122.1730011160862
 42
-0.4142135623730951
 10
434.9283281057205
 20
120.4230011160862
 10
423.4283281057205
 20
120.4230011160862
 42
-0.4142135623730951
 10
421.6783281057205
 20
122.1730011160862
 10
421.6783281057205
 20
122.1730011160862
 42
-0.4142135623730951
 10
423.4283281057205
 20
123.9230011160862
 10
434.9283281057205
 20
123.9230011160862
 42
-0.4142135623730951
  0
LWPOLYLINE
  5
98E0
330
18
100
AcDbEntity
  8
0
100
AcDbPolyline
 90
        8
 70
     1
 43
0.0
 10
436.6783281057205
 20
128.6730011160862
 10
436.6783281057205
 20
128.6730011160862
 42
-0.4142135623730951
 10
434.9283281057205
 20
126.9230011160862
 10
423.4283281057205
 20
126.9230011160862
 42
-0.4142135623730951
 10
421.6783281057205
 20
128.6730011160862
 10
421.6783281057205
 20
128.6730011160862
 42
-0.4142135623730951
 10
423.4283281057205
 20
130.4230011160862
 10
434.9283281057205
 20
130.4230011160862
 42
-0.4142135623730951
  0
LWPOLYLINE
  5
98E1
330
18
100
AcDbEntity
  8
0
100
AcDbPolyline
 90
        8
 70
     1
 43
0.0
 10
436.6783281057205
 20
70.17300111608625
 10
436.6783281057205
 20
70.17300111608625
 42
-0.4142135623730951
 10
434.9283281057205
 20
68.42300111608626
 10
423.4283281057205
 20
68.42300111608626
 42
-0.4142135623730951
 10
421.6783281057205
 20
70.17300111608625
 10
421.6783281057205
 20
70.17300111608625
 42
-0.4142135623730951
 10
423.4283281057205
 20
71.92300111608625
 10
434.9283281057205
 20
71.92300111608625
 42
-0.4142135623730951
  0
LWPOLYLINE
  5
98E2
330
18
100
AcDbEntity
  8
0
100
AcDbPolyline
 90
        8
 70
     1
 43
0.0
 10
436.6783281057205
 20
76.67300111608625
 10
436.6783281057205
 20
76.67300111608625
 42
-0.4142135623730951
 10
434.9283281057205
 20
74.92300111608625
 10
423.4283281057205
 20
74.92300111608625
 42
-0.4142135623730951
 10
421.6783281057205
 20
76.67300111608625
 10
421.6783281057205
 20
76.67300111608625
 42
-0.4142135623730951
 10
423.4283281057205
 20
78.42300111608626
 10
434.9283281057205
 20
78.42300111608626
 42
-0.4142135623730951
  0
LWPOLYLINE
  5
98E3
330
18
100
AcDbEntity
  8
0
100
AcDbPolyline
 90
        8
 70
     1
 43
0.0
 10
436.6783281057205
 20
83.17300111608625
 10
436.6783281057205
 20
83.17300111608625
 42
-0.4142135623730951
 10
434.9283281057205
 20
81.42300111608625
 10
423.4283281057205
 20
81.42300111608625
 42
-0.4142135623730951
 10
421.6783281057205
 20
83.17300111608625
 10
421.6783281057205
 20
83.17300111608625
 42
-0.4142135623730951
 10
423.4283281057205
 20
84.92300111608626
 10
434.9283281057205
 20
84.92300111608626
 42
-0.4142135623730951
  0
LWPOLYLINE
  5
98E4
330
18
100
AcDbEntity
  8
0
100
AcDbPolyline
 90
        8
 70
     1
 43
0.0
 10
436.6783281057205
 20
89.67300111608626
 10
436.6783281057205
 20
89.67300111608626
 42
-0.4142135623730951
 10
434.9283281057205
 20
87.92300111608625
 10
423.4283281057205
 20
87.92300111608625
 42
-0.4142135623730951
 10
421.6783281057205
 20
89.67300111608626
 10
421.6783281057205
 20
89.67300111608626
 42
-0.4142135623730951
 10
423.4283281057205
 20
91.42300111608625
 10
434.9283281057205
 20
91.42300111608625
 42
-0.4142135623730951
  0
LWPOLYLINE
  5
98E5
330
18
100
AcDbEntity
  8
0
100
AcDbPolyline
 90
        8
 70
     1
 43
0.0
 10
436.6783281057205
 20
96.17300111608626
 10
436.6783281057205
 20
96.17300111608626
 42
-0.4142135623730951
 10
434.9283281057205
 20
94.42300111608625
 10
423.4283281057205
 20
94.42300111608625
 42
-0.4142135623730951
 10
421.6783281057205
 20
96.17300111608626
 10
421.6783281057205
 20
96.17300111608626
 42
-0.4142135623730951
 10
423.4283281057205
 20
97.92300111608625
 10
434.9283281057205
 20
97.92300111608625
 42
-0.4142135623730951
  0
LWPOLYLINE
  5
98E6
330
18
100
AcDbEntity
  8
0
100
AcDbPolyline
 90
        8
 70
     1
 43
0.0
 10
436.6783281057204
 20
44.17300111608625
 10
436.6783281057204
 20
44.17300111608625
 42
-0.4142135623730951
 10
434.9283281057203
 20
42.42300111608625
 10
423.4283281057204
 20
42.42300111608625
 42
-0.4142135623730951
 10
421.6783281057204
 20
44.17300111608625
 10
421.6783281057204
 20
44.17300111608625
 42
-0.4142135623730951
 10
423.4283281057204
 20
45.92300111608625
 10
434.9283281057203
 20
45.92300111608625
 42
-0.4142135623730951
  0
LWPOLYLINE
  5
98E7
330
18
100
AcDbEntity
  8
0
100
AcDbPolyline
 90
        8
 70
     1
 43
0.0
 10
436.6783281057205
 20
50.67300111608625
 10
436.6783281057205
 20
50.67300111608625
 42
-0.4142135623730951
 10
434.9283281057205
 20
48.92300111608625
 10
423.4283281057205
 20
48.92300111608625
 42
-0.4142135623730951
 10
421.6783281057205
 20
50.67300111608625
 10
421.6783281057205
 20
50.67300111608625
 42
-0.4142135623730951
 10
423.4283281057205
 20
52.42300111608625
 10
434.9283281057205
 20
52.42300111608625
 42
-0.4142135623730951
  0
LWPOLYLINE
  5
98E8
330
18
100
AcDbEntity
  8
0
100
AcDbPolyline
 90
        8
 70
     1
 43
0.0
 10
436.6783281057204
 20
57.17300111608626
 10
436.6783281057204
 20
57.17300111608626
 42
-0.4142135623730951
 10
434.9283281057203
 20
55.42300111608625
 10
423.4283281057204
 20
55.42300111608625
 42
-0.4142135623730951
 10
421.6783281057204
 20
57.17300111608626
 10
421.6783281057204
 20
57.17300111608626
 42
-0.4142135623730951
 10
423.4283281057204
 20
58.92300111608625
 10
434.9283281057203
 20
58.92300111608625
 42
-0.4142135623730951
  0
LWPOLYLINE
  5
98E9
330
18
100
AcDbEntity
  8
0
100
AcDbPolyline
 90
        8
 70
     1
 43
0.0
 10
436.6783281057205
 20
63.67300111608625
 10
436.6783281057205
 20
63.67300111608625
 42
-0.4142135623730951
 10
434.9283281057205
 20
61.92300111608625
 10
423.4283281057205
 20
61.92300111608625
 42
-0.4142135623730951
 10
421.6783281057205
 20
63.67300111608625
 10
421.6783281057205
 20
63.67300111608625
 42
-0.4142135623730951
 10
423.4283281057205
 20
65.42300111608625
 10
434.9283281057205
 20
65.42300111608625
 42
-0.4142135623730951
  0
LWPOLYLINE
  5
98EA
330
18
100
AcDbEntity
  8
0
100
AcDbPolyline
 90
        8
 70
     1
 43
0.0
 10
412.6783281057205
 20
37.67300111608625
 10
412.6783281057205
 20
37.67300111608625
 42
-0.4142135623730951
 10
410.9283281057205
 20
35.92300111608625
 10
399.4283281057205
 20
35.92300111608625
 42
-0.4142135623730951
 10
397.6783281057205
 20
37.67300111608625
 10
397.6783281057205
 20
37.67300111608625
 42
-0.4142135623730951
 10
399.4283281057205
 20
39.42300111608625
 10
410.9283281057205
 20
39.42300111608625
 42
-0.4142135623730951
  0
LWPOLYLINE
  5
98EB
330
18
100
AcDbEntity
  8
0
100
AcDbPolyline
 90
        8
 70
     1
 43
0.0
 10
412.6783281057205
 20
31.17300111608625
 10
412.6783281057205
 20
31.17300111608625
 42
-0.4142135623730951
 10
410.9283281057205
 20
29.42300111608625
 10
399.4283281057205
 20
29.42300111608625
 42
-0.4142135623730951
 10
397.6783281057205
 20
31.17300111608625
 10
397.6783281057205
 20
31.17300111608625
 42
-0.4142135623730951
 10
399.4283281057205
 20
32.92300111608625
 10
410.9283281057205
 20
32.92300111608625
 42
-0.4142135623730951
  0
LWPOLYLINE
  5
98EC
330
18
100
AcDbEntity
  8
0
100
AcDbPolyline
 90
        8
 70
     1
 43
0.0
 10
412.6783281057205
 20
24.67300111608625
 10
412.6783281057205
 20
24.67300111608625
 42
-0.4142135623730951
 10
410.9283281057205
 20
22.92300111608625
 10
399.4283281057205
 20
22.92300111608625
 42
-0.4142135623730951
 10
397.6783281057205
 20
24.67300111608625
 10
397.6783281057205
 20
24.67300111608625
 42
-0.4142135623730951
 10
399.4283281057205
 20
26.42300111608625
 10
410.9283281057205
 20
26.42300111608625
 42
-0.4142135623730951
  0
LWPOLYLINE
  5
98ED
330
18
100
AcDbEntity
  8
0
100
AcDbPolyline
 90
        8
 70
     1
 43
0.0
 10
412.6783281057205
 20
18.17300111608625
 10
412.6783281057205
 20
18.17300111608625
 42
-0.4142135623730951
 10
410.9283281057205
 20
16.42300111608625
 10
399.4283281057205
 20
16.42300111608625
 42
-0.4142135623730951
 10
397.6783281057205
 20
18.17300111608625
 10
397.6783281057205
 20
18.17300111608625
 42
-0.4142135623730951
 10
399.4283281057205
 20
19.92300111608625
 10
410.9283281057205
 20
19.92300111608625
 42
-0.4142135623730951
  0
LWPOLYLINE
  5
98EE
330
18
100
AcDbEntity
  8
0
100
AcDbPolyline
 90
        8
 70
     1
 43
0.0
 10
364.6783281057205
 20
18.17300111608625
 10
364.6783281057205
 20
18.17300111608625
 42
-0.4142135623730951
 10
362.9283281057205
 20
16.42300111608625
 10
351.4283281057205
 20
16.42300111608625
 42
-0.4142135623730951
 10
349.6783281057205
 20
18.17300111608625
 10
349.6783281057205
 20
18.17300111608625
 42
-0.4142135623730951
 10
351.4283281057205
 20
19.92300111608625
 10
362.9283281057205
 20
19.92300111608625
 42
-0.4142135623730951
  0
LWPOLYLINE
  5
98EF
330
18
100
AcDbEntity
  8
0
100
AcDbPolyline
 90
        8
 70
     1
 43
0.0
 10
364.6783281057205
 20
24.67300111608625
 10
364.6783281057205
 20
24.67300111608625
 42
-0.4142135623730951
 10
362.9283281057205
 20
22.92300111608625
 10
351.4283281057205
 20
22.92300111608625
 42
-0.4142135623730951
 10
349.6783281057205
 20
24.67300111608625
 10
349.6783281057205
 20
24.67300111608625
 42
-0.4142135623730951
 10
351.4283281057205
 20
26.42300111608625
 10
362.9283281057205
 20
26.42300111608625
 42
-0.4142135623730951
  0
LWPOLYLINE
  5
98F0
330
18
100
AcDbEntity
  8
0
100
AcDbPolyline
 90
        8
 70
     1
 43
0.0
 10
364.6783281057205
 20
31.17300111608625
 10
364.6783281057205
 20
31.17300111608625
 42
-0.4142135623730951
 10
362.9283281057205
 20
29.42300111608625
 10
351.4283281057205
 20
29.42300111608625
 42
-0.4142135623730951
 10
349.6783281057205
 20
31.17300111608625
 10
349.6783281057205
 20
31.17300111608625
 42
-0.4142135623730951
 10
351.4283281057205
 20
32.92300111608625
 10
362.9283281057205
 20
32.92300111608625
 42
-0.4142135623730951
  0
LWPOLYLINE
  5
98F1
330
18
100
AcDbEntity
  8
0
100
AcDbPolyline
 90
        8
 70
     1
 43
0.0
 10
340.6783281057205
 20
18.17300111608625
 10
340.6783281057205
 20
18.17300111608625
 42
-0.4142135623730951
 10
338.9283281057205
 20
16.42300111608625
 10
327.4283281057205
 20
16.42300111608625
 42
-0.4142135623730951
 10
325.6783281057205
 20
18.17300111608625
 10
325.6783281057205
 20
18.17300111608625
 42
-0.4142135623730951
 10
327.4283281057205
 20
19.92300111608625
 10
338.9283281057205
 20
19.92300111608625
 42
-0.4142135623730951
  0
LWPOLYLINE
  5
98F2
330
18
100
AcDbEntity
  8
0
100
AcDbPolyline
 90
        8
 70
     1
 43
0.0
 10
340.6783281057205
 20
24.67300111608625
 10
340.6783281057205
 20
24.67300111608625
 42
-0.4142135623730951
 10
338.9283281057205
 20
22.92300111608625
 10
327.4283281057205
 20
22.92300111608625
 42
-0.4142135623730951
 10
325.6783281057205
 20
24.67300111608625
 10
325.6783281057205
 20
24.67300111608625
 42
-0.4142135623730951
 10
327.4283281057205
 20
26.42300111608625
 10
338.9283281057205
 20
26.42300111608625
 42
-0.4142135623730951
  0
LWPOLYLINE
  5
98F3
330
18
100
AcDbEntity
  8
0
100
AcDbPolyline
 90
        8
 70
     1
 43
0.0
 10
340.6783281057205
 20
31.17300111608625
 10
340.6783281057205
 20
31.17300111608625
 42
-0.4142135623730951
 10
338.9283281057205
 20
29.42300111608625
 10
327.4283281057205
 20
29.42300111608625
 42
-0.4142135623730951
 10
325.6783281057205
 20
31.17300111608625
 10
325.6783281057205
 20
31.17300111608625
 42
-0.4142135623730951
 10
327.4283281057205
 20
32.92300111608625
 10
338.9283281057205
 20
32.92300111608625
 42
-0.4142135623730951
  0
LWPOLYLINE
  5
98F4
330
18
100
AcDbEntity
  8
0
100
AcDbPolyline
 90
        8
 70
     1
 43
0.0
 10
388.6783281057205
 20
18.17300111608625
 10
388.6783281057205
 20
18.17300111608625
 42
-0.4142135623730951
 10
386.9283281057205
 20
16.42300111608625
 10
375.4283281057205
 20
16.42300111608625
 42
-0.4142135623730951
 10
373.6783281057205
 20
18.17300111608625
 10
373.6783281057205
 20
18.17300111608625
 42
-0.4142135623730951
 10
375.4283281057205
 20
19.92300111608625
 10
386.9283281057205
 20
19.92300111608625
 42
-0.4142135623730951
  0
LWPOLYLINE
  5
98F5
330
18
100
AcDbEntity
  8
0
100
AcDbPolyline
 90
        8
 70
     1
 43
0.0
 10
388.6783281057205
 20
24.67300111608625
 10
388.6783281057205
 20
24.67300111608625
 42
-0.4142135623730951
 10
386.9283281057205
 20
22.92300111608625
 10
375.4283281057205
 20
22.92300111608625
 42
-0.4142135623730951
 10
373.6783281057205
 20
24.67300111608625
 10
373.6783281057205
 20
24.67300111608625
 42
-0.4142135623730951
 10
375.4283281057205
 20
26.42300111608625
 10
386.9283281057205
 20
26.42300111608625
 42
-0.4142135623730951
  0
LWPOLYLINE
  5
98F6
330
18
100
AcDbEntity
  8
0
100
AcDbPolyline
 90
        8
 70
     1
 43
0.0
 10
388.6783281057205
 20
31.17300111608625
 10
388.6783281057205
 20
31.17300111608625
 42
-0.4142135623730951
 10
386.9283281057205
 20
29.42300111608625
 10
375.4283281057205
 20
29.42300111608625
 42
-0.4142135623730951
 10
373.6783281057205
 20
31.17300111608625
 10
373.6783281057205
 20
31.17300111608625
 42
-0.4142135623730951
 10
375.4283281057205
 20
32.92300111608625
 10
386.9283281057205
 20
32.92300111608625
 42
-0.4142135623730951
  0
LWPOLYLINE
  5
98F7
330
18
100
AcDbEntity
  8
0
100
AcDbPolyline
 90
        8
 70
     1
 43
0.0
 10
436.6783281057205
 20
18.17300111608625
 10
436.6783281057205
 20
18.17300111608625
 42
-0.4142135623730951
 10
434.9283281057205
 20
16.42300111608625
 10
423.4283281057205
 20
16.42300111608625
 42
-0.4142135623730951
 10
421.6783281057205
 20
18.17300111608625
 10
421.6783281057205
 20
18.17300111608625
 42
-0.4142135623730951
 10
423.4283281057205
 20
19.92300111608625
 10
434.9283281057205
 20
19.92300111608625
 42
-0.4142135623730951
  0
LWPOLYLINE
  5
98F8
330
18
100
AcDbEntity
  8
0
100
AcDbPolyline
 90
        8
 70
     1
 43
0.0
 10
436.6783281057205
 20
24.67300111608625
 10
436.6783281057205
 20
24.67300111608625
 42
-0.4142135623730951
 10
434.9283281057205
 20
22.92300111608625
 10
423.4283281057205
 20
22.92300111608625
 42
-0.4142135623730951
 10
421.6783281057205
 20
24.67300111608625
 10
421.6783281057205
 20
24.67300111608625
 42
-0.4142135623730951
 10
423.4283281057205
 20
26.42300111608625
 10
434.9283281057205
 20
26.42300111608625
 42
-0.4142135623730951
  0
LWPOLYLINE
  5
98F9
330
18
100
AcDbEntity
  8
0
100
AcDbPolyline
 90
        8
 70
     1
 43
0.0
 10
436.6783281057205
 20
31.17300111608625
 10
436.6783281057205
 20
31.17300111608625
 42
-0.4142135623730951
 10
434.9283281057205
 20
29.42300111608625
 10
423.4283281057205
 20
29.42300111608625
 42
-0.4142135623730951
 10
421.6783281057205
 20
31.17300111608625
 10
421.6783281057205
 20
31.17300111608625
 42
-0.4142135623730951
 10
423.4283281057205
 20
32.92300111608625
 10
434.9283281057205
 20
32.92300111608625
 42
-0.4142135623730951
  0
LWPOLYLINE
  5
98FA
330
18
100
AcDbEntity
  8
0
100
AcDbPolyline
 90
        8
 70
     1
 43
0.0
 10
436.6783281057205
 20
37.67300111608625
 10
436.6783281057205
 20
37.67300111608625
 42
-0.4142135623730951
 10
434.9283281057205
 20
35.92300111608625
 10
423.4283281057205
 20
35.92300111608625
 42
-0.4142135623730951
 10
421.6783281057205
 20
37.67300111608625
 10
421.6783281057205
 20
37.67300111608625
 42
-0.4142135623730951
 10
423.4283281057205
 20
39.42300111608625
 10
434.9283281057205
 20
39.42300111608625
 42
-0.4142135623730951
  0
LINE
  5
9977
330
18
100
AcDbEntity
  8
0
100
AcDbLine
 10
441.6783281057205
 20
169.6730011160862
 30
0.0
 11
442.6783281057205
 21
169.6730011160862
 31
0.0
  0
LINE
  5
9978
330
18
100
AcDbEntity
  8
0
100
AcDbLine
 10
442.6783281057205
 20
168.6730011160862
 30
0.0
 11
442.6783281057205
 21
169.6730011160862
 31
0.0
  0
LINE
  5
9B8A
330
18
100
AcDbEntity
  8
0
100
AcDbLine
 10
310.0720181001322
 20
44.41346920810349
 30
0.0
 11
358.0720181001322
 21
44.41346920810349
 31
0.0
  0
TEXT
  5
9B8B
330
18
100
AcDbEntity
  8
0
100
AcDbText
 10
348.6563969905786
 20
46.24362746617168
 30
0.0
 40
1.0
  1
MADE　IN　JAPAN
 41
0.8
  7
MSｺﾞｼｯｸ
 11
348.6563969905786
 21
46.74362746617169
 31
0.0
100
AcDbText
 73
     2
  0
TEXT
  5
9B8D
330
18
100
AcDbEntity
  8
0
100
AcDbText
 10
311.5430163122874
 20
76.16245963782626
 30
0.0
 40
2.5
  1
MODEL:NCR-*A**A2D-201-UL
 41
1.1
  7
MSｺﾞｼｯｸ
 11
311.5430163122874
 21
77.41245963782626
 31
0.0
100
AcDbText
 73
     2
  0
LINE
  5
9B8E
330
18
100
AcDbEntity
  8
0
100
AcDbLine
 10
310.0720181001322
 20
85.26346920810352
 30
0.0
 11
358.0720181001322
 21
85.26346920810363
 31
0.0
  0
LINE
  5
9B8F
330
18
100
AcDbEntity
  8
0
100
AcDbLine
 10
309.0720181001322
 20
86.26346920810352
 30
0.0
 11
359.0720181001322
 21
86.26346920810352
 31
0.0
  0
LINE
  5
9B90
330
18
100
AcDbEntity
  8
0
100
AcDbLine
 10
310.0720181001322
 20
79.26346920810352
 30
0.0
 11
358.0720181001322
 21
79.26346920810363
 31
0.0
  0
LINE
  5
9B91
330
18
100
AcDbEntity
  8
0
100
AcDbLine
 10
309.0720181001322
 20
44.26346920810352
 30
0.0
 11
359.0720181001322
 21
44.26346920810352
 31
0.0
  0
LINE
  5
9B94
330
18
100
AcDbEntity
  8
0
100
AcDbLine
 10
310.0720181001322
 20
85.26346920810352
 30
0.0
 11
310.0720181001322
 21
44.41346920810349
 31
0.0
  0
LINE
  5
9B95
330
18
100
AcDbEntity
  8
0
100
AcDbLine
 10
309.0720181001322
 20
86.26346920810352
 30
0.0
 11
309.0720181001322
 21
44.26346920810352
 31
0.0
  0
TEXT
  5
9B96
330
18
100
AcDbEntity
  8
0
100
AcDbText
 10
322.3850566740144
 20
74.05386626808746
 30
0.0
 40
1.5
  1
Mot.:×　　EX.:-×××　　
  7
MSｺﾞｼｯｸ
 11
322.3850566740144
 21
74.80386626808746
 31
0.0
100
AcDbText
 73
     2
  0
TEXT
  5
9B97
330
18
100
AcDbEntity
  8
0
100
AcDbText
 10
319.0616649403676
 20
44.96943417605064
 30
0.0
 40
1.5
  1
NIKKI　DENSO　CO.,LTD.
  7
MSｺﾞｼｯｸ
 11
319.0616649403676
 21
45.71943417605064
 31
0.0
100
AcDbText
 73
     2
  0
LINE
  5
9BA1
102
{ACAD_REACTORS
330
9BA5
102
}
330
18
100
AcDbEntity
  8
0
100
AcDbLine
 10
314.625735537803
 20
47.17873178921013
 30
0.0
 11
317.2355267962012
 21
47.17873178921013
 31
0.0
  0
LINE
  5
9BA2
102
{ACAD_REACTORS
330
9BA5
102
}
330
18
100
AcDbEntity
  8
0
100
AcDbLine
 10
317.4219404575154
 20
48.5768342490661
 30
0.0
 11
314.1597013845175
 21
47.5515591118384
 31
0.0
  0
LINE
  5
9BA3
102
{ACAD_REACTORS
330
9BA5
102
}
330
18
100
AcDbEntity
  8
0
100
AcDbLine
 10
312.2955647713762
 20
48.5768342490661
 30
0.0
 11
317.4219404575154
 21
48.5768342490661
 31
0.0
  0
LINE
  5
9BA4
102
{ACAD_REACTORS
330
9BA5
102
}
330
18
100
AcDbEntity
  8
0
100
AcDbLine
 10
311.8295306180908
 20
44.8485610227832
 30
0.0
 11
316.9559063042299
 21
44.8485610227832
 31
0.0
  0
HATCH
  5
9BA5
330
18
100
AcDbEntity
  8
0
100
AcDbHatch
 10
0.0
 20
0.0
 30
0.0
210
0.0
220
0.0
230
1.0
  2
ANSI37
 70
     0
 71
     1
 91
        2
 92
       17
 93
        1
 72
     2
 10
314.625735537803
 20
46.47968055928197
 40
0.699051229928066
 50
0.0
 51
360.0
 73
     1
 97
        1
330
9BA9
 92
        1
 93
        8
 72
     2
 10
314.6268193381596
 20
46.48184815999502
 40
1.167253487083373
 50
113.5897772726308
 51
269.9468005914085
 73
     1
 72
     2
 10
314.625735537803
 20
46.24666348263917
 40
0.9320683065707545
 50
270.0
 51
450.0
 73
     1
 72
     1
 10
314.625735537803
 20
47.17873178921013
 11
317.2355267962012
 21
47.17873178921013
 72
     1
 10
317.2355267962012
 20
47.17873178921013
 11
316.9559063042299
 21
44.8485610227832
 72
     1
 10
316.9559063042299
 20
44.8485610227832
 11
311.8295306180908
 21
44.8485610227832
 72
     1
 10
311.8295306180908
 20
44.8485610227832
 11
312.2955647713762
 21
48.5768342490661
 72
     1
 10
312.2955647713762
 20
48.5768342490661
 11
317.4219404575154
 21
48.5768342490661
 72
     1
 10
317.4219404575154
 20
48.5768342490661
 11
314.1597013845175
 21
47.5515591118384
 97
        8
330
9BA6
330
9BA8
330
9BA1
330
9BAA
330
9BA4
330
9BA7
330
9BA3
330
9BA2
 75
     0
 76
     1
 52
360.0
 41
0.7456546452566037
 77
     0
 78
     2
 53
44.99999999999999
 43
80.18005756116378
 44
49.36487393345124
 45
-0.0659071820105242
 46
0.0659071820105243
 79
     0
 53
134.9999999999999
 43
80.18005756116378
 44
49.36487393345124
 45
-0.0659071820105243
 46
-0.0659071820105242
 79
     0
 98
        1
 10
80.18005756116378
 20
49.36487393345124
  0
ARC
  5
9BA6
102
{ACAD_REACTORS
330
9BA5
102
}
330
18
100
AcDbEntity
  8
0
100
AcDbCircle
 10
314.6268193381596
 20
46.48184815999502
 30
0.0
 40
1.167253487083373
100
AcDbArc
 50
113.5897772726308
 51
269.9468005914085
  0
LINE
  5
9BA7
102
{ACAD_REACTORS
330
9BA5
102
}
330
18
100
AcDbEntity
  8
0
100
AcDbLine
 10
311.8295306180908
 20
44.8485610227832
 30
0.0
 11
312.2955647713762
 21
48.5768342490661
 31
0.0
  0
ARC
  5
9BA8
102
{ACAD_REACTORS
330
9BA5
102
}
330
18
100
AcDbEntity
  8
0
100
AcDbCircle
 10
314.625735537803
 20
46.24666348263917
 30
0.0
 40
0.9320683065707545
100
AcDbArc
 50
270.0
 51
90.0
  0
CIRCLE
  5
9BA9
102
{ACAD_REACTORS
330
9BA5
102
}
330
18
100
AcDbEntity
  8
0
100
AcDbCircle
 10
314.625735537803
 20
46.47968055928197
 30
0.0
 40
0.699051229928066
  0
LINE
  5
9BAA
102
{ACAD_REACTORS
330
9BA5
102
}
330
18
100
AcDbEntity
  8
0
100
AcDbLine
 10
316.9559063042299
 20
44.8485610227832
 30
0.0
 11
317.2355267962012
 21
47.17873178921013
 31
0.0
  0
MTEXT
  5
9BB4
330
18
100
AcDbEntity
  8
0
100
AcDbMText
 10
311.9930163122875
 20
84.18393107874795
 30
0.0
 40
4.0
 41
0.0
 71
     1
 72
     5
  1
AC SERVO DRIVER
  7
MSｺﾞｼｯｸ
 73
     1
 44
1.0
  0
LINE
  5
9BB5
330
18
100
AcDbEntity
  8
0
100
AcDbLine
 10
358.0720181001322
 20
85.26346920810363
 30
0.0
 11
358.0720181001322
 21
44.41346920810349
 31
0.0
  0
LINE
  5
9BB6
330
18
100
AcDbEntity
  8
0
100
AcDbLine
 10
359.0720181001322
 20
86.26346920810352
 30
0.0
 11
359.0720181001322
 21
44.26346920810352
 31
0.0
  0
TEXT
  5
9E5D
330
18
100
AcDbEntity
  8
0
100
AcDbText
 10
348.5924073201104
 20
53.63821322700289
 30
0.0
 40
5.0
  1
XX
  7
MSｺﾞｼｯｸ
 11
348.5924073201104
 21
56.13821322700289
 31
0.0
100
AcDbText
 73
     2
  0
TEXT
  5
9E5E
330
18
100
AcDbEntity
  8
0
100
AcDbText
 10
350.7085587962138
 20
61.09968187782669
 30
0.0
 40
2.5
  1
Xxxx
  7
MSｺﾞｼｯｸ
 11
350.7085587962138
 21
62.34968187782669
 31
0.0
100
AcDbText
 73
     2
  0
TEXT
  5
9E5F
330
18
100
AcDbEntity
  8
0
100
AcDbText
 10
311.2008036407682
 20
59.48521477736005
 30
0.0
 40
1.5
  1
xxxxx     xxx  :xxxxxxxxxx
  7
MSｺﾞｼｯｸ
 11
311.2008036407682
 21
60.23521477736005
 31
0.0
100
AcDbText
 73
     2
  0
TEXT
  5
9E60
330
18
100
AcDbEntity
  8
0
100
AcDbText
 10
311.2179373992496
 20
61.62926687728009
 30
0.0
 40
1.5
  1
xxxxxxxxx xxx  :xxxxxxxxxx
  7
MSｺﾞｼｯｸ
 11
311.2179373992496
 21
62.37926687728009
 31
0.0
100
AcDbText
 73
     2
  0
TEXT
  5
9E61
330
18
100
AcDbEntity
  8
0
100
AcDbText
 10
311.2179373992496
 20
63.60144715853403
 30
0.0
 40
1.5
  1
xxxxx     xxx  :xxxxxxxxxx
  7
MSｺﾞｼｯｸ
 11
311.2179373992496
 21
64.35144715853403
 31
0.0
100
AcDbText
 73
     2
  0
TEXT
  5
9E62
330
18
100
AcDbEntity
  8
0
100
AcDbText
 10
311.2213730860101
 20
65.70338512644934
 30
0.0
 40
1.5
  1
xxxxxxx xxxxx:xxxxxxxxxx
  7
MSｺﾞｼｯｸ
 11
311.2213730860101
 21
66.45338512644935
 31
0.0
100
AcDbText
 73
     2
  0
TEXT
  5
9E63
330
18
100
AcDbEntity
  8
0
100
AcDbText
 10
311.2241221763113
 20
67.59301600400397
 30
0.0
 40
1.5
  1
xxx     xxxxx:xxxxxxxxxx
  7
MSｺﾞｼｯｸ
 11
311.2241221763113
 21
68.34301600400397
 31
0.0
100
AcDbText
 73
     2
  0
TEXT
  5
9E64
330
18
100
AcDbEntity
  8
0
100
AcDbText
 10
311.2270879702246
 20
71.59187951852629
 30
0.0
 40
1.5
  1
xx　    xxxxx:xxxxxxxxxx
  7
MSｺﾞｼｯｸ
 11
311.2270879702246
 21
72.34187951852629
 31
0.0
100
AcDbText
 73
     2
  0
TEXT
  5
9E65
330
18
100
AcDbEntity
  8
0
100
AcDbText
 10
324.9014867742678
 20
69.5918795185263
 30
0.0
 40
1.5
  1
xxxxxxx
  7
MSｺﾞｼｯｸ
 11
324.9014867742678
 21
70.34187951852629
 31
0.0
100
AcDbText
 73
     2
  0
TEXT
  5
9E66
330
18
100
AcDbEntity
  8
0
100
AcDbText
 10
318.1606220531076
 20
52.76490708041911
 30
0.0
 40
2.5
  1
Xxxx xxxxx
  7
MSｺﾞｼｯｸ
 11
318.1606220531076
 21
54.01490708041911
 31
0.0
100
AcDbText
 73
     2
  0
TEXT
  5
9E67
330
18
100
AcDbEntity
  8
0
100
AcDbText
 10
319.0146586748592
 20
47.06882666272043
 30
0.0
 40
1.5
  1
xxxxxxx.xx.xxxx
 41
0.8
 11
319.0146586748592
 21
47.81882666272042
 31
0.0
100
AcDbText
 73
     2
  0
TEXT
  5
9E68
330
18
100
AcDbEntity
  8
0
100
AcDbText
 10
319.1120282533193
 20
48.95492094939129
 30
0.0
 40
1.5
  1
xxx.xxxx.xx
 41
0.8
 11
319.1120282533193
 21
49.70492094939129
 31
0.0
100
AcDbText
 73
     2
  0
TEXT
  5
9E69
330
18
100
AcDbEntity
  8
0
100
AcDbText
 10
343.5357217397318
 20
50.47901970810608
 30
0.0
 40
1.0
  1
xxx xxxxxx
 41
0.8
  7
MSｺﾞｼｯｸ
 11
343.5357217397318
 21
50.97901970810608
 31
0.0
100
AcDbText
 73
     2
  0
TEXT
  5
9E6A
330
18
100
AcDbEntity
  8
0
100
AcDbText
 10
343.5357217397318
 20
49.24180582802455
 30
0.0
 40
1.0
  1
xxx xxxxx xxxxx
 41
0.8
  7
MSｺﾞｼｯｸ
 11
343.5357217397318
 21
49.74180582802455
 31
0.0
100
AcDbText
 73
     2
  0
TEXT
  5
9E6B
330
18
100
AcDbEntity
  8
0
100
AcDbText
 10
343.5357217397318
 20
47.88087051710397
 30
0.0
 40
1.0
  1
xxx xxxxx xxxxx xxxxx
 41
0.8
  7
MSｺﾞｼｯｸ
 11
343.5357217397318
 21
48.38087051710397
 31
0.0
100
AcDbText
 73
     2
  0
TEXT
  5
9E6C
330
18
100
AcDbEntity
  8
0
100
AcDbText
 10
348.7689610735129
 20
44.68168777317987
 30
0.0
 40
1.0
  1
xx-xxxxxx
 41
0.8
  7
MSｺﾞｼｯｸ
 11
348.7689610735129
 21
45.18168777317987
 31
0.0
100
AcDbText
 73
     2
  0
TEXT
  5
9E9F
330
18
100
AcDbEntity
  8
0
100
AcDbText
 10
457.6237255569105
 20
-33.83111206053431
 30
0.0
 40
6.0
  1
ＮＣＲ－＊Ａ＊＊Ａ１Ｅ－０５１＊
 41
0.6
  7
MSｺﾞｼｯｸ
100
AcDbText
  0
TEXT
  5
9EA0
330
18
100
AcDbEntity
  8
0
100
AcDbText
 10
457.6237255569107
 20
-41.49886499124565
 30
0.0
 40
6.0
  1
ＮＣＲ－＊Ａ＊＊Ａ１Ｅ－１０１＊
 41
0.6
  7
MSｺﾞｼｯｸ
100
AcDbText
  0
TEXT
  5
9EA1
330
18
100
AcDbEntity
  8
0
100
AcDbText
 10
457.52845396084
 20
-49.24866351537909
 30
0.0
 40
6.0
  1
ＮＣＲ－＊Ａ＊＊Ａ２Ｅ－１０１＊
 41
0.6
  7
MSｺﾞｼｯｸ
100
AcDbText
  0
TEXT
  5
9EA2
330
18
100
AcDbEntity
  8
0
100
AcDbText
 10
457.761897007773
 20
-56.7139853628631
 30
0.0
 40
6.0
  1
ＮＣＲ－＊Ａ＊＊Ａ２Ｄ－２０１－ＵＬ　＊
 41
0.6
  7
MSｺﾞｼｯｸ
100
AcDbText
  0
TEXT
  5
9EA3
330
18
100
AcDbEntity
  8
0
100
AcDbText
 10
480.1675399505977
 20
-66.69003105847318
 30
0.0
 40
6.0
  1
VC外形図 CC-Link付
  7
MSｺﾞｼｯｸ
100
AcDbText
  0
TEXT
  5
9EA4
330
18
100
AcDbEntity
  8
0
100
AcDbText
 10
479.2329312753513
 20
-78.04793782632029
 30
0.0
 40
7.0
  1
ＳＥ－４９９６０
 41
0.9529999999999999
  7
MSｺﾞｼｯｸ
100
AcDbText
  0
VIEWPORT
  5
9F09
330
9F05
100
AcDbEntity
 67
     1
  8
0
100
AcDbViewport
 10
202.4999999999999
 20
128.4999999999999
 30
0.0
 40
486.0
 41
308.3999999999999
 68
     1
 69
     1
 12
202.4999999999999
 22
128.4999999999999
 13
0.0
 23
0.0
 14
0.5
 24
0.5
 15
0.0
 25
0.0
 16
0.0
 26
0.0
 36
1.0
 17
0.0
 27
0.0
 37
0.0
 42
50.0
 43
0.0
 44
0.0
 45
308.3999999999999
 50
0.0
 51
0.0
 72
   100
 90
    32864
  1

281
     0
 71
     1
 74
     0
110
0.0
120
0.0
130
0.0
111
1.0
121
0.0
131
0.0
112
0.0
122
1.0
132
0.0
 79
     0
146
0.0
  0
VIEWPORT
  5
9F0A
330
9F05
100
AcDbEntity
 67
     1
  8
0
100
AcDbViewport
 10
202.4999999999999
 20
128.4999999999999
 30
0.0
 40
324.0
 41
205.6
 68
     2
 69
     2
 12
299.020471619743
 22
112.4500794349728
 13
0.0
 23
0.0
 14
0.5
 24
0.5
 15
0.0
 25
0.0
 16
0.0
 26
0.0
 36
1.0
 17
0.0
 27
0.0
 37
0.0
 42
50.0
 43
0.0
 44
0.0
 45
388.6159552130381
 50
0.0
 51
0.0
 72
   100
 90
    32864
  1

281
     0
 71
     1
 74
     0
110
0.0
120
0.0
130
0.0
111
1.0
121
0.0
131
0.0
112
0.0
122
1.0
132
0.0
 79
     0
146
0.0
  0
ENDSEC
  0
SECTION
  2
OBJECTS
  0
DICTIONARY
  5
C
330
0
100
AcDbDictionary
281
     1
  3
ACAD_GROUP
350
D
  3
ACAD_IMAGE_VARS
350
9F03
  3
ACAD_LAYOUT
350
73F
  3
ACAD_MLINESTYLE
350
1B
  3
ACAD_PLOTSETTINGS
350
740
  3
ACAD_PLOTSTYLENAME
350
73D
  3
ACAD_SCALELIST
350
9ED7
  3
AcadDim
350
7E24
  3
AcDbVariableDictionary
350
7046
  3
APPDATA
350
9F01
  3
DWGPROPS
350
9F0D
  0
DICTIONARY
  5
9B3B
330
2
100
AcDbDictionary
280
     1
281
     1
  3
ACAD_LAYERFILTERS
360
9B3C
  3
ACAD_LAYERSTATES
360
9B4B
  0
DICTIONARY
  5
D
102
{ACAD_REACTORS
330
C
102
}
330
C
100
AcDbDictionary
281
     1
  0
RASTERVARIABLES
  5
9F03
102
{ACAD_REACTORS
330
C
102
}
330
C
100
AcDbRasterVariables
 90
        0
 70
     1
 71
     1
 72
     0
  0
DICTIONARY
  5
73F
102
{ACAD_REACTORS
330
C
102
}
330
C
100
AcDbDictionary
281
     1
  3
Model
350
741
  3
Sheet1
350
9F06
  0
DICTIONARY
  5
1B
102
{ACAD_REACTORS
330
C
102
}
330
C
100
AcDbDictionary
281
     1
  3
STANDARD
350
1C
  0
DICTIONARY
  5
740
102
{ACAD_REACTORS
330
C
102
}
330
C
100
AcDbDictionary
281
     1
  0
ACDBDICTIONARYWDFLT
  5
73D
102
{ACAD_REACTORS
330
C
102
}
330
C
100
AcDbDictionary
281
     1
  3
Normal
350
73E
100
AcDbDictionaryWithDefault
340
73E
  0
DICTIONARY
  5
9ED7
102
{ACAD_REACTORS
330
C
102
}
330
C
100
AcDbDictionary
281
     1
  3
A0
350
9ED8
  3
A1
350
9ED9
  3
A2
350
9EDA
  3
A3
350
9EDB
  3
A4
350
9EDC
  3
A5
350
9EDD
  3
A6
350
9EDE
  3
A7
350
9EDF
  3
A8
350
9EE0
  3
A9
350
9EE1
  3
B0
350
9EE2
  3
B1
350
9EE3
  3
B2
350
9EE4
  3
B3
350
9EE5
  3
B4
350
9EE6
  3
B5
350
9EE7
  3
B6
350
9EE8
  3
B7
350
9EE9
  3
B8
350
9EEA
  3
B9
350
9EEB
  3
C0
350
9EEC
  3
C1
350
9EED
  3
C2
350
9EEE
  3
C3
350
9EEF
  3
C4
350
9EF0
  3
C5
350
9EF1
  3
C6
350
9EF2
  3
C7
350
9EF3
  3
C8
350
9EF4
  3
C9
350
9EF5
  3
D0
350
9EF6
  3
D1
350
9EF7
  3
D2
350
9EF8
  0
XRECORD
  5
7E24
102
{ACAD_REACTORS
330
C
102
}
330
C
100
AcDbXrecord
280
     1
 90
   990106
  3

 60
     0
 61
     0
 62
     1
 63
     3
 64
     0
 65
     0
 66
     0
 67
     3
 68
     1
 69
     0
 70
     0
 71
     0
 72
     0
 40
0.0
170
     0
  0
DICTIONARY
  5
7046
102
{ACAD_REACTORS
330
C
102
}
330
C
100
AcDbDictionary
281
     1
  3
DIMASSOC
350
7047
  0
DICTIONARY
  5
9F01
102
{ACAD_REACTORS
330
C
102
}
330
C
100
AcDbDictionary
281
     1
  0
XRECORD
  5
9F0D
102
{ACAD_REACTORS
330
C
102
}
330
C
100
AcDbXrecord
280
     1
  1
DWGPROPS COOKIE
  2

  3

  4

  6

  7

  8
k-yoshida
  9

300
=
301
=
302
=
303
=
304
=
305
=
306
=
307
=
308
=
309
=
 40
0.0
 41
2451224.285162384
 42
2457315.100162662
  1

 90
        0
  0
DICTIONARY
  5
9B3C
102
{ACAD_REACTORS
330
9B3B
102
}
330
9B3B
100
AcDbDictionary
280
     1
281
     1
  3
0
360
9B3D
  3
11
360
9B3E
  3
150_
360
9B3F
  3
160_
360
9B40
  3
170_
360
9B41
  3
171_
360
9B42
  3
350_
360
9B43
  3
4
360
9B44
  3
5
360
9B45
  3
7
360
9B46
  3
kiseki
360
9B47
  0
DICTIONARY
  5
9B4B
102
{ACAD_REACTORS
330
9B3B
102
}
330
9B3B
100
AcDbDictionary
281
     1
  0
LAYOUT
  5
741
102
{ACAD_REACTORS
330
73F
102
}
330
73F
100
AcDbPlotSettings
  1

  2
HP DesignJet 750C (D/A1) Color
  4
ISO_A3_(420.00_x_297.00_MM)
  6

 40
7.5
 41
20.0
 42
7.5
 43
20.0
 44
420.0
 45
297.0
 46
0.0
 47
0.0
 48
0.0
 49
0.0
140
0.0
141
0.0
142
1.0
143
1.801273515886439
 70
  1712
 72
     1
 73
     0
 74
     0
  7

 75
     0
147
0.5551627729939069
148
-46.10258472364049
149
119.5496069839347
100
AcDbLayout
  1
Model
 70
     1
 71
     0
 10
0.0
 20
0.0
 11
12.0
 21
9.0
 12
0.0
 22
0.0
 32
0.0
 14
47.8886462317132
 24
-78.04793782632029
 34
0.0
 15
550.1522970077729
 25
302.948096696266
 35
0.0
146
0.0
 13
0.0
 23
0.0
 33
0.0
 16
1.0
 26
0.0
 36
0.0
 17
0.0
 27
1.0
 37
0.0
 76
     0
330
18
  0
LAYOUT
  5
9F06
102
{ACAD_REACTORS
330
73F
102
}
330
73F
100
AcDbPlotSettings
  1

  2
none_device
  4
ISO_A3_(420.00_x_297.00_MM)
  6

 40
7.5
 41
20.0
 42
7.5
 43
20.0
 44
420.0
 45
297.0
 46
0.0
 47
0.0
 48
0.0
 49
0.0
140
0.0
141
0.0
142
1.0
143
1.0
 70
   688
 72
     1
 73
     0
 74
     5
  7

 75
    16
147
1.0
148
0.0
149
0.0
100
AcDbLayout
  1
Sheet1
 70
     1
 71
     1
 10
0.0
 20
0.0
 11
0.0
 21
0.0
 12
0.0
 22
0.0
 32
0.0
 14
40.49999999999999
 24
25.69999999999998
 34
0.0
 15
364.5
 25
231.3
 35
0.0
146
0.0
 13
0.0
 23
0.0
 33
0.0
 16
1.0
 26
0.0
 36
0.0
 17
0.0
 27
1.0
 37
0.0
 76
     0
330
9F05
331
9F09
  0
MLINESTYLE
  5
1C
102
{ACAD_REACTORS
330
1B
102
}
330
1B
100
AcDbMlineStyle
  2
STANDARD
 70
     0
  3

 62
   256
 51
90.0
 52
90.0
 71
     2
 49
0.5
 62
   256
  6
BYLAYER
 49
-0.5
 62
   256
  6
BYLAYER
  0
ACDBPLACEHOLDER
  5
73E
102
{ACAD_REACTORS
330
73D
102
}
330
73D
  0
ACAD_PROXY_OBJECT
  5
9ED8
102
{ACAD_REACTORS
330
9ED7
102
}
330
9ED7
100
AcDbProxyObject
 90
      499
 91
      507
 95
   655383
 70
     0
 93
       41
310
903313A31581
 94
        0
  0
ACAD_PROXY_OBJECT
  5
9ED9
102
{ACAD_REACTORS
330
9ED7
102
}
330
9ED7
100
AcDbProxyObject
 90
      499
 91
      507
 95
   655383
 70
     0
 93
      105
310
903313A324000000000000004000
 94
        0
  0
ACAD_PROXY_OBJECT
  5
9EDA
102
{ACAD_REACTORS
330
9ED7
102
}
330
9ED7
100
AcDbProxyObject
 90
      499
 91
      507
 95
   655383
 70
     0
 93
      105
310
903313A344000000000000104000
 94
        0
  0
ACAD_PROXY_OBJECT
  5
9EDB
102
{ACAD_REACTORS
330
9ED7
102
}
330
9ED7
100
AcDbProxyObject
 90
      499
 91
      507
 95
   655383
 70
     0
 93
      105
310
903313A354000000000000144000
 94
        0
  0
ACAD_PROXY_OBJECT
  5
9EDC
102
{ACAD_REACTORS
330
9ED7
102
}
330
9ED7
100
AcDbProxyObject
 90
      499
 91
      507
 95
   655383
 70
     0
 93
      105
310
903313A384000000000000204000
 94
        0
  0
ACAD_PROXY_OBJECT
  5
9EDD
102
{ACAD_REACTORS
330
9ED7
102
}
330
9ED7
100
AcDbProxyObject
 90
      499
 91
      507
 95
   655383
 70
     0
 93
      113
310
904313A31304000000000000244030
 94
        0
  0
ACAD_PROXY_OBJECT
  5
9EDE
102
{ACAD_REACTORS
330
9ED7
102
}
330
9ED7
100
AcDbProxyObject
 90
      499
 91
      507
 95
   655383
 70
     0
 93
      113
310
904313A31364000000000000304030
 94
        0
  0
ACAD_PROXY_OBJECT
  5
9EDF
102
{ACAD_REACTORS
330
9ED7
102
}
330
9ED7
100
AcDbProxyObject
 90
      499
 91
      507
 95
   655383
 70
     0
 93
      113
310
904313A32304000000000000344030
 94
        0
  0
ACAD_PROXY_OBJECT
  5
9EE0
102
{ACAD_REACTORS
330
9ED7
102
}
330
9ED7
100
AcDbProxyObject
 90
      499
 91
      507
 95
   655383
 70
     0
 93
      113
310
904313A333040000000000003E4030
 94
        0
  0
ACAD_PROXY_OBJECT
  5
9EE1
102
{ACAD_REACTORS
330
9ED7
102
}
330
9ED7
100
AcDbProxyObject
 90
      499
 91
      507
 95
   655383
 70
     0
 93
      113
310
904313A34304000000000000444030
 94
        0
  0
ACAD_PROXY_OBJECT
  5
9EE2
102
{ACAD_REACTORS
330
9ED7
102
}
330
9ED7
100
AcDbProxyObject
 90
      499
 91
      507
 95
   655383
 70
     0
 93
      113
310
904313A35304000000000000494030
 94
        0
  0
ACAD_PROXY_OBJECT
  5
9EE3
102
{ACAD_REACTORS
330
9ED7
102
}
330
9ED7
100
AcDbProxyObject
 90
      499
 91
      507
 95
   655383
 70
     0
 93
      121
310
905313A3130304000000000000594000
 94
        0
  0
ACAD_PROXY_OBJECT
  5
9EE4
102
{ACAD_REACTORS
330
9ED7
102
}
330
9ED7
100
AcDbProxyObject
 90
      499
 91
      507
 95
   655383
 70
     0
 93
      105
310
903323A310000000000000010159
 94
        0
  0
ACAD_PROXY_OBJECT
  5
9EE5
102
{ACAD_REACTORS
330
9ED7
102
}
330
9ED7
100
AcDbProxyObject
 90
      499
 91
      507
 95
   655383
 70
     0
 93
      105
310
903343A310000000000000410159
 94
        0
  0
ACAD_PROXY_OBJECT
  5
9EE6
102
{ACAD_REACTORS
330
9ED7
102
}
330
9ED7
100
AcDbProxyObject
 90
      499
 91
      507
 95
   655383
 70
     0
 93
      105
310
903383A310000000000000810159
 94
        0
  0
ACAD_PROXY_OBJECT
  5
9EE7
102
{ACAD_REACTORS
330
9ED7
102
}
330
9ED7
100
AcDbProxyObject
 90
      499
 91
      507
 95
   655383
 70
     0
 93
      113
310
90431303A310000000000000910140
 94
        0
  0
ACAD_PROXY_OBJECT
  5
9EE8
102
{ACAD_REACTORS
330
9ED7
102
}
330
9ED7
100
AcDbProxyObject
 90
      499
 91
      507
 95
   655383
 70
     0
 93
      121
310
9053130303A310000000000001650100
 94
        0
  0
ACAD_PROXY_OBJECT
  5
9EE9
102
{ACAD_REACTORS
330
9ED7
102
}
330
9ED7
100
AcDbProxyObject
 90
      499
 91
      507
 95
   655383
 70
     0
 93
      257
310
90E312F31323822203D2031272D3022000000000000200FC000000000000284000
 94
        0
  0
ACAD_PROXY_OBJECT
  5
9EEA
102
{ACAD_REACTORS
330
9ED7
102
}
330
9ED7
100
AcDbProxyObject
 90
      499
 91
      507
 95
   655383
 70
     0
 93
      249
310
90D312F363422203D2031272D3022000000000000240FC000000000000284040
 94
        0
  0
ACAD_PROXY_OBJECT
  5
9EEB
102
{ACAD_REACTORS
330
9ED7
102
}
330
9ED7
100
AcDbProxyObject
 90
      499
 91
      507
 95
   655383
 70
     0
 93
      249
310
90D312F333222203D2031272D3022000000000000280FC000000000000284040
 94
        0
  0
ACAD_PROXY_OBJECT
  5
9EEC
102
{ACAD_REACTORS
330
9ED7
102
}
330
9ED7
100
AcDbProxyObject
 90
      499
 91
      507
 95
   655383
 70
     0
 93
      249
310
90D312F313622203D2031272D30220000000000002C0FC000000000000284040
 94
        0
  0
ACAD_PROXY_OBJECT
  5
9EED
102
{ACAD_REACTORS
330
9ED7
102
}
330
9ED7
100
AcDbProxyObject
 90
      499
 91
      507
 95
   655383
 70
     0
 93
      249
310
90D332F333222203D2031272D30220000000000002E0FC000000000000284040
 94
        0
  0
ACAD_PROXY_OBJECT
  5
9EEE
102
{ACAD_REACTORS
330
9ED7
102
}
330
9ED7
100
AcDbProxyObject
 90
      499
 91
      507
 95
   655383
 70
     0
 93
      241
310
90C312F3822203D2031272D3022000000000000300FC000000000000284040
 94
        0
  0
ACAD_PROXY_OBJECT
  5
9EEF
102
{ACAD_REACTORS
330
9ED7
102
}
330
9ED7
100
AcDbProxyObject
 90
      499
 91
      507
 95
   655383
 70
     0
 93
      249
310
90D332F313622203D2031272D3022000000000000320FC000000000000284040
 94
        0
  0
ACAD_PROXY_OBJECT
  5
9EF0
102
{ACAD_REACTORS
330
9ED7
102
}
330
9ED7
100
AcDbProxyObject
 90
      499
 91
      507
 95
   655383
 70
     0
 93
      241
310
90C312F3422203D2031272D3022000000000000340FC000000000000284040
 94
        0
  0
ACAD_PROXY_OBJECT
  5
9EF1
102
{ACAD_REACTORS
330
9ED7
102
}
330
9ED7
100
AcDbProxyObject
 90
      499
 91
      507
 95
   655383
 70
     0
 93
      241
310
90C332F3822203D2031272D3022000000000000360FC000000000000284040
 94
        0
  0
ACAD_PROXY_OBJECT
  5
9EF2
102
{ACAD_REACTORS
330
9ED7
102
}
330
9ED7
100
AcDbProxyObject
 90
      499
 91
      507
 95
   655383
 70
     0
 93
      241
310
90C312F3222203D2031272D3022000000000000380FC000000000000284040
 94
        0
  0
ACAD_PROXY_OBJECT
  5
9EF3
102
{ACAD_REACTORS
330
9ED7
102
}
330
9ED7
100
AcDbProxyObject
 90
      499
 91
      507
 95
   655383
 70
     0
 93
      241
310
90C332F3422203D2031272D30220000000000003A0FC000000000000284040
 94
        0
  0
ACAD_PROXY_OBJECT
  5
9EF4
102
{ACAD_REACTORS
330
9ED7
102
}
330
9ED7
100
AcDbProxyObject
 90
      499
 91
      507
 95
   655383
 70
     0
 93
      161
310
90A3122203D2031272D30224000000000000284020
 94
        0
  0
ACAD_PROXY_OBJECT
  5
9EF5
102
{ACAD_REACTORS
330
9ED7
102
}
330
9ED7
100
AcDbProxyObject
 90
      499
 91
      507
 95
   655383
 70
     0
 93
      257
310
90E312D312F3222203D2031272D30220000000000003E0FC000000000000284000
 94
        0
  0
ACAD_PROXY_OBJECT
  5
9EF6
102
{ACAD_REACTORS
330
9ED7
102
}
330
9ED7
100
AcDbProxyObject
 90
      499
 91
      507
 95
   655383
 70
     0
 93
      225
310
90A3322203D2031272D302200000000000002100000000000000284000
 94
        0
  0
ACAD_PROXY_OBJECT
  5
9EF7
102
{ACAD_REACTORS
330
9ED7
102
}
330
9ED7
100
AcDbProxyObject
 90
      499
 91
      507
 95
   655383
 70
     0
 93
      225
310
90A3622203D2031272D302200000000000006100000000000000284000
 94
        0
  0
ACAD_PROXY_OBJECT
  5
9EF8
102
{ACAD_REACTORS
330
9ED7
102
}
330
9ED7
100
AcDbProxyObject
 90
      499
 91
      507
 95
   655383
 70
     0
 93
      249
310
90D31272D3022203D2031272D30220000000000000A100000000000000284040
 94
        0
  0
DICTIONARYVAR
  5
7047
102
{ACAD_REACTORS
330
7046
102
}
330
7046
100
DictionaryVariables
280
     0
  1
1
  0
XRECORD
  5
9B3D
102
{ACAD_REACTORS
330
9B3C
102
}
330
9B3C
100
AcDbXrecord
280
     1
  1
0
  1
*0
  1
*
  1
*
 70
     0
  1
*
  1
*
  0
XRECORD
  5
9B3E
102
{ACAD_REACTORS
330
9B3C
102
}
330
9B3C
100
AcDbXrecord
280
     1
  1
11
  1
*11
  1
*
  1
*
 70
     0
  1
*
  1
*
  0
XRECORD
  5
9B3F
102
{ACAD_REACTORS
330
9B3C
102
}
330
9B3C
100
AcDbXrecord
280
     1
  1
150_
  1
150_*
  1
*
  1
*
 70
     0
  1
*
  1
*
  0
XRECORD
  5
9B40
102
{ACAD_REACTORS
330
9B3C
102
}
330
9B3C
100
AcDbXrecord
280
     1
  1
160_
  1
160_*
  1
*
  1
*
 70
     0
  1
*
  1
*
  0
XRECORD
  5
9B41
102
{ACAD_REACTORS
330
9B3C
102
}
330
9B3C
100
AcDbXrecord
280
     1
  1
170_
  1
170_*
  1
*
  1
*
 70
     0
  1
*
  1
*
  0
XRECORD
  5
9B42
102
{ACAD_REACTORS
330
9B3C
102
}
330
9B3C
100
AcDbXrecord
280
     1
  1
171_
  1
171_*
  1
*
  1
*
 70
     0
  1
*
  1
*
  0
XRECORD
  5
9B43
102
{ACAD_REACTORS
330
9B3C
102
}
330
9B3C
100
AcDbXrecord
280
     1
  1
350_
  1
350_*
  1
*
  1
*
 70
     0
  1
*
  1
*
  0
XRECORD
  5
9B44
102
{ACAD_REACTORS
330
9B3C
102
}
330
9B3C
100
AcDbXrecord
280
     1
  1
4
  1
*4
  1
*
  1
*
 70
     0
  1
*
  1
*
  0
XRECORD
  5
9B45
102
{ACAD_REACTORS
330
9B3C
102
}
330
9B3C
100
AcDbXrecord
280
     1
  1
5
  1
*5
  1
*
  1
*
 70
     0
  1
*
  1
*
  0
XRECORD
  5
9B46
102
{ACAD_REACTORS
330
9B3C
102
}
330
9B3C
100
AcDbXrecord
280
     1
  1
7
  1
*7
  1
*
  1
*
 70
     0
  1
*
  1
*
  0
XRECORD
  5
9B47
102
{ACAD_REACTORS
330
9B3C
102
}
330
9B3C
100
AcDbXrecord
280
     1
  1
kiseki
  1
kiseki*
  1
*
  1
*
 70
     0
  1
*
  1
*
  0
ENDSEC
  0
EOF
