  0
SECTION
  2
HEADER
  9
$ACADVER
  1
AC1015
  9
$ACADMAINTVER
 70
    10
  9
$DWGCODEPAGE
  3
ANSI_932
  9
$INSBASE
 10
0.0
 20
0.0
 30
0.0
  9
$EXTMIN
 10
906.4259297475491
 20
725.8513669070098
 30
-12.88725201528865
  9
$EXTMAX
 10
1773.929991903848
 20
1624.871239894587
 30
10.7393766794072
  9
$LIMMIN
 10
0.0
 20
0.0
  9
$LIMMAX
 10
420.0
 20
297.0
  9
$ORTHOMODE
 70
     1
  9
$REGENMODE
 70
     1
  9
$FILLMODE
 70
     1
  9
$QTEXTMODE
 70
     0
  9
$MIRRTEXT
 70
     1
  9
$LTSCALE
 40
1.0
  9
$ATTMODE
 70
     1
  9
$TEXTSIZE
 40
6.0
  9
$TRACEWID
 40
1.0
  9
$TEXTSTYLE
  7
STANDARD
  9
$CLAYER
  8
0
  9
$CELTYPE
  6
BYLAYER
  9
$CECOLOR
 62
   256
  9
$CELTSCALE
 40
1.0
  9
$DISPSILH
 70
     0
  9
$DIMSCALE
 40
1.0
  9
$DIMASZ
 40
4.5
  9
$DIMEXO
 40
2.0
  9
$DIMDLI
 40
5.0
  9
$DIMRND
 40
0.0
  9
$DIMDLE
 40
0.0
  9
$DIMEXE
 40
0.75
  9
$DIMTP
 40
0.0
  9
$DIMTM
 40
0.0
  9
$DIMTXT
 40
9.0
  9
$DIMCEN
 40
2.5
  9
$DIMTSZ
 40
0.0
  9
$DIMTOL
 70
     0
  9
$DIMLIM
 70
     0
  9
$DIMTIH
 70
     0
  9
$DIMTOH
 70
     0
  9
$DIMSE1
 70
     0
  9
$DIMSE2
 70
     0
  9
$DIMTAD
 70
     1
  9
$DIMZIN
 70
     9
  9
$DIMBLK
  1

  9
$DIMASO
 70
     1
  9
$DIMSHO
 70
     1
  9
$DIMPOST
  1

  9
$DIMAPOST
  1

  9
$DIMALT
 70
     0
  9
$DIMALTD
 70
     4
  9
$DIMALTF
 40
0.0394
  9
$DIMLFAC
 40
1.0
  9
$DIMTOFL
 70
     1
  9
$DIMTVP
 40
0.0
  9
$DIMTIX
 70
     0
  9
$DIMSOXD
 70
     0
  9
$DIMSAH
 70
     1
  9
$DIMBLK1
  1
OPEN
  9
$DIMBLK2
  1
OPEN
  9
$DIMSTYLE
  2
STANDARD
  9
$DIMCLRD
 70
     0
  9
$DIMCLRE
 70
     0
  9
$DIMCLRT
 70
     7
  9
$DIMTFAC
 40
1.0
  9
$DIMGAP
 40
2.0
  9
$DIMJUST
 70
     0
  9
$DIMSD1
 70
     0
  9
$DIMSD2
 70
     0
  9
$DIMTOLJ
 70
     1
  9
$DIMTZIN
 70
     9
  9
$DIMALTZ
 70
     0
  9
$DIMALTTZ
 70
     0
  9
$DIMUPT
 70
     0
  9
$DIMDEC
 70
     4
  9
$DIMTDEC
 70
     4
  9
$DIMALTU
 70
     8
  9
$DIMALTTD
 70
     4
  9
$DIMTXSTY
  7
MSｺﾞｼｯｸ
  9
$DIMAUNIT
 70
     0
  9
$DIMADEC
 70
     0
  9
$DIMALTRND
 40
0.0
  9
$DIMAZIN
 70
     2
  9
$DIMDSEP
 70
    46
  9
$DIMATFIT
 70
     3
  9
$DIMFRAC
 70
     0
  9
$DIMLDRBLK
  1
OPEN
  9
$DIMLUNIT
 70
     2
  9
$DIMLWD
 70
    -2
  9
$DIMLWE
 70
    -2
  9
$DIMTMOVE
 70
     2
  9
$LUNITS
 70
     2
  9
$LUPREC
 70
     4
  9
$SKETCHINC
 40
1.0
  9
$FILLETRAD
 40
10.0
  9
$AUNITS
 70
     0
  9
$AUPREC
 70
     0
  9
$MENU
  1
.
  9
$ELEVATION
 40
0.0
  9
$PELEVATION
 40
0.0
  9
$THICKNESS
 40
0.0
  9
$LIMCHECK
 70
     0
  9
$CHAMFERA
 40
0.0
  9
$CHAMFERB
 40
0.0
  9
$CHAMFERC
 40
20.0
  9
$CHAMFERD
 40
0.0
  9
$SKPOLY
 70
     0
  9
$TDCREATE
 40
2451224.660162384
  9
$TDUCREATE
 40
2451224.285162384
  9
$TDUPDATE
 40
2455727.493212708
  9
$TDUUPDATE
 40
2455727.118212708
  9
$TDINDWG
 40
3.5289539699
  9
$TDUSRTIMER
 40
3.5289539699
  9
$USRTIMER
 70
     1
  9
$ANGBASE
 50
0.0
  9
$ANGDIR
 70
     0
  9
$PDMODE
 70
     0
  9
$PDSIZE
 40
0.0
  9
$PLINEWID
 40
0.0
  9
$SPLFRAME
 70
     0
  9
$SPLINETYPE
 70
     6
  9
$SPLINESEGS
 70
     8
  9
$HANDSEED
  5
1327A
  9
$SURFTAB1
 70
     6
  9
$SURFTAB2
 70
     6
  9
$SURFTYPE
 70
     6
  9
$SURFU
 70
     6
  9
$SURFV
 70
     6
  9
$UCSBASE
  2

  9
$UCSNAME
  2

  9
$UCSORG
 10
0.0
 20
0.0
 30
0.0
  9
$UCSXDIR
 10
1.0
 20
0.0
 30
0.0
  9
$UCSYDIR
 10
0.0
 20
1.0
 30
0.0
  9
$UCSORTHOREF
  2

  9
$UCSORTHOVIEW
 70
     0
  9
$UCSORGTOP
 10
0.0
 20
0.0
 30
0.0
  9
$UCSORGBOTTOM
 10
0.0
 20
0.0
 30
0.0
  9
$UCSORGLEFT
 10
0.0
 20
0.0
 30
0.0
  9
$UCSORGRIGHT
 10
0.0
 20
0.0
 30
0.0
  9
$UCSORGFRONT
 10
0.0
 20
0.0
 30
0.0
  9
$UCSORGBACK
 10
0.0
 20
0.0
 30
0.0
  9
$PUCSBASE
  2

  9
$PUCSNAME
  2

  9
$PUCSORG
 10
0.0
 20
0.0
 30
0.0
  9
$PUCSXDIR
 10
1.0
 20
0.0
 30
0.0
  9
$PUCSYDIR
 10
0.0
 20
1.0
 30
0.0
  9
$PUCSORTHOREF
  2

  9
$PUCSORTHOVIEW
 70
     0
  9
$PUCSORGTOP
 10
0.0
 20
0.0
 30
0.0
  9
$PUCSORGBOTTOM
 10
0.0
 20
0.0
 30
0.0
  9
$PUCSORGLEFT
 10
0.0
 20
0.0
 30
0.0
  9
$PUCSORGRIGHT
 10
0.0
 20
0.0
 30
0.0
  9
$PUCSORGFRONT
 10
0.0
 20
0.0
 30
0.0
  9
$PUCSORGBACK
 10
0.0
 20
0.0
 30
0.0
  9
$USERI1
 70
     0
  9
$USERI2
 70
     0
  9
$USERI3
 70
     0
  9
$USERI4
 70
     0
  9
$USERI5
 70
     0
  9
$USERR1
 40
0.0
  9
$USERR2
 40
0.0
  9
$USERR3
 40
0.0
  9
$USERR4
 40
0.0
  9
$USERR5
 40
0.0
  9
$WORLDVIEW
 70
     1
  9
$SHADEDGE
 70
     3
  9
$SHADEDIF
 70
    70
  9
$TILEMODE
 70
     1
  9
$MAXACTVP
 70
    48
  9
$PINSBASE
 10
0.0
 20
0.0
 30
0.0
  9
$PLIMCHECK
 70
     0
  9
$PEXTMIN
 10
28.51784982681273
 20
19.82258291244505
 30
0.0
  9
$PEXTMAX
 10
256.6606484413147
 20
178.4032462120056
 30
0.0
  9
$PLIMMIN
 10
-5.873748779296875
 20
-5.873749732971191
  9
$PLIMMAX
 10
291.05224609375
 20
204.0995779037475
  9
$UNITMODE
 70
     0
  9
$VISRETAIN
 70
     1
  9
$PLINEGEN
 70
     0
  9
$PSLTSCALE
 70
     1
  9
$TREEDEPTH
 70
  3020
  9
$CMLSTYLE
  2
STANDARD
  9
$CMLJUST
 70
     0
  9
$CMLSCALE
 40
20.0
  9
$PROXYGRAPHICS
 70
     1
  9
$MEASUREMENT
 70
     1
  9
$CELWEIGHT
370
    -1
  9
$ENDCAPS
280
     0
  9
$JOINSTYLE
280
     0
  9
$LWDISPLAY
290
     1
  9
$INSUNITS
 70
     0
  9
$HYPERLINKBASE
  1

  9
$STYLESHEET
  1

  9
$XEDIT
290
     1
  9
$CEPSNTYPE
380
     0
  9
$PSTYLEMODE
290
     1
  9
$FINGERPRINTGUID
  2
{6B368F64-F7EB-11D4-BFBA-00004C030E53}
  9
$VERSIONGUID
  2
{96212D39-2B2A-4A06-9B4A-3C7E3C4A0577}
  9
$EXTNAMES
290
     1
  9
$PSVPSCALE
 40
0.0
  9
$OLESTARTUP
290
     0
  0
ENDSEC
  0
SECTION
  2
CLASSES
  0
CLASS
  1
HATCH
  2
AcDbHatch
  3
AutoCAD 2000
 90
    32768
280
     0
281
     1
  0
CLASS
  1
LWPOLYLINE
  2
AcDbPolyline
  3
AutoCAD 2000
 90
    32768
280
     0
281
     1
  0
CLASS
  1
ACDBDICTIONARYWDFLT
  2
AcDbDictionaryWithDefault
  3
AutoCAD 2000
 90
        0
280
     0
281
     0
  0
CLASS
  1
ACDBPLACEHOLDER
  2
AcDbPlaceHolder
  3
AutoCAD 2000
 90
        0
280
     0
281
     0
  0
CLASS
  1
LAYOUT
  2
AcDbLayout
  3
AutoCAD 2000
 90
        0
280
     0
281
     0
  0
CLASS
  1
DICTIONARYVAR
  2
AcDbDictionaryVar
  3
AutoCAD 2000
 90
        0
280
     0
281
     0
  0
ENDSEC
  0
SECTION
  2
TABLES
  0
TABLE
  2
VPORT
  5
8
330
0
100
AcDbSymbolTable
 70
     2
  0
VPORT
  5
13279
330
8
100
AcDbSymbolTableRecord
100
AcDbViewportTableRecord
  2
*Active
 70
     0
 10
0.0
 20
0.0
 11
1.0
 21
1.0
 12
1620.182244195393
 22
1175.336591386127
 13
0.0
 23
0.0
 14
10.0
 24
10.0
 15
10.0
 25
10.0
 16
0.0
 26
0.0
 36
1.0
 17
0.0
 27
0.0
 37
0.0
 40
905.9582843410844
 41
1.713375796178343
 42
50.0
 43
0.0
 44
0.0
 50
0.0
 51
0.0
 71
     0
 72
   100
 73
     1
 74
     0
 75
     0
 76
     0
 77
     0
 78
     0
281
     0
 65
     1
110
0.0
120
0.0
130
0.0
111
1.0
121
0.0
131
0.0
112
0.0
122
1.0
132
0.0
 79
     0
146
0.0
  0
ENDTAB
  0
TABLE
  2
LTYPE
  5
5
330
0
100
AcDbSymbolTable
 70
     1
  0
LTYPE
  5
12
330
5
100
AcDbSymbolTableRecord
100
AcDbLinetypeTableRecord
  2
BYBLOCK
 70
     0
  3

 72
    65
 73
     0
 40
0.0
  0
LTYPE
  5
13
330
5
100
AcDbSymbolTableRecord
100
AcDbLinetypeTableRecord
  2
BYLAYER
 70
     0
  3

 72
    65
 73
     0
 40
0.0
  0
LTYPE
  5
14
330
5
100
AcDbSymbolTableRecord
100
AcDbLinetypeTableRecord
  2
CONTINUOUS
 70
     0
  3
Solid line
 72
    65
 73
     0
 40
0.0
  0
ENDTAB
  0
TABLE
  2
LAYER
  5
2
330
0
100
AcDbSymbolTable
 70
     2
  0
LAYER
  5
E
330
2
100
AcDbSymbolTableRecord
100
AcDbLayerTableRecord
  2
0
 70
     0
 62
     7
  6
CONTINUOUS
370
    -3
390
73E
  0
LAYER
  5
711A
330
2
100
AcDbSymbolTableRecord
100
AcDbLayerTableRecord
  2
Defpoints
 70
     0
 62
     7
  6
CONTINUOUS
290
     0
370
    -3
390
73E
  0
ENDTAB
  0
TABLE
  2
STYLE
  5
3
330
0
100
AcDbSymbolTable
 70
     4
  0
STYLE
  5
F
330
3
100
AcDbSymbolTableRecord
100
AcDbTextStyleTableRecord
  2
STANDARD
 70
     0
 40
0.0
 41
1.0
 50
0.0
 71
     0
 42
6.0
  3
isocp.shx
  4
bigfont.shx
  0
STYLE
  5
35
330
3
100
AcDbSymbolTableRecord
100
AcDbTextStyleTableRecord
  2
MSｺﾞｼｯｸ
 70
     0
 40
0.0
 41
1.0
 50
0.0
 71
     0
 42
5.0
  3
MS Gothic.ttf
  4

1001
ACAD
1000
MS Gothic
1071
    32817
  0
STYLE
  5
E125
330
3
100
AcDbSymbolTableRecord
100
AcDbTextStyleTableRecord
  2
STYLE4
 70
     0
 40
5.0
 41
1.0
 50
0.0
 71
     0
 42
3.0
  3

  4

1001
ACAD
1000
@ＨＧｺﾞｼｯｸE-PRO
1071
 33587250
  0
STYLE
  5
E126
330
3
100
AcDbSymbolTableRecord
100
AcDbTextStyleTableRecord
  2
STYLE5
 70
     0
 40
2.0
 41
1.0
 50
0.0
 71
     0
 42
6.0
  3
CENTURY.TTF
  4

1001
ACAD
1000
Century
1071
       18
  0
ENDTAB
  0
TABLE
  2
VIEW
  5
6
330
0
100
AcDbSymbolTable
 70
     0
  0
ENDTAB
  0
TABLE
  2
UCS
  5
7
330
0
100
AcDbSymbolTable
 70
     0
  0
ENDTAB
  0
TABLE
  2
APPID
  5
9
330
0
100
AcDbSymbolTable
 70
     1
  0
APPID
  5
10
330
9
100
AcDbSymbolTableRecord
100
AcDbRegAppTableRecord
  2
ACAD
 70
     0
  0
ENDTAB
  0
TABLE
  2
DIMSTYLE
  5
A
330
0
100
AcDbSymbolTable
 70
     1
100
AcDbDimStyleTable
 71
     1
340
1D
  0
DIMSTYLE
105
1D
330
A
100
AcDbSymbolTableRecord
100
AcDbDimStyleTableRecord
  2
STANDARD
 70
     0
 78
     8
 79
     2
140
3.0
340
F
341
89E
342
89E
  0
ENDTAB
  0
TABLE
  2
BLOCK_RECORD
  5
1
330
0
100
AcDbSymbolTable
 70
     2
  0
BLOCK_RECORD
  5
18
330
1
100
AcDbSymbolTableRecord
100
AcDbBlockTableRecord
  2
*MODEL_SPACE
340
741
  0
BLOCK_RECORD
  5
13268
330
1
100
AcDbSymbolTableRecord
100
AcDbBlockTableRecord
  2
*Paper_Space
340
13269
  0
BLOCK_RECORD
  5
24
330
1
100
AcDbSymbolTableRecord
100
AcDbBlockTableRecord
  2
_OPEN
340
0
  0
BLOCK_RECORD
  5
89E
330
1
100
AcDbSymbolTableRecord
100
AcDbBlockTableRecord
  2
_Open30
340
0
  0
ENDTAB
  0
ENDSEC
  0
SECTION
  2
BLOCKS
  0
BLOCK
  5
19
330
18
100
AcDbEntity
  8
0
100
AcDbBlockBegin
  2
*MODEL_SPACE
 70
     0
 10
0.0
 20
0.0
 30
0.0
  3
*MODEL_SPACE
  1

  0
ENDBLK
  5
1A
330
18
100
AcDbEntity
  8
0
100
AcDbBlockEnd
  0
BLOCK
  5
1326A
330
13268
100
AcDbEntity
 67
     1
  8
0
100
AcDbBlockBegin
  2
*Paper_Space
 70
     0
 10
0.0
 20
0.0
 30
0.0
  3
*Paper_Space
  1

  0
ENDBLK
  5
1326B
330
13268
100
AcDbEntity
 67
     1
  8
0
100
AcDbBlockEnd
  0
BLOCK
  5
25
330
24
100
AcDbEntity
  8
0
100
AcDbBlockBegin
  2
_OPEN
 70
     0
 10
0.0
 20
0.0
 30
0.0
  3
_OPEN
  1

  0
LINE
  5
26
330
24
100
AcDbEntity
  8
0
  6
ByBlock
 62
     0
100
AcDbLine
 10
-1.0
 20
0.1666666666666666
 30
0.0
 11
0.0
 21
0.0
 31
0.0
  0
LINE
  5
27
330
24
100
AcDbEntity
  8
0
  6
ByBlock
 62
     0
100
AcDbLine
 10
0.0
 20
0.0
 30
0.0
 11
-1.0
 21
-0.1666666666666666
 31
0.0
  0
LINE
  5
28
330
24
100
AcDbEntity
  8
0
  6
ByBlock
 62
     0
100
AcDbLine
 10
0.0
 20
0.0
 30
0.0
 11
-1.0
 21
0.0
 31
0.0
  0
ENDBLK
  5
29
330
24
100
AcDbEntity
  8
0
100
AcDbBlockEnd
  0
BLOCK
  5
8A2
330
89E
100
AcDbEntity
  8
0
100
AcDbBlockBegin
  2
_Open30
 70
     0
 10
0.0
 20
0.0
 30
0.0
  3
_Open30
  1

  0
LINE
  5
89F
330
89E
100
AcDbEntity
  8
0
  6
ByBlock
 62
     0
370
    -2
100
AcDbLine
 10
-1.0
 20
0.26794919
 30
0.0
 11
0.0
 21
0.0
 31
0.0
  0
LINE
  5
8A0
330
89E
100
AcDbEntity
  8
0
  6
ByBlock
 62
     0
370
    -2
100
AcDbLine
 10
0.0
 20
0.0
 30
0.0
 11
-1.0
 21
-0.26794919
 31
0.0
  0
LINE
  5
8A1
330
89E
100
AcDbEntity
  8
0
  6
ByBlock
 62
     0
370
    -2
100
AcDbLine
 10
0.0
 20
0.0
 30
0.0
 11
-1.0
 21
0.0
 31
0.0
  0
ENDBLK
  5
8A3
330
89E
100
AcDbEntity
  8
0
100
AcDbBlockEnd
  0
ENDSEC
  0
SECTION
  2
ENTITIES
  0
LINE
  5
128FF
330
18
100
AcDbEntity
  8
0
100
AcDbLine
 10
908.4259297475492
 20
1604.871239894618
 30
-0.2794100433300004
 11
1204.625929747553
 21
1604.871239894618
 31
-0.2794100433300004
  0
LINE
  5
12900
330
18
100
AcDbEntity
  8
0
 48
0.4
100
AcDbLine
 10
908.4259297475492
 20
1212.87121131208
 30
-0.2794100433300004
 11
1204.625929747553
 21
1212.87121131208
 31
-0.2794100433300004
  0
LINE
  5
12901
330
18
100
AcDbEntity
  8
0
100
AcDbLine
 10
1205.02588495589
 20
1604.871239894587
 30
0.0
 11
908.0258849558941
 21
1604.87123989462
 31
0.0
  0
LINE
  5
12902
330
18
100
AcDbEntity
  8
0
100
AcDbLine
 10
1200.725929747548
 20
1624.871239894587
 30
0.0
 11
912.3259297475433
 21
1624.871239894587
 31
0.0
  0
LINE
  5
12903
330
18
100
AcDbEntity
  8
0
100
AcDbLine
 10
1088.025929747547
 20
1174.871211312198
 30
0.0
 11
991.5227297475594
 21
1174.871211312198
 31
0.0
  0
LINE
  5
12904
330
18
100
AcDbEntity
  8
0
 48
3.0
370
    13
100
AcDbLine
 10
1008.859263080887
 20
1148.037877978864
 30
0.0
 11
1011.25341586939
 21
1148.037877978864
 31
0.0
  0
LINE
  5
12905
330
18
100
AcDbEntity
  8
0
 48
3.0
370
    13
100
AcDbLine
 10
1008.859263080887
 20
1149.70454464553
 30
0.0
 11
1011.25341586939
 21
1149.70454464553
 31
0.0
  0
CIRCLE
  5
12906
330
18
100
AcDbEntity
  8
0
 48
3.0
370
    13
100
AcDbCircle
 10
1008.025929747551
 20
1148.871211312198
 30
0.0
 40
4.166666666666666
  0
CIRCLE
  5
12907
330
18
100
AcDbEntity
  8
0
 48
3.0
370
    13
100
AcDbCircle
 10
1008.025929747551
 20
1148.871211312198
 30
0.0
 40
5.0
  0
LINE
  5
12908
330
18
100
AcDbEntity
  8
0
100
AcDbLine
 10
1011.525929747551
 20
1162.371211312198
 30
0.0
 11
999.5259297475513
 21
1169.871211312198
 31
0.0
  0
LINE
  5
12909
330
18
100
AcDbEntity
  8
0
100
AcDbLine
 10
1011.525929747551
 20
1135.371211312198
 30
0.0
 11
999.5259297475513
 21
1127.871211312198
 31
0.0
  0
LINE
  5
1290A
330
18
100
AcDbEntity
  8
0
100
AcDbLine
 10
1016.025929747576
 20
1179.371211312216
 30
0.0
 11
926.5259297475768
 21
1179.371211312216
 31
0.0
  0
LINE
  5
1290B
330
18
100
AcDbEntity
  8
0
100
AcDbLine
 10
1016.02592974758
 20
1179.371211312216
 30
0.0
 11
918.0259297475513
 21
1179.371211312216
 31
0.0
  0
LINE
  5
1290C
330
18
100
AcDbEntity
  8
0
100
AcDbLine
 10
1205.025929747551
 20
1074.87123989462
 30
0.0
 11
909.6259297475681
 21
1074.87123989462
 31
0.0
  0
LINE
  5
1290D
330
18
100
AcDbEntity
  8
0
100
AcDbLine
 10
1205.025929747551
 20
1066.871239894586
 30
0.0
 11
908.0259297475549
 21
1066.871239894587
 31
0.0
  0
LINE
  5
1290E
330
18
100
AcDbEntity
  8
0
100
AcDbLine
 10
1133.525929747551
 20
1046.871239894587
 30
0.0
 11
979.5259297475514
 21
1046.871239894587
 31
0.0
  0
CIRCLE
  5
1290F
330
18
100
AcDbEntity
  8
0
 48
3.0
370
    13
100
AcDbCircle
 10
1008.027025326768
 20
1148.871211312194
 30
-10.7393766794072
 40
5.0
  0
LINE
  5
12910
330
18
100
AcDbEntity
  8
0
100
AcDbLine
 10
1012.792169629085
 20
938.5513669070096
 30
0.0
 11
998.792169629085
 21
938.5513669070096
 31
0.0
  0
LINE
  5
12911
330
18
100
AcDbEntity
  8
0
100
AcDbLine
 10
1012.792169629085
 20
930.5513669070096
 30
0.0
 11
916.7921696290814
 21
930.5513669070096
 31
0.0
  0
LINE
  5
12912
330
18
100
AcDbEntity
  8
0
100
AcDbLine
 10
1012.792169629088
 20
1024.851366907009
 30
0.0
 11
946.7921696290886
 21
1024.851366907009
 31
0.0
  0
LINE
  5
12913
330
18
100
AcDbEntity
  8
0
100
AcDbLine
 10
947.7921696290886
 20
1023.851366907009
 30
0.0
 11
1011.792169629088
 21
1023.851366907009
 31
0.0
  0
LINE
  5
12914
330
18
100
AcDbEntity
  8
0
100
AcDbLine
 10
1011.792169629088
 20
988.5513669070098
 30
0.0
 11
947.7921696290959
 21
988.5513669070098
 31
0.0
  0
LINE
  5
12915
330
18
100
AcDbEntity
  8
0
100
AcDbLine
 10
1206.292169629085
 20
930.5513669070098
 30
0.0
 11
909.2921696290851
 21
930.5513669070098
 31
0.0
  0
LINE
  5
12916
330
18
100
AcDbEntity
  8
0
100
AcDbLine
 10
1207.892169629087
 20
1024.851366907009
 30
0.0
 11
907.6921696290828
 21
1024.851366907009
 31
0.0
  0
LINE
  5
12917
330
18
100
AcDbEntity
  8
0
100
AcDbLine
 10
1207.892169629083
 20
1025.85136690701
 30
0.0
 11
907.6921696290792
 21
1025.85136690701
 31
0.0
  0
LINE
  5
12918
330
18
100
AcDbEntity
  8
0
100
AcDbLine
 10
1206.292169629088
 20
976.5513669070099
 30
0.0
 11
909.2921696290886
 21
976.5513669070099
 31
0.0
  0
LINE
  5
12919
330
18
100
AcDbEntity
  8
0
100
AcDbLine
 10
1205.292169629088
 20
977.5513669070098
 30
0.0
 11
910.2921696290851
 21
977.5513669070098
 31
0.0
  0
LINE
  5
1291A
330
18
100
AcDbEntity
  8
0
100
AcDbLine
 10
1006.292169629088
 20
791.5513669070096
 30
0.0
 11
1036.292169629088
 21
791.5513669070096
 31
0.0
  0
LINE
  5
1291B
330
18
100
AcDbEntity
  8
0
100
AcDbLine
 10
1036.292169629088
 20
786.5513669070097
 30
0.0
 11
1006.292169629088
 21
786.5513669070097
 31
0.0
  0
LINE
  5
1291C
330
18
100
AcDbEntity
  8
0
100
AcDbLine
 10
1036.292169629088
 20
776.5513669070096
 30
0.0
 11
1006.292169629088
 21
776.5513669070096
 31
0.0
  0
LINE
  5
1291D
330
18
100
AcDbEntity
  8
0
100
AcDbLine
 10
1006.292169629088
 20
781.5513669070096
 30
0.0
 11
1036.292169629088
 21
781.5513669070096
 31
0.0
  0
LINE
  5
1291E
330
18
100
AcDbEntity
  8
0
100
AcDbLine
 10
1006.292169629088
 20
761.5513669070097
 30
0.0
 11
1036.292169629088
 21
761.5513669070097
 31
0.0
  0
LINE
  5
1291F
330
18
100
AcDbEntity
  8
0
100
AcDbLine
 10
1036.292169629088
 20
766.5513669070096
 30
0.0
 11
1006.292169629088
 21
766.5513669070096
 31
0.0
  0
LINE
  5
12920
330
18
100
AcDbEntity
  8
0
100
AcDbLine
 10
1006.292169629088
 20
771.5513669070096
 30
0.0
 11
1036.292169629088
 21
771.5513669070096
 31
0.0
  0
LINE
  5
12921
330
18
100
AcDbEntity
  8
0
100
AcDbLine
 10
1036.292169629088
 20
816.5513669070096
 30
0.0
 11
1006.292169629088
 21
816.5513669070096
 31
0.0
  0
LINE
  5
12922
330
18
100
AcDbEntity
  8
0
100
AcDbLine
 10
1006.292169629088
 20
801.5513669070097
 30
0.0
 11
1036.292169629088
 21
801.5513669070097
 31
0.0
  0
LINE
  5
12923
330
18
100
AcDbEntity
  8
0
100
AcDbLine
 10
1036.292169629088
 20
796.5513669070096
 30
0.0
 11
1006.292169629088
 21
796.5513669070096
 31
0.0
  0
LINE
  5
12924
330
18
100
AcDbEntity
  8
0
100
AcDbLine
 10
1036.292169629088
 20
806.5513669070096
 30
0.0
 11
1006.292169629088
 21
806.5513669070096
 31
0.0
  0
LINE
  5
12925
330
18
100
AcDbEntity
  8
0
100
AcDbLine
 10
1006.292169629088
 20
811.5513669070097
 30
0.0
 11
1036.292169629088
 21
811.5513669070097
 31
0.0
  0
LINE
  5
12926
330
18
100
AcDbEntity
  8
0
100
AcDbLine
 10
992.7921696290814
 20
900.7627050312837
 30
0.0
 11
1021.492169629089
 21
900.7627050312821
 31
0.0
  0
LINE
  5
12927
330
18
100
AcDbEntity
  8
0
100
AcDbLine
 10
1006.292169629088
 20
881.5513669070096
 30
0.0
 11
1036.292169629088
 21
881.5513669070096
 31
0.0
  0
LINE
  5
12928
330
18
100
AcDbEntity
  8
0
100
AcDbLine
 10
1036.292169629088
 20
876.5513669070097
 30
0.0
 11
1006.292169629088
 21
876.5513669070097
 31
0.0
  0
LINE
  5
12929
330
18
100
AcDbEntity
  8
0
100
AcDbLine
 10
1036.292169629088
 20
866.5513669070096
 30
0.0
 11
1006.292169629088
 21
866.5513669070096
 31
0.0
  0
LINE
  5
1292A
330
18
100
AcDbEntity
  8
0
100
AcDbLine
 10
1006.292169629088
 20
871.5513669070096
 30
0.0
 11
1036.292169629088
 21
871.5513669070096
 31
0.0
  0
LINE
  5
1292B
330
18
100
AcDbEntity
  8
0
100
AcDbLine
 10
1006.292169629088
 20
831.5513669070096
 30
0.0
 11
1036.292169629088
 21
831.5513669070096
 31
0.0
  0
LINE
  5
1292C
330
18
100
AcDbEntity
  8
0
100
AcDbLine
 10
1036.292169629088
 20
826.5513669070097
 30
0.0
 11
1006.292169629088
 21
826.5513669070097
 31
0.0
  0
LINE
  5
1292D
330
18
100
AcDbEntity
  8
0
100
AcDbLine
 10
1006.292169629088
 20
821.5513669070096
 30
0.0
 11
1036.292169629088
 21
821.5513669070096
 31
0.0
  0
LINE
  5
1292E
330
18
100
AcDbEntity
  8
0
100
AcDbLine
 10
1006.292169629088
 20
851.5513669070097
 30
0.0
 11
1036.292169629088
 21
851.5513669070097
 31
0.0
  0
LINE
  5
1292F
330
18
100
AcDbEntity
  8
0
100
AcDbLine
 10
1036.292169629088
 20
846.5513669070096
 30
0.0
 11
1006.292169629088
 21
846.5513669070096
 31
0.0
  0
LINE
  5
12930
330
18
100
AcDbEntity
  8
0
100
AcDbLine
 10
1036.292169629088
 20
836.5513669070097
 30
0.0
 11
1006.292169629088
 21
836.5513669070097
 31
0.0
  0
LINE
  5
12931
330
18
100
AcDbEntity
  8
0
100
AcDbLine
 10
1006.292169629088
 20
841.5513669070096
 30
0.0
 11
1036.292169629088
 21
841.5513669070096
 31
0.0
  0
LINE
  5
12932
330
18
100
AcDbEntity
  8
0
100
AcDbLine
 10
1006.292169629088
 20
861.5513669070097
 30
0.0
 11
1036.292169629088
 21
861.5513669070097
 31
0.0
  0
LINE
  5
12933
330
18
100
AcDbEntity
  8
0
100
AcDbLine
 10
1036.292169629088
 20
856.5513669070096
 30
0.0
 11
1006.292169629088
 21
856.5513669070096
 31
0.0
  0
LINE
  5
12934
330
18
100
AcDbEntity
  8
0
 48
0.2
100
AcDbLine
 10
939.2921696290887
 20
886.5513669070097
 30
0.0
 11
1029.292169629088
 21
886.5513669070097
 31
0.0
  0
LINE
  5
12935
330
18
100
AcDbEntity
  8
0
100
AcDbLine
 10
1206.292169629085
 20
910.5513669070099
 30
0.0
 11
909.2921696290886
 21
910.551366907009
 31
0.0
  0
LINE
  5
12936
330
18
100
AcDbEntity
  8
0
100
AcDbLine
 10
1049.292169629088
 20
748.5513669070096
 30
0.0
 11
909.2921696290886
 21
748.5513669070096
 31
0.0
  0
LINE
  5
12937
330
18
100
AcDbEntity
  8
0
100
AcDbLine
 10
1036.292169629088
 20
756.5513669070096
 30
0.0
 11
1006.292169629088
 21
756.5513669070096
 31
0.0
  0
LINE
  5
12938
330
18
100
AcDbEntity
  8
0
100
AcDbLine
 10
1203.992169629085
 20
728.15136690701
 30
0.0
 11
911.5921696290879
 21
728.15136690701
 31
0.0
  0
LINE
  5
12939
330
18
100
AcDbEntity
  8
0
100
AcDbLine
 10
1203.992169629085
 20
725.8513669070098
 30
0.0
 11
911.5921696290843
 21
725.8513669070098
 31
0.0
  0
LINE
  5
1293A
330
18
100
AcDbEntity
  8
0
100
AcDbLine
 10
1206.292169629088
 20
745.8513669070098
 30
0.0
 11
909.2921696290886
 21
745.8513669070098
 31
0.0
  0
CIRCLE
  5
1293B
330
18
100
AcDbEntity
  8
0
 48
3.0
370
    13
100
AcDbCircle
 10
919.0270253267682
 20
1148.871211312194
 30
-10.7393766794072
 40
5.0
  0
CIRCLE
  5
1293C
330
18
100
AcDbEntity
  8
0
 48
3.0
370
    13
100
AcDbCircle
 10
929.292826976618
 20
915.5513669070089
 30
-6.443626007644324
 40
3.0
  0
CIRCLE
  5
1293D
330
18
100
AcDbEntity
  8
0
 48
3.0
370
    13
100
AcDbCircle
 10
912.4265870950784
 20
1556.87123989462
 30
-6.443626007644324
 40
3.0
  0
LINE
  5
1293E
330
18
100
AcDbEntity
  8
0
 48
0.4
100
AcDbLine
 10
906.4259297475491
 20
1602.871239894618
 30
-0.2794100433300004
 11
906.4259297475491
 21
1214.87121131208
 31
-0.2794100433300004
  0
LINE
  5
1293F
330
18
100
AcDbEntity
  8
0
100
AcDbLine
 10
906.4259297475491
 20
1604.87123989462
 30
0.0
 11
906.4259297475491
 21
1066.871239894587
 31
0.0
  0
LINE
  5
12940
330
18
100
AcDbEntity
  8
0
100
AcDbLine
 10
1004.542169629088
 20
1023.851366907009
 30
0.0
 11
1004.542169629088
 21
1016.351366907009
 31
0.0
  0
LINE
  5
12941
330
18
100
AcDbEntity
  8
0
100
AcDbLine
 10
955.0421696290886
 20
1023.851366907009
 30
0.0
 11
955.0421696290886
 21
1016.351366907009
 31
0.0
  0
LINE
  5
12942
330
18
100
AcDbEntity
  8
0
100
AcDbLine
 10
998.5421696290886
 20
1023.851366907009
 30
0.0
 11
998.5421696290886
 21
1016.351366907009
 31
0.0
  0
LINE
  5
12943
330
18
100
AcDbEntity
  8
0
100
AcDbLine
 10
961.0421696290886
 20
1023.851366907009
 30
0.0
 11
961.0421696290886
 21
1016.351366907009
 31
0.0
  0
LINE
  5
12944
330
18
100
AcDbEntity
  8
0
100
AcDbLine
 10
946.7921696290924
 20
1024.851366907009
 30
0.0
 11
946.7921696290924
 21
978.5513669070097
 31
0.0
  0
LINE
  5
12945
330
18
100
AcDbEntity
  8
0
100
AcDbLine
 10
947.7921696290923
 20
1023.851366907009
 30
0.0
 11
947.7921696290923
 21
977.5513669070097
 31
0.0
  0
LINE
  5
12946
330
18
100
AcDbEntity
  8
0
100
AcDbLine
 10
907.6921696290865
 20
1024.851366907009
 30
0.0
 11
907.6921696290865
 21
725.8513669070098
 31
0.0
  0
LINE
  5
12947
330
18
100
AcDbEntity
  8
0
100
AcDbLine
 10
909.2921696290886
 20
1023.251366907009
 30
0.0
 11
909.2921696290886
 21
725.8513669070098
 31
0.0
  0
LINE
  5
12948
330
18
100
AcDbEntity
  8
0
100
AcDbLine
 10
909.2921696290886
 20
748.5513669070096
 30
0.0
 11
909.2921696290886
 21
908.5513669070095
 31
0.0
  0
LINE
  5
12949
330
18
100
AcDbEntity
  8
0
100
AcDbLine
 10
1006.292169629088
 20
821.5513669070096
 30
0.0
 11
1006.292169629088
 21
816.5513669070096
 31
0.0
  0
LINE
  5
1294A
330
18
100
AcDbEntity
  8
0
100
AcDbLine
 10
994.2921696290886
 20
821.5513669070096
 30
0.0
 11
994.2921696290886
 21
816.5513669070096
 31
0.0
  0
LINE
  5
1294B
330
18
100
AcDbEntity
  8
0
100
AcDbLine
 10
964.2921696290887
 20
821.5513669070096
 30
0.0
 11
964.2921696290887
 21
816.5513669070096
 31
0.0
  0
LINE
  5
1294C
330
18
100
AcDbEntity
  8
0
100
AcDbLine
 10
922.2921696290887
 20
821.5513669070096
 30
0.0
 11
922.2921696290887
 21
816.5513669070096
 31
0.0
  0
LINE
  5
1294D
330
18
100
AcDbEntity
  8
0
100
AcDbLine
 10
952.2921696290886
 20
821.5513669070096
 30
0.0
 11
952.2921696290886
 21
816.5513669070096
 31
0.0
  0
LINE
  5
1294E
330
18
100
AcDbEntity
  8
0
100
AcDbLine
 10
1006.292169629088
 20
791.5513669070096
 30
0.0
 11
1006.292169629088
 21
786.5513669070097
 31
0.0
  0
LINE
  5
1294F
330
18
100
AcDbEntity
  8
0
100
AcDbLine
 10
1006.292169629088
 20
781.5513669070096
 30
0.0
 11
1006.292169629088
 21
776.5513669070096
 31
0.0
  0
LINE
  5
12950
330
18
100
AcDbEntity
  8
0
100
AcDbLine
 10
1006.292169629088
 20
771.5513669070096
 30
0.0
 11
1006.292169629088
 21
766.5513669070096
 31
0.0
  0
LINE
  5
12951
330
18
100
AcDbEntity
  8
0
100
AcDbLine
 10
1006.292169629088
 20
801.5513669070097
 30
0.0
 11
1006.292169629088
 21
796.5513669070096
 31
0.0
  0
LINE
  5
12952
330
18
100
AcDbEntity
  8
0
100
AcDbLine
 10
1006.292169629088
 20
811.5513669070097
 30
0.0
 11
1006.292169629088
 21
806.5513669070096
 31
0.0
  0
LINE
  5
12953
330
18
100
AcDbEntity
  8
0
100
AcDbLine
 10
964.2921696290887
 20
811.5513669070097
 30
0.0
 11
994.2921696290886
 21
811.5513669070097
 31
0.0
  0
LINE
  5
12954
330
18
100
AcDbEntity
  8
0
100
AcDbLine
 10
994.2921696290886
 20
811.5513669070097
 30
0.0
 11
994.2921696290886
 21
806.5513669070096
 31
0.0
  0
LINE
  5
12955
330
18
100
AcDbEntity
  8
0
100
AcDbLine
 10
964.2921696290887
 20
811.5513669070097
 30
0.0
 11
964.2921696290887
 21
806.5513669070096
 31
0.0
  0
LINE
  5
12956
330
18
100
AcDbEntity
  8
0
100
AcDbLine
 10
994.2921696290886
 20
806.5513669070096
 30
0.0
 11
964.2921696290887
 21
806.5513669070096
 31
0.0
  0
LINE
  5
12957
330
18
100
AcDbEntity
  8
0
100
AcDbLine
 10
994.2921696290886
 20
796.5513669070096
 30
0.0
 11
964.2921696290887
 21
796.5513669070096
 31
0.0
  0
LINE
  5
12958
330
18
100
AcDbEntity
  8
0
100
AcDbLine
 10
964.2921696290887
 20
801.5513669070097
 30
0.0
 11
964.2921696290887
 21
796.5513669070096
 31
0.0
  0
LINE
  5
12959
330
18
100
AcDbEntity
  8
0
100
AcDbLine
 10
994.2921696290886
 20
801.5513669070097
 30
0.0
 11
994.2921696290886
 21
796.5513669070096
 31
0.0
  0
LINE
  5
1295A
330
18
100
AcDbEntity
  8
0
100
AcDbLine
 10
964.2921696290887
 20
801.5513669070097
 30
0.0
 11
994.2921696290886
 21
801.5513669070097
 31
0.0
  0
LINE
  5
1295B
330
18
100
AcDbEntity
  8
0
100
AcDbLine
 10
994.2921696290886
 20
816.5513669070096
 30
0.0
 11
964.2921696290887
 21
816.5513669070096
 31
0.0
  0
LINE
  5
1295C
330
18
100
AcDbEntity
  8
0
100
AcDbLine
 10
964.2921696290887
 20
771.5513669070096
 30
0.0
 11
994.2921696290886
 21
771.5513669070096
 31
0.0
  0
LINE
  5
1295D
330
18
100
AcDbEntity
  8
0
100
AcDbLine
 10
994.2921696290886
 20
771.5513669070096
 30
0.0
 11
994.2921696290886
 21
766.5513669070096
 31
0.0
  0
LINE
  5
1295E
330
18
100
AcDbEntity
  8
0
100
AcDbLine
 10
964.2921696290887
 20
771.5513669070096
 30
0.0
 11
964.2921696290887
 21
766.5513669070096
 31
0.0
  0
LINE
  5
1295F
330
18
100
AcDbEntity
  8
0
100
AcDbLine
 10
994.2921696290886
 20
766.5513669070096
 30
0.0
 11
964.2921696290887
 21
766.5513669070096
 31
0.0
  0
LINE
  5
12960
330
18
100
AcDbEntity
  8
0
100
AcDbLine
 10
964.2921696290887
 20
761.5513669070097
 30
0.0
 11
994.2921696290886
 21
761.5513669070097
 31
0.0
  0
LINE
  5
12961
330
18
100
AcDbEntity
  8
0
100
AcDbLine
 10
964.2921696290887
 20
781.5513669070096
 30
0.0
 11
994.2921696290886
 21
781.5513669070096
 31
0.0
  0
LINE
  5
12962
330
18
100
AcDbEntity
  8
0
100
AcDbLine
 10
994.2921696290886
 20
781.5513669070096
 30
0.0
 11
994.2921696290886
 21
776.5513669070096
 31
0.0
  0
LINE
  5
12963
330
18
100
AcDbEntity
  8
0
100
AcDbLine
 10
964.2921696290887
 20
781.5513669070096
 30
0.0
 11
964.2921696290887
 21
776.5513669070096
 31
0.0
  0
LINE
  5
12964
330
18
100
AcDbEntity
  8
0
100
AcDbLine
 10
994.2921696290886
 20
776.5513669070096
 30
0.0
 11
964.2921696290887
 21
776.5513669070096
 31
0.0
  0
LINE
  5
12965
330
18
100
AcDbEntity
  8
0
100
AcDbLine
 10
994.2921696290886
 20
786.5513669070097
 30
0.0
 11
964.2921696290887
 21
786.5513669070097
 31
0.0
  0
LINE
  5
12966
330
18
100
AcDbEntity
  8
0
100
AcDbLine
 10
964.2921696290887
 20
791.5513669070096
 30
0.0
 11
964.2921696290887
 21
786.5513669070097
 31
0.0
  0
LINE
  5
12967
330
18
100
AcDbEntity
  8
0
100
AcDbLine
 10
994.2921696290886
 20
791.5513669070096
 30
0.0
 11
994.2921696290886
 21
786.5513669070097
 31
0.0
  0
LINE
  5
12968
330
18
100
AcDbEntity
  8
0
100
AcDbLine
 10
964.2921696290887
 20
791.5513669070096
 30
0.0
 11
994.2921696290886
 21
791.5513669070096
 31
0.0
  0
LINE
  5
12969
330
18
100
AcDbEntity
  8
0
100
AcDbLine
 10
922.2921696290887
 20
791.5513669070096
 30
0.0
 11
952.2921696290886
 21
791.5513669070096
 31
0.0
  0
LINE
  5
1296A
330
18
100
AcDbEntity
  8
0
100
AcDbLine
 10
952.2921696290886
 20
791.5513669070096
 30
0.0
 11
952.2921696290886
 21
786.5513669070097
 31
0.0
  0
LINE
  5
1296B
330
18
100
AcDbEntity
  8
0
100
AcDbLine
 10
922.2921696290887
 20
791.5513669070096
 30
0.0
 11
922.2921696290887
 21
786.5513669070097
 31
0.0
  0
LINE
  5
1296C
330
18
100
AcDbEntity
  8
0
100
AcDbLine
 10
952.2921696290886
 20
786.5513669070097
 30
0.0
 11
922.2921696290887
 21
786.5513669070097
 31
0.0
  0
LINE
  5
1296D
330
18
100
AcDbEntity
  8
0
100
AcDbLine
 10
952.2921696290886
 20
776.5513669070096
 30
0.0
 11
922.2921696290887
 21
776.5513669070096
 31
0.0
  0
LINE
  5
1296E
330
18
100
AcDbEntity
  8
0
100
AcDbLine
 10
922.2921696290887
 20
781.5513669070096
 30
0.0
 11
922.2921696290887
 21
776.5513669070096
 31
0.0
  0
LINE
  5
1296F
330
18
100
AcDbEntity
  8
0
100
AcDbLine
 10
952.2921696290886
 20
781.5513669070096
 30
0.0
 11
952.2921696290886
 21
776.5513669070096
 31
0.0
  0
LINE
  5
12970
330
18
100
AcDbEntity
  8
0
100
AcDbLine
 10
922.2921696290887
 20
781.5513669070096
 30
0.0
 11
952.2921696290886
 21
781.5513669070096
 31
0.0
  0
LINE
  5
12971
330
18
100
AcDbEntity
  8
0
100
AcDbLine
 10
922.2921696290887
 20
761.5513669070097
 30
0.0
 11
952.2921696290886
 21
761.5513669070097
 31
0.0
  0
LINE
  5
12972
330
18
100
AcDbEntity
  8
0
100
AcDbLine
 10
952.2921696290886
 20
766.5513669070096
 30
0.0
 11
922.2921696290887
 21
766.5513669070096
 31
0.0
  0
LINE
  5
12973
330
18
100
AcDbEntity
  8
0
100
AcDbLine
 10
922.2921696290887
 20
771.5513669070096
 30
0.0
 11
922.2921696290887
 21
766.5513669070096
 31
0.0
  0
LINE
  5
12974
330
18
100
AcDbEntity
  8
0
100
AcDbLine
 10
952.2921696290886
 20
771.5513669070096
 30
0.0
 11
952.2921696290886
 21
766.5513669070096
 31
0.0
  0
LINE
  5
12975
330
18
100
AcDbEntity
  8
0
100
AcDbLine
 10
922.2921696290887
 20
771.5513669070096
 30
0.0
 11
952.2921696290886
 21
771.5513669070096
 31
0.0
  0
LINE
  5
12976
330
18
100
AcDbEntity
  8
0
100
AcDbLine
 10
952.2921696290886
 20
816.5513669070096
 30
0.0
 11
922.2921696290887
 21
816.5513669070096
 31
0.0
  0
LINE
  5
12977
330
18
100
AcDbEntity
  8
0
100
AcDbLine
 10
922.2921696290887
 20
801.5513669070097
 30
0.0
 11
952.2921696290886
 21
801.5513669070097
 31
0.0
  0
LINE
  5
12978
330
18
100
AcDbEntity
  8
0
100
AcDbLine
 10
952.2921696290886
 20
801.5513669070097
 30
0.0
 11
952.2921696290886
 21
796.5513669070096
 31
0.0
  0
LINE
  5
12979
330
18
100
AcDbEntity
  8
0
100
AcDbLine
 10
922.2921696290887
 20
801.5513669070097
 30
0.0
 11
922.2921696290887
 21
796.5513669070096
 31
0.0
  0
LINE
  5
1297A
330
18
100
AcDbEntity
  8
0
100
AcDbLine
 10
952.2921696290886
 20
796.5513669070096
 30
0.0
 11
922.2921696290887
 21
796.5513669070096
 31
0.0
  0
LINE
  5
1297B
330
18
100
AcDbEntity
  8
0
100
AcDbLine
 10
952.2921696290886
 20
806.5513669070096
 30
0.0
 11
922.2921696290887
 21
806.5513669070096
 31
0.0
  0
LINE
  5
1297C
330
18
100
AcDbEntity
  8
0
100
AcDbLine
 10
922.2921696290887
 20
811.5513669070097
 30
0.0
 11
922.2921696290887
 21
806.5513669070096
 31
0.0
  0
LINE
  5
1297D
330
18
100
AcDbEntity
  8
0
100
AcDbLine
 10
952.2921696290886
 20
811.5513669070097
 30
0.0
 11
952.2921696290886
 21
806.5513669070096
 31
0.0
  0
LINE
  5
1297E
330
18
100
AcDbEntity
  8
0
100
AcDbLine
 10
922.2921696290887
 20
811.5513669070097
 30
0.0
 11
952.2921696290886
 21
811.5513669070097
 31
0.0
  0
LINE
  5
1297F
330
18
100
AcDbEntity
  8
0
100
AcDbLine
 10
1006.292169629088
 20
831.5513669070096
 30
0.0
 11
1006.292169629088
 21
826.5513669070097
 31
0.0
  0
LINE
  5
12980
330
18
100
AcDbEntity
  8
0
100
AcDbLine
 10
1006.292169629088
 20
851.5513669070097
 30
0.0
 11
1006.292169629088
 21
846.5513669070096
 31
0.0
  0
LINE
  5
12981
330
18
100
AcDbEntity
  8
0
100
AcDbLine
 10
1006.292169629088
 20
841.5513669070096
 30
0.0
 11
1006.292169629088
 21
836.5513669070097
 31
0.0
  0
LINE
  5
12982
330
18
100
AcDbEntity
  8
0
100
AcDbLine
 10
1006.292169629088
 20
861.5513669070097
 30
0.0
 11
1006.292169629088
 21
856.5513669070096
 31
0.0
  0
LINE
  5
12983
330
18
100
AcDbEntity
  8
0
100
AcDbLine
 10
994.2921696290886
 20
856.5513669070096
 30
0.0
 11
964.2921696290887
 21
856.5513669070096
 31
0.0
  0
LINE
  5
12984
330
18
100
AcDbEntity
  8
0
100
AcDbLine
 10
964.2921696290887
 20
861.5513669070097
 30
0.0
 11
964.2921696290887
 21
856.5513669070096
 31
0.0
  0
LINE
  5
12985
330
18
100
AcDbEntity
  8
0
100
AcDbLine
 10
994.2921696290886
 20
861.5513669070097
 30
0.0
 11
994.2921696290886
 21
856.5513669070096
 31
0.0
  0
LINE
  5
12986
330
18
100
AcDbEntity
  8
0
100
AcDbLine
 10
964.2921696290887
 20
861.5513669070097
 30
0.0
 11
994.2921696290886
 21
861.5513669070097
 31
0.0
  0
LINE
  5
12987
330
18
100
AcDbEntity
  8
0
100
AcDbLine
 10
964.2921696290887
 20
841.5513669070096
 30
0.0
 11
994.2921696290886
 21
841.5513669070096
 31
0.0
  0
LINE
  5
12988
330
18
100
AcDbEntity
  8
0
100
AcDbLine
 10
994.2921696290886
 20
841.5513669070096
 30
0.0
 11
994.2921696290886
 21
836.5513669070097
 31
0.0
  0
LINE
  5
12989
330
18
100
AcDbEntity
  8
0
100
AcDbLine
 10
964.2921696290887
 20
841.5513669070096
 30
0.0
 11
964.2921696290887
 21
836.5513669070097
 31
0.0
  0
LINE
  5
1298A
330
18
100
AcDbEntity
  8
0
100
AcDbLine
 10
994.2921696290886
 20
836.5513669070097
 30
0.0
 11
964.2921696290887
 21
836.5513669070097
 31
0.0
  0
LINE
  5
1298B
330
18
100
AcDbEntity
  8
0
100
AcDbLine
 10
994.2921696290886
 20
846.5513669070096
 30
0.0
 11
964.2921696290887
 21
846.5513669070096
 31
0.0
  0
LINE
  5
1298C
330
18
100
AcDbEntity
  8
0
100
AcDbLine
 10
964.2921696290887
 20
851.5513669070097
 30
0.0
 11
964.2921696290887
 21
846.5513669070096
 31
0.0
  0
LINE
  5
1298D
330
18
100
AcDbEntity
  8
0
100
AcDbLine
 10
994.2921696290886
 20
851.5513669070097
 30
0.0
 11
994.2921696290886
 21
846.5513669070096
 31
0.0
  0
LINE
  5
1298E
330
18
100
AcDbEntity
  8
0
100
AcDbLine
 10
964.2921696290887
 20
851.5513669070097
 30
0.0
 11
994.2921696290886
 21
851.5513669070097
 31
0.0
  0
LINE
  5
1298F
330
18
100
AcDbEntity
  8
0
100
AcDbLine
 10
964.2921696290887
 20
821.5513669070096
 30
0.0
 11
994.2921696290886
 21
821.5513669070096
 31
0.0
  0
LINE
  5
12990
330
18
100
AcDbEntity
  8
0
100
AcDbLine
 10
994.2921696290886
 20
826.5513669070097
 30
0.0
 11
964.2921696290887
 21
826.5513669070097
 31
0.0
  0
LINE
  5
12991
330
18
100
AcDbEntity
  8
0
100
AcDbLine
 10
964.2921696290887
 20
831.5513669070096
 30
0.0
 11
964.2921696290887
 21
826.5513669070097
 31
0.0
  0
LINE
  5
12992
330
18
100
AcDbEntity
  8
0
100
AcDbLine
 10
994.2921696290886
 20
831.5513669070096
 30
0.0
 11
994.2921696290886
 21
826.5513669070097
 31
0.0
  0
LINE
  5
12993
330
18
100
AcDbEntity
  8
0
100
AcDbLine
 10
964.2921696290887
 20
831.5513669070096
 30
0.0
 11
994.2921696290886
 21
831.5513669070096
 31
0.0
  0
LINE
  5
12994
330
18
100
AcDbEntity
  8
0
100
AcDbLine
 10
922.2921696290887
 20
831.5513669070096
 30
0.0
 11
952.2921696290886
 21
831.5513669070096
 31
0.0
  0
LINE
  5
12995
330
18
100
AcDbEntity
  8
0
100
AcDbLine
 10
952.2921696290886
 20
831.5513669070096
 30
0.0
 11
952.2921696290886
 21
826.5513669070097
 31
0.0
  0
LINE
  5
12996
330
18
100
AcDbEntity
  8
0
100
AcDbLine
 10
922.2921696290887
 20
831.5513669070096
 30
0.0
 11
922.2921696290887
 21
826.5513669070097
 31
0.0
  0
LINE
  5
12997
330
18
100
AcDbEntity
  8
0
100
AcDbLine
 10
952.2921696290886
 20
826.5513669070097
 30
0.0
 11
922.2921696290887
 21
826.5513669070097
 31
0.0
  0
LINE
  5
12998
330
18
100
AcDbEntity
  8
0
100
AcDbLine
 10
922.2921696290887
 20
821.5513669070096
 30
0.0
 11
952.2921696290886
 21
821.5513669070096
 31
0.0
  0
LINE
  5
12999
330
18
100
AcDbEntity
  8
0
100
AcDbLine
 10
922.2921696290887
 20
851.5513669070097
 30
0.0
 11
952.2921696290886
 21
851.5513669070097
 31
0.0
  0
LINE
  5
1299A
330
18
100
AcDbEntity
  8
0
100
AcDbLine
 10
952.2921696290886
 20
851.5513669070097
 30
0.0
 11
952.2921696290886
 21
846.5513669070096
 31
0.0
  0
LINE
  5
1299B
330
18
100
AcDbEntity
  8
0
100
AcDbLine
 10
922.2921696290887
 20
851.5513669070097
 30
0.0
 11
922.2921696290887
 21
846.5513669070096
 31
0.0
  0
LINE
  5
1299C
330
18
100
AcDbEntity
  8
0
100
AcDbLine
 10
952.2921696290886
 20
846.5513669070096
 30
0.0
 11
922.2921696290887
 21
846.5513669070096
 31
0.0
  0
LINE
  5
1299D
330
18
100
AcDbEntity
  8
0
100
AcDbLine
 10
952.2921696290886
 20
836.5513669070097
 30
0.0
 11
922.2921696290887
 21
836.5513669070097
 31
0.0
  0
LINE
  5
1299E
330
18
100
AcDbEntity
  8
0
100
AcDbLine
 10
922.2921696290887
 20
841.5513669070096
 30
0.0
 11
922.2921696290887
 21
836.5513669070097
 31
0.0
  0
LINE
  5
1299F
330
18
100
AcDbEntity
  8
0
100
AcDbLine
 10
952.2921696290886
 20
841.5513669070096
 30
0.0
 11
952.2921696290886
 21
836.5513669070097
 31
0.0
  0
LINE
  5
129A0
330
18
100
AcDbEntity
  8
0
100
AcDbLine
 10
922.2921696290887
 20
841.5513669070096
 30
0.0
 11
952.2921696290886
 21
841.5513669070096
 31
0.0
  0
LINE
  5
129A1
330
18
100
AcDbEntity
  8
0
100
AcDbLine
 10
922.2921696290887
 20
861.5513669070097
 30
0.0
 11
952.2921696290886
 21
861.5513669070097
 31
0.0
  0
LINE
  5
129A2
330
18
100
AcDbEntity
  8
0
100
AcDbLine
 10
952.2921696290886
 20
861.5513669070097
 30
0.0
 11
952.2921696290886
 21
856.5513669070096
 31
0.0
  0
LINE
  5
129A3
330
18
100
AcDbEntity
  8
0
100
AcDbLine
 10
922.2921696290887
 20
861.5513669070097
 30
0.0
 11
922.2921696290887
 21
856.5513669070096
 31
0.0
  0
LINE
  5
129A4
330
18
100
AcDbEntity
  8
0
100
AcDbLine
 10
952.2921696290886
 20
856.5513669070096
 30
0.0
 11
922.2921696290887
 21
856.5513669070096
 31
0.0
  0
LINE
  5
129A5
330
18
100
AcDbEntity
  8
0
100
AcDbLine
 10
994.2921696290886
 20
756.5513669070096
 30
0.0
 11
964.2921696290887
 21
756.5513669070096
 31
0.0
  0
LINE
  5
129A6
330
18
100
AcDbEntity
  8
0
100
AcDbLine
 10
952.2921696290886
 20
756.5513669070096
 30
0.0
 11
922.2921696290887
 21
756.5513669070096
 31
0.0
  0
LINE
  5
129A7
330
18
100
AcDbEntity
  8
0
100
AcDbLine
 10
909.2921696290886
 20
725.8513669070098
 30
0.0
 11
907.6921696290865
 21
725.8513669070098
 31
0.0
  0
LINE
  5
129A8
330
18
100
AcDbEntity
  8
0
100
AcDbLine
 10
909.2921696290886
 20
725.8513669070098
 30
0.0
 11
911.5921696290843
 21
725.8513669070098
 31
0.0
  0
LINE
  5
129A9
330
18
100
AcDbEntity
  8
0
100
AcDbLine
 10
909.2921696290886
 20
745.8513669070098
 30
0.0
 11
909.2921696290886
 21
725.8513669070098
 31
0.0
  0
LINE
  5
129AA
330
18
100
AcDbEntity
  8
0
100
AcDbLine
 10
911.5921696290843
 20
745.8513669070098
 30
0.0
 11
911.5921696290843
 21
725.8513669070098
 31
0.0
  0
LINE
  5
129AB
330
18
100
AcDbEntity
  8
0
 48
0.2
100
AcDbLine
 10
978.7921696290887
 20
725.8513669070098
 30
0.0
 11
978.7921696290887
 21
728.1513669070098
 31
0.0
  0
LINE
  5
129AC
330
18
100
AcDbEntity
  8
0
 48
0.2
100
AcDbLine
 10
971.7921696290886
 20
725.8513669070098
 30
0.0
 11
971.7921696290886
 21
728.1513669070098
 31
0.0
  0
LINE
  5
129AD
330
18
100
AcDbEntity
  8
0
100
AcDbLine
 10
1006.292169629088
 20
761.5513669070097
 30
0.0
 11
1006.292169629088
 21
756.5513669070096
 31
0.0
  0
LINE
  5
129AE
330
18
100
AcDbEntity
  8
0
100
AcDbLine
 10
964.2921696290887
 20
761.5513669070097
 30
0.0
 11
964.2921696290887
 21
756.5513669070096
 31
0.0
  0
LINE
  5
129AF
330
18
100
AcDbEntity
  8
0
100
AcDbLine
 10
994.2921696290886
 20
761.5513669070097
 30
0.0
 11
994.2921696290886
 21
756.5513669070096
 31
0.0
  0
LINE
  5
129B0
330
18
100
AcDbEntity
  8
0
100
AcDbLine
 10
952.2921696290886
 20
761.5513669070097
 30
0.0
 11
952.2921696290886
 21
756.5513669070096
 31
0.0
  0
LINE
  5
129B1
330
18
100
AcDbEntity
  8
0
100
AcDbLine
 10
922.2921696290887
 20
761.5513669070097
 30
0.0
 11
922.2921696290887
 21
756.5513669070096
 31
0.0
  0
LINE
  5
129B2
330
18
100
AcDbEntity
  8
0
100
AcDbLine
 10
953.542169629085
 20
968.0513669070096
 30
0.0
 11
936.0421696290813
 21
968.0513669070096
 31
0.0
  0
LINE
  5
129B3
330
18
100
AcDbEntity
  8
0
100
AcDbLine
 10
973.5421696290851
 20
968.0513669070096
 30
0.0
 11
956.0421696290815
 21
968.0513669070096
 31
0.0
  0
LINE
  5
129B4
330
18
100
AcDbEntity
  8
0
100
AcDbLine
 10
993.542169629085
 20
968.0513669070096
 30
0.0
 11
976.0421696290814
 21
968.0513669070096
 31
0.0
  0
LINE
  5
129B5
330
18
100
AcDbEntity
  8
0
100
AcDbLine
 10
953.542169629085
 20
971.0513669070095
 30
0.0
 11
936.0421696290813
 21
971.0513669070095
 31
0.0
  0
LINE
  5
129B6
330
18
100
AcDbEntity
  8
0
100
AcDbLine
 10
973.5421696290851
 20
971.0513669070095
 30
0.0
 11
956.0421696290815
 21
971.0513669070095
 31
0.0
  0
LINE
  5
129B7
330
18
100
AcDbEntity
  8
0
100
AcDbLine
 10
993.542169629085
 20
971.0513669070095
 30
0.0
 11
976.0421696290814
 21
971.0513669070095
 31
0.0
  0
ARC
  5
129B8
330
18
100
AcDbEntity
  8
0
 48
3.0
370
    13
100
AcDbCircle
 10
944.7921696290814
 20
887.4513669070102
 30
0.0
 40
5.0
100
AcDbArc
 50
349.6302401945059
 51
190.3697598054941
  0
LINE
  5
129B9
330
18
100
AcDbEntity
  8
0
100
AcDbLine
 10
940.2921696290814
 20
889.9513669070101
 30
0.0
 11
940.2921696290814
 21
889.6330770189825
 31
0.0
  0
LINE
  5
129BA
330
18
100
AcDbEntity
  8
0
100
AcDbLine
 10
949.2921696290849
 20
889.6285528399813
 30
0.0
 11
949.2921696290849
 21
889.9513669070101
 31
0.0
  0
ARC
  5
129BB
330
18
100
AcDbEntity
  8
0
 48
3.0
370
    13
100
AcDbCircle
 10
984.7921696290814
 20
887.4513669070102
 30
0.0
 40
5.0
100
AcDbArc
 50
349.6302401945059
 51
190.3697598054941
  0
LINE
  5
129BC
330
18
100
AcDbEntity
  8
0
100
AcDbLine
 10
980.2921696290814
 20
889.9513669070101
 30
0.0
 11
980.2921696290814
 21
889.6330770189825
 31
0.0
  0
LINE
  5
129BD
330
18
100
AcDbEntity
  8
0
100
AcDbLine
 10
989.292169629085
 20
889.6285528399813
 30
0.0
 11
989.292169629085
 21
889.9513669070101
 31
0.0
  0
LINE
  5
129C2
330
18
100
AcDbEntity
  8
0
100
AcDbLine
 10
998.792169629085
 20
955.9513669070101
 30
0.0
 11
1006.292169629081
 21
955.9513669070101
 31
0.0
  0
LINE
  5
129C3
330
18
100
AcDbEntity
  8
0
100
AcDbLine
 10
1006.292169629081
 20
955.9513669070101
 30
0.0
 11
1006.292169629081
 21
938.5513669070096
 31
0.0
  0
LINE
  5
129C4
330
18
100
AcDbEntity
  8
0
100
AcDbLine
 10
998.792169629085
 20
971.0513669070095
 30
0.0
 11
998.792169629085
 21
938.5513669070096
 31
0.0
  0
LINE
  5
129C5
330
18
100
AcDbEntity
  8
0
100
AcDbLine
 10
936.0421696290813
 20
971.0513669070095
 30
0.0
 11
930.7921696290851
 21
971.0513669070095
 31
0.0
  0
LINE
  5
129C6
330
18
100
AcDbEntity
  8
0
100
AcDbLine
 10
976.0421696290814
 20
971.0513669070095
 30
0.0
 11
973.5421696290851
 21
971.0513669070095
 31
0.0
  0
LINE
  5
129C7
330
18
100
AcDbEntity
  8
0
100
AcDbLine
 10
956.0421696290815
 20
971.0513669070095
 30
0.0
 11
953.542169629085
 21
971.0513669070095
 31
0.0
  0
LINE
  5
129C8
330
18
100
AcDbEntity
  8
0
100
AcDbLine
 10
953.542169629085
 20
953.9513669070101
 30
0.0
 11
936.0421696290813
 21
953.9513669070101
 31
0.0
  0
LINE
  5
129CA
330
18
100
AcDbEntity
  8
0
100
AcDbLine
 10
953.542169629085
 20
946.5513669070096
 30
0.0
 11
936.0421696290813
 21
946.5513669070096
 31
0.0
  0
ARC
  5
129CB
330
18
100
AcDbEntity
  8
0
100
AcDbCircle
 10
941.7921696290814
 20
957.9513669070102
 30
0.0
 40
3.0
100
AcDbArc
 50
90.0
 51
180.0
  0
LINE
  5
129CE
330
18
100
AcDbEntity
  8
0
100
AcDbLine
 10
916.7921696290814
 20
938.5513669070096
 30
0.0
 11
916.7921696290814
 21
930.5513669070096
 31
0.0
  0
LINE
  5
129CF
330
18
100
AcDbEntity
  8
0
100
AcDbLine
 10
916.7921696290814
 20
938.5513669070096
 30
0.0
 11
930.7921696290813
 21
938.5513669070096
 31
0.0
  0
LINE
  5
129D0
330
18
100
AcDbEntity
  8
0
100
AcDbLine
 10
923.2921696290814
 20
955.9513669070101
 30
0.0
 11
923.2921696290814
 21
938.5513669070096
 31
0.0
  0
LINE
  5
129D1
330
18
100
AcDbEntity
  8
0
100
AcDbLine
 10
930.7921696290813
 20
955.9513669070101
 30
0.0
 11
923.2921696290814
 21
955.9513669070101
 31
0.0
  0
LINE
  5
129D2
330
18
100
AcDbEntity
  8
0
100
AcDbLine
 10
938.7921696290813
 20
957.9513669070102
 30
0.0
 11
938.7921696290813
 21
953.9513669070101
 31
0.0
  0
LINE
  5
129D3
330
18
100
AcDbEntity
  8
0
100
AcDbLine
 10
993.542169629085
 20
953.9513669070101
 30
0.0
 11
976.0421696290814
 21
953.9513669070101
 31
0.0
  0
LINE
  5
129D4
330
18
100
AcDbEntity
  8
0
100
AcDbLine
 10
993.542169629085
 20
946.5513669070096
 30
0.0
 11
976.0421696290814
 21
946.5513669070096
 31
0.0
  0
ARC
  5
129D5
330
18
100
AcDbEntity
  8
0
100
AcDbCircle
 10
967.7921696290814
 20
957.9513669070102
 30
0.0
 40
3.0
100
AcDbArc
 50
0.0
 51
90.0
  0
LINE
  5
129D6
330
18
100
AcDbEntity
  8
0
100
AcDbLine
 10
970.7921696290814
 20
957.9513669070102
 30
0.0
 11
970.7921696290814
 21
953.9513669070101
 31
0.0
  0
LINE
  5
129D7
330
18
100
AcDbEntity
  8
0
100
AcDbLine
 10
987.7921696290814
 20
960.9513669070102
 30
0.0
 11
981.7921696290813
 21
960.9513669070102
 31
0.0
  0
LINE
  5
129D8
330
18
100
AcDbEntity
  8
0
100
AcDbLine
 10
978.7921696290814
 20
957.9513669070102
 30
0.0
 11
978.7921696290814
 21
953.9513669070101
 31
0.0
  0
ARC
  5
129D9
330
18
100
AcDbEntity
  8
0
100
AcDbCircle
 10
981.7921696290813
 20
957.9513669070102
 30
0.0
 40
3.0
100
AcDbArc
 50
90.0
 51
180.0
  0
LINE
  5
129DA
330
18
100
AcDbEntity
  8
0
100
AcDbLine
 10
990.7921696290813
 20
957.9513669070102
 30
0.0
 11
990.7921696290813
 21
953.9513669070101
 31
0.0
  0
ARC
  5
129DB
330
18
100
AcDbEntity
  8
0
100
AcDbCircle
 10
987.7921696290814
 20
957.9513669070102
 30
0.0
 40
3.0
100
AcDbArc
 50
0.0
 51
90.0
  0
LINE
  5
129DD
330
18
100
AcDbEntity
  8
0
100
AcDbLine
 10
950.7921696290814
 20
957.9513669070102
 30
0.0
 11
950.7921696290814
 21
953.9513669070101
 31
0.0
  0
ARC
  5
129DE
330
18
100
AcDbEntity
  8
0
100
AcDbCircle
 10
947.7921696290813
 20
957.9513669070102
 30
0.0
 40
3.0
100
AcDbArc
 50
0.0
 51
90.0
  0
LINE
  5
129DF
330
18
100
AcDbEntity
  8
0
100
AcDbLine
 10
947.7921696290813
 20
960.9513669070102
 30
0.0
 11
941.7921696290814
 21
960.9513669070102
 31
0.0
  0
ARC
  5
129E0
330
18
100
AcDbEntity
  8
0
100
AcDbCircle
 10
961.7921696290814
 20
957.9513669070102
 30
0.0
 40
3.0
100
AcDbArc
 50
90.0
 51
180.0
  0
LINE
  5
129E1
330
18
100
AcDbEntity
  8
0
100
AcDbLine
 10
958.7921696290814
 20
957.9513669070102
 30
0.0
 11
958.7921696290814
 21
953.9513669070101
 31
0.0
  0
LINE
  5
129E2
330
18
100
AcDbEntity
  8
0
100
AcDbLine
 10
973.5421696290851
 20
953.9513669070101
 30
0.0
 11
956.0421696290815
 21
953.9513669070101
 31
0.0
  0
LINE
  5
129E3
330
18
100
AcDbEntity
  8
0
100
AcDbLine
 10
973.5421696290851
 20
946.5513669070096
 30
0.0
 11
956.0421696290815
 21
946.5513669070096
 31
0.0
  0
LINE
  5
129E4
330
18
100
AcDbEntity
  8
0
100
AcDbLine
 10
970.7921696290814
 20
955.9513669070101
 30
0.0
 11
958.7921696290814
 21
955.9513669070101
 31
0.0
  0
LINE
  5
129E5
330
18
100
AcDbEntity
  8
0
100
AcDbLine
 10
967.7921696290814
 20
960.9513669070102
 30
0.0
 11
961.7921696290814
 21
960.9513669070102
 31
0.0
  0
LINE
  5
129E8
330
18
100
AcDbEntity
  8
0
100
AcDbLine
 10
930.7921696290851
 20
971.0513669070095
 30
0.0
 11
930.7921696290813
 21
930.5513669070096
 31
0.0
  0
LINE
  5
129E9
330
18
100
AcDbEntity
  8
0
100
AcDbLine
 10
936.0421696290813
 20
971.0513669070095
 30
0.0
 11
936.0421696290813
 21
946.5513669070096
 31
0.0
  0
LINE
  5
129EA
330
18
100
AcDbEntity
  8
0
100
AcDbLine
 10
973.5421696290851
 20
971.0513669070095
 30
0.0
 11
973.5421696290851
 21
930.5513669070096
 31
0.0
  0
LINE
  5
129EB
330
18
100
AcDbEntity
  8
0
100
AcDbLine
 10
976.0421696290814
 20
971.0513669070095
 30
0.0
 11
976.0421696290814
 21
946.5513669070096
 31
0.0
  0
LINE
  5
129EC
330
18
100
AcDbEntity
  8
0
100
AcDbLine
 10
993.542169629085
 20
971.0513669070095
 30
0.0
 11
993.542169629085
 21
930.5513669070096
 31
0.0
  0
LINE
  5
129ED
330
18
100
AcDbEntity
  8
0
100
AcDbLine
 10
953.5421696290814
 20
971.0513669070095
 30
0.0
 11
953.5421696290814
 21
930.5513669070096
 31
0.0
  0
LINE
  5
129EE
330
18
100
AcDbEntity
  8
0
100
AcDbLine
 10
956.0421696290815
 20
971.0513669070095
 30
0.0
 11
956.0421696290815
 21
946.5513669070096
 31
0.0
  0
LINE
  5
129EF
330
18
100
AcDbEntity
  8
0
100
AcDbLine
 10
998.792169629085
 20
942.5513669070097
 30
0.0
 11
930.7921696290851
 21
942.5513669070097
 31
0.0
  0
LINE
  5
129F0
330
18
100
AcDbEntity
  8
0
100
AcDbLine
 10
998.792169629085
 20
971.0513669070095
 30
0.0
 11
993.542169629085
 21
971.0513669070095
 31
0.0
  0
LINE
  5
129F1
330
18
100
AcDbEntity
  8
0
100
AcDbLine
 10
1004.292169629088
 20
1013.551366907009
 30
0.0
 11
1004.292169629088
 21
1012.551366907009
 31
0.0
  0
LINE
  5
129F2
330
18
100
AcDbEntity
  8
0
100
AcDbLine
 10
998.7921696290886
 20
1013.551366907009
 30
0.0
 11
998.7921696290886
 21
1012.551366907009
 31
0.0
  0
LINE
  5
129F3
330
18
100
AcDbEntity
  8
0
100
AcDbLine
 10
1004.542169629088
 20
1013.551366907009
 30
0.0
 11
1004.542169629088
 21
1014.751366907009
 31
0.0
  0
LINE
  5
129F4
330
18
100
AcDbEntity
  8
0
100
AcDbLine
 10
999.7921696290886
 20
1011.551366907009
 30
0.0
 11
1003.292169629088
 21
1011.551366907009
 31
0.0
  0
ARC
  5
129F5
330
18
100
AcDbEntity
  8
0
100
AcDbCircle
 10
1003.292169629088
 20
1012.551366907008
 30
0.0
 40
1.0
100
AcDbArc
 50
270.0
 51
0.0
  0
LINE
  5
129F6
330
18
100
AcDbEntity
  8
0
100
AcDbLine
 10
1004.792169629088
 20
1016.351366907009
 30
0.0
 11
1004.792169629088
 21
1014.75136690701
 31
0.0
  0
LINE
  5
129F7
330
18
100
AcDbEntity
  8
0
100
AcDbLine
 10
955.0421696290886
 20
1016.351366907009
 30
0.0
 11
961.0421696290886
 21
1016.351366907009
 31
0.0
  0
LINE
  5
129F8
330
18
100
AcDbEntity
  8
0
100
AcDbLine
 10
955.0421696290886
 20
1013.551366907009
 30
0.0
 11
961.0421696290886
 21
1013.551366907009
 31
0.0
  0
LINE
  5
129F9
330
18
100
AcDbEntity
  8
0
100
AcDbLine
 10
955.0421696290886
 20
1014.251366907009
 30
0.0
 11
961.0421696290886
 21
1014.251366907009
 31
0.0
  0
ARC
  5
129FA
330
18
100
AcDbEntity
  8
0
100
AcDbCircle
 10
956.2921696290887
 20
1012.551366907008
 30
0.0
 40
1.0
100
AcDbArc
 50
180.0
 51
270.0
  0
LINE
  5
129FB
330
18
100
AcDbEntity
  8
0
100
AcDbLine
 10
955.0421696290886
 20
1014.751366907009
 30
0.0
 11
961.0421696290886
 21
1014.751366907009
 31
0.0
  0
LINE
  5
129FC
330
18
100
AcDbEntity
  8
0
100
AcDbLine
 10
937.7921696290886
 20
978.5513669070097
 30
0.0
 11
937.7921696290924
 21
977.5513669070097
 31
0.0
  0
LINE
  5
129FD
330
18
100
AcDbEntity
  8
0
100
AcDbLine
 10
937.7921696290924
 20
978.5513669070097
 30
0.0
 11
946.7921696290924
 21
978.5513669070097
 31
0.0
  0
LINE
  5
129FE
330
18
100
AcDbEntity
  8
0
100
AcDbLine
 10
937.7921696290924
 20
977.5513669070097
 30
0.0
 11
947.7921696290923
 21
977.5513669070097
 31
0.0
  0
LINE
  5
129FF
330
18
100
AcDbEntity
  8
0
100
AcDbLine
 10
955.2921696290887
 20
1013.551366907009
 30
0.0
 11
955.2921696290887
 21
1012.551366907009
 31
0.0
  0
LINE
  5
12A00
330
18
100
AcDbEntity
  8
0
100
AcDbLine
 10
955.0421696290886
 20
1014.751366907009
 30
0.0
 11
955.0421696290886
 21
1013.551366907009
 31
0.0
  0
LINE
  5
12A01
330
18
100
AcDbEntity
  8
0
100
AcDbLine
 10
998.5421696290886
 20
1014.751366907009
 30
0.0
 11
998.5421696290886
 21
1013.551366907009
 31
0.0
  0
LINE
  5
12A02
330
18
100
AcDbEntity
  8
0
100
AcDbLine
 10
960.7921696290887
 20
1013.551366907009
 30
0.0
 11
960.7921696290887
 21
1012.551366907009
 31
0.0
  0
LINE
  5
12A03
330
18
100
AcDbEntity
  8
0
100
AcDbLine
 10
961.0421696290886
 20
1013.551366907009
 30
0.0
 11
961.0421696290886
 21
1014.751366907009
 31
0.0
  0
LINE
  5
12A04
330
18
100
AcDbEntity
  8
0
100
AcDbLine
 10
956.2921696290887
 20
1011.551366907009
 30
0.0
 11
959.7921696290887
 21
1011.551366907009
 31
0.0
  0
ARC
  5
12A05
330
18
100
AcDbEntity
  8
0
100
AcDbCircle
 10
959.7921696290887
 20
1012.551366907008
 30
0.0
 40
1.0
100
AcDbArc
 50
270.0
 51
0.0
  0
LINE
  5
12A06
330
18
100
AcDbEntity
  8
0
100
AcDbLine
 10
954.7921696290886
 20
1016.351366907009
 30
0.0
 11
954.7921696290886
 21
1014.751366907009
 31
0.0
  0
LINE
  5
12A07
330
18
100
AcDbEntity
  8
0
100
AcDbLine
 10
954.7921696290886
 20
1016.351366907009
 30
0.0
 11
1004.792169629088
 21
1016.351366907009
 31
0.0
  0
LINE
  5
12A08
330
18
100
AcDbEntity
  8
0
100
AcDbLine
 10
998.5421696290886
 20
1016.351366907009
 30
0.0
 11
1004.542169629088
 21
1016.351366907009
 31
0.0
  0
LINE
  5
12A09
330
18
100
AcDbEntity
  8
0
100
AcDbLine
 10
954.7921696290886
 20
1014.751366907009
 30
0.0
 11
1004.792169629088
 21
1014.751366907009
 31
0.0
  0
LINE
  5
12A0A
330
18
100
AcDbEntity
  8
0
100
AcDbLine
 10
998.5421696290886
 20
1013.551366907009
 30
0.0
 11
1004.542169629088
 21
1013.551366907009
 31
0.0
  0
LINE
  5
12A0B
330
18
100
AcDbEntity
  8
0
100
AcDbLine
 10
998.5421696290886
 20
1014.251366907009
 30
0.0
 11
1004.542169629088
 21
1014.251366907009
 31
0.0
  0
ARC
  5
12A0C
330
18
100
AcDbEntity
  8
0
100
AcDbCircle
 10
999.7921696290886
 20
1012.551366907008
 30
0.0
 40
1.0
100
AcDbArc
 50
180.0
 51
270.0
  0
LINE
  5
12A0D
330
18
100
AcDbEntity
  8
0
100
AcDbLine
 10
998.5421696290886
 20
1014.751366907009
 30
0.0
 11
1004.542169629088
 21
1014.751366907009
 31
0.0
  0
LINE
  5
12A0E
330
18
100
AcDbEntity
  8
0
 48
0.2
100
AcDbLine
 10
943.2921696290813
 20
975.5513669070099
 30
0.0
 11
940.2921696290814
 21
975.5513669070099
 31
0.0
  0
LINE
  5
12A0F
330
18
100
AcDbEntity
  8
0
 48
0.2
100
AcDbLine
 10
939.7921696290813
 20
976.5513669070099
 30
0.0
 11
940.2921696290814
 21
975.5513669070099
 31
0.0
  0
LINE
  5
12A10
330
18
100
AcDbEntity
  8
0
 48
0.2
100
AcDbLine
 10
943.2921696290813
 20
975.5513669070099
 30
0.0
 11
943.7921696290814
 21
976.5513669070099
 31
0.0
  0
LINE
  5
12A11
330
18
100
AcDbEntity
  8
0
 48
0.2
100
AcDbLine
 10
939.7921696290813
 20
976.5513669070099
 30
0.0
 11
943.7921696290814
 21
976.5513669070099
 31
0.0
  0
LINE
  5
12A12
330
18
100
AcDbEntity
  8
0
100
AcDbLine
 10
910.2921696290886
 20
988.5513669070098
 30
0.0
 11
909.2921696290886
 21
988.5513669070098
 31
0.0
  0
LINE
  5
12A13
330
18
100
AcDbEntity
  8
0
 48
0.2
100
AcDbLine
 10
914.2921696290922
 20
988.5513669070098
 30
0.0
 11
914.2921696290922
 21
977.5513669070098
 31
0.0
  0
LINE
  5
12A14
330
18
100
AcDbEntity
  8
0
100
AcDbLine
 10
909.2921696290886
 20
976.5513669070099
 30
0.0
 11
909.2921696290886
 21
988.5513669070098
 31
0.0
  0
LINE
  5
12A15
330
18
100
AcDbEntity
  8
0
100
AcDbLine
 10
910.2921696290851
 20
977.5513669070098
 30
0.0
 11
910.2921696290886
 21
988.5513669070098
 31
0.0
  0
LINE
  5
12A16
330
18
100
AcDbEntity
  8
0
 48
0.2
100
AcDbLine
 10
911.2921696290886
 20
984.0513669070098
 30
0.0
 11
911.2921696290886
 21
981.0513669070099
 31
0.0
  0
LINE
  5
12A17
330
18
100
AcDbEntity
  8
0
 48
0.2
100
AcDbLine
 10
910.2921696290886
 20
980.5513669070098
 30
0.0
 11
910.2921696290886
 21
984.5513669070099
 31
0.0
  0
LINE
  5
12A18
330
18
100
AcDbEntity
  8
0
 48
0.2
100
AcDbLine
 10
910.2921696290886
 20
980.5513669070098
 30
0.0
 11
911.2921696290886
 21
981.0513669070099
 31
0.0
  0
LINE
  5
12A19
330
18
100
AcDbEntity
  8
0
 48
0.2
100
AcDbLine
 10
911.2921696290886
 20
984.0513669070098
 30
0.0
 11
910.2921696290886
 21
984.5513669070099
 31
0.0
  0
LINE
  5
12A1A
330
18
100
AcDbEntity
  8
0
100
AcDbLine
 10
946.7921696290924
 20
988.5513669070098
 30
0.0
 11
914.2921696290922
 21
988.5513669070098
 31
0.0
  0
CIRCLE
  5
12A1B
330
18
100
AcDbEntity
  8
0
 48
3.0
370
    13
100
AcDbCircle
 10
929.2921696290887
 20
915.5513669070089
 30
0.0
 40
2.5
  0
ARC
  5
12A1C
330
18
100
AcDbEntity
  8
0
 48
3.0
370
    13
100
AcDbCircle
 10
929.2921696290887
 20
915.5513669070089
 30
0.0
 40
2.0
100
AcDbArc
 50
345.5224878141037
 51
14.47751218589629
  0
ARC
  5
12A1D
330
18
100
AcDbEntity
  8
0
 48
3.0
370
    13
100
AcDbCircle
 10
929.2921696290887
 20
915.5513669070089
 30
0.0
 40
2.0
100
AcDbArc
 50
165.5224878141036
 51
194.4775121858963
  0
LINE
  5
12A1E
330
18
100
AcDbEntity
  8
0
 48
3.0
370
    13
100
AcDbLine
 10
927.3556779559822
 20
916.0513669070089
 30
0.0
 11
928.7921696290887
 21
916.0513669070089
 31
0.0
  0
ARC
  5
12A1F
330
18
100
AcDbEntity
  8
0
 48
3.0
370
    13
100
AcDbCircle
 10
929.2921696290887
 20
915.5513669070089
 30
0.0
 40
2.0
100
AcDbArc
 50
75.52248781407055
 51
104.4775121859294
  0
LINE
  5
12A20
330
18
100
AcDbEntity
  8
0
 48
3.0
370
    13
100
AcDbLine
 10
929.7921696290886
 20
916.0513669070089
 30
0.0
 11
929.7921696290886
 21
917.4878585801119
 31
0.0
  0
LINE
  5
12A21
330
18
100
AcDbEntity
  8
0
 48
3.0
370
    13
100
AcDbLine
 10
928.7921696290887
 20
916.0513669070089
 30
0.0
 11
928.7921696290887
 21
917.4878585801119
 31
0.0
  0
LINE
  5
12A22
330
18
100
AcDbEntity
  8
0
 48
3.0
370
    13
100
AcDbLine
 10
929.7921696290886
 20
916.0513669070089
 30
0.0
 11
931.2286613021916
 21
916.0513669070089
 31
0.0
  0
LINE
  5
12A23
330
18
100
AcDbEntity
  8
0
 48
3.0
370
    13
100
AcDbLine
 10
927.3556779559822
 20
915.051366907009
 30
0.0
 11
928.7921696290887
 21
915.051366907009
 31
0.0
  0
LINE
  5
12A24
330
18
100
AcDbEntity
  8
0
 48
3.0
370
    13
100
AcDbLine
 10
929.7921696290886
 20
915.051366907009
 30
0.0
 11
931.2286613021916
 21
915.051366907009
 31
0.0
  0
ARC
  5
12A25
330
18
100
AcDbEntity
  8
0
 48
3.0
370
    13
100
AcDbCircle
 10
929.2921696290887
 20
915.5513669070089
 30
0.0
 40
2.0
100
AcDbArc
 50
255.5224878140705
 51
284.4775121859294
  0
CIRCLE
  5
12A26
330
18
100
AcDbEntity
  8
0
 48
3.0
370
    13
100
AcDbCircle
 10
929.2921696290887
 20
915.5513669070089
 30
0.0
 40
3.0
  0
LINE
  5
12A27
330
18
100
AcDbEntity
  8
0
 48
3.0
370
    13
100
AcDbLine
 10
929.7921696290886
 20
913.614875233906
 30
0.0
 11
929.7921696290886
 21
915.051366907009
 31
0.0
  0
LINE
  5
12A28
330
18
100
AcDbEntity
  8
0
 48
3.0
370
    13
100
AcDbLine
 10
928.7921696290887
 20
913.614875233906
 30
0.0
 11
928.7921696290887
 21
915.051366907009
 31
0.0
  0
LINE
  5
12A29
330
18
100
AcDbEntity
  8
0
 48
0.2
100
AcDbLine
 10
939.292169629085
 20
910.5513669070091
 30
0.0
 11
939.2921696290887
 21
886.5513669070097
 31
0.0
  0
LINE
  5
12A2A
330
18
100
AcDbEntity
  8
0
 48
0.2
100
AcDbLine
 10
919.292169629085
 20
908.5513669070087
 30
0.0
 11
909.2921696290851
 21
908.5513669070095
 31
0.0
  0
LINE
  5
12A2B
330
18
100
AcDbEntity
  8
0
 48
0.2
100
AcDbLine
 10
919.292169629085
 20
910.551366907009
 30
0.0
 11
919.292169629085
 21
908.5513669070087
 31
0.0
  0
LINE
  5
12A2C
330
18
100
AcDbEntity
  8
0
100
AcDbLine
 10
1006.292169629088
 20
881.5513669070096
 30
0.0
 11
1006.292169629088
 21
876.5513669070097
 31
0.0
  0
LINE
  5
12A2D
330
18
100
AcDbEntity
  8
0
100
AcDbLine
 10
1006.292169629088
 20
871.5513669070096
 30
0.0
 11
1006.292169629088
 21
866.5513669070096
 31
0.0
  0
LINE
  5
12A2E
330
18
100
AcDbEntity
  8
0
100
AcDbLine
 10
994.7921696290849
 20
897.9513669070101
 30
0.0
 11
994.7921696290887
 21
886.5513669070097
 31
0.0
  0
LINE
  5
12A2F
330
18
100
AcDbEntity
  8
0
100
AcDbLine
 10
974.792169629085
 20
897.9513669070101
 30
0.0
 11
974.7921696290886
 21
886.5513669070097
 31
0.0
  0
ARC
  5
12A30
330
18
100
AcDbEntity
  8
0
100
AcDbCircle
 10
984.792169629085
 20
889.9513669070101
 30
0.0
 40
4.5
100
AcDbArc
 50
0.0
 51
90.0
  0
ARC
  5
12A31
330
18
100
AcDbEntity
  8
0
100
AcDbCircle
 10
984.7921696290814
 20
889.9513669070101
 30
0.0
 40
4.5
100
AcDbArc
 50
90.0
 51
180.0
  0
LINE
  5
12A32
330
18
100
AcDbEntity
  8
0
100
AcDbLine
 10
980.2921696290814
 20
889.9513669070101
 30
0.0
 11
980.2921696290814
 21
889.6308163787804
 31
0.0
  0
LINE
  5
12A33
330
18
100
AcDbEntity
  8
0
100
AcDbLine
 10
984.7921696290814
 20
894.4513669070103
 30
0.0
 11
984.792169629085
 21
894.4513669070103
 31
0.0
  0
LINE
  5
12A34
330
18
100
AcDbEntity
  8
0
100
AcDbLine
 10
989.292169629085
 20
889.6308163787715
 30
0.0
 11
989.292169629085
 21
889.9513669070101
 31
0.0
  0
LINE
  5
12A35
330
18
100
AcDbEntity
  8
0
100
AcDbLine
 10
994.7921696290849
 20
897.9513669070101
 30
0.0
 11
974.792169629085
 21
897.9513669070101
 31
0.0
  0
LINE
  5
12A36
330
18
100
AcDbEntity
  8
0
100
AcDbLine
 10
954.7921696290851
 20
897.9513669070101
 30
0.0
 11
954.7921696290886
 21
886.5513669070097
 31
0.0
  0
ARC
  5
12A37
330
18
100
AcDbEntity
  8
0
100
AcDbCircle
 10
944.7921696290849
 20
889.9513669070101
 30
0.0
 40
4.5
100
AcDbArc
 50
0.0
 51
90.0
  0
ARC
  5
12A38
330
18
100
AcDbEntity
  8
0
100
AcDbCircle
 10
944.7921696290814
 20
889.9513669070101
 30
0.0
 40
4.5
100
AcDbArc
 50
90.0
 51
180.0
  0
LINE
  5
12A39
330
18
100
AcDbEntity
  8
0
100
AcDbLine
 10
940.2921696290814
 20
889.9513669070101
 30
0.0
 11
940.2921696290814
 21
889.6308163787804
 31
0.0
  0
LINE
  5
12A3A
330
18
100
AcDbEntity
  8
0
100
AcDbLine
 10
944.7921696290814
 20
894.4513669070103
 30
0.0
 11
944.7921696290849
 21
894.4513669070103
 31
0.0
  0
LINE
  5
12A3B
330
18
100
AcDbEntity
  8
0
100
AcDbLine
 10
949.2921696290849
 20
889.6308163787715
 30
0.0
 11
949.2921696290849
 21
889.9513669070101
 31
0.0
  0
LINE
  5
12A3C
330
18
100
AcDbEntity
  8
0
100
AcDbLine
 10
954.7921696290851
 20
897.9513669070101
 30
0.0
 11
939.2921696290887
 21
897.9513669070101
 31
0.0
  0
LINE
  5
12A3D
330
18
100
AcDbEntity
  8
0
100
AcDbLine
 10
922.2921696290887
 20
881.5513669070096
 30
0.0
 11
952.2921696290886
 21
881.5513669070096
 31
0.0
  0
LINE
  5
12A3E
330
18
100
AcDbEntity
  8
0
100
AcDbLine
 10
952.2921696290886
 20
881.5513669070096
 30
0.0
 11
952.2921696290886
 21
876.5513669070097
 31
0.0
  0
LINE
  5
12A3F
330
18
100
AcDbEntity
  8
0
100
AcDbLine
 10
922.2921696290887
 20
881.5513669070096
 30
0.0
 11
922.2921696290887
 21
876.5513669070097
 31
0.0
  0
LINE
  5
12A40
330
18
100
AcDbEntity
  8
0
100
AcDbLine
 10
952.2921696290886
 20
876.5513669070097
 30
0.0
 11
922.2921696290887
 21
876.5513669070097
 31
0.0
  0
LINE
  5
12A41
330
18
100
AcDbEntity
  8
0
100
AcDbLine
 10
994.2921696290886
 20
876.5513669070097
 30
0.0
 11
964.2921696290887
 21
876.5513669070097
 31
0.0
  0
LINE
  5
12A42
330
18
100
AcDbEntity
  8
0
100
AcDbLine
 10
964.2921696290887
 20
881.5513669070096
 30
0.0
 11
964.2921696290887
 21
876.5513669070097
 31
0.0
  0
LINE
  5
12A43
330
18
100
AcDbEntity
  8
0
100
AcDbLine
 10
994.2921696290886
 20
881.5513669070096
 30
0.0
 11
994.2921696290886
 21
876.5513669070097
 31
0.0
  0
LINE
  5
12A44
330
18
100
AcDbEntity
  8
0
100
AcDbLine
 10
964.2921696290887
 20
881.5513669070096
 30
0.0
 11
994.2921696290886
 21
881.5513669070096
 31
0.0
  0
LINE
  5
12A45
330
18
100
AcDbEntity
  8
0
100
AcDbLine
 10
964.2921696290887
 20
871.5513669070096
 30
0.0
 11
994.2921696290886
 21
871.5513669070096
 31
0.0
  0
LINE
  5
12A46
330
18
100
AcDbEntity
  8
0
100
AcDbLine
 10
994.2921696290886
 20
871.5513669070096
 30
0.0
 11
994.2921696290886
 21
866.5513669070096
 31
0.0
  0
LINE
  5
12A47
330
18
100
AcDbEntity
  8
0
100
AcDbLine
 10
964.2921696290887
 20
871.5513669070096
 30
0.0
 11
964.2921696290887
 21
866.5513669070096
 31
0.0
  0
LINE
  5
12A48
330
18
100
AcDbEntity
  8
0
100
AcDbLine
 10
994.2921696290886
 20
866.5513669070096
 30
0.0
 11
964.2921696290887
 21
866.5513669070096
 31
0.0
  0
LINE
  5
12A49
330
18
100
AcDbEntity
  8
0
100
AcDbLine
 10
952.2921696290886
 20
866.5513669070096
 30
0.0
 11
922.2921696290887
 21
866.5513669070096
 31
0.0
  0
LINE
  5
12A4A
330
18
100
AcDbEntity
  8
0
100
AcDbLine
 10
922.2921696290887
 20
871.5513669070096
 30
0.0
 11
922.2921696290887
 21
866.5513669070096
 31
0.0
  0
LINE
  5
12A4B
330
18
100
AcDbEntity
  8
0
100
AcDbLine
 10
952.2921696290886
 20
871.5513669070096
 30
0.0
 11
952.2921696290886
 21
866.5513669070096
 31
0.0
  0
LINE
  5
12A4C
330
18
100
AcDbEntity
  8
0
100
AcDbLine
 10
922.2921696290887
 20
871.5513669070096
 30
0.0
 11
952.2921696290886
 21
871.5513669070096
 31
0.0
  0
LINE
  5
12A4D
330
18
100
AcDbEntity
  8
0
100
AcDbLine
 10
952.7921696290849
 20
910.5513669070091
 30
0.0
 11
952.7921696290849
 21
897.9513669070101
 31
0.0
  0
LINE
  5
12A4E
330
18
100
AcDbEntity
  8
0
100
AcDbLine
 10
976.7921696290814
 20
910.5513669070091
 30
0.0
 11
976.7921696290814
 21
897.9513669070101
 31
0.0
  0
LINE
  5
12A4F
330
18
100
AcDbEntity
  8
0
100
AcDbLine
 10
992.7921696290814
 20
910.5513669070091
 30
0.0
 11
992.7921696290814
 21
897.9513669070101
 31
0.0
  0
LINE
  5
12A50
330
18
100
AcDbEntity
  8
0
100
AcDbLine
 10
909.2921696290851
 20
930.5513669070098
 30
0.0
 11
909.2921696290886
 21
910.551366907009
 31
0.0
  0
LINE
  5
12A51
330
18
100
AcDbEntity
  8
0
100
AcDbLine
 10
959.0259297475403
 20
1171.371211312198
 30
0.0
 11
957.8502540718673
 21
1164.317157258143
 31
0.0
  0
LINE
  5
12A52
330
18
100
AcDbEntity
  8
0
100
AcDbLine
 10
968.0259297475441
 20
1171.371211312198
 30
0.0
 11
969.2016054232171
 21
1164.317157258143
 31
0.0
  0
LINE
  5
12A53
330
18
100
AcDbEntity
  8
0
100
AcDbLine
 10
991.5227297475594
 20
1157.081736130869
 30
0.0
 11
991.5227297475594
 21
1179.371211312216
 31
0.0
  0
LINE
  5
12A54
330
18
100
AcDbEntity
  8
0
100
AcDbLine
 10
975.5227297475594
 20
1157.081736130869
 30
0.0
 11
975.5227297475594
 21
1179.371211312216
 31
0.0
  0
LINE
  5
12A55
330
18
100
AcDbEntity
  8
0
100
AcDbLine
 10
935.5227297475593
 20
1157.081736130869
 30
0.0
 11
935.5227297475593
 21
1179.371211312216
 31
0.0
  0
LINE
  5
12A56
330
18
100
AcDbEntity
  8
0
100
AcDbLine
 10
951.5227297475593
 20
1157.081736130869
 30
0.0
 11
951.5227297475593
 21
1179.371211312216
 31
0.0
  0
CIRCLE
  5
12A57
330
18
100
AcDbEntity
  8
0
100
AcDbCircle
 10
943.5259297475477
 20
1162.371211312198
 30
0.0
 40
6.0
  0
CIRCLE
  5
12A58
330
18
100
AcDbEntity
  8
0
100
AcDbCircle
 10
983.5259297475477
 20
1162.371211312198
 30
0.0
 40
6.0
  0
LINE
  5
12A59
330
18
100
AcDbEntity
  8
0
100
AcDbLine
 10
915.525929747544
 20
1162.371211312198
 30
0.0
 11
927.5259297475441
 21
1169.871211312198
 31
0.0
  0
LINE
  5
12A5A
330
18
100
AcDbEntity
  8
0
100
AcDbLine
 10
932.2759297475476
 20
1174.871211312198
 30
0.0
 11
932.2759297475476
 21
1122.871211312198
 31
0.0
  0
LINE
  5
12A5B
330
18
100
AcDbEntity
  8
0
100
AcDbLine
 10
934.7759297475477
 20
1174.871211312198
 30
0.0
 11
934.7759297475477
 21
1122.871211312198
 31
0.0
  0
LINE
  5
12A5C
330
18
100
AcDbEntity
  8
0
100
AcDbLine
 10
929.5259297475514
 20
1122.871211312198
 30
0.0
 11
929.5259297475514
 21
1174.871211312198
 31
0.0
  0
CIRCLE
  5
12A5D
330
18
100
AcDbEntity
  8
0
100
AcDbCircle
 10
963.5259297475476
 20
1162.371211312198
 30
0.0
 40
6.0
  0
LINE
  5
12A5E
330
18
100
AcDbEntity
  8
0
100
AcDbLine
 10
952.2759297475477
 20
1174.871211312198
 30
0.0
 11
952.2759297475477
 21
1122.871211312198
 31
0.0
  0
LINE
  5
12A5F
330
18
100
AcDbEntity
  8
0
100
AcDbLine
 10
954.7759297475513
 20
1174.871211312198
 30
0.0
 11
954.7759297475478
 21
1122.871211312198
 31
0.0
  0
LINE
  5
12A60
330
18
100
AcDbEntity
  8
0
100
AcDbLine
 10
972.2759297475477
 20
1174.871211312198
 30
0.0
 11
972.2759297475477
 21
1122.871211312198
 31
0.0
  0
LINE
  5
12A61
330
18
100
AcDbEntity
  8
0
100
AcDbLine
 10
974.7759297475477
 20
1174.871211312198
 30
0.0
 11
974.7759297475477
 21
1122.871211312198
 31
0.0
  0
LINE
  5
12A62
330
18
100
AcDbEntity
  8
0
100
AcDbLine
 10
992.2759297475478
 20
1174.871211312198
 30
0.0
 11
992.2759297475478
 21
1122.871211312198
 31
0.0
  0
LINE
  5
12A63
330
18
100
AcDbEntity
  8
0
100
AcDbLine
 10
994.7759297475514
 20
1174.871211312198
 30
0.0
 11
994.7759297475476
 21
1122.871211312198
 31
0.0
  0
LINE
  5
12A64
330
18
100
AcDbEntity
  8
0
100
AcDbLine
 10
997.5259297475513
 20
1122.871211312198
 30
0.0
 11
997.5259297475476
 21
1174.871211312198
 31
0.0
  0
LINE
  5
12A65
330
18
100
AcDbEntity
  8
0
100
AcDbLine
 10
908.0259297475514
 20
1066.871239894587
 30
0.0
 11
908.0259297475514
 21
1213.271211312076
 31
0.0
  0
LINE
  5
12A66
330
18
100
AcDbEntity
  8
0
100
AcDbLine
 10
908.0259297475514
 20
1174.871211312198
 30
0.0
 11
908.0259297475514
 21
1074.87123989462
 31
0.0
  0
LINE
  5
12A67
330
18
100
AcDbEntity
  8
0
100
AcDbLine
 10
986.3581466011909
 20
1157.081736130869
 30
0.0
 11
991.5227297475594
 21
1157.081736130869
 31
0.0
  0
LINE
  5
12A68
330
18
100
AcDbEntity
  8
0
100
AcDbLine
 10
975.5227297475594
 20
1157.081736130869
 30
0.0
 11
980.6937128938898
 21
1157.081736130869
 31
0.0
  0
LINE
  5
12A69
330
18
100
AcDbEntity
  8
0
100
AcDbLine
 10
935.5227297475593
 20
1157.081736130869
 30
0.0
 11
940.6937128938897
 21
1157.081736130869
 31
0.0
  0
LINE
  5
12A6A
330
18
100
AcDbEntity
  8
0
100
AcDbLine
 10
946.3581466011911
 20
1157.081736130869
 30
0.0
 11
951.5227297475593
 21
1157.081736130869
 31
0.0
  0
MTEXT
  5
12A6B
330
18
100
AcDbEntity
  8
0
 48
0.1
370
    -3
100
AcDbMText
 10
939.3349237619641
 20
1152.621368036087
 30
0.0
 40
8.0
 41
7.769928458277748
 71
     1
 72
     5
  1
RL
  7
MSｺﾞｼｯｸ
 73
     1
 44
1.0
  0
MTEXT
  5
12A6C
330
18
100
AcDbEntity
  8
0
 48
0.1
370
    -3
100
AcDbMText
 10
959.3349237619641
 20
1152.621368036087
 30
0.0
 40
8.0
 41
7.769999999999999
 71
     1
 72
     5
  1
SL
  7
MSｺﾞｼｯｸ
 73
     1
 44
1.0
  0
MTEXT
  5
12A6D
330
18
100
AcDbEntity
  8
0
 48
0.1
370
    -3
100
AcDbMText
 10
979.334923761964
 20
1152.621368036087
 30
0.0
 40
8.0
 41
7.769999999999999
 71
     1
 72
     5
  1
TL
  7
MSｺﾞｼｯｸ
 73
     1
 44
1.0
  0
LINE
  5
12A6E
330
18
100
AcDbEntity
  8
0
 48
3.0
370
    13
100
AcDbLine
 10
1004.798443625712
 20
1148.037877978864
 30
0.0
 11
1007.192596414219
 21
1148.037877978864
 31
0.0
  0
ARC
  5
12A6F
330
18
100
AcDbEntity
  8
0
 48
3.0
370
    13
100
AcDbCircle
 10
1008.025929747551
 20
1148.871211312198
 30
0.0
 40
3.333333333333333
100
AcDbArc
 50
255.5224878140705
 51
284.4775121859294
  0
LINE
  5
12A70
330
18
100
AcDbEntity
  8
0
 48
3.0
370
    13
100
AcDbLine
 10
1007.192596414219
 20
1145.643725190359
 30
0.0
 11
1007.192596414219
 21
1148.037877978864
 31
0.0
  0
LINE
  5
12A71
330
18
100
AcDbEntity
  8
0
 48
3.0
370
    13
100
AcDbLine
 10
1008.859263080887
 20
1145.643725190359
 30
0.0
 11
1008.859263080887
 21
1148.037877978864
 31
0.0
  0
LINE
  5
12A72
330
18
100
AcDbEntity
  8
0
 48
3.0
370
    13
100
AcDbLine
 10
1007.192596414219
 20
1149.70454464553
 30
0.0
 11
1007.192596414219
 21
1152.098697434037
 31
0.0
  0
LINE
  5
12A73
330
18
100
AcDbEntity
  8
0
 48
3.0
370
    13
100
AcDbLine
 10
1008.859263080887
 20
1149.70454464553
 30
0.0
 11
1008.859263080887
 21
1152.098697434037
 31
0.0
  0
ARC
  5
12A74
330
18
100
AcDbEntity
  8
0
 48
3.0
370
    13
100
AcDbCircle
 10
1008.025929747551
 20
1148.871211312198
 30
0.0
 40
3.333333333333333
100
AcDbArc
 50
75.52248781407055
 51
104.4775121859294
  0
LINE
  5
12A75
330
18
100
AcDbEntity
  8
0
 48
3.0
370
    13
100
AcDbLine
 10
1004.798443625712
 20
1149.70454464553
 30
0.0
 11
1007.192596414219
 21
1149.70454464553
 31
0.0
  0
ARC
  5
12A76
330
18
100
AcDbEntity
  8
0
 48
3.0
370
    13
100
AcDbCircle
 10
1008.025929747551
 20
1148.871211312198
 30
0.0
 40
3.333333333333333
100
AcDbArc
 50
165.5224878141036
 51
194.4775121858963
  0
ARC
  5
12A77
330
18
100
AcDbEntity
  8
0
 48
3.0
370
    13
100
AcDbCircle
 10
919.0259297475513
 20
1148.871211312198
 30
0.0
 40
3.333333333333333
100
AcDbArc
 50
345.5224878141037
 51
14.47751218589629
  0
ARC
  5
12A78
330
18
100
AcDbEntity
  8
0
 48
3.0
370
    13
100
AcDbCircle
 10
919.0259297475513
 20
1148.871211312198
 30
0.0
 40
3.333333333333333
100
AcDbArc
 50
165.5224878141036
 51
194.4775121858963
  0
CIRCLE
  5
12A79
330
18
100
AcDbEntity
  8
0
 48
3.0
370
    13
100
AcDbCircle
 10
919.0259297475513
 20
1148.871211312198
 30
0.0
 40
5.0
  0
CIRCLE
  5
12A7A
330
18
100
AcDbEntity
  8
0
 48
3.0
370
    13
100
AcDbCircle
 10
919.0259297475513
 20
1148.871211312198
 30
0.0
 40
4.166666666666666
  0
LINE
  5
12A7B
330
18
100
AcDbEntity
  8
0
 48
3.0
370
    13
100
AcDbLine
 10
915.798443625712
 20
1149.70454464553
 30
0.0
 11
918.1925964142193
 21
1149.70454464553
 31
0.0
  0
ARC
  5
12A7C
330
18
100
AcDbEntity
  8
0
 48
3.0
370
    13
100
AcDbCircle
 10
919.0259297475513
 20
1148.871211312198
 30
0.0
 40
3.333333333333333
100
AcDbArc
 50
75.52248781407055
 51
104.4775121859294
  0
LINE
  5
12A7D
330
18
100
AcDbEntity
  8
0
 48
3.0
370
    13
100
AcDbLine
 10
919.8592630808871
 20
1149.70454464553
 30
0.0
 11
919.8592630808871
 21
1152.098697434037
 31
0.0
  0
LINE
  5
12A7E
330
18
100
AcDbEntity
  8
0
 48
3.0
370
    13
100
AcDbLine
 10
918.1925964142193
 20
1149.70454464553
 30
0.0
 11
918.1925964142193
 21
1152.098697434037
 31
0.0
  0
LINE
  5
12A7F
330
18
100
AcDbEntity
  8
0
 48
3.0
370
    13
100
AcDbLine
 10
919.8592630808871
 20
1149.70454464553
 30
0.0
 11
922.2534158693907
 21
1149.70454464553
 31
0.0
  0
LINE
  5
12A80
330
18
100
AcDbEntity
  8
0
 48
3.0
370
    13
100
AcDbLine
 10
919.8592630808871
 20
1145.643725190359
 30
0.0
 11
919.8592630808871
 21
1148.037877978864
 31
0.0
  0
LINE
  5
12A81
330
18
100
AcDbEntity
  8
0
 48
3.0
370
    13
100
AcDbLine
 10
918.1925964142193
 20
1145.643725190359
 30
0.0
 11
918.1925964142193
 21
1148.037877978864
 31
0.0
  0
ARC
  5
12A82
330
18
100
AcDbEntity
  8
0
 48
3.0
370
    13
100
AcDbCircle
 10
919.0259297475513
 20
1148.871211312198
 30
0.0
 40
3.333333333333333
100
AcDbArc
 50
255.5224878140705
 51
284.4775121859294
  0
LINE
  5
12A83
330
18
100
AcDbEntity
  8
0
 48
3.0
370
    13
100
AcDbLine
 10
915.798443625712
 20
1148.037877978864
 30
0.0
 11
918.1925964142193
 21
1148.037877978864
 31
0.0
  0
LINE
  5
12A84
330
18
100
AcDbEntity
  8
0
 48
3.0
370
    13
100
AcDbLine
 10
919.8592630808871
 20
1148.037877978864
 30
0.0
 11
922.2534158693907
 21
1148.037877978864
 31
0.0
  0
LINE
  5
12A85
330
18
100
AcDbEntity
  8
0
100
AcDbLine
 10
929.5259297475514
 20
1122.871211312198
 30
0.0
 11
997.5259297475513
 21
1122.871211312198
 31
0.0
  0
LINE
  5
12A86
330
18
100
AcDbEntity
  8
0
100
AcDbLine
 10
974.7759297475477
 20
1154.871211312198
 30
0.0
 11
992.2759297475513
 21
1154.871211312198
 31
0.0
  0
LINE
  5
12A87
330
18
100
AcDbEntity
  8
0
100
AcDbLine
 10
974.7759297475477
 20
1142.871211312198
 30
0.0
 11
992.2759297475513
 21
1142.871211312198
 31
0.0
  0
CIRCLE
  5
12A88
330
18
100
AcDbEntity
  8
0
100
AcDbCircle
 10
983.5259297475477
 20
1135.371211312198
 30
0.0
 40
6.0
  0
LINE
  5
12A89
330
18
100
AcDbEntity
  8
0
100
AcDbLine
 10
934.7759297475477
 20
1142.871211312198
 30
0.0
 11
952.2759297475477
 21
1142.871211312198
 31
0.0
  0
LINE
  5
12A8A
330
18
100
AcDbEntity
  8
0
100
AcDbLine
 10
934.7759297475477
 20
1154.871211312198
 30
0.0
 11
952.2759297475477
 21
1154.871211312198
 31
0.0
  0
CIRCLE
  5
12A8B
330
18
100
AcDbEntity
  8
0
100
AcDbCircle
 10
943.5259297475477
 20
1135.371211312198
 30
0.0
 40
6.0
  0
LINE
  5
12A8C
330
18
100
AcDbEntity
  8
0
100
AcDbLine
 10
915.525929747544
 20
1135.371211312198
 30
0.0
 11
927.5259297475441
 21
1127.871211312198
 31
0.0
  0
LINE
  5
12A8D
330
18
100
AcDbEntity
  8
0
100
AcDbLine
 10
929.5259297475441
 20
1127.871211312198
 30
0.0
 11
927.5259297475477
 21
1127.871211312198
 31
0.0
  0
LINE
  5
12A8E
330
18
100
AcDbEntity
  8
0
100
AcDbLine
 10
954.7759297475513
 20
1154.871211312198
 30
0.0
 11
972.2759297475477
 21
1154.871211312198
 31
0.0
  0
LINE
  5
12A8F
330
18
100
AcDbEntity
  8
0
100
AcDbLine
 10
954.7759297475513
 20
1142.871211312198
 30
0.0
 11
972.2759297475477
 21
1142.871211312198
 31
0.0
  0
CIRCLE
  5
12A90
330
18
100
AcDbEntity
  8
0
100
AcDbCircle
 10
963.5259297475476
 20
1135.371211312198
 30
0.0
 40
6.0
  0
LINE
  5
12A91
330
18
100
AcDbEntity
  8
0
100
AcDbLine
 10
997.5259297475513
 20
1127.871211312198
 30
0.0
 11
999.5259297475477
 21
1127.871211312198
 31
0.0
  0
LINE
  5
12A92
330
18
100
AcDbEntity
  8
0
100
AcDbLine
 10
915.5259297475478
 20
1152.440851314373
 30
0.0
 11
915.5259297475478
 21
1162.371211312198
 31
0.0
  0
LINE
  5
12A93
330
18
100
AcDbEntity
  8
0
100
AcDbLine
 10
915.525929747544
 20
1135.371211312198
 30
0.0
 11
915.525929747544
 21
1145.301571310017
 31
0.0
  0
LINE
  5
12A94
330
18
100
AcDbEntity
  8
0
100
AcDbLine
 10
910.3259297475469
 20
1048.871239894587
 30
0.0
 11
912.3259297475469
 21
1046.871239894587
 31
0.0
  0
LINE
  5
12A95
330
18
100
AcDbEntity
  8
0
100
AcDbLine
 10
908.0259297475514
 20
1066.871239894587
 30
0.0
 11
906.4259297475491
 21
1066.871239894587
 31
0.0
  0
LINE
  5
12A96
330
18
100
AcDbEntity
  8
0
100
AcDbLine
 10
909.6259297475681
 20
1074.87123989462
 30
0.0
 11
908.0259297475659
 21
1074.87123989462
 31
0.0
  0
LINE
  5
12A97
330
18
100
AcDbEntity
  8
0
100
AcDbLine
 10
910.3259297475506
 20
1066.871239894587
 30
0.0
 11
910.3259297475469
 21
1048.871239894587
 31
0.0
  0
LINE
  5
12A98
330
18
100
AcDbEntity
  8
0
 48
0.2
100
AcDbLine
 10
977.5259297475512
 20
1048.871239894587
 30
0.0
 11
977.5259297475512
 21
1056.371239894587
 31
0.0
  0
LINE
  5
12A99
330
18
100
AcDbEntity
  8
0
 48
0.2
100
AcDbLine
 10
970.5259297475514
 20
1048.871239894587
 30
0.0
 11
970.5259297475514
 21
1056.371239894587
 31
0.0
  0
ARC
  5
12A9A
330
18
100
AcDbEntity
  8
0
100
AcDbCircle
 10
974.0259297475514
 20
1056.371239894587
 30
0.0
 40
3.5
100
AcDbArc
 50
0.0
 51
180.0
  0
LINE
  5
12A9B
330
18
100
AcDbEntity
  8
0
100
AcDbLine
 10
970.5259297475514
 20
1048.871239894587
 30
0.0
 11
968.5259297475512
 21
1046.871239894587
 31
0.0
  0
LINE
  5
12A9C
330
18
100
AcDbEntity
  8
0
100
AcDbLine
 10
977.5259297475512
 20
1048.871239894587
 30
0.0
 11
979.5259297475514
 21
1046.871239894587
 31
0.0
  0
LINE
  5
12A9D
330
18
100
AcDbEntity
  8
0
100
AcDbLine
 10
968.5259297475512
 20
1046.871239894587
 30
0.0
 11
912.3259297475469
 21
1046.871239894587
 31
0.0
  0
LINE
  5
12A9E
330
18
100
AcDbEntity
  8
0
100
AcDbLine
 10
907.6921696290828
 20
1025.85136690701
 30
0.0
 11
907.6921696290865
 21
1024.85136690701
 31
0.0
  0
LINE
  5
12A9F
330
18
100
AcDbEntity
  8
0
100
AcDbLine
 10
907.6921696290865
 20
1024.851366907009
 30
0.0
 11
919.6921696290864
 21
1024.851366907009
 31
0.0
  0
LINE
  5
12AA0
330
18
100
AcDbEntity
  8
0
100
AcDbLine
 10
909.2921696290886
 20
1023.251366907009
 30
0.0
 11
919.6921696290864
 21
1023.251366907009
 31
0.0
  0
LINE
  5
12AA1
330
18
100
AcDbEntity
  8
0
100
AcDbLine
 10
919.6921696290864
 20
1023.251366907009
 30
0.0
 11
919.6921696290864
 21
1024.851366907009
 31
0.0
  0
LINE
  5
12AA2
330
18
100
AcDbEntity
  8
0
 48
0.4
100
AcDbLine
 10
908.4259297475492
 20
1212.87121131208
 30
-0.2794100433300004
 11
906.4259297475491
 21
1214.87121131208
 31
-0.2794100433300004
  0
LINE
  5
12AA3
330
18
100
AcDbEntity
  8
0
100
AcDbLine
 10
991.5227297475594
 20
1174.871211312198
 30
0.0
 11
997.5259297475476
 21
1174.871211312198
 31
0.0
  0
LINE
  5
12AA4
330
18
100
AcDbEntity
  8
0
100
AcDbLine
 10
975.5227297475594
 20
1174.871211312198
 30
0.0
 11
968.0259297475441
 21
1174.871211312198
 31
0.0
  0
LINE
  5
12AA5
330
18
100
AcDbEntity
  8
0
100
AcDbLine
 10
935.522729747563
 20
1174.871211312198
 30
0.0
 11
908.0259297475514
 21
1174.871211312198
 31
0.0
  0
LINE
  5
12AA6
330
18
100
AcDbEntity
  8
0
100
AcDbLine
 10
951.5227297475593
 20
1174.871211312198
 30
0.0
 11
959.0259297475441
 21
1174.871211312198
 31
0.0
  0
LINE
  5
12AA7
330
18
100
AcDbEntity
  8
0
100
AcDbLine
 10
968.0259297475441
 20
1174.871211312198
 30
0.0
 11
975.5227297475594
 21
1174.871211312198
 31
0.0
  0
LINE
  5
12AA8
330
18
100
AcDbEntity
  8
0
100
AcDbLine
 10
959.0259297475441
 20
1174.871211312198
 30
0.0
 11
951.5227297475631
 21
1174.871211312198
 31
0.0
  0
TEXT
  5
12AA9
330
18
100
AcDbEntity
  8
0
100
AcDbText
 10
981.1300580167571
 20
1234.154939722826
 30
0.0
 40
1.5
  1
MOD
  7
MSｺﾞｼｯｸ
100
AcDbText
  0
TEXT
  5
12AAA
330
18
100
AcDbEntity
  8
0
100
AcDbText
 10
992.5893815241938
 20
1231.8712364824
 30
0.0
 40
2.5
  1
ENT
  7
MSｺﾞｼｯｸ
 72
     1
 11
995.025929747544
 21
1233.1212364824
 31
0.0
100
AcDbText
 73
     2
  0
TEXT
  5
12AAB
330
18
100
AcDbEntity
  8
0
100
AcDbText
 10
957.0496412093543
 20
1280.408881965481
 30
0.0
 40
2.0
  1
AC   SERVO  DRIVER
  7
MSｺﾞｼｯｸ
100
AcDbText
  0
TEXT
  5
12AAC
330
18
100
AcDbEntity
  8
0
100
AcDbText
 10
956.9713846372923
 20
1272.843947281488
 30
0.0
 40
6.5
  1
ACTUS POWER
 41
0.9300774284514773
  7
MSｺﾞｼｯｸ
 72
     5
 11
1000.179854815911
 21
1272.843947281488
 31
0.0
100
AcDbText
  0
LWPOLYLINE
  5
12AAD
330
18
100
AcDbEntity
  8
0
100
AcDbPolyline
 90
        8
 70
     1
 43
0.0
 10
998.525929747544
 20
1268.371211312081
 10
998.525929747544
 20
1243.371211312082
 42
-0.4142135623730951
 10
997.5259297475441
 20
1242.371211312081
 10
959.525929747544
 20
1242.371211312081
 42
-0.4142135623730951
 10
958.525929747544
 20
1243.371211312082
 10
958.525929747544
 20
1268.371211312081
 42
-0.4142135623730951
 10
959.525929747544
 20
1269.371211312082
 10
997.5259297475441
 20
1269.371211312082
 42
-0.4142135623730951
  0
HATCH
  5
12AAE
330
18
100
AcDbEntity
  8
0
100
AcDbHatch
 10
0.0
 20
0.0
 30
0.0
210
0.0
220
0.0
230
1.0
  2
SOLID
 70
     1
 71
     0
 91
        2
 92
        7
 72
     1
 73
     1
 93
        8
 10
997.9219885015099
 20
1269.2894364824
 42
0.0
 10
959.1298709935781
 20
1269.2894364824
 42
0.1885055804394898
 10
958.6121484924133
 20
1268.777417931642
 42
0.0
 10
958.6121484924133
 20
1242.965004692521
 42
0.2963712537857847
 10
959.525929747544
 20
1242.371211312081
 42
0.0
 10
997.5259297475441
 20
1242.371211312081
 42
0.4142135623730951
 10
998.525929747544
 20
1243.371211312082
 42
0.0
 10
998.525929747544
 20
1268.371211312081
 42
0.299386580726798
 97
        0
 92
       22
 72
     1
 73
     1
 93
        8
 10
996.5259297475441
 20
1268.371211312081
 42
-0.4142135623730953
 10
997.5259297475441
 20
1267.371211312082
 42
0.0
 10
997.5259297475441
 20
1244.371211312081
 42
-0.4142135623730951
 10
996.5259297475441
 20
1243.371211312082
 42
0.0
 10
960.525929747544
 20
1243.371211312082
 42
-0.4142135623730951
 10
959.525929747544
 20
1244.371211312081
 42
0.0
 10
959.525929747544
 20
1267.371211312082
 42
-0.4142135623730949
 10
960.525929747544
 20
1268.371211312081
 42
0.0
 97
        0
 75
     0
 76
     1
 47
0.1122686005965
 98
        2
 10
968.3584093541776
 20
1268.991479707745
 10
968.3584093541776
 20
1268.991479707745
  0
LWPOLYLINE
  5
12AAF
330
18
100
AcDbEntity
  8
0
100
AcDbPolyline
 90
        8
 70
     1
 43
0.0
 10
997.5259297475441
 20
1267.371211312082
 10
997.5259297475441
 20
1244.371211312081
 42
-0.4142135623730951
 10
996.5259297475441
 20
1243.371211312082
 10
960.525929747544
 20
1243.371211312082
 42
-0.4142135623730951
 10
959.525929747544
 20
1244.371211312081
 10
959.525929747544
 20
1267.371211312082
 42
-0.4142135623730949
 10
960.525929747544
 20
1268.371211312081
 10
996.5259297475441
 20
1268.371211312081
 42
-0.4142135623730953
  0
CIRCLE
  5
12AB0
330
18
100
AcDbEntity
  8
0
 48
3.0
370
    13
100
AcDbCircle
 10
912.4259297475456
 20
1236.871239894621
 30
-0.2794100433300004
 40
3.0
  0
LINE
  5
12AB1
330
18
100
AcDbEntity
  8
0
100
AcDbLine
 10
1006.025929747544
 20
1284.371211312081
 30
0.0
 11
951.0259297475441
 21
1284.371211312082
 31
0.0
  0
LINE
  5
12AB2
330
18
100
AcDbEntity
  8
0
100
AcDbLine
 10
906.4259297475491
 20
1194.871239894621
 30
0.0
 11
908.0259297475514
 21
1194.871239894621
 31
0.0
  0
LINE
  5
12AB3
330
18
100
AcDbEntity
  8
0
100
AcDbLine
 10
959.0259297475441
 20
1171.3712113122
 30
0.0
 11
959.0259297475441
 21
1179.371211312216
 31
0.0
  0
LINE
  5
12AB4
330
18
100
AcDbEntity
  8
0
100
AcDbLine
 10
968.0259297475441
 20
1171.3712113122
 30
0.0
 11
968.0259297475441
 21
1179.371211312216
 31
0.0
  0
LINE
  5
12AB5
330
18
100
AcDbEntity
  8
0
100
AcDbLine
 10
959.0259297475441
 20
1174.371211312198
 30
0.0
 11
968.0259297475441
 21
1174.371211312198
 31
0.0
  0
LINE
  5
12AB6
330
18
100
AcDbEntity
  8
0
100
AcDbLine
 10
933.5259297475513
 20
1174.871211312198
 30
0.0
 11
933.5259297475513
 21
1179.371211312216
 31
0.0
  0
LINE
  5
12AB7
330
18
100
AcDbEntity
  8
0
100
AcDbLine
 10
953.5259297475477
 20
1174.871211312198
 30
0.0
 11
953.5259297475477
 21
1179.371211312216
 31
0.0
  0
LINE
  5
12AB8
330
18
100
AcDbEntity
  8
0
100
AcDbLine
 10
935.5259297475512
 20
1174.871211312198
 30
0.0
 11
935.525929747555
 21
1179.371211312216
 31
0.0
  0
LINE
  5
12AB9
330
18
100
AcDbEntity
  8
0
100
AcDbLine
 10
951.5259297475513
 20
1174.871211312198
 30
0.0
 11
951.525929747555
 21
1179.371211312216
 31
0.0
  0
LINE
  5
12ABA
330
18
100
AcDbEntity
  8
0
100
AcDbLine
 10
991.5259297475513
 20
1174.871211312198
 30
0.0
 11
991.525929747555
 21
1179.371211312216
 31
0.0
  0
LINE
  5
12ABB
330
18
100
AcDbEntity
  8
0
100
AcDbLine
 10
975.5259297475513
 20
1174.871211312198
 30
0.0
 11
975.525929747555
 21
1179.371211312216
 31
0.0
  0
LINE
  5
12ABC
330
18
100
AcDbEntity
  8
0
100
AcDbLine
 10
993.525929747555
 20
1174.871211312198
 30
0.0
 11
993.5259297475512
 21
1179.371211312216
 31
0.0
  0
LINE
  5
12ABD
330
18
100
AcDbEntity
  8
0
100
AcDbLine
 10
973.5259297475513
 20
1174.871211312198
 30
0.0
 11
973.5259297475513
 21
1179.371211312216
 31
0.0
  0
LINE
  5
12ABE
330
18
100
AcDbEntity
  8
0
100
AcDbLine
 10
929.5259297475514
 20
1174.871211312198
 30
0.0
 11
935.5227297475593
 21
1174.871211312198
 31
0.0
  0
LINE
  5
12ABF
330
18
100
AcDbEntity
  8
0
100
AcDbLine
 10
929.5259297475476
 20
1169.871211312198
 30
0.0
 11
927.5259297475477
 21
1169.871211312198
 31
0.0
  0
LINE
  5
12AC0
330
18
100
AcDbEntity
  8
0
100
AcDbLine
 10
997.5259297475476
 20
1169.871211312198
 30
0.0
 11
999.5259297475477
 21
1169.871211312198
 31
0.0
  0
LINE
  5
12AC1
330
18
100
AcDbEntity
  8
0
100
AcDbLine
 10
909.0259297475659
 20
1179.371211312216
 30
0.0
 11
909.0259297475659
 21
1212.87121131208
 31
0.0
  0
LINE
  5
12AC2
330
18
100
AcDbEntity
  8
0
100
AcDbLine
 10
926.5259297475768
 20
1179.371211312216
 30
0.0
 11
908.0259297475659
 21
1179.371211312216
 31
0.0
  0
LINE
  5
12AC3
330
18
100
AcDbEntity
  8
0
100
AcDbLine
 10
1006.025929747544
 20
1222.371211312081
 30
0.0
 11
951.0259297475441
 21
1222.371211312082
 31
0.0
  0
LINE
  5
12AC4
330
18
100
AcDbEntity
  8
0
100
AcDbLine
 10
908.0259297475659
 20
1179.371211312216
 30
0.0
 11
908.0259297475659
 21
1213.271211312064
 31
0.0
  0
LWPOLYLINE
  5
12AC5
330
18
100
AcDbEntity
  8
0
100
AcDbPolyline
 90
        3
 70
     1
 43
0.0
 10
985.0345985648546
 20
1230.338613149284
 10
986.7666493724227
 20
1231.338613149284
 10
985.0345985648546
 20
1232.338613149284
  0
HATCH
  5
12AC6
330
18
100
AcDbEntity
  8
0
100
AcDbHatch
 10
0.0
 20
0.0
 30
0.0
210
0.0
220
0.0
230
1.0
  2
SOLID
 70
     1
 71
     0
 91
        5
 92
        7
 72
     1
 73
     1
 93
        8
 10
988.025929747544
 20
1236.1212364824
 42
0.4142135623730951
 10
987.025929747544
 20
1237.1212364824
 42
0.0
 10
981.025929747544
 20
1237.1212364824
 42
0.4142135623730951
 10
980.025929747544
 20
1236.1212364824
 42
0.0
 10
980.025929747544
 20
1230.1212364824
 42
0.4142135623730951
 10
981.025929747544
 20
1229.1212364824
 42
0.0
 10
987.025929747544
 20
1229.1212364824
 42
0.4142135623730951
 10
988.025929747544
 20
1230.1212364824
 42
0.0
 97
        0
 92
       22
 72
     1
 73
     1
 93
        8
 10
987.5259297475441
 20
1230.1212364824
 42
-0.4142135623730951
 10
987.025929747544
 20
1229.6212364824
 42
0.0
 10
981.025929747544
 20
1229.6212364824
 42
-0.4142135623730951
 10
980.5259297475441
 20
1230.1212364824
 42
0.0
 10
980.5259297475441
 20
1236.1212364824
 42
-0.4142135623730951
 10
981.025929747544
 20
1236.6212364824
 42
0.0
 10
987.025929747544
 20
1236.6212364824
 42
-0.4142135623730951
 10
987.5259297475441
 20
1236.1212364824
 42
0.0
 97
        0
 92
        6
 72
     0
 73
     1
 93
        3
 10
986.7666493724227
 20
1231.338613149284
 10
985.0345985648546
 20
1230.338613149284
 10
985.0345985648546
 20
1232.338613149284
 97
        0
 92
        6
 72
     0
 73
     1
 93
        4
 10
985.9581593835519
 20
1233.935650635111
 10
982.1584583151288
 20
1231.703807890824
 10
982.0318413664407
 20
1231.919372610353
 10
985.8315424348674
 20
1234.15121535464
 97
        0
 92
      136
 93
        4
 72
     1
 10
980.8605267667571
 20
1233.752595972826
 11
986.1417767667571
 21
1233.752595972826
 72
     1
 10
986.1417767667571
 20
1233.752595972826
 11
986.1417767667571
 21
1236.072908472826
 72
     1
 10
986.1417767667571
 20
1236.072908472826
 11
980.8605267667571
 21
1236.072908472826
 72
     1
 10
980.8605267667571
 20
1236.072908472826
 11
980.8605267667571
 21
1233.752595972826
 97
        0
 75
     0
 76
     1
 47
0.0316320572239519
 98
        4
 10
987.6670430814684
 20
1232.989174221387
 10
987.6670430814684
 20
1232.989174221387
 10
987.6670430814684
 20
1232.989174221387
 10
987.6670430814684
 20
1232.989174221387
  0
LWPOLYLINE
  5
12AC7
330
18
100
AcDbEntity
  8
0
100
AcDbPolyline
 90
        8
 70
     1
 43
0.0
 10
988.025929747544
 20
1236.1212364824
 10
988.025929747544
 20
1230.1212364824
 42
-0.4142135623730951
 10
987.025929747544
 20
1229.1212364824
 10
981.025929747544
 20
1229.1212364824
 42
-0.4142135623730951
 10
980.025929747544
 20
1230.1212364824
 10
980.025929747544
 20
1236.1212364824
 42
-0.4142135623730951
 10
981.025929747544
 20
1237.1212364824
 10
987.025929747544
 20
1237.1212364824
 42
-0.4142135623730951
  0
LWPOLYLINE
  5
12AC8
330
18
100
AcDbEntity
  8
0
100
AcDbPolyline
 90
        8
 70
     1
 43
0.0
 10
987.5259297475441
 20
1236.1212364824
 10
987.5259297475441
 20
1230.1212364824
 42
-0.4142135623730951
 10
987.025929747544
 20
1229.6212364824
 10
981.025929747544
 20
1229.6212364824
 42
-0.4142135623730951
 10
980.5259297475441
 20
1230.1212364824
 10
980.5259297475441
 20
1236.1212364824
 42
-0.4142135623730951
 10
981.025929747544
 20
1236.6212364824
 10
987.025929747544
 20
1236.6212364824
 42
-0.4142135623730951
  0
LWPOLYLINE
  5
12AC9
330
18
100
AcDbEntity
  8
0
100
AcDbPolyline
 90
        4
 70
     1
 43
0.0
 10
985.9581593835519
 20
1233.935650635111
 10
982.1584583151288
 20
1231.703807890824
 10
982.0318413664407
 20
1231.919372610353
 10
985.8315424348674
 20
1234.15121535464
  0
HATCH
  5
12ACA
330
18
100
AcDbEntity
  8
0
100
AcDbHatch
 10
0.0
 20
0.0
 30
0.0
210
0.0
220
0.0
230
1.0
  2
SOLID
 70
     1
 71
     0
 91
        2
 92
        7
 72
     1
 73
     1
 93
        8
 10
992.0259297475441
 20
1237.1212364824
 42
0.4142135623730951
 10
991.0259297475441
 20
1236.1212364824
 42
0.0
 10
991.0259297475441
 20
1230.1212364824
 42
0.4142135623730951
 10
992.0259297475441
 20
1229.1212364824
 42
0.0
 10
998.025929747544
 20
1229.1212364824
 42
0.4142135623730951
 10
999.0259297475441
 20
1230.1212364824
 42
0.0
 10
999.0259297475441
 20
1236.1212364824
 42
0.4142135623730951
 10
998.025929747544
 20
1237.1212364824
 42
0.0
 97
        0
 92
       22
 72
     1
 73
     1
 93
        8
 10
998.025929747544
 20
1236.6212364824
 42
-0.4142135623730951
 10
998.525929747544
 20
1236.1212364824
 42
0.0
 10
998.525929747544
 20
1230.1212364824
 42
-0.4142135623730951
 10
998.025929747544
 20
1229.6212364824
 42
0.0
 10
992.0259297475441
 20
1229.6212364824
 42
-0.4142135623730951
 10
991.525929747544
 20
1230.1212364824
 42
0.0
 10
991.525929747544
 20
1236.1212364824
 42
-0.4142135623730951
 10
992.0259297475441
 20
1236.6212364824
 42
0.0
 97
        0
 75
     0
 76
     1
 47
0.0112091961687951
 98
        2
 10
996.3583532901811
 20
1236.852227352335
 10
996.3583532901811
 20
1236.852227352335
  0
LWPOLYLINE
  5
12ACB
330
18
100
AcDbEntity
  8
0
100
AcDbPolyline
 90
        8
 70
     1
 43
0.0
 10
999.0259297475441
 20
1236.1212364824
 10
999.0259297475441
 20
1230.1212364824
 42
-0.4142135623730951
 10
998.025929747544
 20
1229.1212364824
 10
992.0259297475441
 20
1229.1212364824
 42
-0.4142135623730951
 10
991.0259297475441
 20
1230.1212364824
 10
991.0259297475441
 20
1236.1212364824
 42
-0.4142135623730951
 10
992.0259297475441
 20
1237.1212364824
 10
998.025929747544
 20
1237.1212364824
 42
-0.4142135623730951
  0
LWPOLYLINE
  5
12ACC
330
18
100
AcDbEntity
  8
0
100
AcDbPolyline
 90
        8
 70
     1
 43
0.0
 10
998.525929747544
 20
1236.1212364824
 10
998.525929747544
 20
1230.1212364824
 42
-0.4142135623730951
 10
998.025929747544
 20
1229.6212364824
 10
992.0259297475441
 20
1229.6212364824
 42
-0.4142135623730951
 10
991.525929747544
 20
1230.1212364824
 10
991.525929747544
 20
1236.1212364824
 42
-0.4142135623730951
 10
992.0259297475441
 20
1236.6212364824
 10
998.025929747544
 20
1236.6212364824
 42
-0.4142135623730951
  0
LWPOLYLINE
  5
12ACD
330
18
100
AcDbEntity
  8
0
100
AcDbPolyline
 90
        3
 70
     1
 43
0.0
 10
973.025929747544
 20
1231.389187559159
 10
971.0259306800454
 20
1234.853287559159
 10
975.0259288150465
 20
1234.853287559159
  0
LWPOLYLINE
  5
12ACE
330
18
100
AcDbEntity
  8
0
100
AcDbPolyline
 90
        8
 70
     1
 43
0.0
 10
965.525929747544
 20
1236.1212364824
 10
965.525929747544
 20
1230.1212364824
 42
-0.4142135623730951
 10
965.0259297475441
 20
1229.6212364824
 10
959.0259297475441
 20
1229.6212364824
 42
-0.4142135623730951
 10
958.525929747544
 20
1230.1212364824
 10
958.525929747544
 20
1236.1212364824
 42
-0.4142135623730951
 10
959.0259297475441
 20
1236.6212364824
 10
965.0259297475441
 20
1236.6212364824
 42
-0.4142135623730951
  0
LWPOLYLINE
  5
12ACF
330
18
100
AcDbEntity
  8
0
100
AcDbPolyline
 90
        8
 70
     1
 43
0.0
 10
966.0259297475441
 20
1236.1212364824
 10
966.0259297475441
 20
1230.1212364824
 42
-0.4142135623730951
 10
965.0259297475441
 20
1229.1212364824
 10
959.0259297475441
 20
1229.1212364824
 42
-0.4142135623730951
 10
958.0259297475441
 20
1230.1212364824
 10
958.0259297475441
 20
1236.1212364824
 42
-0.4142135623730951
 10
959.0259297475441
 20
1237.1212364824
 10
965.0259297475441
 20
1237.1212364824
 42
-0.4142135623730951
  0
LWPOLYLINE
  5
12AD0
330
18
100
AcDbEntity
  8
0
100
AcDbPolyline
 90
        3
 70
     1
 43
0.0
 10
962.025929747544
 20
1234.853286482401
 10
960.0259306800452
 20
1231.389186482401
 10
964.0259288150463
 20
1231.389186482401
  0
HATCH
  5
12AD1
330
18
100
AcDbEntity
  8
0
100
AcDbHatch
 10
0.0
 20
0.0
 30
0.0
210
0.0
220
0.0
230
1.0
  2
SOLID
 70
     1
 71
     0
 91
        6
 92
        7
 72
     1
 73
     1
 93
        8
 10
976.0259297475441
 20
1237.1212364824
 42
0.0
 10
970.025929747544
 20
1237.1212364824
 42
0.4142135623730951
 10
969.025929747544
 20
1236.1212364824
 42
0.0
 10
969.025929747544
 20
1230.1212364824
 42
0.4142135623730951
 10
970.025929747544
 20
1229.1212364824
 42
0.0
 10
976.0259297475441
 20
1229.1212364824
 42
0.4142135623730951
 10
977.025929747544
 20
1230.1212364824
 42
0.0
 10
977.025929747544
 20
1236.1212364824
 42
0.4142135623730951
 97
        0
 92
       22
 72
     1
 73
     1
 93
        8
 10
976.0259297475441
 20
1236.6212364824
 42
-0.4142135623730951
 10
976.525929747544
 20
1236.1212364824
 42
0.0
 10
976.525929747544
 20
1230.1212364824
 42
-0.4142135623730951
 10
976.0259297475441
 20
1229.6212364824
 42
0.0
 10
970.025929747544
 20
1229.6212364824
 42
-0.4142135623730951
 10
969.5259297475441
 20
1230.1212364824
 42
0.0
 10
969.5259297475441
 20
1236.1212364824
 42
-0.4142135623730951
 10
970.025929747544
 20
1236.6212364824
 42
0.0
 97
        0
 92
        6
 72
     0
 73
     1
 93
        3
 10
971.0259306800454
 20
1234.853287559159
 10
975.0259288150465
 20
1234.853287559159
 10
973.025929747544
 20
1231.389187559159
 97
        0
 92
        7
 72
     1
 73
     1
 93
        8
 10
965.0259297475441
 20
1237.1212364824
 42
0.0
 10
959.0259297475441
 20
1237.1212364824
 42
0.4142135623730951
 10
958.0259297475441
 20
1236.1212364824
 42
0.0
 10
958.0259297475441
 20
1230.1212364824
 42
0.4142135623730951
 10
959.0259297475441
 20
1229.1212364824
 42
0.0
 10
965.0259297475441
 20
1229.1212364824
 42
0.4142135623730951
 10
966.0259297475441
 20
1230.1212364824
 42
0.0
 10
966.0259297475441
 20
1236.1212364824
 42
0.4142135623730951
 97
        0
 92
       22
 72
     1
 73
     1
 93
        8
 10
965.0259297475441
 20
1236.6212364824
 42
-0.4142135623730951
 10
965.525929747544
 20
1236.1212364824
 42
0.0
 10
965.525929747544
 20
1230.1212364824
 42
-0.4142135623730951
 10
965.0259297475441
 20
1229.6212364824
 42
0.0
 10
959.0259297475441
 20
1229.6212364824
 42
-0.4142135623730951
 10
958.525929747544
 20
1230.1212364824
 42
0.0
 10
958.525929747544
 20
1236.1212364824
 42
-0.4142135623730951
 10
959.0259297475441
 20
1236.6212364824
 42
0.0
 97
        0
 92
        6
 72
     0
 73
     1
 93
        3
 10
962.025929747544
 20
1234.8532864824
 10
964.0259288150463
 20
1231.3891864824
 10
960.0259306800452
 20
1231.389186482401
 97
        0
 75
     0
 76
     1
 47
0.0188367729183999
 98
        6
 10
970.6973568415142
 20
1236.835706252676
 10
970.6973568415142
 20
1236.835706252676
 10
970.6973568415142
 20
1236.835706252676
 10
963.2730484698168
 20
1236.835706252676
 10
963.2730484698168
 20
1236.835706252676
 10
963.2730484698168
 20
1236.835706252676
  0
LWPOLYLINE
  5
12AD2
330
18
100
AcDbEntity
  8
0
100
AcDbPolyline
 90
        8
 70
     1
 43
0.0
 10
976.525929747544
 20
1236.1212364824
 10
976.525929747544
 20
1230.1212364824
 42
-0.4142135623730951
 10
976.0259297475441
 20
1229.6212364824
 10
970.025929747544
 20
1229.6212364824
 42
-0.4142135623730951
 10
969.5259297475441
 20
1230.1212364824
 10
969.5259297475441
 20
1236.1212364824
 42
-0.4142135623730951
 10
970.025929747544
 20
1236.6212364824
 10
976.0259297475441
 20
1236.6212364824
 42
-0.4142135623730951
  0
LWPOLYLINE
  5
12AD3
330
18
100
AcDbEntity
  8
0
100
AcDbPolyline
 90
        8
 70
     1
 43
0.0
 10
977.025929747544
 20
1236.1212364824
 10
977.025929747544
 20
1230.1212364824
 42
-0.4142135623730951
 10
976.0259297475441
 20
1229.1212364824
 10
970.025929747544
 20
1229.1212364824
 42
-0.4142135623730951
 10
969.025929747544
 20
1230.1212364824
 10
969.025929747544
 20
1236.1212364824
 42
-0.4142135623730951
 10
970.025929747544
 20
1237.1212364824
 10
976.0259297475441
 20
1237.1212364824
 42
-0.4142135623730951
  0
HATCH
  5
12AD4
330
18
100
AcDbEntity
  8
0
100
AcDbHatch
 10
0.0
 20
0.0
 30
0.0
210
0.0
220
0.0
230
1.0
  2
SOLID
 70
     1
 71
     0
 91
        2
 92
        7
 72
     0
 73
     1
 93
        3
 10
962.025929747544
 20
1234.853286482401
 10
960.0259306800452
 20
1231.389186482401
 10
964.0259288150463
 20
1231.389186482401
 97
        0
 92
        7
 72
     0
 73
     1
 93
        3
 10
973.025929747544
 20
1231.389187559159
 10
975.0259288150465
 20
1234.853287559159
 10
971.0259306800454
 20
1234.853287559159
 97
        0
 75
     0
 76
     1
 47
0.0188367729183999
 98
        2
 10
962.3874070843976
 20
1232.955326758971
 10
972.7136033471051
 20
1233.33206213785
  0
LINE
  5
12AD5
330
18
100
AcDbEntity
  8
0
100
AcDbLine
 10
1006.025929747544
 20
1284.371211312081
 30
0.0
 11
1006.025929747544
 21
1222.371211312081
 31
0.0
  0
LINE
  5
12AD6
330
18
100
AcDbEntity
  8
0
100
AcDbLine
 10
951.0259297475441
 20
1284.371211312082
 30
0.0
 11
951.0259297475441
 21
1222.371211312082
 31
0.0
  0
LINE
  5
12AD7
330
18
100
AcDbEntity
  8
0
 48
3.0
370
    13
100
AcDbLine
 10
910.4887807269133
 20
1237.371239894621
 30
6.164215964314323
 11
911.9252724000162
 21
1237.371239894621
 31
6.164215964314323
  0
CIRCLE
  5
12AD8
330
18
100
AcDbEntity
  8
0
 48
3.0
370
    13
100
AcDbCircle
 10
912.4252724000125
 20
1236.871239894621
 30
6.164215964314323
 40
2.5
  0
CIRCLE
  5
12AD9
330
18
100
AcDbEntity
  8
0
 48
3.0
370
    13
100
AcDbCircle
 10
912.4252724000125
 20
1236.871239894621
 30
6.164215964314323
 40
3.0
  0
LINE
  5
12ADA
330
18
100
AcDbEntity
  8
0
 48
3.0
370
    13
100
AcDbLine
 10
910.4887807269133
 20
1236.371239894621
 30
6.164215964314323
 11
911.9252724000162
 21
1236.371239894621
 31
6.164215964314323
  0
ARC
  5
12ADB
330
18
100
AcDbEntity
  8
0
 48
3.0
370
    13
100
AcDbCircle
 10
912.4252724000125
 20
1236.871239894621
 30
6.164215964314323
 40
2.0
100
AcDbArc
 50
165.5224878141036
 51
194.4775121858963
  0
ARC
  5
12ADC
330
18
100
AcDbEntity
  8
0
 48
3.0
370
    13
100
AcDbCircle
 10
912.4252724000125
 20
1236.871239894621
 30
6.164215964314323
 40
2.0
100
AcDbArc
 50
75.52248781407055
 51
104.4775121859294
  0
ARC
  5
12ADD
330
18
100
AcDbEntity
  8
0
 48
3.0
370
    13
100
AcDbCircle
 10
912.4252724000125
 20
1236.871239894621
 30
6.164215964314323
 40
2.0
100
AcDbArc
 50
345.5224878141037
 51
14.47751218589629
  0
LINE
  5
12ADE
330
18
100
AcDbEntity
  8
0
 48
3.0
370
    13
100
AcDbLine
 10
911.9252724000162
 20
1234.934748221518
 30
6.164215964314323
 11
911.9252724000162
 21
1236.371239894621
 31
6.164215964314323
  0
LINE
  5
12ADF
330
18
100
AcDbEntity
  8
0
 48
3.0
370
    13
100
AcDbLine
 10
912.9252724000162
 20
1234.934748221518
 30
6.164215964314323
 11
912.9252724000162
 21
1236.371239894621
 31
6.164215964314323
  0
ARC
  5
12AE0
330
18
100
AcDbEntity
  8
0
 48
3.0
370
    13
100
AcDbCircle
 10
912.4252724000125
 20
1236.871239894621
 30
6.164215964314323
 40
2.0
100
AcDbArc
 50
255.5224878140705
 51
284.4775121859294
  0
LINE
  5
12AE1
330
18
100
AcDbEntity
  8
0
 48
3.0
370
    13
100
AcDbLine
 10
912.9252724000162
 20
1236.371239894621
 30
6.164215964314323
 11
914.3617640731191
 21
1236.371239894621
 31
6.164215964314323
  0
LINE
  5
12AE2
330
18
100
AcDbEntity
  8
0
 48
3.0
370
    13
100
AcDbLine
 10
912.9252724000162
 20
1237.371239894621
 30
6.164215964314323
 11
914.3617640731191
 21
1237.371239894621
 31
6.164215964314323
  0
LINE
  5
12AE3
330
18
100
AcDbEntity
  8
0
 48
3.0
370
    13
100
AcDbLine
 10
911.9252724000162
 20
1237.371239894621
 30
6.164215964314323
 11
911.9252724000162
 21
1238.807731567725
 31
6.164215964314323
  0
LINE
  5
12AE4
330
18
100
AcDbEntity
  8
0
 48
3.0
370
    13
100
AcDbLine
 10
912.9252724000162
 20
1237.371239894621
 30
6.164215964314323
 11
912.9252724000162
 21
1238.807731567725
 31
6.164215964314323
  0
LINE
  5
12AE5
330
18
100
AcDbEntity
  8
0
 48
3.0
370
    13
100
AcDbLine
 10
945.6244073832003
 20
886.6180335736798
 30
10.7393766794072
 11
948.0185601717039
 21
886.6180335736798
 31
10.7393766794072
  0
LINE
  5
12AE6
330
18
100
AcDbEntity
  8
0
 48
3.0
370
    13
100
AcDbLine
 10
941.5635879280253
 20
886.6180335736798
 30
10.7393766794072
 11
943.957740716536
 21
886.6180335736798
 31
10.7393766794072
  0
LINE
  5
12AE7
330
18
100
AcDbEntity
  8
0
 48
3.0
370
    13
100
AcDbLine
 10
943.957740716536
 20
886.5513669070095
 30
10.7393766794072
 11
943.957740716536
 21
886.6180335736798
 31
10.7393766794072
  0
LINE
  5
12AE8
330
18
100
AcDbEntity
  8
0
 48
3.0
370
    13
100
AcDbLine
 10
945.6244073832003
 20
886.5513669070095
 30
10.7393766794072
 11
945.6244073832003
 21
886.6180335736798
 31
10.7393766794072
  0
LINE
  5
12AE9
330
18
100
AcDbEntity
  8
0
 48
3.0
370
    13
100
AcDbLine
 10
945.6244073832003
 20
888.284700240346
 30
10.7393766794072
 11
948.0185601717039
 21
888.284700240346
 31
10.7393766794072
  0
LINE
  5
12AEA
330
18
100
AcDbEntity
  8
0
 48
3.0
370
    13
100
AcDbLine
 10
943.957740716536
 20
888.284700240346
 30
10.7393766794072
 11
943.957740716536
 21
890.6788530288514
 31
10.7393766794072
  0
LINE
  5
12AEB
330
18
100
AcDbEntity
  8
0
 48
3.0
370
    13
100
AcDbLine
 10
945.6244073832003
 20
888.284700240346
 30
10.7393766794072
 11
945.6244073832003
 21
890.6788530288514
 31
10.7393766794072
  0
ARC
  5
12AEC
330
18
100
AcDbEntity
  8
0
 48
3.0
370
    13
100
AcDbCircle
 10
944.7910740498645
 20
887.451366907012
 30
10.7393766794072
 40
3.333333333333333
100
AcDbArc
 50
75.52248781407055
 51
104.4775121859294
  0
LINE
  5
12AED
330
18
100
AcDbEntity
  8
0
 48
3.0
370
    13
100
AcDbLine
 10
941.5635879280253
 20
888.284700240346
 30
10.7393766794072
 11
943.957740716536
 21
888.284700240346
 31
10.7393766794072
  0
ARC
  5
12AEE
330
18
100
AcDbEntity
  8
0
 48
3.0
370
    13
100
AcDbCircle
 10
944.7910740498645
 20
887.451366907012
 30
10.7393766794072
 40
4.166666666666666
100
AcDbArc
 50
347.5257982894479
 51
192.474201710552
  0
ARC
  5
12AEF
330
18
100
AcDbEntity
  8
0
 48
3.0
370
    13
100
AcDbCircle
 10
944.7910740498645
 20
887.451366907012
 30
10.7393766794072
 40
3.333333333333333
100
AcDbArc
 50
165.5224878141036
 51
194.4775121858963
  0
ARC
  5
12AF0
330
18
100
AcDbEntity
  8
0
 48
3.0
370
    13
100
AcDbCircle
 10
944.7910740498645
 20
887.451366907012
 30
10.7393766794072
 40
3.333333333333333
100
AcDbArc
 50
345.5224878141037
 51
14.47751218589629
  0
LINE
  5
12AF1
330
18
100
AcDbEntity
  8
0
 48
3.0
370
    13
100
AcDbLine
 10
985.6244073832003
 20
886.6180335736798
 30
10.7393766794072
 11
988.0185601717039
 21
886.6180335736798
 31
10.7393766794072
  0
LINE
  5
12AF2
330
18
100
AcDbEntity
  8
0
 48
3.0
370
    13
100
AcDbLine
 10
981.5635879280252
 20
886.6180335736798
 30
10.7393766794072
 11
983.9577407165361
 21
886.6180335736798
 31
10.7393766794072
  0
LINE
  5
12AF3
330
18
100
AcDbEntity
  8
0
 48
3.0
370
    13
100
AcDbLine
 10
983.9577407165361
 20
886.5513669070095
 30
10.7393766794072
 11
983.9577407165361
 21
886.6180335736798
 31
10.7393766794072
  0
LINE
  5
12AF4
330
18
100
AcDbEntity
  8
0
 48
3.0
370
    13
100
AcDbLine
 10
985.6244073832003
 20
886.5513669070095
 30
10.7393766794072
 11
985.6244073832003
 21
886.6180335736798
 31
10.7393766794072
  0
LINE
  5
12AF5
330
18
100
AcDbEntity
  8
0
 48
3.0
370
    13
100
AcDbLine
 10
985.6244073832003
 20
888.284700240346
 30
10.7393766794072
 11
988.0185601717039
 21
888.284700240346
 31
10.7393766794072
  0
LINE
  5
12AF6
330
18
100
AcDbEntity
  8
0
 48
3.0
370
    13
100
AcDbLine
 10
983.9577407165361
 20
888.284700240346
 30
10.7393766794072
 11
983.9577407165361
 21
890.6788530288514
 31
10.7393766794072
  0
LINE
  5
12AF7
330
18
100
AcDbEntity
  8
0
 48
3.0
370
    13
100
AcDbLine
 10
985.6244073832003
 20
888.284700240346
 30
10.7393766794072
 11
985.6244073832003
 21
890.6788530288514
 31
10.7393766794072
  0
ARC
  5
12AF8
330
18
100
AcDbEntity
  8
0
 48
3.0
370
    13
100
AcDbCircle
 10
984.7910740498646
 20
887.451366907012
 30
10.7393766794072
 40
3.333333333333333
100
AcDbArc
 50
75.52248781407055
 51
104.4775121859294
  0
LINE
  5
12AF9
330
18
100
AcDbEntity
  8
0
 48
3.0
370
    13
100
AcDbLine
 10
981.5635879280252
 20
888.284700240346
 30
10.7393766794072
 11
983.9577407165361
 21
888.284700240346
 31
10.7393766794072
  0
ARC
  5
12AFA
330
18
100
AcDbEntity
  8
0
 48
3.0
370
    13
100
AcDbCircle
 10
984.7910740498646
 20
887.451366907012
 30
10.7393766794072
 40
4.166666666666666
100
AcDbArc
 50
347.5257982894479
 51
192.474201710552
  0
ARC
  5
12AFB
330
18
100
AcDbEntity
  8
0
 48
3.0
370
    13
100
AcDbCircle
 10
984.7910740498646
 20
887.451366907012
 30
10.7393766794072
 40
3.333333333333333
100
AcDbArc
 50
165.5224878141036
 51
194.4775121858963
  0
ARC
  5
12AFC
330
18
100
AcDbEntity
  8
0
 48
3.0
370
    13
100
AcDbCircle
 10
984.7910740498646
 20
887.451366907012
 30
10.7393766794072
 40
3.333333333333333
100
AcDbArc
 50
345.5224878141037
 51
14.47751218589629
  0
LINE
  5
12B00
330
18
100
AcDbEntity
  8
0
100
AcDbLine
 10
910.3259297475469
 20
1604.871239894587
 30
0.0
 11
910.3259297475469
 21
1622.871239894587
 31
0.0
  0
LINE
  5
12B01
330
18
100
AcDbEntity
  8
0
100
AcDbLine
 10
906.4259297475491
 20
1602.871239894618
 30
-0.2794100433300004
 11
908.4259297475492
 21
1604.871239894618
 31
-0.2794100433300004
  0
LINE
  5
12B02
330
18
100
AcDbEntity
  8
0
100
AcDbLine
 10
910.3259297475469
 20
1604.871239894587
 30
0.0
 11
967.0259297475476
 21
1604.871239894587
 31
0.0
  0
LINE
  5
12B03
330
18
100
AcDbEntity
  8
0
100
AcDbLine
 10
906.4259297475491
 20
1604.87123989462
 30
0.0
 11
908.0259297475514
 21
1604.87123989462
 31
0.0
  0
LINE
  5
12B04
330
18
100
AcDbEntity
  8
0
 48
4.0
100
AcDbLine
 10
970.5259297475476
 20
1610.933417721078
 30
0.0
 11
970.5259297475476
 21
1613.871239894588
 31
0.0
  0
LINE
  5
12B05
330
18
100
AcDbEntity
  8
0
 48
4.0
100
AcDbLine
 10
977.5259297475477
 20
1610.933417721078
 30
0.0
 11
977.5259297475477
 21
1613.871239894588
 31
0.0
  0
ARC
  5
12B06
330
18
100
AcDbEntity
  8
0
 48
4.0
100
AcDbCircle
 10
974.0259297475477
 20
1604.871239894587
 30
0.0
 40
7.0
100
AcDbArc
 50
120.0000000000005
 51
180.0
  0
ARC
  5
12B07
330
18
100
AcDbEntity
  8
0
 48
4.0
100
AcDbCircle
 10
974.0259297475477
 20
1604.871239894587
 30
0.0
 40
7.0
100
AcDbArc
 50
0.0
 51
59.99999999999946
  0
ARC
  5
12B08
330
18
100
AcDbEntity
  8
0
 48
4.0
100
AcDbCircle
 10
974.0259297475477
 20
1613.871239894587
 30
0.0
 40
3.5
100
AcDbArc
 50
0.0
 51
180.0
  0
ARC
  5
12B09
330
18
100
AcDbEntity
  8
0
 48
3.0
370
    13
100
AcDbCircle
 10
912.4259297475456
 20
1556.87123989462
 30
0.0
 40
2.0
100
AcDbArc
 50
75.52248781407055
 51
104.4775121859294
  0
LINE
  5
12B0A
330
18
100
AcDbEntity
  8
0
 48
3.0
370
    13
100
AcDbLine
 10
910.4894380744463
 20
1557.371239894621
 30
0.0
 11
911.9259297475492
 21
1557.371239894621
 31
0.0
  0
ARC
  5
12B0B
330
18
100
AcDbEntity
  8
0
 48
3.0
370
    13
100
AcDbCircle
 10
912.4259297475456
 20
1556.87123989462
 30
0.0
 40
2.0
100
AcDbArc
 50
165.5224878141036
 51
194.4775121858963
  0
ARC
  5
12B0C
330
18
100
AcDbEntity
  8
0
 48
3.0
370
    13
100
AcDbCircle
 10
912.4259297475456
 20
1556.87123989462
 30
0.0
 40
2.0
100
AcDbArc
 50
345.5224878141037
 51
14.47751218589629
  0
CIRCLE
  5
12B0D
330
18
100
AcDbEntity
  8
0
 48
3.0
370
    13
100
AcDbCircle
 10
912.4259297475456
 20
1556.87123989462
 30
0.0
 40
2.5
  0
LINE
  5
12B0E
330
18
100
AcDbEntity
  8
0
 48
3.0
370
    13
100
AcDbLine
 10
911.9259297475492
 20
1554.934748221517
 30
0.0
 11
911.9259297475492
 21
1556.371239894621
 31
0.0
  0
LINE
  5
12B0F
330
18
100
AcDbEntity
  8
0
 48
3.0
370
    13
100
AcDbLine
 10
912.9259297475492
 20
1554.934748221517
 30
0.0
 11
912.9259297475492
 21
1556.371239894621
 31
0.0
  0
CIRCLE
  5
12B10
330
18
100
AcDbEntity
  8
0
 48
3.0
370
    13
100
AcDbCircle
 10
912.4259297475456
 20
1556.87123989462
 30
0.0
 40
3.0
  0
ARC
  5
12B11
330
18
100
AcDbEntity
  8
0
 48
3.0
370
    13
100
AcDbCircle
 10
912.4259297475456
 20
1556.87123989462
 30
0.0
 40
2.0
100
AcDbArc
 50
255.5224878140705
 51
284.4775121859294
  0
LINE
  5
12B12
330
18
100
AcDbEntity
  8
0
 48
3.0
370
    13
100
AcDbLine
 10
912.9259297475492
 20
1556.371239894621
 30
0.0
 11
914.362421420652
 21
1556.371239894621
 31
0.0
  0
LINE
  5
12B13
330
18
100
AcDbEntity
  8
0
 48
3.0
370
    13
100
AcDbLine
 10
910.4894380744463
 20
1556.371239894621
 30
0.0
 11
911.9259297475492
 21
1556.371239894621
 31
0.0
  0
LINE
  5
12B14
330
18
100
AcDbEntity
  8
0
 48
3.0
370
    13
100
AcDbLine
 10
912.9259297475492
 20
1557.371239894621
 30
0.0
 11
914.362421420652
 21
1557.371239894621
 31
0.0
  0
LINE
  5
12B15
330
18
100
AcDbEntity
  8
0
 48
3.0
370
    13
100
AcDbLine
 10
911.9259297475492
 20
1557.371239894621
 30
0.0
 11
911.9259297475492
 21
1558.807731567724
 31
0.0
  0
LINE
  5
12B16
330
18
100
AcDbEntity
  8
0
 48
3.0
370
    13
100
AcDbLine
 10
912.9259297475492
 20
1557.371239894621
 30
0.0
 11
912.9259297475492
 21
1558.807731567724
 31
0.0
  0
LINE
  5
12B17
330
18
100
AcDbEntity
  8
0
100
AcDbLine
 10
910.3259297475469
 20
1622.871239894587
 30
0.0
 11
912.3259297475433
 21
1624.871239894587
 31
0.0
  0
CIRCLE
  5
12B18
330
18
100
AcDbEntity
  8
0
 48
3.0
370
    13
100
AcDbCircle
 10
1059.027243241651
 20
1131.871211312196
 30
-12.88725201528865
 40
6.0
  0
CIRCLE
  5
12B19
330
18
100
AcDbEntity
  8
0
 48
3.0
370
    13
100
AcDbCircle
 10
1032.027243241651
 20
1131.871211312196
 30
-12.88725201528865
 40
6.0
  0
CIRCLE
  5
12B1A
330
18
100
AcDbEntity
  8
0
 48
3.0
370
    13
100
AcDbCircle
 10
1185.993046092464
 20
754.9513669070101
 30
-8.591501343525765
 40
4.0
  0
CIRCLE
  5
12B1B
330
18
100
AcDbEntity
  8
0
 48
3.0
370
    13
100
AcDbCircle
 10
1185.993046092464
 20
879.4513669070102
 30
-8.591501343525765
 40
4.0
  0
CIRCLE
  5
12B1C
330
18
100
AcDbEntity
  8
0
 48
3.0
370
    13
100
AcDbCircle
 10
1061.493046092464
 20
879.4513669070102
 30
-8.591501343525765
 40
4.0
  0
CIRCLE
  5
12B1D
330
18
100
AcDbEntity
  8
0
 48
3.0
370
    13
100
AcDbCircle
 10
1183.777025326768
 20
1148.871211312194
 30
-10.7393766794072
 40
5.0
  0
MTEXT
  5
12B1E
330
18
100
AcDbEntity
  8
0
100
AcDbMText
 10
1041.184433124066
 20
1192.315523294012
 30
-10.9679766794072
 40
5.0
 41
0.0
 71
     1
 72
     5
  1
{\fＭＳ ゴシック|b0|i0|c128|p49;t}
  7
MSｺﾞｼｯｸ
 73
     1
 44
1.0
  0
MTEXT
  5
12B1F
330
18
100
AcDbEntity
  8
0
100
AcDbMText
 10
1034.129237270297
 20
1193.224348715594
 30
-10.9679766794072
 40
5.0
 41
0.0
 71
     1
 72
     5
  1
{\fＭＳ ゴシック|b0|i0|c128|p49;s}
  7
MSｺﾞｼｯｸ
 73
     1
 44
1.0
  0
MTEXT
  5
12B20
330
18
100
AcDbEntity
  8
0
100
AcDbMText
 10
1027.521727207551
 20
1193.224348715598
 30
-10.9679766794072
 40
5.0
 41
0.0
 71
     1
 72
     5
  1
{\fＭＳ ゴシック|b0|i0|c128|p49;r}
  7
MSｺﾞｼｯｸ
 73
     1
 44
1.0
  0
CIRCLE
  5
12B21
330
18
100
AcDbEntity
  8
0
 48
3.0
370
    13
100
AcDbCircle
 10
1505.334098005774
 20
1096.871239894587
 30
-8.591501343525765
 40
4.0
  0
CIRCLE
  5
12B22
330
18
100
AcDbEntity
  8
0
 48
3.0
370
    13
100
AcDbCircle
 10
1505.334098005774
 20
1146.871211312164
 30
-8.591501343525765
 40
4.0
  0
CIRCLE
  5
12B23
330
18
100
AcDbEntity
  8
0
 48
3.0
370
    13
100
AcDbCircle
 10
1690.034098005771
 20
1106.871239894587
 30
-8.591501343525765
 40
4.0
  0
CIRCLE
  5
12B24
330
18
100
AcDbEntity
  8
0
 48
3.0
370
    13
100
AcDbCircle
 10
1545.334098005774
 20
1190.871239894587
 30
-8.591501343525765
 40
4.0
  0
CIRCLE
  5
12B25
330
18
100
AcDbEntity
  8
0
 48
3.0
370
    13
100
AcDbCircle
 10
1690.034098005771
 20
1216.871239894587
 30
-8.591501343525765
 40
4.0
  0
CIRCLE
  5
12B26
330
18
100
AcDbEntity
  8
0
 48
3.0
370
    13
100
AcDbCircle
 10
1039.292826976618
 20
915.5513669070089
 30
-6.443626007644324
 40
3.0
  0
CIRCLE
  5
12B27
330
18
100
AcDbEntity
  8
0
 48
3.0
370
    13
100
AcDbCircle
 10
1690.034098005775
 20
1326.871239894587
 30
-8.591501343525765
 40
4.0
  0
CIRCLE
  5
12B28
330
18
100
AcDbEntity
  8
0
 48
3.0
370
    13
100
AcDbCircle
 10
1690.034098005771
 20
1436.871239894587
 30
-8.591501343525765
 40
4.0
  0
CIRCLE
  5
12B29
330
18
100
AcDbEntity
  8
0
 48
3.0
370
    13
100
AcDbCircle
 10
1430.034098005775
 20
1596.871239894587
 30
-8.591501343525765
 40
4.0
  0
CIRCLE
  5
12B2A
330
18
100
AcDbEntity
  8
0
 48
3.0
370
    13
100
AcDbCircle
 10
1495.034098005771
 20
1596.871239894587
 30
-8.591501343525765
 40
4.0
  0
CIRCLE
  5
12B2B
330
18
100
AcDbEntity
  8
0
 48
3.0
370
    13
100
AcDbCircle
 10
1545.334098005774
 20
1540.871239894587
 30
-8.591501343525765
 40
4.0
  0
CIRCLE
  5
12B2C
330
18
100
AcDbEntity
  8
0
 48
3.0
370
    13
100
AcDbCircle
 10
1690.034098005771
 20
1546.871239894587
 30
-8.591501343525765
 40
4.0
  0
LINE
  5
12B30
330
18
100
AcDbEntity
  8
0
 48
0.4
100
AcDbLine
 10
1206.625929747553
 20
1602.871239894619
 30
-0.2794100433300004
 11
1206.625929747553
 21
1214.87121131208
 31
-0.2794100433300004
  0
LINE
  5
12B31
330
18
100
AcDbEntity
  8
0
100
AcDbLine
 10
1206.625929747549
 20
1604.87123989462
 30
0.0
 11
1206.625929747549
 21
1066.87123989462
 31
0.0
  0
LINE
  5
12B32
330
18
100
AcDbEntity
  8
0
100
AcDbLine
 10
1700.033221542393
 20
1602.571239894588
 30
0.0
 11
1700.033221542397
 21
1059.171239894588
 31
0.0
  0
LINE
  5
12B33
330
18
100
AcDbEntity
  8
0
100
AcDbLine
 10
1401.0332215424
 20
1602.871239894587
 30
0.0
 11
1401.033221542396
 21
1194.87123989456
 31
0.0
  0
LINE
  5
12B34
330
18
100
AcDbEntity
  8
0
100
AcDbLine
 10
1700.0332215424
 20
1602.871239894587
 30
0.0
 11
1700.033221542397
 21
1068.871239894586
 31
0.0
  0
LINE
  5
12B35
330
18
100
AcDbEntity
  8
0
100
AcDbLine
 10
1401.033221542396
 20
1604.871239894587
 30
0.0
 11
1401.033221542396
 21
1212.871211312046
 31
0.0
  0
LINE
  5
12B36
330
18
100
AcDbEntity
  8
0
100
AcDbLine
 10
1400.033221542396
 20
1604.871239894587
 30
0.0
 11
1400.033221542396
 21
1212.871211312046
 31
0.0
  0
LINE
  5
12B37
330
18
100
AcDbEntity
  8
0
100
AcDbLine
 10
1011.792169629092
 20
1023.851366907009
 30
0.0
 11
1011.792169629092
 21
977.5513669070097
 31
0.0
  0
LINE
  5
12B38
330
18
100
AcDbEntity
  8
0
100
AcDbLine
 10
1012.792169629092
 20
1024.851366907009
 30
0.0
 11
1012.792169629092
 21
978.5513669070097
 31
0.0
  0
LINE
  5
12B39
330
18
100
AcDbEntity
  8
0
100
AcDbLine
 10
1207.892169629087
 20
1024.85136690701
 30
0.0
 11
1207.892169629087
 21
725.8513669070107
 31
0.0
  0
LINE
  5
12B3A
330
18
100
AcDbEntity
  8
0
100
AcDbLine
 10
1206.292169629088
 20
1023.25136690701
 30
0.0
 11
1206.292169629088
 21
725.8513669070107
 31
0.0
  0
LINE
  5
12B3D
330
18
100
AcDbEntity
  8
0
100
AcDbLine
 10
1121.140519199643
 20
814.4997164775586
 30
0.0
 11
1059.824026977936
 21
875.816208699266
 31
0.0
  0
LINE
  5
12B3E
330
18
100
AcDbEntity
  8
0
100
AcDbLine
 10
1124.923540478992
 20
821.3232969160099
 30
0.0
 11
1065.129689100807
 21
881.1171482941908
 31
0.0
  0
LINE
  5
12B3F
330
18
100
AcDbEntity
  8
0
100
AcDbLine
 10
1122.27189004954
 20
815.6310873274588
 30
0.0
 11
1062.357158954166
 21
875.5458184228345
 31
0.0
  0
LINE
  5
12B40
330
18
100
AcDbEntity
  8
0
100
AcDbLine
 10
1123.792169629092
 20
820.1919260661098
 30
0.0
 11
1065.398276774865
 21
878.58581892034
 31
0.0
  0
CIRCLE
  5
12B41
330
18
100
AcDbEntity
  8
0
 48
0.1
370
    -3
100
AcDbCircle
 10
1123.792169629092
 20
817.151366907009
 30
0.0
 40
49.7
  0
CIRCLE
  5
12B42
330
18
100
AcDbEntity
  8
0
 48
0.1
370
    -3
100
AcDbCircle
 10
1123.792169629092
 20
817.151366907009
 30
0.0
 40
55.75
  0
CIRCLE
  5
12B43
330
18
100
AcDbEntity
  8
0
 48
0.1
370
    -3
100
AcDbCircle
 10
1123.792169629092
 20
817.151366907009
 30
0.0
 40
51.29999999999999
  0
LINE
  5
12B44
330
18
100
AcDbEntity
  8
0
100
AcDbLine
 10
1126.832728788192
 20
817.151366907009
 30
0.0
 11
1185.21010225198
 21
875.5287403707924
 31
0.0
  0
LINE
  5
12B45
330
18
100
AcDbEntity
  8
0
100
AcDbLine
 10
1122.27189004954
 20
818.6716464865593
 30
0.0
 11
1182.106342122386
 21
878.5060985594055
 31
0.0
  0
LINE
  5
12B46
330
18
100
AcDbEntity
  8
0
100
AcDbLine
 10
1127.964099638089
 20
816.0199960571089
 30
0.0
 11
1187.855537441164
 21
875.911433860184
 31
0.0
  0
LINE
  5
12B47
330
18
100
AcDbEntity
  8
0
100
AcDbLine
 10
1121.140519199643
 20
819.8030173364577
 30
0.0
 11
1182.282294001974
 21
880.9447921387919
 31
0.0
  0
LINE
  5
12B48
330
18
100
AcDbEntity
  8
0
100
AcDbLine
 10
1049.292169629088
 20
910.5513669070093
 30
0.0
 11
1049.292169629088
 21
748.5513669070087
 31
0.0
  0
LINE
  5
12B49
330
18
100
AcDbEntity
  8
0
100
AcDbLine
 10
1193.792169629092
 20
887.15136690701
 30
0.0
 11
1193.792169629092
 21
747.15136690701
 31
0.0
  0
CIRCLE
  5
12B4A
330
18
100
AcDbEntity
  8
0
100
AcDbCircle
 10
1123.792169629092
 20
817.1513669070099
 30
0.0
 40
69.0
  0
CIRCLE
  5
12B4B
330
18
100
AcDbEntity
  8
0
100
AcDbCircle
 10
1123.792169629092
 20
817.151366907009
 30
0.0
 40
68.09999999999999
  0
LINE
  5
12B4C
330
18
100
AcDbEntity
  8
0
100
AcDbLine
 10
1053.792169629092
 20
887.15136690701
 30
0.0
 11
1053.792169629092
 21
747.15136690701
 31
0.0
  0
CIRCLE
  5
12B4D
330
18
100
AcDbEntity
  8
0
100
AcDbCircle
 10
1123.792169629092
 20
817.151366907009
 30
0.0
 40
69.7
  0
CIRCLE
  5
12B4F
330
18
100
AcDbEntity
  8
0
100
AcDbCircle
 10
1123.792169629092
 20
817.151366907009
 30
0.0
 40
69.7
  0
CIRCLE
  5
12B50
330
18
100
AcDbEntity
  8
0
 48
0.1
370
    -3
100
AcDbCircle
 10
1123.792169629092
 20
817.151366907009
 30
0.0
 40
61.79999999999999
  0
CIRCLE
  5
12B51
330
18
100
AcDbEntity
  8
0
 48
0.1
370
    -3
100
AcDbCircle
 10
1123.792169629092
 20
817.151366907009
 30
0.0
 40
63.39999999999999
  0
CIRCLE
  5
12B52
330
18
100
AcDbEntity
  8
0
 48
0.1
370
    -3
100
AcDbCircle
 10
1123.792169629092
 20
817.151366907009
 30
0.0
 40
57.35
  0
CIRCLE
  5
12B53
330
18
100
AcDbEntity
  8
0
100
AcDbCircle
 10
1123.792169629092
 20
817.151366907009
 30
0.0
 40
68.09999999999999
  0
LINE
  5
12B55
330
18
100
AcDbEntity
  8
0
100
AcDbLine
 10
1036.292169629088
 20
821.5513669070096
 30
0.0
 11
1036.292169629088
 21
816.5513669070096
 31
0.0
  0
LINE
  5
12B57
330
18
100
AcDbEntity
  8
0
100
AcDbLine
 10
1036.292169629088
 20
791.5513669070096
 30
0.0
 11
1036.292169629088
 21
786.5513669070097
 31
0.0
  0
LINE
  5
12B58
330
18
100
AcDbEntity
  8
0
100
AcDbLine
 10
1036.292169629088
 20
781.5513669070096
 30
0.0
 11
1036.292169629088
 21
776.5513669070096
 31
0.0
  0
LINE
  5
12B59
330
18
100
AcDbEntity
  8
0
100
AcDbLine
 10
1036.292169629088
 20
771.5513669070096
 30
0.0
 11
1036.292169629088
 21
766.5513669070096
 31
0.0
  0
LINE
  5
12B5A
330
18
100
AcDbEntity
  8
0
100
AcDbLine
 10
1036.292169629088
 20
801.5513669070097
 30
0.0
 11
1036.292169629088
 21
796.5513669070096
 31
0.0
  0
LINE
  5
12B5B
330
18
100
AcDbEntity
  8
0
100
AcDbLine
 10
1036.292169629088
 20
811.5513669070097
 30
0.0
 11
1036.292169629088
 21
806.5513669070096
 31
0.0
  0
LINE
  5
12B5C
330
18
100
AcDbEntity
  8
0
100
AcDbLine
 10
1036.292169629088
 20
831.5513669070096
 30
0.0
 11
1036.292169629088
 21
826.5513669070097
 31
0.0
  0
LINE
  5
12B5D
330
18
100
AcDbEntity
  8
0
100
AcDbLine
 10
1036.292169629088
 20
851.5513669070097
 30
0.0
 11
1036.292169629088
 21
846.5513669070096
 31
0.0
  0
LINE
  5
12B5E
330
18
100
AcDbEntity
  8
0
100
AcDbLine
 10
1036.292169629088
 20
841.5513669070096
 30
0.0
 11
1036.292169629088
 21
836.5513669070097
 31
0.0
  0
LINE
  5
12B5F
330
18
100
AcDbEntity
  8
0
100
AcDbLine
 10
1036.292169629088
 20
861.5513669070097
 30
0.0
 11
1036.292169629088
 21
856.5513669070096
 31
0.0
  0
CIRCLE
  5
12B60
330
18
100
AcDbEntity
  8
0
 48
0.1
370
    -3
100
AcDbCircle
 10
1123.792169629092
 20
817.151366907009
 30
0.0
 40
19.45
  0
CIRCLE
  5
12B61
330
18
100
AcDbEntity
  8
0
 48
0.1
370
    -3
100
AcDbCircle
 10
1123.792169629092
 20
817.151366907009
 30
0.0
 40
25.5
  0
CIRCLE
  5
12B62
330
18
100
AcDbEntity
  8
0
 48
0.1
370
    -3
100
AcDbCircle
 10
1123.792169629092
 20
817.151366907009
 30
0.0
 40
31.55
  0
CIRCLE
  5
12B63
330
18
100
AcDbEntity
  8
0
 48
0.1
370
    -3
100
AcDbCircle
 10
1123.792169629092
 20
817.151366907009
 30
0.0
 40
37.6
  0
CIRCLE
  5
12B64
330
18
100
AcDbEntity
  8
0
 48
0.1
370
    -3
100
AcDbCircle
 10
1123.792169629092
 20
817.151366907009
 30
0.0
 40
43.65
  0
CIRCLE
  5
12B65
330
18
100
AcDbEntity
  8
0
 48
0.1
370
    -3
100
AcDbCircle
 10
1123.792169629092
 20
817.151366907009
 30
0.0
 40
45.25
  0
CIRCLE
  5
12B66
330
18
100
AcDbEntity
  8
0
 48
0.1
370
    -3
100
AcDbCircle
 10
1123.792169629092
 20
817.151366907009
 30
0.0
 40
39.2
  0
CIRCLE
  5
12B67
330
18
100
AcDbEntity
  8
0
 48
0.1
370
    -3
100
AcDbCircle
 10
1123.792169629092
 20
817.151366907009
 30
0.0
 40
33.14999999999999
  0
CIRCLE
  5
12B68
330
18
100
AcDbEntity
  8
0
 48
0.1
370
    -3
100
AcDbCircle
 10
1123.792169629092
 20
817.151366907009
 30
0.0
 40
27.1
  0
CIRCLE
  5
12B69
330
18
100
AcDbEntity
  8
0
 48
0.1
370
    -3
100
AcDbCircle
 10
1123.792169629092
 20
817.151366907009
 30
0.0
 40
21.04999999999999
  0
CIRCLE
  5
12B6A
330
18
100
AcDbEntity
  8
0
100
AcDbCircle
 10
1123.792169629092
 20
817.151366907009
 30
0.0
 40
15.0
  0
CIRCLE
  5
12B6B
330
18
100
AcDbEntity
  8
0
100
AcDbCircle
 10
1123.792169629092
 20
817.151366907009
 30
0.0
 40
13.4
  0
ARC
  5
12B6C
330
18
100
AcDbEntity
  8
0
100
AcDbCircle
 10
1186.901449849991
 20
754.0420866861104
 30
0.0
 40
3.75
100
AcDbArc
 50
225.0000000001013
 51
45.00000000010132
  0
LINE
  5
12B6D
330
18
100
AcDbEntity
  8
0
100
AcDbLine
 10
1206.292169629088
 20
725.8513669070107
 30
0.0
 11
1207.892169629087
 21
725.8513669070107
 31
0.0
  0
LINE
  5
12B6E
330
18
100
AcDbEntity
  8
0
100
AcDbLine
 10
1203.992169629085
 20
725.8513669070098
 30
0.0
 11
1206.292169629088
 21
725.8513669070107
 31
0.0
  0
LINE
  5
12B6F
330
18
100
AcDbEntity
  8
0
100
AcDbLine
 10
1206.292169629088
 20
725.8513669070098
 30
0.0
 11
1206.292169629088
 21
745.8513669070098
 31
0.0
  0
LINE
  5
12B70
330
18
100
AcDbEntity
  8
0
100
AcDbLine
 10
1203.992169629085
 20
725.8513669070098
 30
0.0
 11
1203.992169629085
 21
745.8513669070098
 31
0.0
  0
ARC
  5
12B71
330
18
100
AcDbEntity
  8
0
100
AcDbCircle
 10
1186.901449849991
 20
754.0420866861104
 30
0.0
 40
3.75
100
AcDbArc
 50
225.0000000001013
 51
45.00000000010132
  0
LINE
  5
12B72
330
18
100
AcDbEntity
  8
0
 48
3.0
370
    13
100
AcDbLine
 10
1186.65883629576
 20
754.2847002403441
 30
0.0
 11
1188.574158526562
 21
754.2847002403441
 31
0.0
  0
LINE
  5
12B73
330
18
100
AcDbEntity
  8
0
 48
3.0
370
    13
100
AcDbLine
 10
1183.41018073162
 20
754.2847002403441
 30
0.0
 11
1185.325502962425
 21
754.2847002403441
 31
0.0
  0
ARC
  5
12B74
330
18
100
AcDbEntity
  8
0
 48
3.0
370
    13
100
AcDbCircle
 10
1185.992169629089
 20
754.9513669070101
 30
0.0
 40
2.666666666666666
100
AcDbArc
 50
255.5224878140705
 51
284.4775121859294
  0
LINE
  5
12B75
330
18
100
AcDbEntity
  8
0
 48
3.0
370
    13
100
AcDbLine
 10
1185.325502962425
 20
752.3693780095391
 30
0.0
 11
1185.325502962425
 21
754.2847002403441
 31
0.0
  0
LINE
  5
12B76
330
18
100
AcDbEntity
  8
0
 48
3.0
370
    13
100
AcDbLine
 10
1186.65883629576
 20
752.3693780095391
 30
0.0
 11
1186.65883629576
 21
754.2847002403441
 31
0.0
  0
LINE
  5
12B77
330
18
100
AcDbEntity
  8
0
 48
3.0
370
    13
100
AcDbLine
 10
1186.65883629576
 20
755.618033573678
 30
0.0
 11
1188.574158526562
 21
755.618033573678
 31
0.0
  0
LINE
  5
12B78
330
18
100
AcDbEntity
  8
0
 48
3.0
370
    13
100
AcDbLine
 10
1185.325502962425
 20
755.618033573678
 30
0.0
 11
1185.325502962425
 21
757.5333558044831
 31
0.0
  0
LINE
  5
12B79
330
18
100
AcDbEntity
  8
0
 48
3.0
370
    13
100
AcDbLine
 10
1186.65883629576
 20
755.618033573678
 30
0.0
 11
1186.65883629576
 21
757.5333558044831
 31
0.0
  0
ARC
  5
12B7A
330
18
100
AcDbEntity
  8
0
 48
3.0
370
    13
100
AcDbCircle
 10
1185.992169629089
 20
754.9513669070101
 30
0.0
 40
2.666666666666666
100
AcDbArc
 50
75.52248781407055
 51
104.4775121859294
  0
LINE
  5
12B7B
330
18
100
AcDbEntity
  8
0
 48
3.0
370
    13
100
AcDbLine
 10
1183.41018073162
 20
755.618033573678
 30
0.0
 11
1185.325502962425
 21
755.618033573678
 31
0.0
  0
CIRCLE
  5
12B7C
330
18
100
AcDbEntity
  8
0
 48
3.0
370
    13
100
AcDbCircle
 10
1185.992169629089
 20
754.9513669070101
 30
0.0
 40
4.0
  0
ARC
  5
12B7D
330
18
100
AcDbEntity
  8
0
 48
3.0
370
    13
100
AcDbCircle
 10
1185.992169629089
 20
754.9513669070101
 30
0.0
 40
2.666666666666666
100
AcDbArc
 50
165.5224878141036
 51
194.4775121858963
  0
ARC
  5
12B7E
330
18
100
AcDbEntity
  8
0
 48
3.0
370
    13
100
AcDbCircle
 10
1185.992169629089
 20
754.9513669070101
 30
0.0
 40
2.666666666666666
100
AcDbArc
 50
345.5224878141037
 51
14.47751218589629
  0
CIRCLE
  5
12B7F
330
18
100
AcDbEntity
  8
0
 48
3.0
370
    13
100
AcDbCircle
 10
1185.992169629089
 20
754.9513669070101
 30
0.0
 40
3.333333333333333
  0
LINE
  5
12B80
330
18
100
AcDbEntity
  8
0
 48
0.2
100
AcDbLine
 10
1143.792169629088
 20
725.8513669070098
 30
0.0
 11
1143.792169629088
 21
728.1513669070098
 31
0.0
  0
LINE
  5
12B81
330
18
100
AcDbEntity
  8
0
 48
0.2
100
AcDbLine
 10
1136.792169629088
 20
725.8513669070098
 30
0.0
 11
1136.792169629088
 21
728.1513669070098
 31
0.0
  0
ARC
  5
12B82
330
18
100
AcDbEntity
  8
0
100
AcDbCircle
 10
1060.68288940819
 20
754.0420866861104
 30
0.0
 40
3.75
100
AcDbArc
 50
134.9999999998986
 51
314.9999999998986
  0
LINE
  5
12B83
330
18
100
AcDbEntity
  8
0
100
AcDbLine
 10
1063.356511897209
 20
751.4124083162232
 30
0.0
 11
1063.334539837642
 21
751.3904362566582
 31
0.0
  0
ARC
  5
12B84
330
18
100
AcDbEntity
  8
0
100
AcDbCircle
 10
1060.68288940819
 20
754.0420866861104
 30
0.0
 40
3.75
100
AcDbArc
 50
134.9999999998986
 51
314.9999999998986
  0
CIRCLE
  5
12B85
330
18
100
AcDbEntity
  8
0
 48
3.0
370
    13
100
AcDbCircle
 10
1061.492169629089
 20
754.9513669070101
 30
0.0
 40
4.0
  0
LINE
  5
12B86
330
18
100
AcDbEntity
  8
0
100
AcDbLine
 10
1053.792169629092
 20
747.15136690701
 30
0.0
 11
1193.792169629092
 21
747.15136690701
 31
0.0
  0
LINE
  5
12B88
330
18
100
AcDbEntity
  8
0
100
AcDbLine
 10
1036.292169629088
 20
761.5513669070097
 30
0.0
 11
1036.292169629088
 21
756.5513669070096
 31
0.0
  0
LINE
  5
12B8B
330
18
100
AcDbEntity
  8
0
100
AcDbLine
 10
1120.751610469988
 20
817.1513669070073
 30
0.0
 11
1062.438142924957
 21
758.8378993619762
 31
0.0
  0
LINE
  5
12B8C
330
18
100
AcDbEntity
  8
0
100
AcDbLine
 10
1125.31244920864
 20
815.631087327457
 30
0.0
 11
1065.414941938075
 21
755.7335800568917
 31
0.0
  0
LINE
  5
12B8D
330
18
100
AcDbEntity
  8
0
100
AcDbLine
 10
1119.620239620088
 20
818.2827377569056
 30
0.0
 11
1060.000210617539
 21
758.6627087543556
 31
0.0
  0
LINE
  5
12B8E
330
18
100
AcDbEntity
  8
0
100
AcDbLine
 10
1126.44382005854
 20
814.4997164775586
 30
0.0
 11
1065.03112821988
 21
753.0870246388921
 31
0.0
  0
LINE
  5
12B8F
330
18
100
AcDbEntity
  8
0
100
AcDbLine
 10
1126.44382005854
 20
819.8030173364577
 30
0.0
 11
1187.659569074285
 21
758.5872683207135
 31
0.0
  0
LINE
  5
12B90
330
18
100
AcDbEntity
  8
0
100
AcDbLine
 10
1122.660798779192
 20
812.9794368980082
 30
0.0
 11
1182.356268215391
 21
753.2839674618125
 31
0.0
  0
LINE
  5
12B91
330
18
100
AcDbEntity
  8
0
100
AcDbLine
 10
1125.31244920864
 20
818.6716464865593
 30
0.0
 11
1185.127339148288
 21
758.8567565469138
 31
0.0
  0
LINE
  5
12B92
330
18
100
AcDbEntity
  8
0
100
AcDbLine
 10
1123.792169629092
 20
814.1108077479065
 30
0.0
 11
1182.086779989184
 21
755.8161973878095
 31
0.0
  0
LINE
  5
12B93
330
18
100
AcDbEntity
  8
0
100
AcDbLine
 10
1032.042169629088
 20
988.5513669070098
 30
0.0
 11
1012.792169629092
 21
988.5513669070098
 31
0.0
  0
LINE
  5
12B94
330
18
100
AcDbEntity
  8
0
100
AcDbLine
 10
1143.542169629085
 20
974.0513669070097
 30
0.0
 11
1143.542169629085
 21
930.5513669070096
 31
0.0
  0
LINE
  5
12B95
330
18
100
AcDbEntity
  8
0
100
AcDbLine
 10
1146.542169629084
 20
974.0513669070097
 30
0.0
 11
1146.542169629084
 21
930.5513669070096
 31
0.0
  0
LINE
  5
12B96
330
18
100
AcDbEntity
  8
0
100
AcDbLine
 10
1169.042169629085
 20
974.0513669070097
 30
0.0
 11
1169.042169629085
 21
930.5513669070096
 31
0.0
  0
LINE
  5
12B97
330
18
100
AcDbEntity
  8
0
100
AcDbLine
 10
1175.042169629085
 20
974.0513669070097
 30
0.0
 11
1175.042169629085
 21
936.5513669070097
 31
0.0
  0
LINE
  5
12B98
330
18
100
AcDbEntity
  8
0
100
AcDbLine
 10
1146.542169629084
 20
971.0513669070095
 30
0.0
 11
1169.042169629085
 21
971.0513669070095
 31
0.0
  0
LINE
  5
12B99
330
18
100
AcDbEntity
  8
0
100
AcDbLine
 10
1149.792169629085
 20
964.5513669070096
 30
0.0
 11
1165.792169629085
 21
964.5513669070096
 31
0.0
  0
LINE
  5
12B9A
330
18
100
AcDbEntity
  8
0
100
AcDbLine
 10
1140.292169629085
 20
964.5513669070096
 30
0.0
 11
1140.292169629085
 21
956.5513669070096
 31
0.0
  0
LINE
  5
12B9B
330
18
100
AcDbEntity
  8
0
100
AcDbLine
 10
1149.792169629085
 20
964.5513669070096
 30
0.0
 11
1149.792169629085
 21
956.5513669070096
 31
0.0
  0
LINE
  5
12B9C
330
18
100
AcDbEntity
  8
0
100
AcDbLine
 10
1188.542169629088
 20
936.5513669070088
 30
0.0
 11
1188.542169629088
 21
930.5513669070096
 31
0.0
  0
LINE
  5
12B9D
330
18
100
AcDbEntity
  8
0
100
AcDbLine
 10
1165.792169629085
 20
964.5513669070096
 30
0.0
 11
1165.792169629085
 21
956.5513669070096
 31
0.0
  0
LINE
  5
12B9E
330
18
100
AcDbEntity
  8
0
 48
3.0
100
AcDbLine
 10
1177.542169629088
 20
997.1513669070098
 30
0.0
 11
1172.042169629088
 21
997.15136690701
 31
0.0
  0
LINE
  5
12BA2
330
18
100
AcDbEntity
  8
0
 48
3.0
100
AcDbLine
 10
1172.042169629088
 20
997.15136690701
 30
0.0
 11
1172.042169629088
 21
1002.15136690701
 31
0.0
  0
LINE
  5
12BA3
330
18
100
AcDbEntity
  8
0
 48
3.0
100
AcDbLine
 10
1174.792169629088
 20
997.15136690701
 30
0.0
 11
1174.792169629088
 21
1002.151366907009
 31
0.0
  0
LINE
  5
12BA4
330
18
100
AcDbEntity
  8
0
 48
3.0
100
AcDbLine
 10
1177.542169629088
 20
997.1513669070098
 30
0.0
 11
1177.542169629088
 21
1002.151366907009
 31
0.0
  0
LINE
  5
12BA5
330
18
100
AcDbEntity
  8
0
 48
3.0
100
AcDbLine
 10
1177.542169629088
 20
1002.151366907009
 30
0.0
 11
1172.042169629088
 21
1002.15136690701
 31
0.0
  0
LINE
  5
12BA6
330
18
100
AcDbEntity
  8
0
100
AcDbLine
 10
1137.767169629087
 20
987.8763669070103
 30
0.0
 11
1163.792169629088
 21
987.8763669070103
 31
0.0
  0
LINE
  5
12BA7
330
18
100
AcDbEntity
  8
0
100
AcDbLine
 10
1162.867169629089
 20
994.0013669070104
 30
0.0
 11
1138.692169629086
 21
994.0013669070104
 31
0.0
  0
LWPOLYLINE
  5
12BA8
330
18
100
AcDbEntity
  8
0
100
AcDbPolyline
 90
        4
 70
     1
 43
0.0
 10
1138.617169629089
 20
992.8263669070092
 10
1138.617169629089
 20
989.1263669070104
 10
1162.417169629088
 20
989.1263669070104
 10
1162.417169629088
 20
992.8263669070092
  0
LINE
  5
12BA9
330
18
100
AcDbEntity
  8
0
100
AcDbLine
 10
1141.892169629087
 20
989.7013669070092
 30
0.0
 11
1140.917169629088
 21
989.7013669070092
 31
0.0
  0
LINE
  5
12BAA
330
18
100
AcDbEntity
  8
0
100
AcDbLine
 10
1140.917169629088
 20
989.3513669070108
 30
0.0
 11
1141.892169629087
 21
989.3513669070108
 31
0.0
  0
LINE
  5
12BAB
330
18
100
AcDbEntity
  8
0
100
AcDbLine
 10
1141.892169629087
 20
992.4763669070108
 30
0.0
 11
1140.917169629088
 21
992.4763669070108
 31
0.0
  0
LINE
  5
12BAC
330
18
100
AcDbEntity
  8
0
100
AcDbLine
 10
1140.917169629088
 20
992.1263669070103
 30
0.0
 11
1141.892169629087
 21
992.1263669070103
 31
0.0
  0
LINE
  5
12BAD
330
18
100
AcDbEntity
  8
0
100
AcDbLine
 10
1164.867169629089
 20
989.3763669070104
 30
0.0
 11
1163.892169629087
 21
993.0763669070092
 31
0.0
  0
LINE
  5
12BAE
330
18
100
AcDbEntity
  8
0
100
AcDbLine
 10
1167.342169629087
 20
992.8263669070092
 30
0.0
 11
1167.342169629087
 21
989.2513669070103
 31
0.0
  0
LINE
  5
12BAF
330
18
100
AcDbEntity
  8
0
100
AcDbLine
 10
1172.592169629088
 20
986.3263669070093
 30
0.0
 11
1172.592169629088
 21
995.5513669070096
 31
0.0
  0
LINE
  5
12BB0
330
18
100
AcDbEntity
  8
0
100
AcDbLine
 10
1166.242169629089
 20
994.7513669070103
 30
0.0
 11
1166.242169629089
 21
987.1263669070103
 31
0.0
  0
LINE
  5
12BB1
330
18
100
AcDbEntity
  8
0
100
AcDbLine
 10
1160.142169629087
 20
989.6763669070097
 30
0.0
 11
1159.167169629088
 21
989.6763669070097
 31
0.0
  0
LINE
  5
12BB2
330
18
100
AcDbEntity
  8
0
100
AcDbLine
 10
1159.167169629088
 20
989.3263669070092
 30
0.0
 11
1160.142169629087
 21
989.3263669070092
 31
0.0
  0
LINE
  5
12BB3
330
18
100
AcDbEntity
  8
0
100
AcDbLine
 10
1160.392169629087
 20
989.6763669070097
 30
0.0
 11
1160.392169629087
 21
989.3263669070092
 31
0.0
  0
LINE
  5
12BB4
330
18
100
AcDbEntity
  8
0
100
AcDbLine
 10
1160.142169629087
 20
989.3263669070092
 30
0.0
 11
1160.142169629087
 21
989.6763669070097
 31
0.0
  0
LINE
  5
12BB5
330
18
100
AcDbEntity
  8
0
100
AcDbLine
 10
1159.167169629088
 20
989.6763669070097
 30
0.0
 11
1159.167169629088
 21
989.3263669070092
 31
0.0
  0
LINE
  5
12BB6
330
18
100
AcDbEntity
  8
0
100
AcDbLine
 10
1168.317169629086
 20
989.2513669070103
 30
0.0
 11
1167.342169629087
 21
989.2513669070103
 31
0.0
  0
LINE
  5
12BB7
330
18
100
AcDbEntity
  8
0
100
AcDbLine
 10
1161.367169629089
 20
989.3263669070092
 30
0.0
 11
1161.367169629089
 21
989.6763669070097
 31
0.0
  0
LINE
  5
12BB8
330
18
100
AcDbEntity
  8
0
100
AcDbLine
 10
1161.367169629089
 20
989.6763669070097
 30
0.0
 11
1160.392169629087
 21
989.6763669070097
 31
0.0
  0
LINE
  5
12BB9
330
18
100
AcDbEntity
  8
0
100
AcDbLine
 10
1160.392169629087
 20
989.3263669070092
 30
0.0
 11
1161.367169629089
 21
989.3263669070092
 31
0.0
  0
LINE
  5
12BBA
330
18
100
AcDbEntity
  8
0
100
AcDbLine
 10
1168.317169629086
 20
987.1263669070103
 30
0.0
 11
1166.242169629089
 21
987.1263669070103
 31
0.0
  0
LINE
  5
12BBB
330
18
100
AcDbEntity
  8
0
100
AcDbLine
 10
1168.317169629086
 20
989.2513669070103
 30
0.0
 11
1168.317169629086
 21
987.1263669070103
 31
0.0
  0
ELLIPSE
  5
12BBC
330
18
100
AcDbEntity
  8
0
100
AcDbEllipse
 10
1163.617169629089
 20
989.1013669070106
 30
0.0
 11
-1.25
 21
0.0000000000000001
 31
0.0
210
0.0
220
0.0
230
1.0
 40
0.98
 41
1.708854999999999
 42
3.380894
  0
LINE
  5
12BBD
330
18
100
AcDbEntity
  8
0
100
AcDbLine
 10
1160.142169629087
 20
992.4513669070092
 30
0.0
 11
1159.167169629088
 21
992.4513669070092
 31
0.0
  0
LINE
  5
12BBE
330
18
100
AcDbEntity
  8
0
100
AcDbLine
 10
1159.167169629088
 20
992.1013669070108
 30
0.0
 11
1160.142169629087
 21
992.1013669070108
 31
0.0
  0
LINE
  5
12BBF
330
18
100
AcDbEntity
  8
0
100
AcDbLine
 10
1160.392169629087
 20
992.4513669070092
 30
0.0
 11
1160.392169629087
 21
992.1013669070108
 31
0.0
  0
LINE
  5
12BC0
330
18
100
AcDbEntity
  8
0
100
AcDbLine
 10
1160.142169629087
 20
992.1013669070108
 30
0.0
 11
1160.142169629087
 21
992.4513669070092
 31
0.0
  0
LINE
  5
12BC1
330
18
100
AcDbEntity
  8
0
100
AcDbLine
 10
1159.167169629088
 20
992.4513669070092
 30
0.0
 11
1159.167169629088
 21
992.1013669070108
 31
0.0
  0
LINE
  5
12BC2
330
18
100
AcDbEntity
  8
0
100
AcDbLine
 10
1168.317169629086
 20
994.7513669070103
 30
0.0
 11
1168.317169629086
 21
992.8263669070092
 31
0.0
  0
LINE
  5
12BC3
330
18
100
AcDbEntity
  8
0
100
AcDbLine
 10
1168.342169629088
 20
992.8263669070092
 30
0.0
 11
1167.367169629089
 21
992.8263669070092
 31
0.0
  0
LINE
  5
12BC4
330
18
100
AcDbEntity
  8
0
100
AcDbLine
 10
1168.317169629086
 20
994.7513669070103
 30
0.0
 11
1166.242169629089
 21
994.7513669070103
 31
0.0
  0
LINE
  5
12BC5
330
18
100
AcDbEntity
  8
0
100
AcDbLine
 10
1161.367169629089
 20
992.1013669070108
 30
0.0
 11
1161.367169629089
 21
992.4513669070092
 31
0.0
  0
LINE
  5
12BC6
330
18
100
AcDbEntity
  8
0
100
AcDbLine
 10
1161.367169629089
 20
992.4513669070092
 30
0.0
 11
1160.392169629087
 21
992.4513669070092
 31
0.0
  0
LINE
  5
12BC7
330
18
100
AcDbEntity
  8
0
100
AcDbLine
 10
1160.392169629087
 20
992.1013669070108
 30
0.0
 11
1161.367169629089
 21
992.1013669070108
 31
0.0
  0
ELLIPSE
  5
12BC8
330
18
100
AcDbEntity
  8
0
100
AcDbEllipse
 10
1169.217169629088
 20
990.9513669070092
 30
0.0
 11
-0.775
 21
0.0
 31
0.0
210
0.0
220
0.0
230
1.0
 40
0.9677419999999999
 41
0.0
 42
6.283184999999999
  0
ELLIPSE
  5
12BC9
330
18
100
AcDbEntity
  8
0
100
AcDbEllipse
 10
1162.642169629087
 20
992.7763669070101
 30
0.0
 11
-1.25
 21
0.0000000000000001
 31
0.0
210
0.0
220
0.0
230
1.0
 40
0.98
 41
3.380894
 42
4.528311
  0
LINE
  5
12BCA
330
18
100
AcDbEntity
  8
0
100
AcDbLine
 10
1157.717169629087
 20
989.6763669070097
 30
0.0
 11
1156.742169629089
 21
989.6763669070097
 31
0.0
  0
LINE
  5
12BCB
330
18
100
AcDbEntity
  8
0
100
AcDbLine
 10
1156.742169629089
 20
989.3263669070092
 30
0.0
 11
1157.717169629087
 21
989.3263669070092
 31
0.0
  0
LINE
  5
12BCC
330
18
100
AcDbEntity
  8
0
100
AcDbLine
 10
1158.917169629088
 20
989.6763669070097
 30
0.0
 11
1157.942169629086
 21
989.6763669070097
 31
0.0
  0
LINE
  5
12BCD
330
18
100
AcDbEntity
  8
0
100
AcDbLine
 10
1157.942169629086
 20
989.3263669070092
 30
0.0
 11
1158.917169629088
 21
989.3263669070092
 31
0.0
  0
LINE
  5
12BCE
330
18
100
AcDbEntity
  8
0
100
AcDbLine
 10
1158.917169629088
 20
989.3263669070092
 30
0.0
 11
1158.917169629088
 21
989.6763669070097
 31
0.0
  0
LINE
  5
12BCF
330
18
100
AcDbEntity
  8
0
100
AcDbLine
 10
1157.942169629086
 20
989.6763669070097
 30
0.0
 11
1157.942169629086
 21
989.3263669070092
 31
0.0
  0
LINE
  5
12BD0
330
18
100
AcDbEntity
  8
0
100
AcDbLine
 10
1157.717169629087
 20
989.3263669070092
 30
0.0
 11
1157.717169629087
 21
989.6763669070097
 31
0.0
  0
LINE
  5
12BD1
330
18
100
AcDbEntity
  8
0
100
AcDbLine
 10
1152.992169629089
 20
989.6763669070097
 30
0.0
 11
1152.017169629087
 21
989.6763669070097
 31
0.0
  0
LINE
  5
12BD2
330
18
100
AcDbEntity
  8
0
100
AcDbLine
 10
1152.017169629087
 20
989.3263669070092
 30
0.0
 11
1152.992169629089
 21
989.3263669070092
 31
0.0
  0
LINE
  5
12BD3
330
18
100
AcDbEntity
  8
0
100
AcDbLine
 10
1156.542169629088
 20
989.6763669070097
 30
0.0
 11
1155.567169629086
 21
989.6763669070097
 31
0.0
  0
LINE
  5
12BD4
330
18
100
AcDbEntity
  8
0
100
AcDbLine
 10
1156.542169629088
 20
989.3263669070092
 30
0.0
 11
1156.542169629088
 21
989.6763669070097
 31
0.0
  0
LINE
  5
12BD5
330
18
100
AcDbEntity
  8
0
100
AcDbLine
 10
1155.567169629086
 20
989.3263669070092
 30
0.0
 11
1156.542169629088
 21
989.3263669070092
 31
0.0
  0
LINE
  5
12BD6
330
18
100
AcDbEntity
  8
0
100
AcDbLine
 10
1155.567169629086
 20
989.6763669070097
 30
0.0
 11
1155.567169629086
 21
989.3263669070092
 31
0.0
  0
LINE
  5
12BD7
330
18
100
AcDbEntity
  8
0
100
AcDbLine
 10
1155.367169629089
 20
989.6763669070097
 30
0.0
 11
1154.392169629087
 21
989.6763669070097
 31
0.0
  0
LINE
  5
12BD8
330
18
100
AcDbEntity
  8
0
100
AcDbLine
 10
1155.367169629089
 20
989.3263669070092
 30
0.0
 11
1155.367169629089
 21
989.6763669070097
 31
0.0
  0
LINE
  5
12BD9
330
18
100
AcDbEntity
  8
0
100
AcDbLine
 10
1154.392169629087
 20
989.3263669070092
 30
0.0
 11
1155.367169629089
 21
989.3263669070092
 31
0.0
  0
LINE
  5
12BDA
330
18
100
AcDbEntity
  8
0
100
AcDbLine
 10
1154.392169629087
 20
989.6763669070097
 30
0.0
 11
1154.392169629087
 21
989.3263669070092
 31
0.0
  0
LINE
  5
12BDB
330
18
100
AcDbEntity
  8
0
100
AcDbLine
 10
1154.192169629086
 20
989.6763669070097
 30
0.0
 11
1153.217169629088
 21
989.6763669070097
 31
0.0
  0
LINE
  5
12BDC
330
18
100
AcDbEntity
  8
0
100
AcDbLine
 10
1154.192169629086
 20
989.3263669070092
 30
0.0
 11
1154.192169629086
 21
989.6763669070097
 31
0.0
  0
LINE
  5
12BDD
330
18
100
AcDbEntity
  8
0
100
AcDbLine
 10
1153.217169629088
 20
989.3263669070092
 30
0.0
 11
1154.192169629086
 21
989.3263669070092
 31
0.0
  0
LINE
  5
12BDE
330
18
100
AcDbEntity
  8
0
100
AcDbLine
 10
1153.217169629088
 20
989.6763669070097
 30
0.0
 11
1153.217169629088
 21
989.3263669070092
 31
0.0
  0
LINE
  5
12BDF
330
18
100
AcDbEntity
  8
0
100
AcDbLine
 10
1152.992169629089
 20
989.3263669070092
 30
0.0
 11
1152.992169629089
 21
989.6763669070097
 31
0.0
  0
LINE
  5
12BE0
330
18
100
AcDbEntity
  8
0
100
AcDbLine
 10
1156.742169629089
 20
989.6763669070097
 30
0.0
 11
1156.742169629089
 21
989.3263669070092
 31
0.0
  0
LINE
  5
12BE1
330
18
100
AcDbEntity
  8
0
100
AcDbLine
 10
1151.817169629086
 20
989.6763669070097
 30
0.0
 11
1150.842169629088
 21
989.6763669070097
 31
0.0
  0
LINE
  5
12BE2
330
18
100
AcDbEntity
  8
0
100
AcDbLine
 10
1150.842169629088
 20
989.3263669070092
 30
0.0
 11
1151.817169629086
 21
989.3263669070092
 31
0.0
  0
LINE
  5
12BE3
330
18
100
AcDbEntity
  8
0
100
AcDbLine
 10
1152.017169629087
 20
989.6763669070097
 30
0.0
 11
1152.017169629087
 21
989.3263669070092
 31
0.0
  0
LINE
  5
12BE4
330
18
100
AcDbEntity
  8
0
100
AcDbLine
 10
1151.817169629086
 20
989.3263669070092
 30
0.0
 11
1151.817169629086
 21
989.6763669070097
 31
0.0
  0
LINE
  5
12BE5
330
18
100
AcDbEntity
  8
0
100
AcDbLine
 10
1150.617169629089
 20
989.6763669070097
 30
0.0
 11
1149.642169629087
 21
989.6763669070097
 31
0.0
  0
LINE
  5
12BE6
330
18
100
AcDbEntity
  8
0
100
AcDbLine
 10
1150.617169629089
 20
989.3263669070092
 30
0.0
 11
1150.617169629089
 21
989.6763669070097
 31
0.0
  0
LINE
  5
12BE7
330
18
100
AcDbEntity
  8
0
100
AcDbLine
 10
1149.642169629087
 20
989.3263669070092
 30
0.0
 11
1150.617169629089
 21
989.3263669070092
 31
0.0
  0
LINE
  5
12BE8
330
18
100
AcDbEntity
  8
0
100
AcDbLine
 10
1149.642169629087
 20
989.6763669070097
 30
0.0
 11
1149.642169629087
 21
989.3263669070092
 31
0.0
  0
LINE
  5
12BE9
330
18
100
AcDbEntity
  8
0
100
AcDbLine
 10
1149.417169629088
 20
989.7013669070092
 30
0.0
 11
1148.442169629086
 21
989.7013669070092
 31
0.0
  0
LINE
  5
12BEA
330
18
100
AcDbEntity
  8
0
100
AcDbLine
 10
1149.417169629088
 20
989.3513669070108
 30
0.0
 11
1149.417169629088
 21
989.7013669070092
 31
0.0
  0
LINE
  5
12BEB
330
18
100
AcDbEntity
  8
0
100
AcDbLine
 10
1148.442169629086
 20
989.3513669070108
 30
0.0
 11
1149.417169629088
 21
989.3513669070108
 31
0.0
  0
LINE
  5
12BEC
330
18
100
AcDbEntity
  8
0
100
AcDbLine
 10
1148.442169629086
 20
989.7013669070092
 30
0.0
 11
1148.442169629086
 21
989.3513669070108
 31
0.0
  0
LINE
  5
12BED
330
18
100
AcDbEntity
  8
0
100
AcDbLine
 10
1148.167169629088
 20
989.7013669070092
 30
0.0
 11
1147.192169629086
 21
989.7013669070092
 31
0.0
  0
LINE
  5
12BEE
330
18
100
AcDbEntity
  8
0
100
AcDbLine
 10
1148.167169629088
 20
989.3513669070108
 30
0.0
 11
1148.167169629088
 21
989.7013669070092
 31
0.0
  0
LINE
  5
12BEF
330
18
100
AcDbEntity
  8
0
100
AcDbLine
 10
1147.192169629086
 20
989.3513669070108
 30
0.0
 11
1148.167169629088
 21
989.3513669070108
 31
0.0
  0
LINE
  5
12BF0
330
18
100
AcDbEntity
  8
0
100
AcDbLine
 10
1147.192169629086
 20
989.7013669070092
 30
0.0
 11
1147.192169629086
 21
989.3513669070108
 31
0.0
  0
LINE
  5
12BF1
330
18
100
AcDbEntity
  8
0
100
AcDbLine
 10
1146.992169629089
 20
989.7013669070092
 30
0.0
 11
1146.017169629087
 21
989.7013669070092
 31
0.0
  0
LINE
  5
12BF2
330
18
100
AcDbEntity
  8
0
100
AcDbLine
 10
1146.992169629089
 20
989.3513669070108
 30
0.0
 11
1146.992169629089
 21
989.7013669070092
 31
0.0
  0
LINE
  5
12BF3
330
18
100
AcDbEntity
  8
0
100
AcDbLine
 10
1146.017169629087
 20
989.3513669070108
 30
0.0
 11
1146.992169629089
 21
989.3513669070108
 31
0.0
  0
LINE
  5
12BF4
330
18
100
AcDbEntity
  8
0
100
AcDbLine
 10
1146.017169629087
 20
989.7013669070092
 30
0.0
 11
1146.017169629087
 21
989.3513669070108
 31
0.0
  0
LINE
  5
12BF5
330
18
100
AcDbEntity
  8
0
100
AcDbLine
 10
1150.842169629088
 20
989.6763669070097
 30
0.0
 11
1150.842169629088
 21
989.3263669070092
 31
0.0
  0
LINE
  5
12BF6
330
18
100
AcDbEntity
  8
0
100
AcDbLine
 10
1145.717169629087
 20
989.7013669070092
 30
0.0
 11
1144.742169629089
 21
989.7013669070092
 31
0.0
  0
LINE
  5
12BF7
330
18
100
AcDbEntity
  8
0
100
AcDbLine
 10
1145.717169629087
 20
989.3513669070108
 30
0.0
 11
1145.717169629087
 21
989.7013669070092
 31
0.0
  0
LINE
  5
12BF8
330
18
100
AcDbEntity
  8
0
100
AcDbLine
 10
1144.742169629089
 20
989.3513669070108
 30
0.0
 11
1145.717169629087
 21
989.3513669070108
 31
0.0
  0
LINE
  5
12BF9
330
18
100
AcDbEntity
  8
0
100
AcDbLine
 10
1144.742169629089
 20
989.7013669070092
 30
0.0
 11
1144.742169629089
 21
989.3513669070108
 31
0.0
  0
LINE
  5
12BFA
330
18
100
AcDbEntity
  8
0
100
AcDbLine
 10
1144.367169629089
 20
989.7013669070092
 30
0.0
 11
1143.417169629088
 21
989.7013669070092
 31
0.0
  0
LINE
  5
12BFB
330
18
100
AcDbEntity
  8
0
100
AcDbLine
 10
1144.367169629089
 20
989.3513669070108
 30
0.0
 11
1144.367169629089
 21
989.7013669070092
 31
0.0
  0
LINE
  5
12BFC
330
18
100
AcDbEntity
  8
0
100
AcDbLine
 10
1143.417169629088
 20
989.3513669070108
 30
0.0
 11
1144.367169629089
 21
989.3513669070108
 31
0.0
  0
LINE
  5
12BFD
330
18
100
AcDbEntity
  8
0
100
AcDbLine
 10
1143.417169629088
 20
989.7013669070092
 30
0.0
 11
1143.417169629088
 21
989.3513669070108
 31
0.0
  0
LINE
  5
12BFE
330
18
100
AcDbEntity
  8
0
100
AcDbLine
 10
1143.117169629089
 20
989.7013669070092
 30
0.0
 11
1142.142169629087
 21
989.7013669070092
 31
0.0
  0
LINE
  5
12BFF
330
18
100
AcDbEntity
  8
0
100
AcDbLine
 10
1143.117169629089
 20
989.3513669070108
 30
0.0
 11
1143.117169629089
 21
989.7013669070092
 31
0.0
  0
LINE
  5
12C00
330
18
100
AcDbEntity
  8
0
100
AcDbLine
 10
1142.142169629087
 20
989.3513669070108
 30
0.0
 11
1143.117169629089
 21
989.3513669070108
 31
0.0
  0
LINE
  5
12C01
330
18
100
AcDbEntity
  8
0
100
AcDbLine
 10
1142.142169629087
 20
989.7013669070092
 30
0.0
 11
1142.142169629087
 21
989.3513669070108
 31
0.0
  0
LINE
  5
12C02
330
18
100
AcDbEntity
  8
0
100
AcDbLine
 10
1141.892169629087
 20
989.3513669070108
 30
0.0
 11
1141.892169629087
 21
989.7013669070092
 31
0.0
  0
LINE
  5
12C03
330
18
100
AcDbEntity
  8
0
100
AcDbLine
 10
1157.717169629087
 20
992.4513669070092
 30
0.0
 11
1156.742169629089
 21
992.4513669070092
 31
0.0
  0
LINE
  5
12C04
330
18
100
AcDbEntity
  8
0
100
AcDbLine
 10
1156.742169629089
 20
992.1013669070108
 30
0.0
 11
1157.717169629087
 21
992.1013669070108
 31
0.0
  0
LINE
  5
12C05
330
18
100
AcDbEntity
  8
0
100
AcDbLine
 10
1158.917169629088
 20
992.4513669070092
 30
0.0
 11
1157.942169629086
 21
992.4513669070092
 31
0.0
  0
LINE
  5
12C06
330
18
100
AcDbEntity
  8
0
100
AcDbLine
 10
1157.942169629086
 20
992.1013669070108
 30
0.0
 11
1158.917169629088
 21
992.1013669070108
 31
0.0
  0
LINE
  5
12C07
330
18
100
AcDbEntity
  8
0
100
AcDbLine
 10
1158.917169629088
 20
992.1013669070108
 30
0.0
 11
1158.917169629088
 21
992.4513669070092
 31
0.0
  0
LINE
  5
12C08
330
18
100
AcDbEntity
  8
0
100
AcDbLine
 10
1157.942169629086
 20
992.4513669070092
 30
0.0
 11
1157.942169629086
 21
992.1013669070108
 31
0.0
  0
LINE
  5
12C09
330
18
100
AcDbEntity
  8
0
100
AcDbLine
 10
1157.717169629087
 20
992.1013669070108
 30
0.0
 11
1157.717169629087
 21
992.4513669070092
 31
0.0
  0
LINE
  5
12C0A
330
18
100
AcDbEntity
  8
0
100
AcDbLine
 10
1152.992169629089
 20
992.4513669070092
 30
0.0
 11
1152.017169629087
 21
992.4513669070092
 31
0.0
  0
LINE
  5
12C0B
330
18
100
AcDbEntity
  8
0
100
AcDbLine
 10
1152.017169629087
 20
992.1013669070108
 30
0.0
 11
1152.992169629089
 21
992.1013669070108
 31
0.0
  0
LINE
  5
12C0C
330
18
100
AcDbEntity
  8
0
100
AcDbLine
 10
1156.542169629088
 20
992.4513669070092
 30
0.0
 11
1155.567169629086
 21
992.4513669070092
 31
0.0
  0
LINE
  5
12C0D
330
18
100
AcDbEntity
  8
0
100
AcDbLine
 10
1156.542169629088
 20
992.1013669070108
 30
0.0
 11
1156.542169629088
 21
992.4513669070092
 31
0.0
  0
LINE
  5
12C0E
330
18
100
AcDbEntity
  8
0
100
AcDbLine
 10
1155.567169629086
 20
992.1013669070108
 30
0.0
 11
1156.542169629088
 21
992.1013669070108
 31
0.0
  0
LINE
  5
12C0F
330
18
100
AcDbEntity
  8
0
100
AcDbLine
 10
1155.567169629086
 20
992.4513669070092
 30
0.0
 11
1155.567169629086
 21
992.1013669070108
 31
0.0
  0
LINE
  5
12C10
330
18
100
AcDbEntity
  8
0
100
AcDbLine
 10
1155.367169629089
 20
992.4513669070092
 30
0.0
 11
1154.392169629087
 21
992.4513669070092
 31
0.0
  0
LINE
  5
12C11
330
18
100
AcDbEntity
  8
0
100
AcDbLine
 10
1155.367169629089
 20
992.1013669070108
 30
0.0
 11
1155.367169629089
 21
992.4513669070092
 31
0.0
  0
LINE
  5
12C12
330
18
100
AcDbEntity
  8
0
100
AcDbLine
 10
1154.392169629087
 20
992.1013669070108
 30
0.0
 11
1155.367169629089
 21
992.1013669070108
 31
0.0
  0
LINE
  5
12C13
330
18
100
AcDbEntity
  8
0
100
AcDbLine
 10
1154.392169629087
 20
992.4513669070092
 30
0.0
 11
1154.392169629087
 21
992.1013669070108
 31
0.0
  0
LINE
  5
12C14
330
18
100
AcDbEntity
  8
0
100
AcDbLine
 10
1154.192169629086
 20
992.4513669070092
 30
0.0
 11
1153.217169629088
 21
992.4513669070092
 31
0.0
  0
LINE
  5
12C15
330
18
100
AcDbEntity
  8
0
100
AcDbLine
 10
1154.192169629086
 20
992.1013669070108
 30
0.0
 11
1154.192169629086
 21
992.4513669070092
 31
0.0
  0
LINE
  5
12C16
330
18
100
AcDbEntity
  8
0
100
AcDbLine
 10
1153.217169629088
 20
992.1013669070108
 30
0.0
 11
1154.192169629086
 21
992.1013669070108
 31
0.0
  0
LINE
  5
12C17
330
18
100
AcDbEntity
  8
0
100
AcDbLine
 10
1153.217169629088
 20
992.4513669070092
 30
0.0
 11
1153.217169629088
 21
992.1013669070108
 31
0.0
  0
LINE
  5
12C18
330
18
100
AcDbEntity
  8
0
100
AcDbLine
 10
1152.992169629089
 20
992.1013669070108
 30
0.0
 11
1152.992169629089
 21
992.4513669070092
 31
0.0
  0
LINE
  5
12C19
330
18
100
AcDbEntity
  8
0
100
AcDbLine
 10
1156.742169629089
 20
992.4513669070092
 30
0.0
 11
1156.742169629089
 21
992.1013669070108
 31
0.0
  0
LINE
  5
12C1A
330
18
100
AcDbEntity
  8
0
100
AcDbLine
 10
1151.817169629086
 20
992.4513669070092
 30
0.0
 11
1150.842169629088
 21
992.4513669070092
 31
0.0
  0
LINE
  5
12C1B
330
18
100
AcDbEntity
  8
0
100
AcDbLine
 10
1150.842169629088
 20
992.1013669070108
 30
0.0
 11
1151.817169629086
 21
992.1013669070108
 31
0.0
  0
LINE
  5
12C1C
330
18
100
AcDbEntity
  8
0
100
AcDbLine
 10
1152.017169629087
 20
992.4513669070092
 30
0.0
 11
1152.017169629087
 21
992.1013669070108
 31
0.0
  0
LINE
  5
12C1D
330
18
100
AcDbEntity
  8
0
100
AcDbLine
 10
1151.817169629086
 20
992.1013669070108
 30
0.0
 11
1151.817169629086
 21
992.4513669070092
 31
0.0
  0
LINE
  5
12C1E
330
18
100
AcDbEntity
  8
0
100
AcDbLine
 10
1150.617169629089
 20
992.4513669070092
 30
0.0
 11
1149.642169629087
 21
992.4513669070092
 31
0.0
  0
LINE
  5
12C1F
330
18
100
AcDbEntity
  8
0
100
AcDbLine
 10
1150.617169629089
 20
992.1013669070108
 30
0.0
 11
1150.617169629089
 21
992.4513669070092
 31
0.0
  0
LINE
  5
12C20
330
18
100
AcDbEntity
  8
0
100
AcDbLine
 10
1149.642169629087
 20
992.1013669070108
 30
0.0
 11
1150.617169629089
 21
992.1013669070108
 31
0.0
  0
LINE
  5
12C21
330
18
100
AcDbEntity
  8
0
100
AcDbLine
 10
1149.642169629087
 20
992.4513669070092
 30
0.0
 11
1149.642169629087
 21
992.1013669070108
 31
0.0
  0
LINE
  5
12C22
330
18
100
AcDbEntity
  8
0
100
AcDbLine
 10
1149.417169629088
 20
992.4763669070108
 30
0.0
 11
1148.442169629086
 21
992.4763669070108
 31
0.0
  0
LINE
  5
12C23
330
18
100
AcDbEntity
  8
0
100
AcDbLine
 10
1149.417169629088
 20
992.1263669070103
 30
0.0
 11
1149.417169629088
 21
992.4763669070108
 31
0.0
  0
LINE
  5
12C24
330
18
100
AcDbEntity
  8
0
100
AcDbLine
 10
1148.442169629086
 20
992.1263669070103
 30
0.0
 11
1149.417169629088
 21
992.1263669070103
 31
0.0
  0
LINE
  5
12C25
330
18
100
AcDbEntity
  8
0
100
AcDbLine
 10
1148.442169629086
 20
992.4763669070108
 30
0.0
 11
1148.442169629086
 21
992.1263669070103
 31
0.0
  0
LINE
  5
12C26
330
18
100
AcDbEntity
  8
0
100
AcDbLine
 10
1148.167169629088
 20
992.4763669070108
 30
0.0
 11
1147.192169629086
 21
992.4763669070108
 31
0.0
  0
LINE
  5
12C27
330
18
100
AcDbEntity
  8
0
100
AcDbLine
 10
1148.167169629088
 20
992.1263669070103
 30
0.0
 11
1148.167169629088
 21
992.4763669070108
 31
0.0
  0
LINE
  5
12C28
330
18
100
AcDbEntity
  8
0
100
AcDbLine
 10
1147.192169629086
 20
992.1263669070103
 30
0.0
 11
1148.167169629088
 21
992.1263669070103
 31
0.0
  0
LINE
  5
12C29
330
18
100
AcDbEntity
  8
0
100
AcDbLine
 10
1147.192169629086
 20
992.4763669070108
 30
0.0
 11
1147.192169629086
 21
992.1263669070103
 31
0.0
  0
LINE
  5
12C2A
330
18
100
AcDbEntity
  8
0
100
AcDbLine
 10
1146.992169629089
 20
992.4763669070108
 30
0.0
 11
1146.017169629087
 21
992.4763669070108
 31
0.0
  0
LINE
  5
12C2B
330
18
100
AcDbEntity
  8
0
100
AcDbLine
 10
1146.992169629089
 20
992.1263669070103
 30
0.0
 11
1146.992169629089
 21
992.4763669070108
 31
0.0
  0
LINE
  5
12C2C
330
18
100
AcDbEntity
  8
0
100
AcDbLine
 10
1146.017169629087
 20
992.1263669070103
 30
0.0
 11
1146.992169629089
 21
992.1263669070103
 31
0.0
  0
LINE
  5
12C2D
330
18
100
AcDbEntity
  8
0
100
AcDbLine
 10
1146.017169629087
 20
992.4763669070108
 30
0.0
 11
1146.017169629087
 21
992.1263669070103
 31
0.0
  0
LINE
  5
12C2E
330
18
100
AcDbEntity
  8
0
100
AcDbLine
 10
1150.842169629088
 20
992.4513669070092
 30
0.0
 11
1150.842169629088
 21
992.1013669070108
 31
0.0
  0
LINE
  5
12C2F
330
18
100
AcDbEntity
  8
0
100
AcDbLine
 10
1145.717169629087
 20
992.4763669070108
 30
0.0
 11
1144.742169629089
 21
992.4763669070108
 31
0.0
  0
LINE
  5
12C30
330
18
100
AcDbEntity
  8
0
100
AcDbLine
 10
1145.717169629087
 20
992.1263669070103
 30
0.0
 11
1145.717169629087
 21
992.4763669070108
 31
0.0
  0
LINE
  5
12C31
330
18
100
AcDbEntity
  8
0
100
AcDbLine
 10
1144.742169629089
 20
992.1263669070103
 30
0.0
 11
1145.717169629087
 21
992.1263669070103
 31
0.0
  0
LINE
  5
12C32
330
18
100
AcDbEntity
  8
0
100
AcDbLine
 10
1144.742169629089
 20
992.4763669070108
 30
0.0
 11
1144.742169629089
 21
992.1263669070103
 31
0.0
  0
LINE
  5
12C33
330
18
100
AcDbEntity
  8
0
100
AcDbLine
 10
1144.367169629089
 20
992.4763669070108
 30
0.0
 11
1143.417169629088
 21
992.4763669070108
 31
0.0
  0
LINE
  5
12C34
330
18
100
AcDbEntity
  8
0
100
AcDbLine
 10
1144.367169629089
 20
992.1263669070103
 30
0.0
 11
1144.367169629089
 21
992.4763669070108
 31
0.0
  0
LINE
  5
12C35
330
18
100
AcDbEntity
  8
0
100
AcDbLine
 10
1143.417169629088
 20
992.1263669070103
 30
0.0
 11
1144.367169629089
 21
992.1263669070103
 31
0.0
  0
LINE
  5
12C36
330
18
100
AcDbEntity
  8
0
100
AcDbLine
 10
1143.417169629088
 20
992.4763669070108
 30
0.0
 11
1143.417169629088
 21
992.1263669070103
 31
0.0
  0
LINE
  5
12C37
330
18
100
AcDbEntity
  8
0
100
AcDbLine
 10
1143.117169629089
 20
992.4763669070108
 30
0.0
 11
1142.142169629087
 21
992.4763669070108
 31
0.0
  0
LINE
  5
12C38
330
18
100
AcDbEntity
  8
0
100
AcDbLine
 10
1143.117169629089
 20
992.1263669070103
 30
0.0
 11
1143.117169629089
 21
992.4763669070108
 31
0.0
  0
LINE
  5
12C39
330
18
100
AcDbEntity
  8
0
100
AcDbLine
 10
1142.142169629087
 20
992.1263669070103
 30
0.0
 11
1143.117169629089
 21
992.1263669070103
 31
0.0
  0
LINE
  5
12C3A
330
18
100
AcDbEntity
  8
0
100
AcDbLine
 10
1142.142169629087
 20
992.4763669070108
 30
0.0
 11
1142.142169629087
 21
992.1263669070103
 31
0.0
  0
LINE
  5
12C3B
330
18
100
AcDbEntity
  8
0
100
AcDbLine
 10
1141.892169629087
 20
992.1263669070103
 30
0.0
 11
1141.892169629087
 21
992.4763669070108
 31
0.0
  0
LINE
  5
12C3C
330
18
100
AcDbEntity
  8
0
100
AcDbLine
 10
1137.517169629087
 20
993.0763669070092
 30
0.0
 11
1136.592169629087
 21
989.3763669070104
 31
0.0
  0
LINE
  5
12C3D
330
18
100
AcDbEntity
  8
0
100
AcDbLine
 10
1133.867169629089
 20
992.8263669070092
 30
0.0
 11
1133.867169629089
 21
989.2513669070103
 31
0.0
  0
LINE
  5
12C3E
330
18
100
AcDbEntity
  8
0
100
AcDbLine
 10
1134.967169629087
 20
994.7513669070103
 30
0.0
 11
1134.967169629087
 21
987.1263669070103
 31
0.0
  0
LINE
  5
12C3F
330
18
100
AcDbEntity
  8
0
100
AcDbLine
 10
1140.917169629088
 20
989.7013669070092
 30
0.0
 11
1140.917169629088
 21
989.3513669070108
 31
0.0
  0
LINE
  5
12C40
330
18
100
AcDbEntity
  8
0
100
AcDbLine
 10
1140.642169629087
 20
989.7013669070092
 30
0.0
 11
1139.642169629087
 21
989.7013669070092
 31
0.0
  0
LINE
  5
12C41
330
18
100
AcDbEntity
  8
0
100
AcDbLine
 10
1140.642169629087
 20
989.3513669070108
 30
0.0
 11
1140.642169629087
 21
989.7013669070092
 31
0.0
  0
LINE
  5
12C42
330
18
100
AcDbEntity
  8
0
100
AcDbLine
 10
1139.642169629087
 20
989.3513669070108
 30
0.0
 11
1140.642169629087
 21
989.3513669070108
 31
0.0
  0
LINE
  5
12C43
330
18
100
AcDbEntity
  8
0
100
AcDbLine
 10
1139.642169629087
 20
989.7013669070092
 30
0.0
 11
1139.642169629087
 21
989.3513669070108
 31
0.0
  0
LINE
  5
12C44
330
18
100
AcDbEntity
  8
0
100
AcDbLine
 10
1132.892169629087
 20
989.2513669070103
 30
0.0
 11
1133.867169629089
 21
989.2513669070103
 31
0.0
  0
LINE
  5
12C45
330
18
100
AcDbEntity
  8
0
100
AcDbLine
 10
1132.892169629087
 20
987.1263669070103
 30
0.0
 11
1134.967169629087
 21
987.1263669070103
 31
0.0
  0
LINE
  5
12C46
330
18
100
AcDbEntity
  8
0
100
AcDbLine
 10
1132.892169629087
 20
989.2513669070103
 30
0.0
 11
1132.892169629087
 21
987.1263669070103
 31
0.0
  0
ELLIPSE
  5
12C47
330
18
100
AcDbEntity
  8
0
100
AcDbEllipse
 10
1137.767169629087
 20
989.1013669070106
 30
0.0
 11
-1.25
 21
0.0000000000000001
 31
0.0
210
0.0
220
0.0
230
1.0
 40
0.98
 41
6.03468
 42
8.053399307179585
  0
LINE
  5
12C48
330
18
100
AcDbEntity
  8
0
100
AcDbLine
 10
1140.917169629088
 20
992.4763669070108
 30
0.0
 11
1140.917169629088
 21
992.1263669070103
 31
0.0
  0
LINE
  5
12C49
330
18
100
AcDbEntity
  8
0
100
AcDbLine
 10
1140.642169629087
 20
992.4763669070108
 30
0.0
 11
1139.642169629087
 21
992.4763669070108
 31
0.0
  0
LINE
  5
12C4A
330
18
100
AcDbEntity
  8
0
100
AcDbLine
 10
1140.642169629087
 20
992.1263669070103
 30
0.0
 11
1140.642169629087
 21
992.4763669070108
 31
0.0
  0
LINE
  5
12C4B
330
18
100
AcDbEntity
  8
0
100
AcDbLine
 10
1139.642169629087
 20
992.1263669070103
 30
0.0
 11
1140.642169629087
 21
992.1263669070103
 31
0.0
  0
LINE
  5
12C4C
330
18
100
AcDbEntity
  8
0
100
AcDbLine
 10
1139.642169629087
 20
992.4763669070108
 30
0.0
 11
1139.642169629087
 21
992.1263669070103
 31
0.0
  0
LINE
  5
12C4D
330
18
100
AcDbEntity
  8
0
100
AcDbLine
 10
1132.892169629087
 20
994.7513669070103
 30
0.0
 11
1134.967169629087
 21
994.7513669070103
 31
0.0
  0
LINE
  5
12C4E
330
18
100
AcDbEntity
  8
0
100
AcDbLine
 10
1132.867169629089
 20
992.8263669070092
 30
0.0
 11
1133.842169629087
 21
992.8263669070092
 31
0.0
  0
LINE
  5
12C4F
330
18
100
AcDbEntity
  8
0
100
AcDbLine
 10
1132.892169629087
 20
994.7513669070103
 30
0.0
 11
1132.892169629087
 21
992.8263669070092
 31
0.0
  0
ELLIPSE
  5
12C50
330
18
100
AcDbEntity
  8
0
100
AcDbEllipse
 10
1131.667169629088
 20
990.9513669070092
 30
0.0
 11
-0.775
 21
0.0
 31
0.0
210
0.0
220
0.0
230
1.0
 40
0.9677419999999999
 41
0.0
 42
6.283184999999999
  0
ELLIPSE
  5
12C51
330
18
100
AcDbEntity
  8
0
100
AcDbEllipse
 10
1138.692169629086
 20
992.7763669070101
 30
0.0
 11
-1.25
 21
0.0000000000000001
 31
0.0
210
0.0
220
0.0
230
1.0
 40
0.98
 41
4.509903999999999
 42
6.059223999999999
  0
LINE
  5
12C52
330
18
100
AcDbEntity
  8
0
100
AcDbLine
 10
1174.792169629088
 20
995.5513669070096
 30
0.0
 11
1174.792169629088
 21
997.1513669070118
 31
0.0
  0
LINE
  5
12C53
330
18
100
AcDbEntity
  8
0
100
AcDbLine
 10
1179.792169629088
 20
995.5513669070096
 30
0.0
 11
1179.792169629088
 21
997.1513669070118
 31
0.0
  0
LINE
  5
12C54
330
18
100
AcDbEntity
  8
0
 48
3.0
100
AcDbLine
 10
1177.542169629088
 20
1002.15136690701
 30
0.0
 11
1172.042169629088
 21
1002.15136690701
 31
0.0
  0
LINE
  5
12C55
330
18
100
AcDbEntity
  8
0
 48
3.0
100
AcDbLine
 10
1177.542169629088
 20
997.15136690701
 30
0.0
 11
1177.542169629088
 21
1002.15136690701
 31
0.0
  0
LINE
  5
12C56
330
18
100
AcDbEntity
  8
0
 48
3.0
100
AcDbLine
 10
1174.792169629088
 20
997.15136690701
 30
0.0
 11
1174.792169629088
 21
1002.15136690701
 31
0.0
  0
LINE
  5
12C57
330
18
100
AcDbEntity
  8
0
 48
3.0
100
AcDbLine
 10
1172.042169629088
 20
997.15136690701
 30
0.0
 11
1172.042169629088
 21
1002.15136690701
 31
0.0
  0
LINE
  5
12C5B
330
18
100
AcDbEntity
  8
0
 48
3.0
100
AcDbLine
 10
1177.542169629088
 20
997.15136690701
 30
0.0
 11
1172.042169629088
 21
997.15136690701
 31
0.0
  0
LINE
  5
12C5D
330
18
100
AcDbEntity
  8
0
 48
3.0
100
AcDbLine
 10
1177.542169629088
 20
982.5513669070105
 30
0.0
 11
1177.542169629088
 21
995.5513669070105
 31
0.0
  0
LINE
  5
12C5E
330
18
100
AcDbEntity
  8
0
 48
3.0
100
AcDbLine
 10
1174.792169629088
 20
982.5513669070105
 30
0.0
 11
1174.792169629088
 21
995.5513669070105
 31
0.0
  0
LINE
  5
12C5F
330
18
100
AcDbEntity
  8
0
 48
3.0
100
AcDbLine
 10
1172.042169629088
 20
982.5513669070105
 30
0.0
 11
1172.042169629088
 21
986.3263669070093
 31
0.0
  0
LINE
  5
12C60
330
18
100
AcDbEntity
  8
0
 48
3.0
100
AcDbLine
 10
1177.542169629088
 20
982.5513669070105
 30
0.0
 11
1172.042169629088
 21
982.5513669070105
 31
0.0
  0
LINE
  5
12C64
330
18
100
AcDbEntity
  8
0
100
AcDbLine
 10
1194.792169629088
 20
1002.15136690701
 30
0.0
 11
1194.792169629088
 21
1003.15136690701
 31
0.0
  0
LINE
  5
12C65
330
18
100
AcDbEntity
  8
0
100
AcDbLine
 10
1206.292169629088
 20
988.5513669070098
 30
0.0
 11
1205.292169629088
 21
988.5513669070098
 31
0.0
  0
LINE
  5
12C66
330
18
100
AcDbEntity
  8
0
 48
0.2
100
AcDbLine
 10
1201.292169629092
 20
988.5513669070098
 30
0.0
 11
1201.292169629088
 21
977.5513669070098
 31
0.0
  0
LINE
  5
12C67
330
18
100
AcDbEntity
  8
0
100
AcDbLine
 10
1206.292169629088
 20
988.5513669070098
 30
0.0
 11
1206.292169629088
 21
976.5513669070099
 31
0.0
  0
LINE
  5
12C68
330
18
100
AcDbEntity
  8
0
100
AcDbLine
 10
1205.292169629088
 20
988.5513669070098
 30
0.0
 11
1205.292169629088
 21
977.5513669070098
 31
0.0
  0
LINE
  5
12C69
330
18
100
AcDbEntity
  8
0
100
AcDbLine
 10
1177.792169629088
 20
982.5513669070099
 30
0.0
 11
1171.792169629088
 21
982.5513669070099
 31
0.0
  0
LINE
  5
12C6A
330
18
100
AcDbEntity
  8
0
100
AcDbLine
 10
1177.792169629088
 20
982.5513669070099
 30
0.0
 11
1177.792169629088
 21
977.5513669070098
 31
0.0
  0
LINE
  5
12C6B
330
18
100
AcDbEntity
  8
0
100
AcDbLine
 10
1171.792169629088
 20
982.5513669070099
 30
0.0
 11
1171.792169629088
 21
977.5513669070098
 31
0.0
  0
LINE
  5
12C6C
330
18
100
AcDbEntity
  8
0
 48
0.2
100
AcDbLine
 10
1205.292169629088
 20
980.5513669070098
 30
0.0
 11
1205.292169629088
 21
984.5513669070099
 31
0.0
  0
LINE
  5
12C6D
330
18
100
AcDbEntity
  8
0
 48
0.2
100
AcDbLine
 10
1205.292169629088
 20
980.5513669070098
 30
0.0
 11
1204.292169629088
 21
981.0513669070099
 31
0.0
  0
LINE
  5
12C6E
330
18
100
AcDbEntity
  8
0
 48
0.2
100
AcDbLine
 10
1204.292169629088
 20
984.0513669070098
 30
0.0
 11
1205.292169629088
 21
984.5513669070099
 31
0.0
  0
LINE
  5
12C6F
330
18
100
AcDbEntity
  8
0
 48
0.2
100
AcDbLine
 10
1204.292169629088
 20
984.0513669070098
 30
0.0
 11
1204.292169629088
 21
981.0513669070099
 31
0.0
  0
LINE
  5
12C70
330
18
100
AcDbEntity
  8
0
100
AcDbLine
 10
1121.042169629085
 20
974.0513669070097
 30
0.0
 11
1121.042169629085
 21
930.5513669070096
 31
0.0
  0
LINE
  5
12C71
330
18
100
AcDbEntity
  8
0
100
AcDbLine
 10
1118.042169629084
 20
974.0513669070097
 30
0.0
 11
1118.042169629084
 21
930.5513669070096
 31
0.0
  0
LINE
  5
12C72
330
18
100
AcDbEntity
  8
0
100
AcDbLine
 10
1089.542169629085
 20
974.0513669070097
 30
0.0
 11
1089.542169629085
 21
936.5513669070097
 31
0.0
  0
LINE
  5
12C73
330
18
100
AcDbEntity
  8
0
100
AcDbLine
 10
1095.542169629085
 20
974.0513669070097
 30
0.0
 11
1095.542169629085
 21
930.5513669070096
 31
0.0
  0
LINE
  5
12C74
330
18
100
AcDbEntity
  8
0
100
AcDbLine
 10
1048.792169629081
 20
936.1513669070101
 30
0.0
 11
1012.792169629085
 21
936.1513669070101
 31
0.0
  0
LINE
  5
12C75
330
18
100
AcDbEntity
  8
0
100
AcDbLine
 10
1048.792169629081
 20
937.7513669070095
 30
0.0
 11
1012.792169629085
 21
937.7513669070095
 31
0.0
  0
LINE
  5
12C76
330
18
100
AcDbEntity
  8
0
100
AcDbLine
 10
1012.792169629085
 20
930.5513669070096
 30
0.0
 11
1012.792169629085
 21
938.5513669070096
 31
0.0
  0
LINE
  5
12C77
330
18
100
AcDbEntity
  8
0
100
AcDbLine
 10
1031.332169629086
 20
958.2513669070104
 30
0.0
 11
1031.332169629086
 21
955.7513669070095
 31
0.0
  0
LINE
  5
12C78
330
18
100
AcDbEntity
  8
0
100
AcDbLine
 10
1028.332169629085
 20
958.2513669070094
 30
0.0
 11
1028.332169629085
 21
955.7513669070095
 31
0.0
  0
LINE
  5
12C79
330
18
100
AcDbEntity
  8
0
100
AcDbLine
 10
1028.332169629085
 20
955.7513669070095
 30
0.0
 11
1031.332169629086
 21
955.7513669070095
 31
0.0
  0
LINE
  5
12C7A
330
18
100
AcDbEntity
  8
0
100
AcDbLine
 10
1028.332169629085
 20
958.2513669070094
 30
0.0
 11
1031.332169629086
 21
958.2513669070104
 31
0.0
  0
LINE
  5
12C7B
330
18
100
AcDbEntity
  8
0
100
AcDbLine
 10
1031.832169629085
 20
953.7513669070094
 30
0.0
 11
1031.332169629086
 21
955.7513669070095
 31
0.0
  0
LINE
  5
12C7C
330
18
100
AcDbEntity
  8
0
100
AcDbLine
 10
1031.832169629085
 20
960.7513669070094
 30
0.0
 11
1031.332169629086
 21
958.2513669070094
 31
0.0
  0
LINE
  5
12C7D
330
18
100
AcDbEntity
  8
0
100
AcDbLine
 10
1031.832169629085
 20
960.7513669070094
 30
0.0
 11
1031.832169629085
 21
953.7513669070094
 31
0.0
  0
LINE
  5
12C7E
330
18
100
AcDbEntity
  8
0
100
AcDbLine
 10
1028.332169629085
 20
955.7513669070095
 30
0.0
 11
1027.832169629085
 21
953.7513669070094
 31
0.0
  0
LINE
  5
12C7F
330
18
100
AcDbEntity
  8
0
100
AcDbLine
 10
1028.332169629085
 20
958.2513669070094
 30
0.0
 11
1027.832169629085
 21
960.7513669070094
 31
0.0
  0
LINE
  5
12C80
330
18
100
AcDbEntity
  8
0
100
AcDbLine
 10
1027.832169629085
 20
960.7513669070094
 30
0.0
 11
1027.832169629085
 21
953.7513669070094
 31
0.0
  0
LINE
  5
12C81
330
18
100
AcDbEntity
  8
0
100
AcDbLine
 10
1046.332169629086
 20
958.2513669070104
 30
0.0
 11
1046.332169629086
 21
955.7513669070095
 31
0.0
  0
LINE
  5
12C82
330
18
100
AcDbEntity
  8
0
100
AcDbLine
 10
1043.332169629086
 20
958.2513669070094
 30
0.0
 11
1043.332169629086
 21
955.7513669070095
 31
0.0
  0
LINE
  5
12C83
330
18
100
AcDbEntity
  8
0
100
AcDbLine
 10
1043.332169629086
 20
955.7513669070095
 30
0.0
 11
1046.332169629086
 21
955.7513669070095
 31
0.0
  0
LINE
  5
12C84
330
18
100
AcDbEntity
  8
0
100
AcDbLine
 10
1043.332169629086
 20
958.2513669070094
 30
0.0
 11
1046.332169629086
 21
958.2513669070104
 31
0.0
  0
LINE
  5
12C85
330
18
100
AcDbEntity
  8
0
100
AcDbLine
 10
1046.832169629085
 20
953.7513669070094
 30
0.0
 11
1046.332169629086
 21
955.7513669070095
 31
0.0
  0
LINE
  5
12C86
330
18
100
AcDbEntity
  8
0
100
AcDbLine
 10
1046.832169629085
 20
960.7513669070094
 30
0.0
 11
1046.332169629086
 21
958.2513669070094
 31
0.0
  0
LINE
  5
12C87
330
18
100
AcDbEntity
  8
0
100
AcDbLine
 10
1046.832169629085
 20
960.7513669070094
 30
0.0
 11
1046.832169629085
 21
953.7513669070094
 31
0.0
  0
LINE
  5
12C88
330
18
100
AcDbEntity
  8
0
100
AcDbLine
 10
1043.332169629086
 20
955.7513669070095
 30
0.0
 11
1042.832169629086
 21
953.7513669070094
 31
0.0
  0
LINE
  5
12C89
330
18
100
AcDbEntity
  8
0
100
AcDbLine
 10
1043.332169629086
 20
958.2513669070094
 30
0.0
 11
1042.832169629086
 21
960.7513669070094
 31
0.0
  0
LINE
  5
12C8A
330
18
100
AcDbEntity
  8
0
100
AcDbLine
 10
1042.832169629086
 20
960.7513669070094
 30
0.0
 11
1042.832169629086
 21
953.7513669070094
 31
0.0
  0
LINE
  5
12C8B
330
18
100
AcDbEntity
  8
0
100
AcDbLine
 10
1035.332169629086
 20
960.7513669070094
 30
0.0
 11
1035.332169629086
 21
953.7513669070094
 31
0.0
  0
LINE
  5
12C8C
330
18
100
AcDbEntity
  8
0
100
AcDbLine
 10
1035.832169629085
 20
958.2513669070094
 30
0.0
 11
1035.332169629086
 21
960.7513669070094
 31
0.0
  0
LINE
  5
12C8D
330
18
100
AcDbEntity
  8
0
100
AcDbLine
 10
1035.832169629085
 20
955.7513669070095
 30
0.0
 11
1035.332169629086
 21
953.7513669070094
 31
0.0
  0
LINE
  5
12C8E
330
18
100
AcDbEntity
  8
0
100
AcDbLine
 10
1039.332169629086
 20
960.7513669070094
 30
0.0
 11
1039.332169629086
 21
953.7513669070094
 31
0.0
  0
LINE
  5
12C8F
330
18
100
AcDbEntity
  8
0
100
AcDbLine
 10
1039.332169629086
 20
960.7513669070094
 30
0.0
 11
1038.832169629085
 21
958.2513669070094
 31
0.0
  0
LINE
  5
12C90
330
18
100
AcDbEntity
  8
0
100
AcDbLine
 10
1039.332169629086
 20
953.7513669070094
 30
0.0
 11
1038.832169629085
 21
955.7513669070095
 31
0.0
  0
LINE
  5
12C91
330
18
100
AcDbEntity
  8
0
100
AcDbLine
 10
1035.832169629085
 20
958.2513669070094
 30
0.0
 11
1038.832169629085
 21
958.2513669070104
 31
0.0
  0
LINE
  5
12C92
330
18
100
AcDbEntity
  8
0
100
AcDbLine
 10
1035.832169629085
 20
955.7513669070095
 30
0.0
 11
1038.832169629085
 21
955.7513669070095
 31
0.0
  0
LINE
  5
12C93
330
18
100
AcDbEntity
  8
0
100
AcDbLine
 10
1035.832169629085
 20
958.2513669070094
 30
0.0
 11
1035.832169629085
 21
955.7513669070095
 31
0.0
  0
LINE
  5
12C94
330
18
100
AcDbEntity
  8
0
100
AcDbLine
 10
1038.832169629085
 20
958.2513669070104
 30
0.0
 11
1038.832169629085
 21
955.7513669070095
 31
0.0
  0
LINE
  5
12C95
330
18
100
AcDbEntity
  8
0
100
AcDbLine
 10
1027.082169629085
 20
960.7513669070094
 30
0.0
 11
1047.582169629085
 21
960.7513669070103
 31
0.0
  0
LINE
  5
12C96
330
18
100
AcDbEntity
  8
0
100
AcDbLine
 10
1027.082169629085
 20
953.7513669070094
 30
0.0
 11
1047.582169629085
 21
953.7513669070094
 31
0.0
  0
LINE
  5
12C97
330
18
100
AcDbEntity
  8
0
100
AcDbLine
 10
1027.082169629085
 20
967.4513669070092
 30
0.0
 11
1047.582169629085
 21
967.4513669070101
 31
0.0
  0
LINE
  5
12C98
330
18
100
AcDbEntity
  8
0
100
AcDbLine
 10
1027.082169629085
 20
949.7513669070094
 30
0.0
 11
1027.082169629085
 21
968.9513669070093
 31
0.0
  0
LINE
  5
12C99
330
18
100
AcDbEntity
  8
0
100
AcDbLine
 10
1027.082169629085
 20
968.9513669070093
 30
0.0
 11
1047.582169629085
 21
968.9513669070102
 31
0.0
  0
LINE
  5
12C9A
330
18
100
AcDbEntity
  8
0
100
AcDbLine
 10
1047.582169629085
 20
949.7513669070094
 30
0.0
 11
1047.582169629085
 21
968.9513669070102
 31
0.0
  0
LINE
  5
12C9B
330
18
100
AcDbEntity
  8
0
100
AcDbLine
 10
1027.082169629085
 20
937.7513669070095
 30
0.0
 11
1047.582169629085
 21
937.7513669070095
 31
0.0
  0
LINE
  5
12C9C
330
18
100
AcDbEntity
  8
0
100
AcDbLine
 10
1027.082169629085
 20
949.7513669070094
 30
0.0
 11
1047.582169629085
 21
949.7513669070094
 31
0.0
  0
LINE
  5
12C9D
330
18
100
AcDbEntity
  8
0
100
AcDbLine
 10
1047.582169629085
 20
949.7513669070094
 30
0.0
 11
1047.582169629085
 21
937.7513669070095
 31
0.0
  0
LINE
  5
12C9E
330
18
100
AcDbEntity
  8
0
100
AcDbLine
 10
1027.082169629085
 20
949.7513669070094
 30
0.0
 11
1027.082169629085
 21
937.7513669070095
 31
0.0
  0
LINE
  5
12C9F
330
18
100
AcDbEntity
  8
0
100
AcDbLine
 10
1048.792169629081
 20
937.7513669070095
 30
0.0
 11
1048.792169629081
 21
936.1513669070101
 31
0.0
  0
LINE
  5
12CA0
330
18
100
AcDbEntity
  8
0
100
AcDbLine
 10
1095.542169629085
 20
971.0513669070095
 30
0.0
 11
1118.042169629084
 21
971.0513669070095
 31
0.0
  0
LINE
  5
12CA1
330
18
100
AcDbEntity
  8
0
100
AcDbLine
 10
1124.292169629085
 20
964.5513669070096
 30
0.0
 11
1124.292169629085
 21
956.5513669070096
 31
0.0
  0
LINE
  5
12CA2
330
18
100
AcDbEntity
  8
0
100
AcDbLine
 10
1114.792169629085
 20
964.5513669070096
 30
0.0
 11
1114.792169629085
 21
956.5513669070096
 31
0.0
  0
LINE
  5
12CA3
330
18
100
AcDbEntity
  8
0
100
AcDbLine
 10
1076.042169629084
 20
936.5513669070097
 30
0.0
 11
1076.042169629084
 21
930.5513669070096
 31
0.0
  0
LINE
  5
12CA4
330
18
100
AcDbEntity
  8
0
100
AcDbLine
 10
1098.792169629085
 20
964.5513669070096
 30
0.0
 11
1098.792169629085
 21
956.5513669070096
 31
0.0
  0
LINE
  5
12CA5
330
18
100
AcDbEntity
  8
0
100
AcDbLine
 10
1095.542169629085
 20
956.5513669070096
 30
0.0
 11
1118.042169629084
 21
956.5513669070096
 31
0.0
  0
LINE
  5
12CA6
330
18
100
AcDbEntity
  8
0
100
AcDbLine
 10
1098.792169629085
 20
964.5513669070096
 30
0.0
 11
1114.792169629085
 21
964.5513669070096
 31
0.0
  0
LINE
  5
12CA7
330
18
100
AcDbEntity
  8
0
100
AcDbLine
 10
1021.792169629092
 20
977.5513669070097
 30
0.0
 11
1011.792169629092
 21
977.5513669070097
 31
0.0
  0
LINE
  5
12CA8
330
18
100
AcDbEntity
  8
0
100
AcDbLine
 10
1021.792169629092
 20
978.5513669070097
 30
0.0
 11
1012.792169629092
 21
978.5513669070097
 31
0.0
  0
LINE
  5
12CA9
330
18
100
AcDbEntity
  8
0
100
AcDbLine
 10
1021.792169629092
 20
978.5513669070097
 30
0.0
 11
1021.792169629092
 21
977.5513669070097
 31
0.0
  0
LINE
  5
12CAA
330
18
100
AcDbEntity
  8
0
100
AcDbLine
 10
1094.792169629088
 20
994.5513669070097
 30
0.0
 11
1094.792169629088
 21
979.5513669070096
 31
0.0
  0
LINE
  5
12CAB
330
18
100
AcDbEntity
  8
0
100
AcDbLine
 10
1081.792169629088
 20
979.5513669070096
 30
0.0
 11
1081.792169629088
 21
994.5513669070097
 31
0.0
  0
LINE
  5
12CAC
330
18
100
AcDbEntity
  8
0
100
AcDbLine
 10
1094.792169629088
 20
979.5513669070096
 30
0.0
 11
1081.792169629088
 21
979.5513669070096
 31
0.0
  0
LINE
  5
12CAD
330
18
100
AcDbEntity
  8
0
100
AcDbLine
 10
1093.792169629088
 20
979.15136690701
 30
0.0
 11
1089.792169629088
 21
979.15136690701
 31
0.0
  0
LINE
  5
12CAE
330
18
100
AcDbEntity
  8
0
100
AcDbLine
 10
1082.792169629088
 20
979.15136690701
 30
0.0
 11
1086.792169629088
 21
979.15136690701
 31
0.0
  0
LINE
  5
12CAF
330
18
100
AcDbEntity
  8
0
100
AcDbLine
 10
1081.367169629089
 20
980.5513669070096
 30
0.0
 11
1081.367169629089
 21
984.5513669070097
 31
0.0
  0
LINE
  5
12CB0
330
18
100
AcDbEntity
  8
0
100
AcDbLine
 10
1095.142169629087
 20
980.5513669070096
 30
0.0
 11
1095.142169629087
 21
984.5513669070097
 31
0.0
  0
LINE
  5
12CB1
330
18
100
AcDbEntity
  8
0
100
AcDbLine
 10
1093.792169629088
 20
980.5513669070096
 30
0.0
 11
1082.792169629088
 21
980.5513669070096
 31
0.0
  0
LINE
  5
12CB2
330
18
100
AcDbEntity
  8
0
100
AcDbLine
 10
1082.792169629088
 20
982.5513669070096
 30
0.0
 11
1093.792169629088
 21
982.5513669070096
 31
0.0
  0
LINE
  5
12CB3
330
18
100
AcDbEntity
  8
0
100
AcDbLine
 10
1091.792169629088
 20
982.5513669070096
 30
0.0
 11
1091.792169629088
 21
983.1013669070108
 31
0.0
  0
LINE
  5
12CB4
330
18
100
AcDbEntity
  8
0
100
AcDbLine
 10
1092.792169629088
 20
982.5513669070096
 30
0.0
 11
1091.792169629088
 21
982.5513669070096
 31
0.0
  0
LINE
  5
12CB5
330
18
100
AcDbEntity
  8
0
100
AcDbLine
 10
1092.792169629088
 20
983.1013669070108
 30
0.0
 11
1092.792169629088
 21
982.5513669070096
 31
0.0
  0
LINE
  5
12CB6
330
18
100
AcDbEntity
  8
0
100
AcDbLine
 10
1091.792169629088
 20
983.1013669070108
 30
0.0
 11
1092.792169629088
 21
983.1013669070108
 31
0.0
  0
LINE
  5
12CB7
330
18
100
AcDbEntity
  8
0
100
AcDbLine
 10
1089.392169629087
 20
982.5513669070096
 30
0.0
 11
1089.392169629087
 21
983.1013669070108
 31
0.0
  0
LINE
  5
12CB8
330
18
100
AcDbEntity
  8
0
100
AcDbLine
 10
1090.392169629087
 20
982.5513669070096
 30
0.0
 11
1089.392169629087
 21
982.5513669070096
 31
0.0
  0
LINE
  5
12CB9
330
18
100
AcDbEntity
  8
0
100
AcDbLine
 10
1090.392169629087
 20
983.1013669070108
 30
0.0
 11
1090.392169629087
 21
982.5513669070096
 31
0.0
  0
LINE
  5
12CBA
330
18
100
AcDbEntity
  8
0
100
AcDbLine
 10
1089.392169629087
 20
983.1013669070108
 30
0.0
 11
1090.392169629087
 21
983.1013669070108
 31
0.0
  0
LINE
  5
12CBB
330
18
100
AcDbEntity
  8
0
100
AcDbLine
 10
1093.792169629088
 20
982.5513669070096
 30
0.0
 11
1093.792169629088
 21
980.5513669070096
 31
0.0
  0
LINE
  5
12CBC
330
18
100
AcDbEntity
  8
0
100
AcDbLine
 10
1082.792169629088
 20
980.5513669070096
 30
0.0
 11
1082.792169629088
 21
982.5513669070096
 31
0.0
  0
LINE
  5
12CBD
330
18
100
AcDbEntity
  8
0
100
AcDbLine
 10
1086.192169629086
 20
982.5513669070096
 30
0.0
 11
1086.192169629086
 21
983.1013669070108
 31
0.0
  0
LINE
  5
12CBE
330
18
100
AcDbEntity
  8
0
100
AcDbLine
 10
1087.192169629086
 20
982.5513669070096
 30
0.0
 11
1086.192169629086
 21
982.5513669070096
 31
0.0
  0
LINE
  5
12CBF
330
18
100
AcDbEntity
  8
0
100
AcDbLine
 10
1087.192169629086
 20
983.1013669070108
 30
0.0
 11
1087.192169629086
 21
982.5513669070096
 31
0.0
  0
LINE
  5
12CC0
330
18
100
AcDbEntity
  8
0
100
AcDbLine
 10
1086.192169629086
 20
983.1013669070108
 30
0.0
 11
1087.192169629086
 21
983.1013669070108
 31
0.0
  0
LINE
  5
12CC1
330
18
100
AcDbEntity
  8
0
100
AcDbLine
 10
1083.792169629088
 20
982.5513669070096
 30
0.0
 11
1083.792169629088
 21
983.1013669070108
 31
0.0
  0
LINE
  5
12CC2
330
18
100
AcDbEntity
  8
0
100
AcDbLine
 10
1084.792169629088
 20
982.5513669070096
 30
0.0
 11
1083.792169629088
 21
982.5513669070096
 31
0.0
  0
LINE
  5
12CC3
330
18
100
AcDbEntity
  8
0
100
AcDbLine
 10
1084.792169629088
 20
983.1013669070108
 30
0.0
 11
1084.792169629088
 21
982.5513669070096
 31
0.0
  0
LINE
  5
12CC4
330
18
100
AcDbEntity
  8
0
100
AcDbLine
 10
1083.792169629088
 20
983.1013669070108
 30
0.0
 11
1084.792169629088
 21
983.1013669070108
 31
0.0
  0
LINE
  5
12CC5
330
18
100
AcDbEntity
  8
0
100
AcDbLine
 10
1109.117169629089
 20
989.7013669070092
 30
0.0
 11
1108.142169629087
 21
989.7013669070092
 31
0.0
  0
LINE
  5
12CC6
330
18
100
AcDbEntity
  8
0
100
AcDbLine
 10
1108.142169629087
 20
989.3513669070108
 30
0.0
 11
1109.117169629089
 21
989.3513669070108
 31
0.0
  0
LINE
  5
12CC7
330
18
100
AcDbEntity
  8
0
100
AcDbLine
 10
1114.167169629088
 20
989.7013669070092
 30
0.0
 11
1113.192169629086
 21
989.7013669070092
 31
0.0
  0
LINE
  5
12CC8
330
18
100
AcDbEntity
  8
0
100
AcDbLine
 10
1113.192169629086
 20
989.3513669070108
 30
0.0
 11
1114.167169629088
 21
989.3513669070108
 31
0.0
  0
LINE
  5
12CC9
330
18
100
AcDbEntity
  8
0
100
AcDbLine
 10
1114.167169629088
 20
989.3513669070108
 30
0.0
 11
1114.167169629088
 21
989.7013669070092
 31
0.0
  0
LINE
  5
12CCA
330
18
100
AcDbEntity
  8
0
100
AcDbLine
 10
1112.992169629089
 20
989.7013669070092
 30
0.0
 11
1112.017169629087
 21
989.7013669070092
 31
0.0
  0
LINE
  5
12CCB
330
18
100
AcDbEntity
  8
0
100
AcDbLine
 10
1112.017169629087
 20
989.3513669070108
 30
0.0
 11
1112.992169629089
 21
989.3513669070108
 31
0.0
  0
LINE
  5
12CCC
330
18
100
AcDbEntity
  8
0
100
AcDbLine
 10
1113.192169629086
 20
989.7013669070092
 30
0.0
 11
1113.192169629086
 21
989.3513669070108
 31
0.0
  0
LINE
  5
12CCD
330
18
100
AcDbEntity
  8
0
100
AcDbLine
 10
1112.992169629089
 20
989.3513669070108
 30
0.0
 11
1112.992169629089
 21
989.7013669070092
 31
0.0
  0
LINE
  5
12CCE
330
18
100
AcDbEntity
  8
0
100
AcDbLine
 10
1111.717169629087
 20
989.7013669070092
 30
0.0
 11
1110.742169629089
 21
989.7013669070092
 31
0.0
  0
LINE
  5
12CCF
330
18
100
AcDbEntity
  8
0
100
AcDbLine
 10
1111.717169629087
 20
989.3513669070108
 30
0.0
 11
1111.717169629087
 21
989.7013669070092
 31
0.0
  0
LINE
  5
12CD0
330
18
100
AcDbEntity
  8
0
100
AcDbLine
 10
1110.742169629089
 20
989.3513669070108
 30
0.0
 11
1111.717169629087
 21
989.3513669070108
 31
0.0
  0
LINE
  5
12CD1
330
18
100
AcDbEntity
  8
0
100
AcDbLine
 10
1110.742169629089
 20
989.7013669070092
 30
0.0
 11
1110.742169629089
 21
989.3513669070108
 31
0.0
  0
LINE
  5
12CD2
330
18
100
AcDbEntity
  8
0
100
AcDbLine
 10
1110.367169629089
 20
989.7013669070092
 30
0.0
 11
1109.417169629088
 21
989.7013669070092
 31
0.0
  0
LINE
  5
12CD3
330
18
100
AcDbEntity
  8
0
100
AcDbLine
 10
1110.367169629089
 20
989.3513669070108
 30
0.0
 11
1110.367169629089
 21
989.7013669070092
 31
0.0
  0
LINE
  5
12CD4
330
18
100
AcDbEntity
  8
0
100
AcDbLine
 10
1109.417169629088
 20
989.3513669070108
 30
0.0
 11
1110.367169629089
 21
989.3513669070108
 31
0.0
  0
LINE
  5
12CD5
330
18
100
AcDbEntity
  8
0
100
AcDbLine
 10
1109.417169629088
 20
989.7013669070092
 30
0.0
 11
1109.417169629088
 21
989.3513669070108
 31
0.0
  0
LINE
  5
12CD6
330
18
100
AcDbEntity
  8
0
100
AcDbLine
 10
1109.117169629089
 20
989.3513669070108
 30
0.0
 11
1109.117169629089
 21
989.7013669070092
 31
0.0
  0
LINE
  5
12CD7
330
18
100
AcDbEntity
  8
0
100
AcDbLine
 10
1112.017169629087
 20
989.7013669070092
 30
0.0
 11
1112.017169629087
 21
989.3513669070108
 31
0.0
  0
LINE
  5
12CD8
330
18
100
AcDbEntity
  8
0
100
AcDbLine
 10
1107.892169629087
 20
989.7013669070092
 30
0.0
 11
1106.917169629088
 21
989.7013669070092
 31
0.0
  0
LINE
  5
12CD9
330
18
100
AcDbEntity
  8
0
100
AcDbLine
 10
1106.917169629088
 20
989.3513669070108
 30
0.0
 11
1107.892169629087
 21
989.3513669070108
 31
0.0
  0
LINE
  5
12CDA
330
18
100
AcDbEntity
  8
0
100
AcDbLine
 10
1108.142169629087
 20
989.7013669070092
 30
0.0
 11
1108.142169629087
 21
989.3513669070108
 31
0.0
  0
LINE
  5
12CDB
330
18
100
AcDbEntity
  8
0
100
AcDbLine
 10
1107.892169629087
 20
989.3513669070108
 30
0.0
 11
1107.892169629087
 21
989.7013669070092
 31
0.0
  0
LINE
  5
12CDC
330
18
100
AcDbEntity
  8
0
100
AcDbLine
 10
1106.917169629088
 20
989.7013669070092
 30
0.0
 11
1106.917169629088
 21
989.3513669070108
 31
0.0
  0
LINE
  5
12CDD
330
18
100
AcDbEntity
  8
0
100
AcDbLine
 10
1109.117169629089
 20
992.4763669070108
 30
0.0
 11
1108.142169629087
 21
992.4763669070108
 31
0.0
  0
LINE
  5
12CDE
330
18
100
AcDbEntity
  8
0
100
AcDbLine
 10
1108.142169629087
 20
992.1263669070103
 30
0.0
 11
1109.117169629089
 21
992.1263669070103
 31
0.0
  0
LINE
  5
12CDF
330
18
100
AcDbEntity
  8
0
100
AcDbLine
 10
1114.167169629088
 20
992.4763669070108
 30
0.0
 11
1113.192169629086
 21
992.4763669070108
 31
0.0
  0
LINE
  5
12CE0
330
18
100
AcDbEntity
  8
0
100
AcDbLine
 10
1113.192169629086
 20
992.1263669070103
 30
0.0
 11
1114.167169629088
 21
992.1263669070103
 31
0.0
  0
LINE
  5
12CE1
330
18
100
AcDbEntity
  8
0
100
AcDbLine
 10
1114.167169629088
 20
992.1263669070103
 30
0.0
 11
1114.167169629088
 21
992.4763669070108
 31
0.0
  0
LINE
  5
12CE2
330
18
100
AcDbEntity
  8
0
100
AcDbLine
 10
1112.992169629089
 20
992.4763669070108
 30
0.0
 11
1112.017169629087
 21
992.4763669070108
 31
0.0
  0
LINE
  5
12CE3
330
18
100
AcDbEntity
  8
0
100
AcDbLine
 10
1112.017169629087
 20
992.1263669070103
 30
0.0
 11
1112.992169629089
 21
992.1263669070103
 31
0.0
  0
LINE
  5
12CE4
330
18
100
AcDbEntity
  8
0
100
AcDbLine
 10
1113.192169629086
 20
992.4763669070108
 30
0.0
 11
1113.192169629086
 21
992.1263669070103
 31
0.0
  0
LINE
  5
12CE5
330
18
100
AcDbEntity
  8
0
100
AcDbLine
 10
1112.992169629089
 20
992.1263669070103
 30
0.0
 11
1112.992169629089
 21
992.4763669070108
 31
0.0
  0
LINE
  5
12CE6
330
18
100
AcDbEntity
  8
0
100
AcDbLine
 10
1111.717169629087
 20
992.4763669070108
 30
0.0
 11
1110.742169629089
 21
992.4763669070108
 31
0.0
  0
LINE
  5
12CE7
330
18
100
AcDbEntity
  8
0
100
AcDbLine
 10
1111.717169629087
 20
992.1263669070103
 30
0.0
 11
1111.717169629087
 21
992.4763669070108
 31
0.0
  0
LINE
  5
12CE8
330
18
100
AcDbEntity
  8
0
100
AcDbLine
 10
1110.742169629089
 20
992.1263669070103
 30
0.0
 11
1111.717169629087
 21
992.1263669070103
 31
0.0
  0
LINE
  5
12CE9
330
18
100
AcDbEntity
  8
0
100
AcDbLine
 10
1110.742169629089
 20
992.4763669070108
 30
0.0
 11
1110.742169629089
 21
992.1263669070103
 31
0.0
  0
LINE
  5
12CEA
330
18
100
AcDbEntity
  8
0
100
AcDbLine
 10
1110.367169629089
 20
992.4763669070108
 30
0.0
 11
1109.417169629088
 21
992.4763669070108
 31
0.0
  0
LINE
  5
12CEB
330
18
100
AcDbEntity
  8
0
100
AcDbLine
 10
1110.367169629089
 20
992.1263669070103
 30
0.0
 11
1110.367169629089
 21
992.4763669070108
 31
0.0
  0
LINE
  5
12CEC
330
18
100
AcDbEntity
  8
0
100
AcDbLine
 10
1109.417169629088
 20
992.1263669070103
 30
0.0
 11
1110.367169629089
 21
992.1263669070103
 31
0.0
  0
LINE
  5
12CED
330
18
100
AcDbEntity
  8
0
100
AcDbLine
 10
1109.417169629088
 20
992.4763669070108
 30
0.0
 11
1109.417169629088
 21
992.1263669070103
 31
0.0
  0
LINE
  5
12CEE
330
18
100
AcDbEntity
  8
0
100
AcDbLine
 10
1109.117169629089
 20
992.1263669070103
 30
0.0
 11
1109.117169629089
 21
992.4763669070108
 31
0.0
  0
LINE
  5
12CEF
330
18
100
AcDbEntity
  8
0
100
AcDbLine
 10
1112.017169629087
 20
992.4763669070108
 30
0.0
 11
1112.017169629087
 21
992.1263669070103
 31
0.0
  0
LINE
  5
12CF0
330
18
100
AcDbEntity
  8
0
100
AcDbLine
 10
1107.892169629087
 20
992.4763669070108
 30
0.0
 11
1106.917169629088
 21
992.4763669070108
 31
0.0
  0
LINE
  5
12CF1
330
18
100
AcDbEntity
  8
0
100
AcDbLine
 10
1106.917169629088
 20
992.1263669070103
 30
0.0
 11
1107.892169629087
 21
992.1263669070103
 31
0.0
  0
LINE
  5
12CF2
330
18
100
AcDbEntity
  8
0
100
AcDbLine
 10
1108.142169629087
 20
992.4763669070108
 30
0.0
 11
1108.142169629087
 21
992.1263669070103
 31
0.0
  0
LINE
  5
12CF3
330
18
100
AcDbEntity
  8
0
100
AcDbLine
 10
1107.892169629087
 20
992.1263669070103
 30
0.0
 11
1107.892169629087
 21
992.4763669070108
 31
0.0
  0
LINE
  5
12CF4
330
18
100
AcDbEntity
  8
0
100
AcDbLine
 10
1106.917169629088
 20
992.4763669070108
 30
0.0
 11
1106.917169629088
 21
992.1263669070103
 31
0.0
  0
LINE
  5
12CF5
330
18
100
AcDbEntity
  8
0
100
AcDbLine
 10
1124.442169629086
 20
994.7513669070103
 30
0.0
 11
1122.367169629089
 21
994.7513669070103
 31
0.0
  0
LINE
  5
12CF6
330
18
100
AcDbEntity
  8
0
100
AcDbLine
 10
1124.442169629086
 20
987.1263669070103
 30
0.0
 11
1122.367169629089
 21
987.1263669070103
 31
0.0
  0
LINE
  5
12CF7
330
18
100
AcDbEntity
  8
0
100
AcDbLine
 10
1123.467169629088
 20
992.8263669070092
 30
0.0
 11
1123.467169629088
 21
989.2513669070103
 31
0.0
  0
LINE
  5
12CF8
330
18
100
AcDbEntity
  8
0
100
AcDbLine
 10
1129.292169629088
 20
995.5513669070096
 30
0.0
 11
1129.292169629088
 21
986.3263669070093
 31
0.0
  0
LINE
  5
12CF9
330
18
100
AcDbEntity
  8
0
100
AcDbLine
 10
1128.617169629089
 20
986.3263669070093
 30
0.0
 11
1128.617169629089
 21
995.5513669070096
 31
0.0
  0
LINE
  5
12CFA
330
18
100
AcDbEntity
  8
0
100
AcDbLine
 10
1124.442169629086
 20
989.2513669070103
 30
0.0
 11
1123.467169629088
 21
989.2513669070103
 31
0.0
  0
LINE
  5
12CFB
330
18
100
AcDbEntity
  8
0
100
AcDbLine
 10
1124.442169629086
 20
989.2513669070103
 30
0.0
 11
1124.442169629086
 21
987.1263669070103
 31
0.0
  0
LINE
  5
12CFC
330
18
100
AcDbEntity
  8
0
100
AcDbLine
 10
1124.442169629086
 20
994.7513669070103
 30
0.0
 11
1124.442169629086
 21
992.8263669070092
 31
0.0
  0
LINE
  5
12CFD
330
18
100
AcDbEntity
  8
0
100
AcDbLine
 10
1124.467169629087
 20
992.8263669070092
 30
0.0
 11
1123.492169629089
 21
992.8263669070092
 31
0.0
  0
ELLIPSE
  5
12CFE
330
18
100
AcDbEntity
  8
0
100
AcDbEllipse
 10
1125.342169629088
 20
990.9513669070092
 30
0.0
 11
-0.775
 21
0.0
 31
0.0
210
0.0
220
0.0
230
1.0
 40
0.9677419999999999
 41
0.0
 42
6.283184999999999
  0
LINE
  5
12CFF
330
18
100
AcDbEntity
  8
0
100
AcDbLine
 10
1120.942169629086
 20
989.3763669070104
 30
0.0
 11
1119.967169629088
 21
993.0763669070092
 31
0.0
  0
LINE
  5
12D00
330
18
100
AcDbEntity
  8
0
100
AcDbLine
 10
1122.367169629089
 20
994.7513669070103
 30
0.0
 11
1122.367169629089
 21
987.1263669070103
 31
0.0
  0
LINE
  5
12D01
330
18
100
AcDbEntity
  8
0
100
AcDbLine
 10
1117.817169629086
 20
989.6763669070097
 30
0.0
 11
1116.842169629087
 21
989.6763669070097
 31
0.0
  0
LINE
  5
12D02
330
18
100
AcDbEntity
  8
0
100
AcDbLine
 10
1116.842169629087
 20
989.3263669070092
 30
0.0
 11
1117.817169629086
 21
989.3263669070092
 31
0.0
  0
LINE
  5
12D03
330
18
100
AcDbEntity
  8
0
100
AcDbLine
 10
1117.817169629086
 20
989.3263669070092
 30
0.0
 11
1117.817169629086
 21
989.6763669070097
 31
0.0
  0
LINE
  5
12D04
330
18
100
AcDbEntity
  8
0
100
AcDbLine
 10
1116.842169629087
 20
989.6763669070097
 30
0.0
 11
1116.842169629087
 21
989.3263669070092
 31
0.0
  0
LINE
  5
12D05
330
18
100
AcDbEntity
  8
0
100
AcDbLine
 10
1116.617169629089
 20
989.6763669070097
 30
0.0
 11
1115.642169629087
 21
989.6763669070097
 31
0.0
  0
LINE
  5
12D06
330
18
100
AcDbEntity
  8
0
100
AcDbLine
 10
1116.617169629089
 20
989.3263669070092
 30
0.0
 11
1116.617169629089
 21
989.6763669070097
 31
0.0
  0
LINE
  5
12D07
330
18
100
AcDbEntity
  8
0
100
AcDbLine
 10
1115.642169629087
 20
989.3263669070092
 30
0.0
 11
1116.617169629089
 21
989.3263669070092
 31
0.0
  0
LINE
  5
12D08
330
18
100
AcDbEntity
  8
0
100
AcDbLine
 10
1115.642169629087
 20
989.6763669070097
 30
0.0
 11
1115.642169629087
 21
989.3263669070092
 31
0.0
  0
LINE
  5
12D09
330
18
100
AcDbEntity
  8
0
100
AcDbLine
 10
1115.417169629088
 20
989.7013669070092
 30
0.0
 11
1114.442169629086
 21
989.7013669070092
 31
0.0
  0
LINE
  5
12D0A
330
18
100
AcDbEntity
  8
0
100
AcDbLine
 10
1115.417169629088
 20
989.3513669070108
 30
0.0
 11
1115.417169629088
 21
989.7013669070092
 31
0.0
  0
LINE
  5
12D0B
330
18
100
AcDbEntity
  8
0
100
AcDbLine
 10
1114.442169629086
 20
989.3513669070108
 30
0.0
 11
1115.417169629088
 21
989.3513669070108
 31
0.0
  0
LINE
  5
12D0C
330
18
100
AcDbEntity
  8
0
100
AcDbLine
 10
1114.442169629086
 20
989.7013669070092
 30
0.0
 11
1114.442169629086
 21
989.3513669070108
 31
0.0
  0
ELLIPSE
  5
12D0D
330
18
100
AcDbEntity
  8
0
100
AcDbEllipse
 10
1119.692169629086
 20
989.1013669070106
 30
0.0
 11
-1.25
 21
0.0000000000000001
 31
0.0
210
0.0
220
0.0
230
1.0
 40
0.98
 41
1.708854999999999
 42
3.380894
  0
LINE
  5
12D0E
330
18
100
AcDbEntity
  8
0
100
AcDbLine
 10
1117.817169629086
 20
992.4513669070092
 30
0.0
 11
1116.842169629087
 21
992.4513669070092
 31
0.0
  0
LINE
  5
12D0F
330
18
100
AcDbEntity
  8
0
100
AcDbLine
 10
1116.842169629087
 20
992.1013669070108
 30
0.0
 11
1117.817169629086
 21
992.1013669070108
 31
0.0
  0
LINE
  5
12D10
330
18
100
AcDbEntity
  8
0
100
AcDbLine
 10
1117.817169629086
 20
992.1013669070108
 30
0.0
 11
1117.817169629086
 21
992.4513669070092
 31
0.0
  0
LINE
  5
12D11
330
18
100
AcDbEntity
  8
0
100
AcDbLine
 10
1116.842169629087
 20
992.4513669070092
 30
0.0
 11
1116.842169629087
 21
992.1013669070108
 31
0.0
  0
LINE
  5
12D12
330
18
100
AcDbEntity
  8
0
100
AcDbLine
 10
1116.617169629089
 20
992.4513669070092
 30
0.0
 11
1115.642169629087
 21
992.4513669070092
 31
0.0
  0
LINE
  5
12D13
330
18
100
AcDbEntity
  8
0
100
AcDbLine
 10
1116.617169629089
 20
992.1013669070108
 30
0.0
 11
1116.617169629089
 21
992.4513669070092
 31
0.0
  0
LINE
  5
12D14
330
18
100
AcDbEntity
  8
0
100
AcDbLine
 10
1115.642169629087
 20
992.1013669070108
 30
0.0
 11
1116.617169629089
 21
992.1013669070108
 31
0.0
  0
LINE
  5
12D15
330
18
100
AcDbEntity
  8
0
100
AcDbLine
 10
1115.642169629087
 20
992.4513669070092
 30
0.0
 11
1115.642169629087
 21
992.1013669070108
 31
0.0
  0
LINE
  5
12D16
330
18
100
AcDbEntity
  8
0
100
AcDbLine
 10
1115.417169629088
 20
992.4763669070108
 30
0.0
 11
1114.442169629086
 21
992.4763669070108
 31
0.0
  0
LINE
  5
12D17
330
18
100
AcDbEntity
  8
0
100
AcDbLine
 10
1115.417169629088
 20
992.1263669070103
 30
0.0
 11
1115.417169629088
 21
992.4763669070108
 31
0.0
  0
LINE
  5
12D18
330
18
100
AcDbEntity
  8
0
100
AcDbLine
 10
1114.442169629086
 20
992.1263669070103
 30
0.0
 11
1115.417169629088
 21
992.1263669070103
 31
0.0
  0
LINE
  5
12D19
330
18
100
AcDbEntity
  8
0
100
AcDbLine
 10
1114.442169629086
 20
992.4763669070108
 30
0.0
 11
1114.442169629086
 21
992.1263669070103
 31
0.0
  0
ELLIPSE
  5
12D1A
330
18
100
AcDbEntity
  8
0
100
AcDbEllipse
 10
1118.717169629088
 20
992.7763669070101
 30
0.0
 11
-1.25
 21
0.0000000000000001
 31
0.0
210
0.0
220
0.0
230
1.0
 40
0.98
 41
3.380894
 42
4.528311
  0
LINE
  5
12D1B
330
18
100
AcDbEntity
  8
0
 48
3.0
100
AcDbLine
 10
1037.542169629088
 20
997.1513669070116
 30
0.0
 11
1032.042169629088
 21
997.1513669070118
 31
0.0
  0
LINE
  5
12D1F
330
18
100
AcDbEntity
  8
0
 48
3.0
100
AcDbLine
 10
1032.042169629088
 20
997.1513669070118
 30
0.0
 11
1032.042169629088
 21
1002.151366907011
 31
0.0
  0
LINE
  5
12D20
330
18
100
AcDbEntity
  8
0
 48
3.0
100
AcDbLine
 10
1034.792169629088
 20
997.1513669070118
 30
0.0
 11
1034.792169629088
 21
1002.151366907011
 31
0.0
  0
LINE
  5
12D21
330
18
100
AcDbEntity
  8
0
 48
3.0
100
AcDbLine
 10
1037.542169629088
 20
997.1513669070116
 30
0.0
 11
1037.542169629088
 21
1002.151366907011
 31
0.0
  0
LINE
  5
12D22
330
18
100
AcDbEntity
  8
0
 48
3.0
100
AcDbLine
 10
1037.542169629088
 20
1002.151366907011
 30
0.0
 11
1032.042169629088
 21
1002.151366907011
 31
0.0
  0
LINE
  5
12D23
330
18
100
AcDbEntity
  8
0
100
AcDbLine
 10
1093.792169629088
 20
989.5513669070096
 30
0.0
 11
1082.792169629088
 21
989.5513669070096
 31
0.0
  0
LINE
  5
12D24
330
18
100
AcDbEntity
  8
0
100
AcDbLine
 10
1082.792169629088
 20
991.5513669070096
 30
0.0
 11
1093.792169629088
 21
991.5513669070096
 31
0.0
  0
LINE
  5
12D25
330
18
100
AcDbEntity
  8
0
100
AcDbLine
 10
1081.792169629088
 20
994.5513669070097
 30
0.0
 11
1094.792169629088
 21
994.5513669070097
 31
0.0
  0
LINE
  5
12D26
330
18
100
AcDbEntity
  8
0
100
AcDbLine
 10
1081.792169629088
 20
985.5513669070097
 30
0.0
 11
1094.792169629088
 21
985.5513669070097
 31
0.0
  0
LINE
  5
12D27
330
18
100
AcDbEntity
  8
0
100
AcDbLine
 10
1081.792169629088
 20
988.5513669070096
 30
0.0
 11
1094.792169629088
 21
988.5513669070096
 31
0.0
  0
LINE
  5
12D28
330
18
100
AcDbEntity
  8
0
100
AcDbLine
 10
1095.142169629087
 20
993.5513669070097
 30
0.0
 11
1095.142169629087
 21
989.5513669070096
 31
0.0
  0
LINE
  5
12D29
330
18
100
AcDbEntity
  8
0
100
AcDbLine
 10
1093.792169629088
 20
991.5513669070096
 30
0.0
 11
1093.792169629088
 21
989.5513669070096
 31
0.0
  0
LINE
  5
12D2A
330
18
100
AcDbEntity
  8
0
100
AcDbLine
 10
1095.292169629088
 20
995.5513669070096
 30
0.0
 11
1095.292169629088
 21
986.3263669070093
 31
0.0
  0
LINE
  5
12D2B
330
18
100
AcDbEntity
  8
0
100
AcDbLine
 10
1093.792169629088
 20
994.9513669070093
 30
0.0
 11
1089.792169629088
 21
994.9513669070093
 31
0.0
  0
LINE
  5
12D2C
330
18
100
AcDbEntity
  8
0
100
AcDbLine
 10
1091.792169629088
 20
991.5513669070096
 30
0.0
 11
1091.792169629088
 21
992.1013669070108
 31
0.0
  0
LINE
  5
12D2D
330
18
100
AcDbEntity
  8
0
100
AcDbLine
 10
1092.792169629088
 20
991.5513669070096
 30
0.0
 11
1091.792169629088
 21
991.5513669070096
 31
0.0
  0
LINE
  5
12D2E
330
18
100
AcDbEntity
  8
0
100
AcDbLine
 10
1092.792169629088
 20
992.1013669070108
 30
0.0
 11
1092.792169629088
 21
991.5513669070096
 31
0.0
  0
LINE
  5
12D2F
330
18
100
AcDbEntity
  8
0
100
AcDbLine
 10
1091.792169629088
 20
992.1013669070108
 30
0.0
 11
1092.792169629088
 21
992.1013669070108
 31
0.0
  0
LINE
  5
12D30
330
18
100
AcDbEntity
  8
0
100
AcDbLine
 10
1089.392169629087
 20
991.5513669070096
 30
0.0
 11
1089.392169629087
 21
992.1013669070108
 31
0.0
  0
LINE
  5
12D31
330
18
100
AcDbEntity
  8
0
100
AcDbLine
 10
1090.392169629087
 20
991.5513669070096
 30
0.0
 11
1089.392169629087
 21
991.5513669070096
 31
0.0
  0
LINE
  5
12D32
330
18
100
AcDbEntity
  8
0
100
AcDbLine
 10
1090.392169629087
 20
992.1013669070108
 30
0.0
 11
1090.392169629087
 21
991.5513669070096
 31
0.0
  0
LINE
  5
12D33
330
18
100
AcDbEntity
  8
0
100
AcDbLine
 10
1089.392169629087
 20
992.1013669070108
 30
0.0
 11
1090.392169629087
 21
992.1013669070108
 31
0.0
  0
LINE
  5
12D34
330
18
100
AcDbEntity
  8
0
100
AcDbLine
 10
1082.792169629088
 20
989.5513669070096
 30
0.0
 11
1082.792169629088
 21
991.5513669070096
 31
0.0
  0
LINE
  5
12D35
330
18
100
AcDbEntity
  8
0
100
AcDbLine
 10
1081.367169629089
 20
993.5513669070097
 30
0.0
 11
1081.367169629089
 21
989.5513669070096
 31
0.0
  0
LINE
  5
12D36
330
18
100
AcDbEntity
  8
0
100
AcDbLine
 10
1080.467169629087
 20
986.3263669070093
 30
0.0
 11
1080.467169629087
 21
995.5513669070096
 31
0.0
  0
LINE
  5
12D37
330
18
100
AcDbEntity
  8
0
100
AcDbLine
 10
1086.192169629086
 20
991.5513669070096
 30
0.0
 11
1086.192169629086
 21
992.1013669070108
 31
0.0
  0
LINE
  5
12D38
330
18
100
AcDbEntity
  8
0
100
AcDbLine
 10
1087.192169629086
 20
991.5513669070096
 30
0.0
 11
1086.192169629086
 21
991.5513669070096
 31
0.0
  0
LINE
  5
12D39
330
18
100
AcDbEntity
  8
0
100
AcDbLine
 10
1087.192169629086
 20
992.1013669070108
 30
0.0
 11
1087.192169629086
 21
991.5513669070096
 31
0.0
  0
LINE
  5
12D3A
330
18
100
AcDbEntity
  8
0
100
AcDbLine
 10
1086.192169629086
 20
992.1013669070108
 30
0.0
 11
1087.192169629086
 21
992.1013669070108
 31
0.0
  0
LINE
  5
12D3B
330
18
100
AcDbEntity
  8
0
100
AcDbLine
 10
1083.792169629088
 20
991.5513669070096
 30
0.0
 11
1083.792169629088
 21
992.1013669070108
 31
0.0
  0
LINE
  5
12D3C
330
18
100
AcDbEntity
  8
0
100
AcDbLine
 10
1084.792169629088
 20
991.5513669070096
 30
0.0
 11
1083.792169629088
 21
991.5513669070096
 31
0.0
  0
LINE
  5
12D3D
330
18
100
AcDbEntity
  8
0
100
AcDbLine
 10
1084.792169629088
 20
992.1013669070108
 30
0.0
 11
1084.792169629088
 21
991.5513669070096
 31
0.0
  0
LINE
  5
12D3E
330
18
100
AcDbEntity
  8
0
100
AcDbLine
 10
1083.792169629088
 20
992.1013669070108
 30
0.0
 11
1084.792169629088
 21
992.1013669070108
 31
0.0
  0
LINE
  5
12D3F
330
18
100
AcDbEntity
  8
0
100
AcDbLine
 10
1082.792169629088
 20
994.9513669070093
 30
0.0
 11
1086.792169629088
 21
994.9513669070093
 31
0.0
  0
LINE
  5
12D40
330
18
100
AcDbEntity
  8
0
100
AcDbLine
 10
1070.242169629089
 20
989.7013669070092
 30
0.0
 11
1069.267169629087
 21
989.7013669070092
 31
0.0
  0
LINE
  5
12D41
330
18
100
AcDbEntity
  8
0
100
AcDbLine
 10
1069.267169629087
 20
989.3513669070108
 30
0.0
 11
1070.242169629089
 21
989.3513669070108
 31
0.0
  0
LINE
  5
12D42
330
18
100
AcDbEntity
  8
0
100
AcDbLine
 10
1070.242169629089
 20
992.4763669070108
 30
0.0
 11
1069.267169629087
 21
992.4763669070108
 31
0.0
  0
LINE
  5
12D43
330
18
100
AcDbEntity
  8
0
100
AcDbLine
 10
1069.267169629087
 20
992.1263669070103
 30
0.0
 11
1070.242169629089
 21
992.1263669070103
 31
0.0
  0
LINE
  5
12D44
330
18
100
AcDbEntity
  8
0
100
AcDbLine
 10
1060.267169629087
 20
987.8763669070103
 30
0.0
 11
1071.617169629089
 21
987.8763669070103
 31
0.0
  0
LINE
  5
12D45
330
18
100
AcDbEntity
  8
0
100
AcDbLine
 10
1070.542169629088
 20
994.0013669070104
 30
0.0
 11
1061.192169629086
 21
994.0013669070104
 31
0.0
  0
LWPOLYLINE
  5
12D46
330
18
100
AcDbEntity
  8
0
100
AcDbPolyline
 90
        4
 70
     1
 43
0.0
 10
1060.867169629089
 20
992.8263669070092
 10
1060.867169629089
 20
989.1263669070104
 10
1071.092169629088
 20
989.1263669070104
 10
1071.092169629088
 20
992.8263669070092
  0
LINE
  5
12D47
330
18
100
AcDbEntity
  8
0
100
AcDbLine
 10
1075.292169629088
 20
992.8263669070092
 30
0.0
 11
1075.292169629088
 21
989.2513669070103
 31
0.0
  0
LINE
  5
12D48
330
18
100
AcDbEntity
  8
0
100
AcDbLine
 10
1072.767169629087
 20
989.3763669070104
 30
0.0
 11
1071.792169629088
 21
993.0763669070092
 31
0.0
  0
LINE
  5
12D49
330
18
100
AcDbEntity
  8
0
100
AcDbLine
 10
1074.192169629086
 20
994.7513669070103
 30
0.0
 11
1074.192169629086
 21
987.1263669070103
 31
0.0
  0
LINE
  5
12D4A
330
18
100
AcDbEntity
  8
0
100
AcDbLine
 10
1076.267169629087
 20
989.2513669070103
 30
0.0
 11
1075.292169629088
 21
989.2513669070103
 31
0.0
  0
LINE
  5
12D4B
330
18
100
AcDbEntity
  8
0
100
AcDbLine
 10
1070.242169629089
 20
989.3513669070108
 30
0.0
 11
1070.242169629089
 21
989.7013669070092
 31
0.0
  0
LINE
  5
12D4C
330
18
100
AcDbEntity
  8
0
100
AcDbLine
 10
1076.267169629087
 20
987.1263669070103
 30
0.0
 11
1074.192169629086
 21
987.1263669070103
 31
0.0
  0
LINE
  5
12D4D
330
18
100
AcDbEntity
  8
0
100
AcDbLine
 10
1076.267169629087
 20
989.2513669070103
 30
0.0
 11
1076.267169629087
 21
987.1263669070103
 31
0.0
  0
ELLIPSE
  5
12D4E
330
18
100
AcDbEntity
  8
0
100
AcDbEllipse
 10
1071.517169629087
 20
989.1013669070106
 30
0.0
 11
-1.25
 21
0.0000000000000001
 31
0.0
210
0.0
220
0.0
230
1.0
 40
0.98
 41
1.708854999999999
 42
3.380894
  0
LINE
  5
12D4F
330
18
100
AcDbEntity
  8
0
100
AcDbLine
 10
1076.267169629087
 20
994.7513669070103
 30
0.0
 11
1074.192169629086
 21
994.7513669070103
 31
0.0
  0
LINE
  5
12D50
330
18
100
AcDbEntity
  8
0
100
AcDbLine
 10
1076.292169629088
 20
992.8263669070092
 30
0.0
 11
1075.317169629086
 21
992.8263669070092
 31
0.0
  0
LINE
  5
12D51
330
18
100
AcDbEntity
  8
0
100
AcDbLine
 10
1076.267169629087
 20
994.7513669070103
 30
0.0
 11
1076.267169629087
 21
992.8263669070092
 31
0.0
  0
LINE
  5
12D52
330
18
100
AcDbEntity
  8
0
100
AcDbLine
 10
1070.242169629089
 20
992.1263669070103
 30
0.0
 11
1070.242169629089
 21
992.4763669070108
 31
0.0
  0
ELLIPSE
  5
12D53
330
18
100
AcDbEntity
  8
0
100
AcDbEllipse
 10
1070.542169629088
 20
992.7763669070101
 30
0.0
 11
-1.25
 21
0.0000000000000001
 31
0.0
210
0.0
220
0.0
230
1.0
 40
0.98
 41
3.380894
 42
4.528311
  0
ELLIPSE
  5
12D54
330
18
100
AcDbEntity
  8
0
100
AcDbEllipse
 10
1077.167169629088
 20
990.9513669070092
 30
0.0
 11
-0.775
 21
0.0
 31
0.0
210
0.0
220
0.0
230
1.0
 40
0.9677419999999999
 41
0.0
 42
6.283184999999999
  0
LINE
  5
12D55
330
18
100
AcDbEntity
  8
0
100
AcDbLine
 10
1029.792169629088
 20
995.5513669070114
 30
0.0
 11
1029.792169629088
 21
997.1513669070118
 31
0.0
  0
LINE
  5
12D56
330
18
100
AcDbEntity
  8
0
100
AcDbLine
 10
1055.392169629087
 20
989.2513669070103
 30
0.0
 11
1056.367169629089
 21
989.2513669070103
 31
0.0
  0
LINE
  5
12D57
330
18
100
AcDbEntity
  8
0
100
AcDbLine
 10
1055.392169629087
 20
987.1263669070103
 30
0.0
 11
1057.467169629088
 21
987.1263669070103
 31
0.0
  0
LINE
  5
12D58
330
18
100
AcDbEntity
  8
0
100
AcDbLine
 10
1055.392169629087
 20
994.7513669070103
 30
0.0
 11
1057.467169629088
 21
994.7513669070103
 31
0.0
  0
LINE
  5
12D59
330
18
100
AcDbEntity
  8
0
100
AcDbLine
 10
1055.367169629089
 20
992.8263669070092
 30
0.0
 11
1056.342169629088
 21
992.8263669070092
 31
0.0
  0
LINE
  5
12D5A
330
18
100
AcDbEntity
  8
0
100
AcDbLine
 10
1060.017169629087
 20
993.0763669070092
 30
0.0
 11
1059.092169629088
 21
989.3763669070104
 31
0.0
  0
LINE
  5
12D5B
330
18
100
AcDbEntity
  8
0
100
AcDbLine
 10
1056.367169629089
 20
992.8263669070092
 30
0.0
 11
1056.367169629089
 21
989.2513669070103
 31
0.0
  0
LINE
  5
12D5C
330
18
100
AcDbEntity
  8
0
100
AcDbLine
 10
1057.467169629088
 20
994.7513669070103
 30
0.0
 11
1057.467169629088
 21
987.1263669070103
 31
0.0
  0
LINE
  5
12D5D
330
18
100
AcDbEntity
  8
0
100
AcDbLine
 10
1062.992169629089
 20
989.7013669070092
 30
0.0
 11
1062.992169629089
 21
989.3513669070108
 31
0.0
  0
LINE
  5
12D5E
330
18
100
AcDbEntity
  8
0
100
AcDbLine
 10
1062.717169629088
 20
989.7013669070092
 30
0.0
 11
1061.717169629088
 21
989.7013669070092
 31
0.0
  0
LINE
  5
12D5F
330
18
100
AcDbEntity
  8
0
100
AcDbLine
 10
1061.717169629088
 20
989.3513669070108
 30
0.0
 11
1062.717169629088
 21
989.3513669070108
 31
0.0
  0
LINE
  5
12D60
330
18
100
AcDbEntity
  8
0
100
AcDbLine
 10
1062.717169629088
 20
989.3513669070108
 30
0.0
 11
1062.717169629088
 21
989.7013669070092
 31
0.0
  0
LINE
  5
12D61
330
18
100
AcDbEntity
  8
0
100
AcDbLine
 10
1061.717169629088
 20
989.7013669070092
 30
0.0
 11
1061.717169629088
 21
989.3513669070108
 31
0.0
  0
LINE
  5
12D62
330
18
100
AcDbEntity
  8
0
100
AcDbLine
 10
1069.067169629086
 20
989.7013669070092
 30
0.0
 11
1068.092169629087
 21
989.7013669070092
 31
0.0
  0
LINE
  5
12D63
330
18
100
AcDbEntity
  8
0
100
AcDbLine
 10
1068.092169629087
 20
989.3513669070108
 30
0.0
 11
1069.067169629086
 21
989.3513669070108
 31
0.0
  0
LINE
  5
12D64
330
18
100
AcDbEntity
  8
0
100
AcDbLine
 10
1069.267169629087
 20
989.7013669070092
 30
0.0
 11
1069.267169629087
 21
989.3513669070108
 31
0.0
  0
LINE
  5
12D65
330
18
100
AcDbEntity
  8
0
100
AcDbLine
 10
1069.067169629086
 20
989.3513669070108
 30
0.0
 11
1069.067169629086
 21
989.7013669070092
 31
0.0
  0
LINE
  5
12D66
330
18
100
AcDbEntity
  8
0
100
AcDbLine
 10
1067.792169629088
 20
989.7013669070092
 30
0.0
 11
1066.817169629086
 21
989.7013669070092
 31
0.0
  0
LINE
  5
12D67
330
18
100
AcDbEntity
  8
0
100
AcDbLine
 10
1067.792169629088
 20
989.3513669070108
 30
0.0
 11
1067.792169629088
 21
989.7013669070092
 31
0.0
  0
LINE
  5
12D68
330
18
100
AcDbEntity
  8
0
100
AcDbLine
 10
1066.817169629086
 20
989.3513669070108
 30
0.0
 11
1067.792169629088
 21
989.3513669070108
 31
0.0
  0
LINE
  5
12D69
330
18
100
AcDbEntity
  8
0
100
AcDbLine
 10
1066.817169629086
 20
989.7013669070092
 30
0.0
 11
1066.817169629086
 21
989.3513669070108
 31
0.0
  0
LINE
  5
12D6A
330
18
100
AcDbEntity
  8
0
100
AcDbLine
 10
1066.442169629086
 20
989.7013669070092
 30
0.0
 11
1065.492169629089
 21
989.7013669070092
 31
0.0
  0
LINE
  5
12D6B
330
18
100
AcDbEntity
  8
0
100
AcDbLine
 10
1066.442169629086
 20
989.3513669070108
 30
0.0
 11
1066.442169629086
 21
989.7013669070092
 31
0.0
  0
LINE
  5
12D6C
330
18
100
AcDbEntity
  8
0
100
AcDbLine
 10
1065.492169629089
 20
989.3513669070108
 30
0.0
 11
1066.442169629086
 21
989.3513669070108
 31
0.0
  0
LINE
  5
12D6D
330
18
100
AcDbEntity
  8
0
100
AcDbLine
 10
1065.492169629089
 20
989.7013669070092
 30
0.0
 11
1065.492169629089
 21
989.3513669070108
 31
0.0
  0
LINE
  5
12D6E
330
18
100
AcDbEntity
  8
0
100
AcDbLine
 10
1065.192169629086
 20
989.7013669070092
 30
0.0
 11
1064.217169629088
 21
989.7013669070092
 31
0.0
  0
LINE
  5
12D6F
330
18
100
AcDbEntity
  8
0
100
AcDbLine
 10
1065.192169629086
 20
989.3513669070108
 30
0.0
 11
1065.192169629086
 21
989.7013669070092
 31
0.0
  0
LINE
  5
12D70
330
18
100
AcDbEntity
  8
0
100
AcDbLine
 10
1064.217169629088
 20
989.3513669070108
 30
0.0
 11
1065.192169629086
 21
989.3513669070108
 31
0.0
  0
LINE
  5
12D71
330
18
100
AcDbEntity
  8
0
100
AcDbLine
 10
1064.217169629088
 20
989.7013669070092
 30
0.0
 11
1064.217169629088
 21
989.3513669070108
 31
0.0
  0
LINE
  5
12D72
330
18
100
AcDbEntity
  8
0
100
AcDbLine
 10
1063.967169629087
 20
989.3513669070108
 30
0.0
 11
1063.967169629087
 21
989.7013669070092
 31
0.0
  0
LINE
  5
12D73
330
18
100
AcDbEntity
  8
0
100
AcDbLine
 10
1068.092169629087
 20
989.7013669070092
 30
0.0
 11
1068.092169629087
 21
989.3513669070108
 31
0.0
  0
LINE
  5
12D74
330
18
100
AcDbEntity
  8
0
100
AcDbLine
 10
1063.967169629087
 20
989.7013669070092
 30
0.0
 11
1062.992169629089
 21
989.7013669070092
 31
0.0
  0
LINE
  5
12D75
330
18
100
AcDbEntity
  8
0
100
AcDbLine
 10
1062.992169629089
 20
989.3513669070108
 30
0.0
 11
1063.967169629087
 21
989.3513669070108
 31
0.0
  0
ELLIPSE
  5
12D76
330
18
100
AcDbEntity
  8
0
100
AcDbEllipse
 10
1060.267169629087
 20
989.1013669070106
 30
0.0
 11
-1.25
 21
0.0000000000000001
 31
0.0
210
0.0
220
0.0
230
1.0
 40
0.98
 41
6.03468
 42
8.053399307179585
  0
LINE
  5
12D77
330
18
100
AcDbEntity
  8
0
100
AcDbLine
 10
1062.992169629089
 20
992.4763669070108
 30
0.0
 11
1062.992169629089
 21
992.1263669070103
 31
0.0
  0
LINE
  5
12D78
330
18
100
AcDbEntity
  8
0
100
AcDbLine
 10
1062.717169629088
 20
992.4763669070108
 30
0.0
 11
1061.717169629088
 21
992.4763669070108
 31
0.0
  0
LINE
  5
12D79
330
18
100
AcDbEntity
  8
0
100
AcDbLine
 10
1061.717169629088
 20
992.1263669070103
 30
0.0
 11
1062.717169629088
 21
992.1263669070103
 31
0.0
  0
LINE
  5
12D7A
330
18
100
AcDbEntity
  8
0
100
AcDbLine
 10
1062.717169629088
 20
992.1263669070103
 30
0.0
 11
1062.717169629088
 21
992.4763669070108
 31
0.0
  0
LINE
  5
12D7B
330
18
100
AcDbEntity
  8
0
100
AcDbLine
 10
1061.717169629088
 20
992.4763669070108
 30
0.0
 11
1061.717169629088
 21
992.1263669070103
 31
0.0
  0
LINE
  5
12D7C
330
18
100
AcDbEntity
  8
0
100
AcDbLine
 10
1069.067169629086
 20
992.4763669070108
 30
0.0
 11
1068.092169629087
 21
992.4763669070108
 31
0.0
  0
LINE
  5
12D7D
330
18
100
AcDbEntity
  8
0
100
AcDbLine
 10
1068.092169629087
 20
992.1263669070103
 30
0.0
 11
1069.067169629086
 21
992.1263669070103
 31
0.0
  0
LINE
  5
12D7E
330
18
100
AcDbEntity
  8
0
100
AcDbLine
 10
1069.267169629087
 20
992.4763669070108
 30
0.0
 11
1069.267169629087
 21
992.1263669070103
 31
0.0
  0
LINE
  5
12D7F
330
18
100
AcDbEntity
  8
0
100
AcDbLine
 10
1069.067169629086
 20
992.1263669070103
 30
0.0
 11
1069.067169629086
 21
992.4763669070108
 31
0.0
  0
LINE
  5
12D80
330
18
100
AcDbEntity
  8
0
100
AcDbLine
 10
1067.792169629088
 20
992.4763669070108
 30
0.0
 11
1066.817169629086
 21
992.4763669070108
 31
0.0
  0
LINE
  5
12D81
330
18
100
AcDbEntity
  8
0
100
AcDbLine
 10
1067.792169629088
 20
992.1263669070103
 30
0.0
 11
1067.792169629088
 21
992.4763669070108
 31
0.0
  0
LINE
  5
12D82
330
18
100
AcDbEntity
  8
0
100
AcDbLine
 10
1066.817169629086
 20
992.1263669070103
 30
0.0
 11
1067.792169629088
 21
992.1263669070103
 31
0.0
  0
LINE
  5
12D83
330
18
100
AcDbEntity
  8
0
100
AcDbLine
 10
1066.817169629086
 20
992.4763669070108
 30
0.0
 11
1066.817169629086
 21
992.1263669070103
 31
0.0
  0
LINE
  5
12D84
330
18
100
AcDbEntity
  8
0
100
AcDbLine
 10
1066.442169629086
 20
992.4763669070108
 30
0.0
 11
1065.492169629089
 21
992.4763669070108
 31
0.0
  0
LINE
  5
12D85
330
18
100
AcDbEntity
  8
0
100
AcDbLine
 10
1066.442169629086
 20
992.1263669070103
 30
0.0
 11
1066.442169629086
 21
992.4763669070108
 31
0.0
  0
LINE
  5
12D86
330
18
100
AcDbEntity
  8
0
100
AcDbLine
 10
1065.492169629089
 20
992.1263669070103
 30
0.0
 11
1066.442169629086
 21
992.1263669070103
 31
0.0
  0
LINE
  5
12D87
330
18
100
AcDbEntity
  8
0
100
AcDbLine
 10
1065.492169629089
 20
992.4763669070108
 30
0.0
 11
1065.492169629089
 21
992.1263669070103
 31
0.0
  0
LINE
  5
12D88
330
18
100
AcDbEntity
  8
0
100
AcDbLine
 10
1065.192169629086
 20
992.4763669070108
 30
0.0
 11
1064.217169629088
 21
992.4763669070108
 31
0.0
  0
LINE
  5
12D89
330
18
100
AcDbEntity
  8
0
100
AcDbLine
 10
1065.192169629086
 20
992.1263669070103
 30
0.0
 11
1065.192169629086
 21
992.4763669070108
 31
0.0
  0
LINE
  5
12D8A
330
18
100
AcDbEntity
  8
0
100
AcDbLine
 10
1064.217169629088
 20
992.1263669070103
 30
0.0
 11
1065.192169629086
 21
992.1263669070103
 31
0.0
  0
LINE
  5
12D8B
330
18
100
AcDbEntity
  8
0
100
AcDbLine
 10
1064.217169629088
 20
992.4763669070108
 30
0.0
 11
1064.217169629088
 21
992.1263669070103
 31
0.0
  0
LINE
  5
12D8C
330
18
100
AcDbEntity
  8
0
100
AcDbLine
 10
1063.967169629087
 20
992.1263669070103
 30
0.0
 11
1063.967169629087
 21
992.4763669070108
 31
0.0
  0
LINE
  5
12D8D
330
18
100
AcDbEntity
  8
0
100
AcDbLine
 10
1068.092169629087
 20
992.4763669070108
 30
0.0
 11
1068.092169629087
 21
992.1263669070103
 31
0.0
  0
LINE
  5
12D8E
330
18
100
AcDbEntity
  8
0
100
AcDbLine
 10
1063.967169629087
 20
992.4763669070108
 30
0.0
 11
1062.992169629089
 21
992.4763669070108
 31
0.0
  0
LINE
  5
12D8F
330
18
100
AcDbEntity
  8
0
100
AcDbLine
 10
1062.992169629089
 20
992.1263669070103
 30
0.0
 11
1063.967169629087
 21
992.1263669070103
 31
0.0
  0
ELLIPSE
  5
12D90
330
18
100
AcDbEntity
  8
0
100
AcDbEllipse
 10
1061.192169629086
 20
992.7763669070101
 30
0.0
 11
-1.25
 21
0.0000000000000001
 31
0.0
210
0.0
220
0.0
230
1.0
 40
0.98
 41
4.509903999999999
 42
6.059223999999999
  0
LINE
  5
12D91
330
18
100
AcDbEntity
  8
0
100
AcDbLine
 10
1051.792169629088
 20
995.5513669070096
 30
0.0
 11
1051.792169629088
 21
986.3263669070093
 31
0.0
  0
LINE
  5
12D92
330
18
100
AcDbEntity
  8
0
100
AcDbLine
 10
1055.392169629087
 20
989.2513669070103
 30
0.0
 11
1055.392169629087
 21
987.1263669070103
 31
0.0
  0
LINE
  5
12D93
330
18
100
AcDbEntity
  8
0
100
AcDbLine
 10
1055.392169629087
 20
994.7513669070103
 30
0.0
 11
1055.392169629087
 21
992.8263669070092
 31
0.0
  0
ELLIPSE
  5
12D94
330
18
100
AcDbEntity
  8
0
100
AcDbEllipse
 10
1054.167169629088
 20
990.9513669070092
 30
0.0
 11
-0.775
 21
0.0
 31
0.0
210
0.0
220
0.0
230
1.0
 40
0.9677419999999999
 41
0.0
 42
6.283184999999999
  0
LINE
  5
12D95
330
18
100
AcDbEntity
  8
0
100
AcDbLine
 10
1041.167169629088
 20
989.52636690701
 30
0.0
 11
1041.567169629086
 21
989.9513669070092
 31
0.0
  0
LINE
  5
12D96
330
18
100
AcDbEntity
  8
0
100
AcDbLine
 10
1038.367169629089
 20
989.9513669070092
 30
0.0
 11
1041.167169629088
 21
989.52636690701
 31
0.0
  0
LINE
  5
12D97
330
18
100
AcDbEntity
  8
0
100
AcDbLine
 10
1042.117169629089
 20
990.2263669070107
 30
0.0
 11
1041.692169629086
 21
989.8013669070095
 31
0.0
  0
LINE
  5
12D98
330
18
100
AcDbEntity
  8
0
100
AcDbLine
 10
1045.292169629088
 20
989.6513669070101
 30
0.0
 11
1045.692169629086
 21
990.1013669070108
 31
0.0
  0
LINE
  5
12D99
330
18
100
AcDbEntity
  8
0
100
AcDbLine
 10
1044.867169629089
 20
990.1013669070108
 30
0.0
 11
1045.292169629088
 21
989.6513669070101
 31
0.0
  0
LINE
  5
12D9A
330
18
100
AcDbEntity
  8
0
100
AcDbLine
 10
1044.892169629087
 20
989.8013669070095
 30
0.0
 11
1042.117169629089
 21
990.2263669070107
 31
0.0
  0
LINE
  5
12D9B
330
18
100
AcDbEntity
  8
0
100
AcDbLine
 10
1048.292169629088
 20
995.5513669070096
 30
0.0
 11
1048.292169629088
 21
988.02636690701
 31
0.0
  0
LINE
  5
12D9C
330
18
100
AcDbEntity
  8
0
100
AcDbLine
 10
1035.292169629088
 20
988.02636690701
 30
0.0
 11
1035.292169629088
 21
995.5513669070096
 31
0.0
  0
LINE
  5
12D9D
330
18
100
AcDbEntity
  8
0
100
AcDbLine
 10
1041.692169629086
 20
989.8013669070095
 30
0.0
 11
1042.117169629089
 21
989.3763669070104
 31
0.0
  0
LINE
  5
12D9E
330
18
100
AcDbEntity
  8
0
100
AcDbLine
 10
1045.292169629088
 20
989.3763669070104
 30
0.0
 11
1044.892169629087
 21
989.8013669070095
 31
0.0
  0
LINE
  5
12D9F
330
18
100
AcDbEntity
  8
0
100
AcDbLine
 10
1044.892169629087
 20
988.9763669070108
 30
0.0
 11
1045.292169629088
 21
989.3763669070104
 31
0.0
  0
LINE
  5
12DA0
330
18
100
AcDbEntity
  8
0
100
AcDbLine
 10
1042.117169629089
 20
989.3763669070104
 30
0.0
 11
1044.892169629087
 21
988.9763669070108
 31
0.0
  0
LINE
  5
12DA1
330
18
100
AcDbEntity
  8
0
100
AcDbLine
 10
1048.292169629088
 20
988.02636690701
 30
0.0
 11
1035.292169629088
 21
988.02636690701
 31
0.0
  0
LINE
  5
12DA2
330
18
100
AcDbEntity
  8
0
100
AcDbLine
 10
1038.367169629089
 20
990.8013669070097
 30
0.0
 11
1037.967169629087
 21
990.3513669070107
 31
0.0
  0
LINE
  5
12DA3
330
18
100
AcDbEntity
  8
0
100
AcDbLine
 10
1041.167169629088
 20
990.3513669070107
 30
0.0
 11
1038.367169629089
 21
990.8013669070097
 31
0.0
  0
LINE
  5
12DA4
330
18
100
AcDbEntity
  8
0
100
AcDbLine
 10
1041.567169629086
 20
990.2013669070093
 30
0.0
 11
1041.967169629087
 21
990.6513669070101
 31
0.0
  0
LINE
  5
12DA5
330
18
100
AcDbEntity
  8
0
100
AcDbLine
 10
1041.167169629088
 20
990.6513669070101
 30
0.0
 11
1041.567169629086
 21
990.2013669070093
 31
0.0
  0
LINE
  5
12DA6
330
18
100
AcDbEntity
  8
0
100
AcDbLine
 10
1041.567169629086
 20
989.9513669070092
 30
0.0
 11
1041.167169629088
 21
990.3513669070107
 31
0.0
  0
LINE
  5
12DA7
330
18
100
AcDbEntity
  8
0
100
AcDbLine
 10
1037.967169629087
 20
990.3513669070107
 30
0.0
 11
1038.367169629089
 21
989.9513669070092
 31
0.0
  0
LINE
  5
12DA8
330
18
100
AcDbEntity
  8
0
100
AcDbLine
 10
1038.367169629089
 20
994.4513669070092
 30
0.0
 11
1037.967169629087
 21
994.02636690701
 31
0.0
  0
LINE
  5
12DA9
330
18
100
AcDbEntity
  8
0
100
AcDbLine
 10
1041.167169629088
 20
994.02636690701
 30
0.0
 11
1038.367169629089
 21
994.4513669070092
 31
0.0
  0
LINE
  5
12DAA
330
18
100
AcDbEntity
  8
0
100
AcDbLine
 10
1041.567169629086
 20
993.6013669070106
 30
0.0
 11
1041.167169629088
 21
994.02636690701
 31
0.0
  0
LINE
  5
12DAB
330
18
100
AcDbEntity
  8
0
100
AcDbLine
 10
1041.167169629088
 20
993.2013669070093
 30
0.0
 11
1041.567169629086
 21
993.6013669070106
 31
0.0
  0
LINE
  5
12DAC
330
18
100
AcDbEntity
  8
0
100
AcDbLine
 10
1038.367169629089
 20
993.6013669070106
 30
0.0
 11
1041.167169629088
 21
993.2013669070093
 31
0.0
  0
LINE
  5
12DAD
330
18
100
AcDbEntity
  8
0
100
AcDbLine
 10
1037.967169629087
 20
994.02636690701
 30
0.0
 11
1038.367169629089
 21
993.6013669070106
 31
0.0
  0
LINE
  5
12DAE
330
18
100
AcDbEntity
  8
0
100
AcDbLine
 10
1042.117169629089
 20
993.9013669070099
 30
0.0
 11
1041.692169629086
 21
993.4513669070092
 31
0.0
  0
LINE
  5
12DAF
330
18
100
AcDbEntity
  8
0
100
AcDbLine
 10
1041.692169629086
 20
993.4513669070092
 30
0.0
 11
1042.117169629089
 21
993.0513669070096
 31
0.0
  0
LINE
  5
12DB0
330
18
100
AcDbEntity
  8
0
100
AcDbLine
 10
1037.592169629087
 20
993.3013669070096
 30
0.0
 11
1037.592169629087
 21
991.1763669070095
 31
0.0
  0
LINE
  5
12DB1
330
18
100
AcDbEntity
  8
0
100
AcDbLine
 10
1037.967169629087
 20
993.7013669070093
 30
0.0
 11
1037.592169629087
 21
993.3013669070096
 31
0.0
  0
LINE
  5
12DB2
330
18
100
AcDbEntity
  8
0
100
AcDbLine
 10
1038.392169629087
 20
993.3013669070096
 30
0.0
 11
1037.967169629087
 21
993.7013669070093
 31
0.0
  0
LINE
  5
12DB3
330
18
100
AcDbEntity
  8
0
100
AcDbLine
 10
1038.392169629087
 20
991.1763669070095
 30
0.0
 11
1038.392169629087
 21
993.3013669070096
 31
0.0
  0
LINE
  5
12DB4
330
18
100
AcDbEntity
  8
0
100
AcDbLine
 10
1037.967169629087
 20
990.7513669070104
 30
0.0
 11
1038.392169629087
 21
991.1763669070095
 31
0.0
  0
LINE
  5
12DB5
330
18
100
AcDbEntity
  8
0
100
AcDbLine
 10
1037.592169629087
 20
991.1763669070095
 30
0.0
 11
1037.967169629087
 21
990.7513669070104
 31
0.0
  0
LINE
  5
12DB6
330
18
100
AcDbEntity
  8
0
100
AcDbLine
 10
1041.167169629088
 20
992.7513669070103
 30
0.0
 11
1041.167169629088
 21
990.6513669070101
 31
0.0
  0
LINE
  5
12DB7
330
18
100
AcDbEntity
  8
0
100
AcDbLine
 10
1041.567169629086
 20
993.1513669070099
 30
0.0
 11
1041.167169629088
 21
992.7513669070103
 31
0.0
  0
LINE
  5
12DB8
330
18
100
AcDbEntity
  8
0
100
AcDbLine
 10
1041.967169629087
 20
992.7513669070103
 30
0.0
 11
1041.567169629086
 21
993.1513669070099
 31
0.0
  0
LINE
  5
12DB9
330
18
100
AcDbEntity
  8
0
100
AcDbLine
 10
1041.967169629087
 20
990.6513669070101
 30
0.0
 11
1041.967169629087
 21
992.7513669070103
 31
0.0
  0
LINE
  5
12DBA
330
18
100
AcDbEntity
  8
0
100
AcDbLine
 10
1044.867169629089
 20
992.2013669070093
 30
0.0
 11
1044.867169629089
 21
990.1013669070108
 31
0.0
  0
LINE
  5
12DBB
330
18
100
AcDbEntity
  8
0
100
AcDbLine
 10
1045.692169629086
 20
990.1013669070108
 30
0.0
 11
1045.692169629086
 21
992.2013669070093
 31
0.0
  0
LINE
  5
12DBC
330
18
100
AcDbEntity
  8
0
100
AcDbLine
 10
1045.292169629088
 20
993.0513669070096
 30
0.0
 11
1044.892169629087
 21
993.4513669070092
 31
0.0
  0
LINE
  5
12DBD
330
18
100
AcDbEntity
  8
0
100
AcDbLine
 10
1044.892169629087
 20
992.6263669070104
 30
0.0
 11
1045.292169629088
 21
993.0513669070096
 31
0.0
  0
LINE
  5
12DBE
330
18
100
AcDbEntity
  8
0
100
AcDbLine
 10
1045.292169629088
 20
992.6263669070104
 30
0.0
 11
1044.867169629089
 21
992.2013669070093
 31
0.0
  0
LINE
  5
12DBF
330
18
100
AcDbEntity
  8
0
100
AcDbLine
 10
1045.692169629086
 20
992.2013669070093
 30
0.0
 11
1045.292169629088
 21
992.6263669070104
 31
0.0
  0
LINE
  5
12DC0
330
18
100
AcDbEntity
  8
0
100
AcDbLine
 10
1035.292169629088
 20
995.5513669070096
 30
0.0
 11
1048.292169629088
 21
995.5513669070096
 31
0.0
  0
LINE
  5
12DC1
330
18
100
AcDbEntity
  8
0
100
AcDbLine
 10
1044.892169629087
 20
993.4513669070092
 30
0.0
 11
1042.117169629089
 21
993.9013669070099
 31
0.0
  0
LINE
  5
12DC2
330
18
100
AcDbEntity
  8
0
100
AcDbLine
 10
1042.117169629089
 20
993.0513669070096
 30
0.0
 11
1044.892169629087
 21
992.6263669070104
 31
0.0
  0
ELLIPSE
  5
12DC3
330
18
100
AcDbEntity
  8
0
100
AcDbEllipse
 10
1045.317169629086
 20
994.0513669070096
 30
0.0
 11
0.0
 21
0.5
 31
0.0
210
0.0
220
0.0
230
1.0
 40
0.95
 41
0.0
 42
6.283184999999999
  0
LINE
  5
12DC4
330
18
100
AcDbEntity
  8
0
100
AcDbLine
 10
1034.792169629088
 20
995.5513669070114
 30
0.0
 11
1034.792169629088
 21
997.1513669070118
 31
0.0
  0
LINE
  5
12DC5
330
18
100
AcDbEntity
  8
0
100
AcDbLine
 10
1080.467169629087
 20
995.5513669070096
 30
0.0
 11
1051.792169629088
 21
995.5513669070096
 31
0.0
  0
LINE
  5
12DC6
330
18
100
AcDbEntity
  8
0
100
AcDbLine
 10
1051.792169629088
 20
986.3263669070093
 30
0.0
 11
1080.467169629087
 21
986.3263669070093
 31
0.0
  0
ELLIPSE
  5
12DC7
330
18
100
AcDbEntity
  8
0
100
AcDbEllipse
 10
1097.667169629088
 20
990.9513669070092
 30
0.0
 11
-0.775
 21
0.0
 31
0.0
210
0.0
220
0.0
230
1.0
 40
0.9677419999999999
 41
0.0
 42
6.283184999999999
  0
LINE
  5
12DC8
330
18
100
AcDbEntity
  8
0
100
AcDbLine
 10
1106.642169629087
 20
989.7013669070092
 30
0.0
 11
1105.642169629087
 21
989.7013669070092
 31
0.0
  0
LINE
  5
12DC9
330
18
100
AcDbEntity
  8
0
100
AcDbLine
 10
1105.642169629087
 20
989.3513669070108
 30
0.0
 11
1106.642169629087
 21
989.3513669070108
 31
0.0
  0
LINE
  5
12DCA
330
18
100
AcDbEntity
  8
0
100
AcDbLine
 10
1106.642169629087
 20
989.3513669070108
 30
0.0
 11
1106.642169629087
 21
989.7013669070092
 31
0.0
  0
LINE
  5
12DCB
330
18
100
AcDbEntity
  8
0
100
AcDbLine
 10
1105.642169629087
 20
989.7013669070092
 30
0.0
 11
1105.642169629087
 21
989.3513669070108
 31
0.0
  0
LINE
  5
12DCC
330
18
100
AcDbEntity
  8
0
100
AcDbLine
 10
1106.642169629087
 20
992.4763669070108
 30
0.0
 11
1105.642169629087
 21
992.4763669070108
 31
0.0
  0
LINE
  5
12DCD
330
18
100
AcDbEntity
  8
0
100
AcDbLine
 10
1105.642169629087
 20
992.1263669070103
 30
0.0
 11
1106.642169629087
 21
992.1263669070103
 31
0.0
  0
LINE
  5
12DCE
330
18
100
AcDbEntity
  8
0
100
AcDbLine
 10
1106.642169629087
 20
992.1263669070103
 30
0.0
 11
1106.642169629087
 21
992.4763669070108
 31
0.0
  0
LINE
  5
12DCF
330
18
100
AcDbEntity
  8
0
100
AcDbLine
 10
1105.642169629087
 20
992.4763669070108
 30
0.0
 11
1105.642169629087
 21
992.1263669070103
 31
0.0
  0
LINE
  5
12DD0
330
18
100
AcDbEntity
  8
0
100
AcDbLine
 10
1099.867169629089
 20
992.8263669070092
 30
0.0
 11
1099.867169629089
 21
989.2513669070103
 31
0.0
  0
LINE
  5
12DD1
330
18
100
AcDbEntity
  8
0
100
AcDbLine
 10
1100.967169629088
 20
994.7513669070103
 30
0.0
 11
1100.967169629088
 21
987.1263669070103
 31
0.0
  0
LINE
  5
12DD2
330
18
100
AcDbEntity
  8
0
100
AcDbLine
 10
1103.517169629087
 20
993.0763669070092
 30
0.0
 11
1102.592169629087
 21
989.3763669070104
 31
0.0
  0
LINE
  5
12DD3
330
18
100
AcDbEntity
  8
0
100
AcDbLine
 10
1098.892169629087
 20
989.2513669070103
 30
0.0
 11
1099.867169629089
 21
989.2513669070103
 31
0.0
  0
LINE
  5
12DD4
330
18
100
AcDbEntity
  8
0
100
AcDbLine
 10
1098.892169629087
 20
987.1263669070103
 30
0.0
 11
1100.967169629088
 21
987.1263669070103
 31
0.0
  0
LINE
  5
12DD5
330
18
100
AcDbEntity
  8
0
100
AcDbLine
 10
1098.892169629087
 20
989.2513669070103
 30
0.0
 11
1098.892169629087
 21
987.1263669070103
 31
0.0
  0
ELLIPSE
  5
12DD6
330
18
100
AcDbEntity
  8
0
100
AcDbEllipse
 10
1103.767169629087
 20
989.1013669070106
 30
0.0
 11
-1.25
 21
0.0000000000000001
 31
0.0
210
0.0
220
0.0
230
1.0
 40
0.98
 41
6.03468
 42
8.053399307179585
  0
LINE
  5
12DD7
330
18
100
AcDbEntity
  8
0
100
AcDbLine
 10
1098.892169629087
 20
994.7513669070103
 30
0.0
 11
1100.967169629088
 21
994.7513669070103
 31
0.0
  0
LINE
  5
12DD8
330
18
100
AcDbEntity
  8
0
100
AcDbLine
 10
1098.892169629087
 20
994.7513669070103
 30
0.0
 11
1098.892169629087
 21
992.8263669070092
 31
0.0
  0
LINE
  5
12DD9
330
18
100
AcDbEntity
  8
0
100
AcDbLine
 10
1098.867169629089
 20
992.8263669070092
 30
0.0
 11
1099.842169629088
 21
992.8263669070092
 31
0.0
  0
ELLIPSE
  5
12DDA
330
18
100
AcDbEntity
  8
0
100
AcDbEllipse
 10
1104.692169629086
 20
992.7763669070101
 30
0.0
 11
-1.25
 21
0.0000000000000001
 31
0.0
210
0.0
220
0.0
230
1.0
 40
0.98
 41
4.509903999999999
 42
6.059223999999999
  0
LINE
  5
12DDB
330
18
100
AcDbEntity
  8
0
100
AcDbLine
 10
1128.617169629089
 20
995.5513669070096
 30
0.0
 11
1095.292169629088
 21
995.5513669070096
 31
0.0
  0
LINE
  5
12DDC
330
18
100
AcDbEntity
  8
0
100
AcDbLine
 10
1095.292169629088
 20
986.3263669070093
 30
0.0
 11
1128.617169629089
 21
986.3263669070093
 31
0.0
  0
LINE
  5
12DDD
330
18
100
AcDbEntity
  8
0
100
AcDbLine
 10
1118.817169629086
 20
994.0013669070104
 30
0.0
 11
1104.692169629086
 21
994.0013669070104
 31
0.0
  0
LWPOLYLINE
  5
12DDE
330
18
100
AcDbEntity
  8
0
100
AcDbPolyline
 90
        4
 70
     1
 43
0.0
 10
1104.617169629089
 20
992.8263669070092
 10
1104.617169629089
 20
989.1263669070104
 10
1118.767169629087
 20
989.1263669070104
 10
1118.767169629087
 20
992.8263669070092
  0
LINE
  5
12DDF
330
18
100
AcDbEntity
  8
0
100
AcDbLine
 10
1103.767169629087
 20
987.8763669070103
 30
0.0
 11
1119.867169629089
 21
987.8763669070103
 31
0.0
  0
LINE
  5
12DE0
330
18
100
AcDbEntity
  8
0
 48
3.0
100
AcDbLine
 10
1037.542169629088
 20
1002.151366907011
 30
0.0
 11
1032.042169629088
 21
1002.151366907011
 31
0.0
  0
LINE
  5
12DE1
330
18
100
AcDbEntity
  8
0
 48
3.0
100
AcDbLine
 10
1037.542169629088
 20
997.1513669070118
 30
0.0
 11
1037.542169629088
 21
1002.151366907011
 31
0.0
  0
LINE
  5
12DE2
330
18
100
AcDbEntity
  8
0
 48
3.0
100
AcDbLine
 10
1034.792169629088
 20
997.1513669070118
 30
0.0
 11
1034.792169629088
 21
1002.151366907011
 31
0.0
  0
LINE
  5
12DE3
330
18
100
AcDbEntity
  8
0
 48
3.0
100
AcDbLine
 10
1032.042169629088
 20
997.1513669070118
 30
0.0
 11
1032.042169629088
 21
1002.151366907011
 31
0.0
  0
LINE
  5
12DE7
330
18
100
AcDbEntity
  8
0
 48
3.0
100
AcDbLine
 10
1037.542169629088
 20
997.1513669070118
 30
0.0
 11
1032.042169629088
 21
997.1513669070118
 31
0.0
  0
LINE
  5
12DE8
330
18
100
AcDbEntity
  8
0
100
AcDbLine
 10
1029.792169629088
 20
1002.15136690701
 30
0.0
 11
1029.792169629088
 21
1003.15136690701
 31
0.0
  0
LINE
  5
12DEA
330
18
100
AcDbEntity
  8
0
 48
3.0
100
AcDbLine
 10
1037.542169629088
 20
982.5513669070124
 30
0.0
 11
1037.542169629088
 21
988.02636690701
 31
0.0
  0
LINE
  5
12DEB
330
18
100
AcDbEntity
  8
0
 48
3.0
100
AcDbLine
 10
1034.792169629088
 20
982.5513669070124
 30
0.0
 11
1034.792169629088
 21
995.5513669070123
 31
0.0
  0
LINE
  5
12DEC
330
18
100
AcDbEntity
  8
0
 48
3.0
100
AcDbLine
 10
1032.042169629088
 20
982.5513669070124
 30
0.0
 11
1032.042169629088
 21
995.5513669070123
 31
0.0
  0
LINE
  5
12DED
330
18
100
AcDbEntity
  8
0
 48
3.0
100
AcDbLine
 10
1037.542169629088
 20
982.5513669070124
 30
0.0
 11
1032.042169629088
 21
982.5513669070124
 31
0.0
  0
LINE
  5
12DF1
330
18
100
AcDbEntity
  8
0
100
AcDbLine
 10
1057.292169629103
 20
977.5513669070098
 30
0.0
 11
1057.292169629103
 21
976.5513669070099
 31
0.0
  0
LINE
  5
12DF2
330
18
100
AcDbEntity
  8
0
100
AcDbLine
 10
1037.792169629088
 20
982.5513669070117
 30
0.0
 11
1037.792169629088
 21
977.5513669070098
 31
0.0
  0
LINE
  5
12DF3
330
18
100
AcDbEntity
  8
0
 48
0.2
100
AcDbLine
 10
1019.292169629095
 20
975.5513669070099
 30
0.0
 11
1016.292169629096
 21
975.5513669070099
 31
0.0
  0
LINE
  5
12DF4
330
18
100
AcDbEntity
  8
0
 48
0.2
100
AcDbLine
 10
1015.792169629095
 20
976.5513669070099
 30
0.0
 11
1016.292169629096
 21
975.5513669070099
 31
0.0
  0
LINE
  5
12DF5
330
18
100
AcDbEntity
  8
0
 48
0.2
100
AcDbLine
 10
1019.292169629095
 20
975.5513669070099
 30
0.0
 11
1019.792169629096
 21
976.5513669070099
 31
0.0
  0
LINE
  5
12DF6
330
18
100
AcDbEntity
  8
0
 48
0.2
100
AcDbLine
 10
1015.792169629095
 20
976.5513669070099
 30
0.0
 11
1019.792169629096
 21
976.5513669070099
 31
0.0
  0
LINE
  5
12DF7
330
18
100
AcDbEntity
  8
0
100
AcDbLine
 10
1017.292169629103
 20
977.5513669070098
 30
0.0
 11
1017.292169629103
 21
976.5513669070099
 31
0.0
  0
LINE
  5
12DF8
330
18
100
AcDbEntity
  8
0
100
AcDbLine
 10
1031.792169629088
 20
982.5513669070117
 30
0.0
 11
1031.792169629088
 21
977.5513669070098
 31
0.0
  0
LINE
  5
12DF9
330
18
100
AcDbEntity
  8
0
100
AcDbLine
 10
1037.792169629088
 20
982.5513669070117
 30
0.0
 11
1031.792169629088
 21
982.5513669070117
 31
0.0
  0
LINE
  5
12DFA
330
18
100
AcDbEntity
  8
0
 48
3.0
370
    13
100
AcDbLine
 10
1038.792169629088
 20
913.614875233906
 30
0.0
 11
1038.792169629088
 21
915.051366907009
 31
0.0
  0
LINE
  5
12DFB
330
18
100
AcDbEntity
  8
0
 48
3.0
370
    13
100
AcDbLine
 10
1039.792169629088
 20
913.614875233906
 30
0.0
 11
1039.792169629088
 21
915.051366907009
 31
0.0
  0
CIRCLE
  5
12DFC
330
18
100
AcDbEntity
  8
0
 48
3.0
370
    13
100
AcDbCircle
 10
1039.292169629088
 20
915.5513669070089
 30
0.0
 40
3.0
  0
ARC
  5
12DFD
330
18
100
AcDbEntity
  8
0
 48
3.0
370
    13
100
AcDbCircle
 10
1039.292169629088
 20
915.5513669070089
 30
0.0
 40
2.0
100
AcDbArc
 50
255.5224878140705
 51
284.4775121859294
  0
LINE
  5
12DFE
330
18
100
AcDbEntity
  8
0
 48
3.0
370
    13
100
AcDbLine
 10
1039.792169629088
 20
915.051366907009
 30
0.0
 11
1041.228661302191
 21
915.051366907009
 31
0.0
  0
LINE
  5
12DFF
330
18
100
AcDbEntity
  8
0
 48
3.0
370
    13
100
AcDbLine
 10
1037.355677955982
 20
915.051366907009
 30
0.0
 11
1038.792169629088
 21
915.051366907009
 31
0.0
  0
LINE
  5
12E00
330
18
100
AcDbEntity
  8
0
 48
3.0
370
    13
100
AcDbLine
 10
1039.792169629088
 20
916.0513669070089
 30
0.0
 11
1041.228661302191
 21
916.0513669070089
 31
0.0
  0
LINE
  5
12E01
330
18
100
AcDbEntity
  8
0
 48
3.0
370
    13
100
AcDbLine
 10
1038.792169629088
 20
916.0513669070089
 30
0.0
 11
1038.792169629088
 21
917.4878585801119
 31
0.0
  0
LINE
  5
12E02
330
18
100
AcDbEntity
  8
0
 48
3.0
370
    13
100
AcDbLine
 10
1039.792169629088
 20
916.0513669070089
 30
0.0
 11
1039.792169629088
 21
917.4878585801119
 31
0.0
  0
ARC
  5
12E03
330
18
100
AcDbEntity
  8
0
 48
3.0
370
    13
100
AcDbCircle
 10
1039.292169629088
 20
915.5513669070089
 30
0.0
 40
2.0
100
AcDbArc
 50
75.52248781407055
 51
104.4775121859294
  0
LINE
  5
12E04
330
18
100
AcDbEntity
  8
0
 48
3.0
370
    13
100
AcDbLine
 10
1037.355677955982
 20
916.0513669070089
 30
0.0
 11
1038.792169629088
 21
916.0513669070089
 31
0.0
  0
ARC
  5
12E05
330
18
100
AcDbEntity
  8
0
 48
3.0
370
    13
100
AcDbCircle
 10
1039.292169629088
 20
915.5513669070089
 30
0.0
 40
2.0
100
AcDbArc
 50
165.5224878141036
 51
194.4775121858963
  0
ARC
  5
12E06
330
18
100
AcDbEntity
  8
0
 48
3.0
370
    13
100
AcDbCircle
 10
1039.292169629088
 20
915.5513669070089
 30
0.0
 40
2.0
100
AcDbArc
 50
345.5224878141037
 51
14.47751218589629
  0
CIRCLE
  5
12E07
330
18
100
AcDbEntity
  8
0
 48
3.0
370
    13
100
AcDbCircle
 10
1039.292169629088
 20
915.5513669070089
 30
0.0
 40
2.5
  0
LINE
  5
12E08
330
18
100
AcDbEntity
  8
0
100
AcDbLine
 10
1121.042169629085
 20
971.0513669070095
 30
0.0
 11
1143.542169629088
 21
971.0513669070095
 31
0.0
  0
LINE
  5
12E09
330
18
100
AcDbEntity
  8
0
100
AcDbLine
 10
1121.042169629085
 20
956.5513669070096
 30
0.0
 11
1169.042169629085
 21
956.5513669070096
 31
0.0
  0
LINE
  5
12E0A
330
18
100
AcDbEntity
  8
0
100
AcDbLine
 10
1124.292169629085
 20
964.5513669070096
 30
0.0
 11
1140.292169629085
 21
964.5513669070096
 31
0.0
  0
LINE
  5
12E0B
330
18
100
AcDbEntity
  8
0
100
AcDbLine
 10
1076.042169629084
 20
936.5513669070097
 30
0.0
 11
1188.542169629088
 21
936.5513669070097
 31
0.0
  0
LINE
  5
12E0C
330
18
100
AcDbEntity
  8
0
100
AcDbLine
 10
1076.042169629084
 20
930.5513669070096
 30
0.0
 11
1188.542169629088
 21
930.5513669070096
 31
0.0
  0
LINE
  5
12E0D
330
18
100
AcDbEntity
  8
0
100
AcDbLine
 10
1194.792169629088
 20
1002.15136690701
 30
0.0
 11
1029.792169629088
 21
1002.15136690701
 31
0.0
  0
LINE
  5
12E0E
330
18
100
AcDbEntity
  8
0
100
AcDbLine
 10
1194.792169629088
 20
1003.15136690701
 30
0.0
 11
1029.792169629088
 21
1003.15136690701
 31
0.0
  0
LINE
  5
12E0F
330
18
100
AcDbEntity
  8
0
100
AcDbLine
 10
1172.592169629088
 20
995.5513669070096
 30
0.0
 11
1129.292169629088
 21
995.5513669070096
 31
0.0
  0
LINE
  5
12E10
330
18
100
AcDbEntity
  8
0
100
AcDbLine
 10
1129.292169629088
 20
986.3263669070093
 30
0.0
 11
1172.592169629088
 21
986.3263669070093
 31
0.0
  0
LINE
  5
12E11
330
18
100
AcDbEntity
  8
0
100
AcDbLine
 10
1029.792169629088
 20
997.1513669070118
 30
0.0
 11
1179.792169629088
 21
997.15136690701
 31
0.0
  0
LINE
  5
12E12
330
18
100
AcDbEntity
  8
0
100
AcDbLine
 10
1029.792169629088
 20
995.5513669070114
 30
0.0
 11
1179.792169629088
 21
995.5513669070096
 31
0.0
  0
LINE
  5
12E13
330
18
100
AcDbEntity
  8
0
100
AcDbLine
 10
1089.542169629085
 20
974.0513669070097
 30
0.0
 11
1175.042169629085
 21
974.0513669070097
 31
0.0
  0
LINE
  5
12E14
330
18
100
AcDbEntity
  8
0
100
AcDbLine
 10
1201.292169629092
 20
988.5513669070098
 30
0.0
 11
1177.542169629088
 21
988.5513669070098
 31
0.0
  0
ARC
  5
12E15
330
18
100
AcDbEntity
  8
0
100
AcDbCircle
 10
1186.901449849991
 20
880.2606471279096
 30
0.0
 40
3.75
100
AcDbArc
 50
314.9999999998986
 51
134.9999999998986
  0
LINE
  5
12E17
330
18
100
AcDbEntity
  8
0
100
AcDbLine
 10
1204.692169629086
 20
890.5513669070096
 30
0.0
 11
1206.292169629088
 21
890.5513669070096
 31
0.0
  0
LINE
  5
12E18
330
18
100
AcDbEntity
  8
0
100
AcDbLine
 10
1204.692169629086
 20
890.5513669070096
 30
0.0
 11
1204.692169629086
 21
892.1513669070099
 31
0.0
  0
ARC
  5
12E19
330
18
100
AcDbEntity
  8
0
100
AcDbCircle
 10
1186.901449849991
 20
880.2606471279096
 30
0.0
 40
3.75
100
AcDbArc
 50
314.9999999998986
 51
134.9999999998986
  0
LINE
  5
12E1A
330
18
100
AcDbEntity
  8
0
100
AcDbLine
 10
1189.532979139292
 20
877.58887555831
 30
0.0
 11
1189.553100279443
 21
877.608996698459
 31
0.0
  0
LINE
  5
12E1B
330
18
100
AcDbEntity
  8
0
100
AcDbLine
 10
1183.542169629085
 20
910.5513669070106
 30
0.0
 11
1170.292169629085
 21
910.5513669070106
 31
0.0
  0
LINE
  5
12E1C
330
18
100
AcDbEntity
  8
0
100
AcDbLine
 10
1176.292169629085
 20
910.5513669070106
 30
0.0
 11
1176.292169629085
 21
892.151366907009
 31
0.0
  0
LINE
  5
12E1D
330
18
100
AcDbEntity
  8
0
100
AcDbLine
 10
1183.542169629085
 20
910.5513669070106
 30
0.0
 11
1183.542169629085
 21
894.5513669070106
 31
0.0
  0
LINE
  5
12E1E
330
18
100
AcDbEntity
  8
0
100
AcDbLine
 10
1182.342169629087
 20
894.5513669070088
 30
0.0
 11
1182.342169629087
 21
892.151366907009
 31
0.0
  0
LINE
  5
12E1F
330
18
100
AcDbEntity
  8
0
100
AcDbLine
 10
1183.542169629085
 20
894.5513669070106
 30
0.0
 11
1182.342169629087
 21
894.5513669070088
 31
0.0
  0
CIRCLE
  5
12E20
330
18
100
AcDbEntity
  8
0
 48
3.0
370
    13
100
AcDbCircle
 10
1185.992169629089
 20
879.4513669070102
 30
0.0
 40
3.333333333333333
  0
ARC
  5
12E21
330
18
100
AcDbEntity
  8
0
 48
3.0
370
    13
100
AcDbCircle
 10
1185.992169629089
 20
879.4513669070102
 30
0.0
 40
2.666666666666666
100
AcDbArc
 50
345.5224878141037
 51
14.47751218589629
  0
ARC
  5
12E22
330
18
100
AcDbEntity
  8
0
 48
3.0
370
    13
100
AcDbCircle
 10
1185.992169629089
 20
879.4513669070102
 30
0.0
 40
2.666666666666666
100
AcDbArc
 50
165.5224878141036
 51
194.4775121858963
  0
CIRCLE
  5
12E23
330
18
100
AcDbEntity
  8
0
 48
3.0
370
    13
100
AcDbCircle
 10
1185.992169629089
 20
879.4513669070102
 30
0.0
 40
4.0
  0
LINE
  5
12E24
330
18
100
AcDbEntity
  8
0
 48
3.0
370
    13
100
AcDbLine
 10
1183.41018073162
 20
880.1180335736781
 30
0.0
 11
1185.325502962425
 21
880.1180335736781
 31
0.0
  0
ARC
  5
12E25
330
18
100
AcDbEntity
  8
0
 48
3.0
370
    13
100
AcDbCircle
 10
1185.992169629089
 20
879.4513669070102
 30
0.0
 40
2.666666666666666
100
AcDbArc
 50
75.52248781407055
 51
104.4775121859294
  0
LINE
  5
12E26
330
18
100
AcDbEntity
  8
0
 48
3.0
370
    13
100
AcDbLine
 10
1186.65883629576
 20
880.1180335736781
 30
0.0
 11
1186.65883629576
 21
882.0333558044831
 31
0.0
  0
LINE
  5
12E27
330
18
100
AcDbEntity
  8
0
 48
3.0
370
    13
100
AcDbLine
 10
1185.325502962425
 20
880.1180335736781
 30
0.0
 11
1185.325502962425
 21
882.0333558044831
 31
0.0
  0
LINE
  5
12E28
330
18
100
AcDbEntity
  8
0
 48
3.0
370
    13
100
AcDbLine
 10
1186.65883629576
 20
880.1180335736781
 30
0.0
 11
1188.574158526562
 21
880.1180335736781
 31
0.0
  0
LINE
  5
12E29
330
18
100
AcDbEntity
  8
0
 48
3.0
370
    13
100
AcDbLine
 10
1186.65883629576
 20
876.8693780095391
 30
0.0
 11
1186.65883629576
 21
878.7847002403442
 31
0.0
  0
LINE
  5
12E2A
330
18
100
AcDbEntity
  8
0
 48
3.0
370
    13
100
AcDbLine
 10
1185.325502962425
 20
876.8693780095391
 30
0.0
 11
1185.325502962425
 21
878.7847002403442
 31
0.0
  0
ARC
  5
12E2B
330
18
100
AcDbEntity
  8
0
 48
3.0
370
    13
100
AcDbCircle
 10
1185.992169629089
 20
879.4513669070102
 30
0.0
 40
2.666666666666666
100
AcDbArc
 50
255.5224878140705
 51
284.4775121859294
  0
LINE
  5
12E2C
330
18
100
AcDbEntity
  8
0
 48
3.0
370
    13
100
AcDbLine
 10
1183.41018073162
 20
878.7847002403442
 30
0.0
 11
1185.325502962425
 21
878.7847002403442
 31
0.0
  0
LINE
  5
12E2D
330
18
100
AcDbEntity
  8
0
 48
3.0
370
    13
100
AcDbLine
 10
1186.65883629576
 20
878.7847002403442
 30
0.0
 11
1188.574158526562
 21
878.7847002403442
 31
0.0
  0
LINE
  5
12E2E
330
18
100
AcDbEntity
  8
0
100
AcDbLine
 10
1014.692169629082
 20
903.1431763038018
 30
0.0
 11
1021.492169629089
 21
903.1431763038018
 31
0.0
  0
LINE
  5
12E2F
330
18
100
AcDbEntity
  8
0
100
AcDbLine
 10
1014.692169629082
 20
910.5513669070091
 30
0.0
 11
1014.692169629082
 21
903.1431763038018
 31
0.0
  0
LINE
  5
12E30
330
18
100
AcDbEntity
  8
0
 48
0.2
100
AcDbLine
 10
1029.292169629085
 20
910.5513669070093
 30
0.0
 11
1029.292169629088
 21
886.5513669070097
 31
0.0
  0
LINE
  5
12E31
330
18
100
AcDbEntity
  8
0
100
AcDbLine
 10
1024.942169629083
 20
910.3931763038017
 30
0.0
 11
1022.692169629082
 21
910.3931763038008
 31
0.0
  0
LINE
  5
12E32
330
18
100
AcDbEntity
  8
0
100
AcDbLine
 10
1021.692169629082
 20
908.8931763038017
 30
0.0
 11
1024.942169629083
 21
908.8931763038017
 31
0.0
  0
LINE
  5
12E33
330
18
100
AcDbEntity
  8
0
100
AcDbLine
 10
1022.692169629082
 20
910.5513669070091
 30
0.0
 11
1022.692169629082
 21
908.8931763038017
 31
0.0
  0
LINE
  5
12E34
330
18
100
AcDbEntity
  8
0
100
AcDbLine
 10
1021.692169629082
 20
908.8931763038017
 30
0.0
 11
1021.692169629082
 21
906.0513669070076
 31
0.0
  0
ARC
  5
12E35
330
18
100
AcDbEntity
  8
0
100
AcDbCircle
 10
1024.942169629083
 20
909.6431763038017
 30
0.0
 40
0.75
100
AcDbArc
 50
270.0
 51
90.0
  0
LINE
  5
12E36
330
18
100
AcDbEntity
  8
0
100
AcDbLine
 10
1022.692169629082
 20
910.5513669070093
 30
0.0
 11
1022.692169629082
 21
906.0513669070077
 31
0.0
  0
LINE
  5
12E37
330
18
100
AcDbEntity
  8
0
100
AcDbLine
 10
1036.292169629088
 20
881.5513669070096
 30
0.0
 11
1036.292169629088
 21
876.5513669070097
 31
0.0
  0
LINE
  5
12E38
330
18
100
AcDbEntity
  8
0
100
AcDbLine
 10
1036.292169629088
 20
871.5513669070096
 30
0.0
 11
1036.292169629088
 21
866.5513669070096
 31
0.0
  0
LINE
  5
12E39
330
18
100
AcDbEntity
  8
0
100
AcDbLine
 10
1020.69216962909
 20
887.0513669070115
 30
0.0
 11
1029.292169629092
 21
887.0513669070094
 31
0.0
  0
LINE
  5
12E3A
330
18
100
AcDbEntity
  8
0
100
AcDbLine
 10
1029.292169629088
 20
894.0513669070041
 30
0.0
 11
1020.69216962909
 21
894.0513669070041
 31
0.0
  0
LINE
  5
12E3B
330
18
100
AcDbEntity
  8
0
100
AcDbLine
 10
1020.69216962909
 20
887.0513669070115
 30
0.0
 11
1020.69216962909
 21
894.0513669070041
 31
0.0
  0
LINE
  5
12E3C
330
18
100
AcDbEntity
  8
0
100
AcDbLine
 10
1012.492169629089
 20
898.4513669070201
 30
0.0
 11
1021.492169629089
 21
898.4513669070166
 31
0.0
  0
LINE
  5
12E3D
330
18
100
AcDbEntity
  8
0
100
AcDbLine
 10
1012.492169629089
 20
898.0513669070077
 30
0.0
 11
1021.492169629089
 21
898.0513669070077
 31
0.0
  0
LINE
  5
12E3E
330
18
100
AcDbEntity
  8
0
100
AcDbLine
 10
1012.492169629089
 20
898.0513669070077
 30
0.0
 11
1012.492169629089
 21
898.4513669070166
 31
0.0
  0
LINE
  5
12E3F
330
18
100
AcDbEntity
  8
0
100
AcDbLine
 10
1021.492169629089
 20
906.0513669070077
 30
0.0
 11
1029.292169629088
 21
906.0513669070081
 31
0.0
  0
LINE
  5
12E40
330
18
100
AcDbEntity
  8
0
100
AcDbLine
 10
1021.492169629089
 20
894.0513669070078
 30
0.0
 11
1021.492169629089
 21
906.0513669070042
 31
0.0
  0
ARC
  5
12E41
330
18
100
AcDbEntity
  8
0
100
AcDbCircle
 10
1060.682889408193
 20
880.2606471279096
 30
0.0
 40
3.75
100
AcDbArc
 50
45.00000000010132
 51
225.0000000001013
  0
ARC
  5
12E42
330
18
100
AcDbEntity
  8
0
100
AcDbCircle
 10
1060.682889408193
 20
880.2606471279096
 30
0.0
 40
3.75
100
AcDbArc
 50
45.00000000010132
 51
225.0000000001013
  0
LINE
  5
12E43
330
18
100
AcDbEntity
  8
0
100
AcDbLine
 10
1066.292169629088
 20
910.5513669070106
 30
0.0
 11
1066.292169629088
 21
892.151366907009
 31
0.0
  0
LINE
  5
12E44
330
18
100
AcDbEntity
  8
0
100
AcDbLine
 10
1069.792169629088
 20
892.151366907009
 30
0.0
 11
1060.792169629084
 21
892.151366907009
 31
0.0
  0
LINE
  5
12E45
330
18
100
AcDbEntity
  8
0
100
AcDbLine
 10
1060.792169629084
 20
910.5513669070088
 30
0.0
 11
1060.792169629084
 21
892.151366907009
 31
0.0
  0
LINE
  5
12E46
330
18
100
AcDbEntity
  8
0
100
AcDbLine
 10
1059.192169629086
 20
910.5513669070088
 30
0.0
 11
1059.192169629086
 21
892.151366907009
 31
0.0
  0
LINE
  5
12E47
330
18
100
AcDbEntity
  8
0
100
AcDbLine
 10
1055.292169629085
 20
910.5513669070106
 30
0.0
 11
1055.292169629085
 21
892.151366907009
 31
0.0
  0
LINE
  5
12E48
330
18
100
AcDbEntity
  8
0
100
AcDbLine
 10
1024.942169629083
 20
910.3931763038028
 30
0.0
 11
1022.692169629082
 21
910.393176303801
 31
0.0
  0
LINE
  5
12E49
330
18
100
AcDbEntity
  8
0
100
AcDbLine
 10
1021.692169629082
 20
908.8931763038029
 30
0.0
 11
1024.942169629083
 21
908.8931763038029
 31
0.0
  0
LINE
  5
12E4A
330
18
100
AcDbEntity
  8
0
100
AcDbLine
 10
1022.692169629082
 20
910.551366907009
 30
0.0
 11
1022.692169629082
 21
908.8931763038029
 31
0.0
  0
ARC
  5
12E4B
330
18
100
AcDbEntity
  8
0
100
AcDbCircle
 10
1024.942169629083
 20
909.6431763038028
 30
0.0
 40
0.75
100
AcDbArc
 50
270.0
 51
90.0
  0
CIRCLE
  5
12E4C
330
18
100
AcDbEntity
  8
0
 48
3.0
370
    13
100
AcDbCircle
 10
1061.492169629089
 20
879.4513669070102
 30
0.0
 40
3.333333333333333
  0
ARC
  5
12E4D
330
18
100
AcDbEntity
  8
0
 48
3.0
370
    13
100
AcDbCircle
 10
1061.492169629089
 20
879.4513669070102
 30
0.0
 40
2.666666666666666
100
AcDbArc
 50
345.5224878141037
 51
14.47751218589629
  0
ARC
  5
12E4E
330
18
100
AcDbEntity
  8
0
 48
3.0
370
    13
100
AcDbCircle
 10
1061.492169629089
 20
879.4513669070102
 30
0.0
 40
2.666666666666666
100
AcDbArc
 50
165.5224878141036
 51
194.4775121858963
  0
CIRCLE
  5
12E4F
330
18
100
AcDbEntity
  8
0
 48
3.0
370
    13
100
AcDbCircle
 10
1061.492169629089
 20
879.4513669070102
 30
0.0
 40
4.0
  0
LINE
  5
12E50
330
18
100
AcDbEntity
  8
0
 48
3.0
370
    13
100
AcDbLine
 10
1058.91018073162
 20
880.1180335736781
 30
0.0
 11
1060.825502962425
 21
880.1180335736781
 31
0.0
  0
ARC
  5
12E51
330
18
100
AcDbEntity
  8
0
 48
3.0
370
    13
100
AcDbCircle
 10
1061.492169629089
 20
879.4513669070102
 30
0.0
 40
2.666666666666666
100
AcDbArc
 50
75.52248781407055
 51
104.4775121859294
  0
LINE
  5
12E52
330
18
100
AcDbEntity
  8
0
 48
3.0
370
    13
100
AcDbLine
 10
1062.158836295761
 20
880.1180335736781
 30
0.0
 11
1062.158836295761
 21
882.0333558044831
 31
0.0
  0
LINE
  5
12E53
330
18
100
AcDbEntity
  8
0
 48
3.0
370
    13
100
AcDbLine
 10
1060.825502962425
 20
880.1180335736781
 30
0.0
 11
1060.825502962425
 21
882.0333558044831
 31
0.0
  0
LINE
  5
12E54
330
18
100
AcDbEntity
  8
0
 48
3.0
370
    13
100
AcDbLine
 10
1062.158836295761
 20
880.1180335736781
 30
0.0
 11
1064.074158526562
 21
880.1180335736781
 31
0.0
  0
LINE
  5
12E55
330
18
100
AcDbEntity
  8
0
 48
3.0
370
    13
100
AcDbLine
 10
1062.158836295761
 20
876.8693780095391
 30
0.0
 11
1062.158836295761
 21
878.7847002403442
 31
0.0
  0
LINE
  5
12E56
330
18
100
AcDbEntity
  8
0
 48
3.0
370
    13
100
AcDbLine
 10
1060.825502962425
 20
876.8693780095391
 30
0.0
 11
1060.825502962425
 21
878.7847002403442
 31
0.0
  0
ARC
  5
12E57
330
18
100
AcDbEntity
  8
0
 48
3.0
370
    13
100
AcDbCircle
 10
1061.492169629089
 20
879.4513669070102
 30
0.0
 40
2.666666666666666
100
AcDbArc
 50
255.5224878140705
 51
284.4775121859294
  0
LINE
  5
12E58
330
18
100
AcDbEntity
  8
0
 48
3.0
370
    13
100
AcDbLine
 10
1058.91018073162
 20
878.7847002403442
 30
0.0
 11
1060.825502962425
 21
878.7847002403442
 31
0.0
  0
LINE
  5
12E59
330
18
100
AcDbEntity
  8
0
 48
3.0
370
    13
100
AcDbLine
 10
1062.158836295761
 20
878.7847002403442
 30
0.0
 11
1064.074158526562
 21
878.7847002403442
 31
0.0
  0
LINE
  5
12E5A
330
18
100
AcDbEntity
  8
0
100
AcDbLine
 10
1193.792169629092
 20
887.15136690701
 30
0.0
 11
1053.792169629092
 21
887.15136690701
 31
0.0
  0
LINE
  5
12E5C
330
18
100
AcDbEntity
  8
0
100
AcDbLine
 10
1049.292169629092
 20
892.1513669070099
 30
0.0
 11
1204.692169629086
 21
892.1513669070099
 31
0.0
  0
LINE
  5
12E5D
330
18
100
AcDbEntity
  8
0
100
AcDbLine
 10
1165.292169629084
 20
910.5513669070106
 30
0.0
 11
1077.292169629085
 21
910.5513669070106
 31
0.0
  0
LINE
  5
12E5E
330
18
100
AcDbEntity
  8
0
100
AcDbLine
 10
1206.292169629085
 20
910.5513669070099
 30
0.0
 11
1206.292169629085
 21
930.5513669070098
 31
0.0
  0
LINE
  5
12E5F
330
18
100
AcDbEntity
  8
0
100
AcDbLine
 10
1116.525929747547
 20
1178.871211312198
 30
0.0
 11
1116.525929747547
 21
1118.871211312198
 31
0.0
  0
LINE
  5
12E60
330
18
100
AcDbEntity
  8
0
100
AcDbLine
 10
1119.525929747547
 20
1178.871211312198
 30
0.0
 11
1119.525929747547
 21
1118.871211312198
 31
0.0
  0
LINE
  5
12E61
330
18
100
AcDbEntity
  8
0
100
AcDbLine
 10
1142.025929747547
 20
1178.871211312198
 30
0.0
 11
1142.025929747547
 21
1118.871211312198
 31
0.0
  0
LINE
  5
12E62
330
18
100
AcDbEntity
  8
0
100
AcDbLine
 10
1145.025929747547
 20
1178.871211312198
 30
0.0
 11
1145.025929747547
 21
1118.871211312198
 31
0.0
  0
LINE
  5
12E63
330
18
100
AcDbEntity
  8
0
100
AcDbLine
 10
1167.525929747547
 20
1178.871211312198
 30
0.0
 11
1167.525929747547
 21
1118.871211312198
 31
0.0
  0
LINE
  5
12E64
330
18
100
AcDbEntity
  8
0
100
AcDbLine
 10
1173.525929747547
 20
1178.871211312198
 30
0.0
 11
1173.525929747547
 21
1118.871211312198
 31
0.0
  0
LINE
  5
12E65
330
18
100
AcDbEntity
  8
0
100
AcDbLine
 10
1170.525929747547
 20
1178.871211312198
 30
0.0
 11
1170.525929747547
 21
1118.871211312198
 31
0.0
  0
CIRCLE
  5
12E66
330
18
100
AcDbEntity
  8
0
100
AcDbCircle
 10
1156.275929747547
 20
1162.871211312198
 30
0.0
 40
10.0
  0
CIRCLE
  5
12E67
330
18
100
AcDbEntity
  8
0
100
AcDbCircle
 10
1156.275929747547
 20
1162.871211312198
 30
0.0
 40
8.0
  0
CIRCLE
  5
12E68
330
18
100
AcDbEntity
  8
0
100
AcDbCircle
 10
1130.775929747547
 20
1162.871211312198
 30
0.0
 40
10.0
  0
CIRCLE
  5
12E69
330
18
100
AcDbEntity
  8
0
100
AcDbCircle
 10
1130.775929747547
 20
1162.871211312198
 30
0.0
 40
8.0
  0
LINE
  5
12E6A
330
18
100
AcDbEntity
  8
0
100
AcDbLine
 10
1205.025929747551
 20
1213.271211312077
 30
0.0
 11
1205.025929747551
 21
1066.87123989462
 31
0.0
  0
LINE
  5
12E6B
330
18
100
AcDbEntity
  8
0
100
AcDbLine
 10
1205.025929747547
 20
1174.871211312198
 30
0.0
 11
1205.025929747551
 21
1074.87123989462
 31
0.0
  0
LINE
  5
12E6C
330
18
100
AcDbEntity
  8
0
100
AcDbLine
 10
1088.025929747547
 20
1178.871211312198
 30
0.0
 11
1088.025929747547
 21
1118.871211312198
 31
0.0
  0
LINE
  5
12E6D
330
18
100
AcDbEntity
  8
0
100
AcDbLine
 10
1091.025929747547
 20
1178.871211312198
 30
0.0
 11
1091.025929747547
 21
1118.871211312198
 31
0.0
  0
LINE
  5
12E6E
330
18
100
AcDbEntity
  8
0
100
AcDbLine
 10
1094.025929747547
 20
1178.871211312198
 30
0.0
 11
1094.025929747547
 21
1118.871211312198
 31
0.0
  0
CIRCLE
  5
12E6F
330
18
100
AcDbEntity
  8
0
100
AcDbCircle
 10
1105.275929747547
 20
1162.871211312198
 30
0.0
 40
10.0
  0
CIRCLE
  5
12E70
330
18
100
AcDbEntity
  8
0
100
AcDbCircle
 10
1105.275929747547
 20
1162.871211312198
 30
0.0
 40
8.0
  0
LINE
  5
12E71
330
18
100
AcDbEntity
  8
0
100
AcDbLine
 10
1497.033221542396
 20
1066.871239894569
 30
0.0
 11
1401.033221542396
 21
1194.87123989456
 31
0.0
  0
LINE
  5
12E72
330
18
100
AcDbEntity
  8
0
100
AcDbLine
 10
1497.033221542396
 20
1066.871239894569
 30
0.0
 11
1698.033221542396
 21
1066.871239894586
 31
0.0
  0
LINE
  5
12E73
330
18
100
AcDbEntity
  8
0
 48
3.0
370
    13
100
AcDbLine
 10
1504.666554875735
 20
1094.289250997118
 30
0.0
 11
1504.666554875735
 21
1096.204573227923
 31
0.0
  0
LINE
  5
12E74
330
18
100
AcDbEntity
  8
0
 48
3.0
370
    13
100
AcDbLine
 10
1505.999888209071
 20
1094.289250997118
 30
0.0
 11
1505.999888209071
 21
1096.204573227923
 31
0.0
  0
CIRCLE
  5
12E75
330
18
100
AcDbEntity
  8
0
 48
3.0
370
    13
100
AcDbCircle
 10
1505.333221542399
 20
1096.871239894587
 30
0.0
 40
4.0
  0
CIRCLE
  5
12E76
330
18
100
AcDbEntity
  8
0
 48
3.0
370
    13
100
AcDbCircle
 10
1505.333221542399
 20
1096.871239894587
 30
0.0
 40
3.333333333333333
  0
ARC
  5
12E77
330
18
100
AcDbEntity
  8
0
 48
3.0
370
    13
100
AcDbCircle
 10
1505.333221542399
 20
1096.871239894587
 30
0.0
 40
2.666666666666666
100
AcDbArc
 50
255.5224878140705
 51
284.4775121859294
  0
LINE
  5
12E78
330
18
100
AcDbEntity
  8
0
 48
3.0
370
    13
100
AcDbLine
 10
1505.999888209071
 20
1096.204573227923
 30
0.0
 11
1507.915210439872
 21
1096.204573227923
 31
0.0
  0
LINE
  5
12E79
330
18
100
AcDbEntity
  8
0
 48
3.0
370
    13
100
AcDbLine
 10
1502.751232644927
 20
1096.204573227923
 30
0.0
 11
1504.666554875735
 21
1096.204573227923
 31
0.0
  0
LINE
  5
12E7A
330
18
100
AcDbEntity
  8
0
 48
3.0
370
    13
100
AcDbLine
 10
1505.999888209071
 20
1097.537906561255
 30
0.0
 11
1507.915210439872
 21
1097.537906561255
 31
0.0
  0
LINE
  5
12E7B
330
18
100
AcDbEntity
  8
0
 48
3.0
370
    13
100
AcDbLine
 10
1504.666554875735
 20
1097.537906561255
 30
0.0
 11
1504.666554875735
 21
1099.45322879206
 31
0.0
  0
LINE
  5
12E7C
330
18
100
AcDbEntity
  8
0
 48
3.0
370
    13
100
AcDbLine
 10
1505.999888209071
 20
1097.537906561255
 30
0.0
 11
1505.999888209071
 21
1099.45322879206
 31
0.0
  0
ARC
  5
12E7D
330
18
100
AcDbEntity
  8
0
 48
3.0
370
    13
100
AcDbCircle
 10
1505.333221542399
 20
1096.871239894587
 30
0.0
 40
2.666666666666666
100
AcDbArc
 50
75.52248781407055
 51
104.4775121859294
  0
LINE
  5
12E7E
330
18
100
AcDbEntity
  8
0
 48
3.0
370
    13
100
AcDbLine
 10
1502.751232644927
 20
1097.537906561255
 30
0.0
 11
1504.666554875735
 21
1097.537906561255
 31
0.0
  0
ARC
  5
12E7F
330
18
100
AcDbEntity
  8
0
 48
3.0
370
    13
100
AcDbCircle
 10
1505.333221542399
 20
1096.871239894587
 30
0.0
 40
2.666666666666666
100
AcDbArc
 50
165.5224878141036
 51
194.4775121858963
  0
ARC
  5
12E80
330
18
100
AcDbEntity
  8
0
 48
3.0
370
    13
100
AcDbCircle
 10
1505.333221542399
 20
1096.871239894587
 30
0.0
 40
2.666666666666666
100
AcDbArc
 50
345.5224878141037
 51
14.47751218589629
  0
LINE
  5
12E81
330
18
100
AcDbEntity
  8
0
 48
3.0
370
    13
100
AcDbLine
 10
1504.666554875735
 20
1144.289222414695
 30
0.0
 11
1504.666554875735
 21
1146.2045446455
 31
0.0
  0
LINE
  5
12E82
330
18
100
AcDbEntity
  8
0
 48
3.0
370
    13
100
AcDbLine
 10
1505.999888209071
 20
1144.289222414695
 30
0.0
 11
1505.999888209071
 21
1146.2045446455
 31
0.0
  0
CIRCLE
  5
12E83
330
18
100
AcDbEntity
  8
0
 48
3.0
370
    13
100
AcDbCircle
 10
1505.333221542399
 20
1146.871211312164
 30
0.0
 40
4.0
  0
CIRCLE
  5
12E84
330
18
100
AcDbEntity
  8
0
 48
3.0
370
    13
100
AcDbCircle
 10
1505.333221542399
 20
1146.871211312164
 30
0.0
 40
3.333333333333333
  0
ARC
  5
12E85
330
18
100
AcDbEntity
  8
0
 48
3.0
370
    13
100
AcDbCircle
 10
1505.333221542399
 20
1146.871211312164
 30
0.0
 40
2.666666666666666
100
AcDbArc
 50
255.5224878140705
 51
284.4775121859294
  0
LINE
  5
12E86
330
18
100
AcDbEntity
  8
0
 48
3.0
370
    13
100
AcDbLine
 10
1505.999888209071
 20
1146.2045446455
 30
0.0
 11
1507.915210439872
 21
1146.2045446455
 31
0.0
  0
LINE
  5
12E87
330
18
100
AcDbEntity
  8
0
 48
3.0
370
    13
100
AcDbLine
 10
1502.751232644927
 20
1146.2045446455
 30
0.0
 11
1504.666554875735
 21
1146.2045446455
 31
0.0
  0
LINE
  5
12E88
330
18
100
AcDbEntity
  8
0
 48
3.0
370
    13
100
AcDbLine
 10
1505.999888209071
 20
1147.537877978832
 30
0.0
 11
1507.915210439872
 21
1147.537877978832
 31
0.0
  0
LINE
  5
12E89
330
18
100
AcDbEntity
  8
0
 48
3.0
370
    13
100
AcDbLine
 10
1504.666554875735
 20
1147.537877978832
 30
0.0
 11
1504.666554875735
 21
1149.453200209637
 31
0.0
  0
LINE
  5
12E8A
330
18
100
AcDbEntity
  8
0
 48
3.0
370
    13
100
AcDbLine
 10
1505.999888209071
 20
1147.537877978832
 30
0.0
 11
1505.999888209071
 21
1149.453200209637
 31
0.0
  0
ARC
  5
12E8B
330
18
100
AcDbEntity
  8
0
 48
3.0
370
    13
100
AcDbCircle
 10
1505.333221542399
 20
1146.871211312164
 30
0.0
 40
2.666666666666666
100
AcDbArc
 50
75.52248781407055
 51
104.4775121859294
  0
LINE
  5
12E8C
330
18
100
AcDbEntity
  8
0
 48
3.0
370
    13
100
AcDbLine
 10
1502.751232644927
 20
1147.537877978832
 30
0.0
 11
1504.666554875735
 21
1147.537877978832
 31
0.0
  0
ARC
  5
12E8D
330
18
100
AcDbEntity
  8
0
 48
3.0
370
    13
100
AcDbCircle
 10
1505.333221542399
 20
1146.871211312164
 30
0.0
 40
2.666666666666666
100
AcDbArc
 50
165.5224878141036
 51
194.4775121858963
  0
ARC
  5
12E8E
330
18
100
AcDbEntity
  8
0
 48
3.0
370
    13
100
AcDbCircle
 10
1505.333221542399
 20
1146.871211312164
 30
0.0
 40
2.666666666666666
100
AcDbArc
 50
345.5224878141037
 51
14.47751218589629
  0
MTEXT
  5
12E8F
330
18
100
AcDbEntity
  8
0
 48
0.1
370
    -3
100
AcDbMText
 10
1130.775929747544
 20
1148.871211312198
 30
0.0
 40
7.0
 41
22.5
 71
     5
 72
     5
  1
V
 73
     1
 44
1.0
  0
MTEXT
  5
12E90
330
18
100
AcDbEntity
  8
0
 48
0.1
370
    -3
100
AcDbMText
 10
1156.27592974754
 20
1148.871211312198
 30
0.0
 40
7.0
 41
22.5
 71
     5
 72
     5
  1
W
 73
     1
 44
1.0
  0
ARC
  5
12E91
330
18
100
AcDbEntity
  8
0
 48
3.0
370
    13
100
AcDbCircle
 10
1183.775929747551
 20
1148.871211312198
 30
0.0
 40
3.333333333333333
100
AcDbArc
 50
345.5224878141037
 51
14.47751218589629
  0
ARC
  5
12E92
330
18
100
AcDbEntity
  8
0
 48
3.0
370
    13
100
AcDbCircle
 10
1183.775929747551
 20
1148.871211312198
 30
0.0
 40
3.333333333333333
100
AcDbArc
 50
165.5224878141036
 51
194.4775121858963
  0
CIRCLE
  5
12E93
330
18
100
AcDbEntity
  8
0
 48
3.0
370
    13
100
AcDbCircle
 10
1183.775929747551
 20
1148.871211312198
 30
0.0
 40
5.0
  0
CIRCLE
  5
12E94
330
18
100
AcDbEntity
  8
0
 48
3.0
370
    13
100
AcDbCircle
 10
1183.775929747551
 20
1148.871211312198
 30
0.0
 40
4.166666666666666
  0
LINE
  5
12E95
330
18
100
AcDbEntity
  8
0
 48
3.0
370
    13
100
AcDbLine
 10
1180.548443625712
 20
1149.70454464553
 30
0.0
 11
1182.942596414223
 21
1149.70454464553
 31
0.0
  0
ARC
  5
12E96
330
18
100
AcDbEntity
  8
0
 48
3.0
370
    13
100
AcDbCircle
 10
1183.775929747551
 20
1148.871211312198
 30
0.0
 40
3.333333333333333
100
AcDbArc
 50
75.52248781407055
 51
104.4775121859294
  0
LINE
  5
12E97
330
18
100
AcDbEntity
  8
0
 48
3.0
370
    13
100
AcDbLine
 10
1184.609263080887
 20
1149.70454464553
 30
0.0
 11
1184.609263080887
 21
1152.098697434037
 31
0.0
  0
LINE
  5
12E98
330
18
100
AcDbEntity
  8
0
 48
3.0
370
    13
100
AcDbLine
 10
1182.942596414223
 20
1149.70454464553
 30
0.0
 11
1182.942596414223
 21
1152.098697434037
 31
0.0
  0
LINE
  5
12E99
330
18
100
AcDbEntity
  8
0
 48
3.0
370
    13
100
AcDbLine
 10
1184.609263080887
 20
1149.70454464553
 30
0.0
 11
1187.00341586939
 21
1149.70454464553
 31
0.0
  0
LINE
  5
12E9A
330
18
100
AcDbEntity
  8
0
 48
3.0
370
    13
100
AcDbLine
 10
1184.609263080887
 20
1145.643725190359
 30
0.0
 11
1184.609263080887
 21
1148.037877978864
 31
0.0
  0
LINE
  5
12E9B
330
18
100
AcDbEntity
  8
0
 48
3.0
370
    13
100
AcDbLine
 10
1182.942596414223
 20
1145.643725190359
 30
0.0
 11
1182.942596414223
 21
1148.037877978864
 31
0.0
  0
ARC
  5
12E9C
330
18
100
AcDbEntity
  8
0
 48
3.0
370
    13
100
AcDbCircle
 10
1183.775929747551
 20
1148.871211312198
 30
0.0
 40
3.333333333333333
100
AcDbArc
 50
255.5224878140705
 51
284.4775121859294
  0
LINE
  5
12E9D
330
18
100
AcDbEntity
  8
0
 48
3.0
370
    13
100
AcDbLine
 10
1180.548443625712
 20
1148.037877978864
 30
0.0
 11
1182.942596414223
 21
1148.037877978864
 31
0.0
  0
LINE
  5
12E9E
330
18
100
AcDbEntity
  8
0
 48
3.0
370
    13
100
AcDbLine
 10
1184.609263080887
 20
1148.037877978864
 30
0.0
 11
1187.00341586939
 21
1148.037877978864
 31
0.0
  0
ARC
  5
12E9F
330
18
100
AcDbEntity
  8
0
100
AcDbCircle
 10
1183.525929747551
 20
1148.871211312198
 30
0.0
 40
6.0
100
AcDbArc
 50
90.0
 51
270.0
  0
LINE
  5
12EA0
330
18
100
AcDbEntity
  8
0
100
AcDbLine
 10
1183.525929747551
 20
1154.871211312198
 30
0.0
 11
1187.025929747551
 21
1154.871211312198
 31
0.0
  0
LINE
  5
12EA1
330
18
100
AcDbEntity
  8
0
100
AcDbLine
 10
1183.525929747551
 20
1142.871211312198
 30
0.0
 11
1187.025929747551
 21
1142.871211312198
 31
0.0
  0
LINE
  5
12EA2
330
18
100
AcDbEntity
  8
0
100
AcDbLine
 10
1163.275929747547
 20
1152.871211312198
 30
0.0
 11
1163.275929747547
 21
1155.729782883655
 31
0.0
  0
LINE
  5
12EA3
330
18
100
AcDbEntity
  8
0
100
AcDbLine
 10
1149.275929747547
 20
1152.871211312198
 30
0.0
 11
1149.275929747547
 21
1155.729782883655
 31
0.0
  0
LINE
  5
12EA4
330
18
100
AcDbEntity
  8
0
100
AcDbLine
 10
1137.775929747547
 20
1152.871211312198
 30
0.0
 11
1137.775929747547
 21
1155.729782883655
 31
0.0
  0
LINE
  5
12EA5
330
18
100
AcDbEntity
  8
0
100
AcDbLine
 10
1123.775929747547
 20
1152.871211312198
 30
0.0
 11
1123.775929747547
 21
1155.729782883655
 31
0.0
  0
LINE
  5
12EA6
330
18
100
AcDbEntity
  8
0
100
AcDbLine
 10
1112.275929747547
 20
1155.729782883655
 30
0.0
 11
1112.275929747547
 21
1152.871211312198
 31
0.0
  0
LINE
  5
12EA7
330
18
100
AcDbEntity
  8
0
100
AcDbLine
 10
1173.525929747551
 20
1165.871211312198
 30
0.0
 11
1187.025929747547
 21
1157.871211312198
 31
0.0
  0
LINE
  5
12EA8
330
18
100
AcDbEntity
  8
0
100
AcDbLine
 10
1187.025929747551
 20
1139.871211312198
 30
0.0
 11
1173.525929747551
 21
1131.871211312198
 31
0.0
  0
CIRCLE
  5
12EA9
330
18
100
AcDbEntity
  8
0
100
AcDbCircle
 10
1156.275929747547
 20
1134.871211312198
 30
0.0
 40
10.0
  0
CIRCLE
  5
12EAA
330
18
100
AcDbEntity
  8
0
100
AcDbCircle
 10
1156.275929747547
 20
1134.871211312198
 30
0.0
 40
8.0
  0
LINE
  5
12EAB
330
18
100
AcDbEntity
  8
0
100
AcDbLine
 10
1119.525929747547
 20
1121.871211312198
 30
0.0
 11
1167.525929747547
 21
1121.871211312198
 31
0.0
  0
LINE
  5
12EAC
330
18
100
AcDbEntity
  8
0
100
AcDbLine
 10
1149.275929747547
 20
1152.871211312198
 30
0.0
 11
1163.275929747547
 21
1152.871211312198
 31
0.0
  0
LINE
  5
12EAD
330
18
100
AcDbEntity
  8
0
100
AcDbLine
 10
1167.525929747547
 20
1152.871211312198
 30
0.0
 11
1145.025929747544
 21
1152.871211312198
 31
0.0
  0
LINE
  5
12EAE
330
18
100
AcDbEntity
  8
0
100
AcDbLine
 10
1167.525929747547
 20
1144.871211312198
 30
0.0
 11
1145.025929747544
 21
1144.871211312198
 31
0.0
  0
CIRCLE
  5
12EAF
330
18
100
AcDbEntity
  8
0
100
AcDbCircle
 10
1130.775929747547
 20
1134.871211312198
 30
0.0
 40
8.0
  0
CIRCLE
  5
12EB0
330
18
100
AcDbEntity
  8
0
100
AcDbCircle
 10
1130.775929747547
 20
1134.871211312198
 30
0.0
 40
10.0
  0
LINE
  5
12EB1
330
18
100
AcDbEntity
  8
0
100
AcDbLine
 10
1137.775929747547
 20
1152.871211312198
 30
0.0
 11
1123.775929747544
 21
1152.871211312198
 31
0.0
  0
LINE
  5
12EB2
330
18
100
AcDbEntity
  8
0
100
AcDbLine
 10
1142.025929747544
 20
1152.871211312198
 30
0.0
 11
1119.525929747547
 21
1152.871211312198
 31
0.0
  0
LINE
  5
12EB3
330
18
100
AcDbEntity
  8
0
100
AcDbLine
 10
1142.025929747544
 20
1144.871211312198
 30
0.0
 11
1119.525929747547
 21
1144.871211312198
 31
0.0
  0
ARC
  5
12EB4
330
18
100
AcDbEntity
  8
0
100
AcDbCircle
 10
1183.525929747551
 20
1148.871211312198
 30
0.0
 40
6.0
100
AcDbArc
 50
90.0
 51
270.0
  0
LINE
  5
12EB5
330
18
100
AcDbEntity
  8
0
100
AcDbLine
 10
1183.525929747547
 20
1154.871211312198
 30
0.0
 11
1187.025929747547
 21
1154.871211312198
 31
0.0
  0
LINE
  5
12EB6
330
18
100
AcDbEntity
  8
0
100
AcDbLine
 10
1183.525929747551
 20
1142.871211312198
 30
0.0
 11
1187.025929747551
 21
1142.871211312198
 31
0.0
  0
LINE
  5
12EB7
330
18
100
AcDbEntity
  8
0
100
AcDbLine
 10
1187.025929747551
 20
1157.871211312198
 30
0.0
 11
1187.025929747547
 21
1152.671819166818
 31
0.0
  0
LINE
  5
12EB8
330
18
100
AcDbEntity
  8
0
100
AcDbLine
 10
1187.025929747547
 20
1145.07060345757
 30
0.0
 11
1187.025929747551
 21
1139.871211312198
 31
0.0
  0
LINE
  5
12EB9
330
18
100
AcDbEntity
  8
0
100
AcDbLine
 10
1206.625929747549
 20
1066.87123989462
 30
0.0
 11
1205.025929747551
 21
1066.87123989462
 31
0.0
  0
LINE
  5
12EBA
330
18
100
AcDbEntity
  8
0
100
AcDbLine
 10
1206.625929747549
 20
1066.87123989462
 30
0.0
 11
1205.025929747551
 21
1066.87123989462
 31
0.0
  0
LINE
  5
12EBB
330
18
100
AcDbEntity
  8
0
100
AcDbLine
 10
1200.725929747548
 20
1046.871239894587
 30
0.0
 11
1202.725929747548
 21
1048.871239894587
 31
0.0
  0
LINE
  5
12EBC
330
18
100
AcDbEntity
  8
0
100
AcDbLine
 10
1202.725929747548
 20
1066.871239894586
 30
0.0
 11
1202.725929747548
 21
1048.871239894587
 31
0.0
  0
ARC
  5
12EBD
330
18
100
AcDbEntity
  8
0
100
AcDbCircle
 10
1139.025929747551
 20
1056.371239894587
 30
0.0
 40
3.5
100
AcDbArc
 50
0.0
 51
180.0
  0
LINE
  5
12EBE
330
18
100
AcDbEntity
  8
0
 48
0.2
100
AcDbLine
 10
1135.525929747551
 20
1048.871239894587
 30
0.0
 11
1135.525929747551
 21
1056.371239894587
 31
0.0
  0
LINE
  5
12EBF
330
18
100
AcDbEntity
  8
0
100
AcDbLine
 10
1133.525929747551
 20
1046.871239894587
 30
0.0
 11
1135.525929747551
 21
1048.871239894587
 31
0.0
  0
LINE
  5
12EC0
330
18
100
AcDbEntity
  8
0
 48
0.2
100
AcDbLine
 10
1142.525929747551
 20
1048.871239894587
 30
0.0
 11
1142.525929747551
 21
1056.371239894587
 31
0.0
  0
LINE
  5
12EC1
330
18
100
AcDbEntity
  8
0
100
AcDbLine
 10
1142.525929747551
 20
1048.871239894587
 30
0.0
 11
1144.525929747551
 21
1046.871239894587
 31
0.0
  0
LINE
  5
12EC2
330
18
100
AcDbEntity
  8
0
100
AcDbLine
 10
1200.725929747548
 20
1046.871239894587
 30
0.0
 11
1144.525929747551
 21
1046.871239894587
 31
0.0
  0
CIRCLE
  5
12EC3
330
18
100
AcDbEntity
  8
0
 48
3.0
370
    13
100
AcDbCircle
 10
1077.775929747551
 20
1148.871211312198
 30
-0.2286000000000001
 40
5.0
  0
LINE
  5
12EC4
330
18
100
AcDbEntity
  8
0
100
AcDbLine
 10
1078.025929747551
 20
1154.871211312198
 30
0.0
 11
1074.525929747551
 21
1154.871211312198
 31
0.0
  0
LINE
  5
12EC5
330
18
100
AcDbEntity
  8
0
100
AcDbLine
 10
1078.025929747551
 20
1142.871211312198
 30
0.0
 11
1074.525929747551
 21
1142.871211312198
 31
0.0
  0
ARC
  5
12EC6
330
18
100
AcDbEntity
  8
0
100
AcDbCircle
 10
1078.025929747551
 20
1148.871211312198
 30
0.0
 40
6.0
100
AcDbArc
 50
270.0
 51
90.0
  0
ARC
  5
12EC7
330
18
100
AcDbEntity
  8
0
 48
3.0
370
    13
100
AcDbCircle
 10
1008.025929747551
 20
1148.871211312198
 30
0.0
 40
3.333333333333333
100
AcDbArc
 50
345.5224878141037
 51
14.47751218589629
  0
CIRCLE
  5
12EC8
330
18
100
AcDbEntity
  8
0
 48
3.0
370
    13
100
AcDbCircle
 10
1059.025928546589
 20
1131.871211312198
 30
0.0
 40
5.0
  0
ARC
  5
12EC9
330
18
100
AcDbEntity
  8
0
 48
3.0
370
    13
100
AcDbCircle
 10
1059.025928546589
 20
1131.871211312198
 30
0.0
 40
4.0
100
AcDbArc
 50
345.5224878141037
 51
14.47751218589629
  0
ARC
  5
12ECA
330
18
100
AcDbEntity
  8
0
 48
3.0
370
    13
100
AcDbCircle
 10
1059.025928546589
 20
1131.871211312198
 30
0.0
 40
4.0
100
AcDbArc
 50
165.5224878141036
 51
194.4775121858963
  0
LINE
  5
12ECB
330
18
100
AcDbEntity
  8
0
 48
3.0
370
    13
100
AcDbLine
 10
1055.152945200383
 20
1132.871211312198
 30
0.0
 11
1058.025928546592
 21
1132.871211312198
 31
0.0
  0
ARC
  5
12ECC
330
18
100
AcDbEntity
  8
0
 48
3.0
370
    13
100
AcDbCircle
 10
1059.025928546589
 20
1131.871211312198
 30
0.0
 40
4.0
100
AcDbArc
 50
75.52248781407055
 51
104.4775121859294
  0
LINE
  5
12ECD
330
18
100
AcDbEntity
  8
0
 48
3.0
370
    13
100
AcDbLine
 10
1060.025928546592
 20
1132.871211312198
 30
0.0
 11
1060.025928546592
 21
1135.744194658407
 31
0.0
  0
LINE
  5
12ECE
330
18
100
AcDbEntity
  8
0
 48
3.0
370
    13
100
AcDbLine
 10
1058.025928546592
 20
1132.871211312198
 30
0.0
 11
1058.025928546592
 21
1135.744194658407
 31
0.0
  0
LINE
  5
12ECF
330
18
100
AcDbEntity
  8
0
 48
3.0
370
    13
100
AcDbLine
 10
1060.025928546592
 20
1132.871211312198
 30
0.0
 11
1062.898911892798
 21
1132.871211312198
 31
0.0
  0
LINE
  5
12ED0
330
18
100
AcDbEntity
  8
0
 48
3.0
370
    13
100
AcDbLine
 10
1060.025928546592
 20
1127.998227965992
 30
0.0
 11
1060.025928546592
 21
1130.871211312198
 31
0.0
  0
LINE
  5
12ED1
330
18
100
AcDbEntity
  8
0
 48
3.0
370
    13
100
AcDbLine
 10
1058.025928546592
 20
1127.998227965992
 30
0.0
 11
1058.025928546592
 21
1130.871211312198
 31
0.0
  0
ARC
  5
12ED2
330
18
100
AcDbEntity
  8
0
 48
3.0
370
    13
100
AcDbCircle
 10
1059.025928546589
 20
1131.871211312198
 30
0.0
 40
4.0
100
AcDbArc
 50
255.5224878140705
 51
284.4775121859294
  0
LINE
  5
12ED3
330
18
100
AcDbEntity
  8
0
 48
3.0
370
    13
100
AcDbLine
 10
1055.152945200383
 20
1130.871211312198
 30
0.0
 11
1058.025928546592
 21
1130.871211312198
 31
0.0
  0
LINE
  5
12ED4
330
18
100
AcDbEntity
  8
0
 48
3.0
370
    13
100
AcDbLine
 10
1060.025928546592
 20
1130.871211312198
 30
0.0
 11
1062.898911892798
 21
1130.871211312198
 31
0.0
  0
CIRCLE
  5
12ED5
330
18
100
AcDbEntity
  8
0
 48
3.0
370
    13
100
AcDbCircle
 10
1059.025928546589
 20
1131.871211312198
 30
0.0
 40
6.0
  0
CIRCLE
  5
12ED6
330
18
100
AcDbEntity
  8
0
 48
3.0
370
    13
100
AcDbCircle
 10
1032.025928546589
 20
1131.871211312198
 30
0.0
 40
6.0
  0
LINE
  5
12ED7
330
18
100
AcDbEntity
  8
0
 48
3.0
370
    13
100
AcDbLine
 10
1033.025928546592
 20
1130.871211312198
 30
0.0
 11
1035.898911892798
 21
1130.871211312198
 31
0.0
  0
LINE
  5
12ED8
330
18
100
AcDbEntity
  8
0
 48
3.0
370
    13
100
AcDbLine
 10
1028.152945200383
 20
1130.871211312198
 30
0.0
 11
1031.025928546592
 21
1130.871211312198
 31
0.0
  0
ARC
  5
12ED9
330
18
100
AcDbEntity
  8
0
 48
3.0
370
    13
100
AcDbCircle
 10
1032.025928546589
 20
1131.871211312198
 30
0.0
 40
4.0
100
AcDbArc
 50
255.5224878140705
 51
284.4775121859294
  0
LINE
  5
12EDA
330
18
100
AcDbEntity
  8
0
 48
3.0
370
    13
100
AcDbLine
 10
1031.025928546592
 20
1127.998227965992
 30
0.0
 11
1031.025928546592
 21
1130.871211312198
 31
0.0
  0
LINE
  5
12EDB
330
18
100
AcDbEntity
  8
0
 48
3.0
370
    13
100
AcDbLine
 10
1033.025928546592
 20
1127.998227965992
 30
0.0
 11
1033.025928546592
 21
1130.871211312198
 31
0.0
  0
LINE
  5
12EDC
330
18
100
AcDbEntity
  8
0
 48
3.0
370
    13
100
AcDbLine
 10
1033.025928546592
 20
1132.871211312198
 30
0.0
 11
1035.898911892798
 21
1132.871211312198
 31
0.0
  0
LINE
  5
12EDD
330
18
100
AcDbEntity
  8
0
 48
3.0
370
    13
100
AcDbLine
 10
1031.025928546592
 20
1132.871211312198
 30
0.0
 11
1031.025928546592
 21
1135.744194658407
 31
0.0
  0
LINE
  5
12EDE
330
18
100
AcDbEntity
  8
0
 48
3.0
370
    13
100
AcDbLine
 10
1033.025928546592
 20
1132.871211312198
 30
0.0
 11
1033.025928546592
 21
1135.744194658407
 31
0.0
  0
ARC
  5
12EDF
330
18
100
AcDbEntity
  8
0
 48
3.0
370
    13
100
AcDbCircle
 10
1032.025928546589
 20
1131.871211312198
 30
0.0
 40
4.0
100
AcDbArc
 50
75.52248781407055
 51
104.4775121859294
  0
LINE
  5
12EE0
330
18
100
AcDbEntity
  8
0
 48
3.0
370
    13
100
AcDbLine
 10
1028.152945200383
 20
1132.871211312198
 30
0.0
 11
1031.025928546592
 21
1132.871211312198
 31
0.0
  0
ARC
  5
12EE1
330
18
100
AcDbEntity
  8
0
 48
3.0
370
    13
100
AcDbCircle
 10
1032.025928546589
 20
1131.871211312198
 30
0.0
 40
4.0
100
AcDbArc
 50
165.5224878141036
 51
194.4775121858963
  0
ARC
  5
12EE2
330
18
100
AcDbEntity
  8
0
 48
3.0
370
    13
100
AcDbCircle
 10
1032.025928546589
 20
1131.871211312198
 30
0.0
 40
4.0
100
AcDbArc
 50
345.5224878141037
 51
14.47751218589629
  0
CIRCLE
  5
12EE3
330
18
100
AcDbEntity
  8
0
 48
3.0
370
    13
100
AcDbCircle
 10
1032.025928546589
 20
1131.871211312198
 30
0.0
 40
5.0
  0
CIRCLE
  5
12EE4
330
18
100
AcDbEntity
  8
0
370
    50
100
AcDbCircle
 10
1059.025928546589
 20
1148.871211312198
 30
0.0
 40
3.0
  0
LINE
  5
12EE5
330
18
100
AcDbEntity
  8
0
370
    50
100
AcDbLine
 10
1061.025928546589
 20
1149.271211312198
 30
0.0
 11
1057.025928546589
 21
1149.271211312198
 31
0.0
  0
LINE
  5
12EE6
330
18
100
AcDbEntity
  8
0
370
    50
100
AcDbLine
 10
1057.775928546589
 20
1148.071211312198
 30
0.0
 11
1060.275928546589
 21
1148.071211312198
 31
0.0
  0
LINE
  5
12EE7
330
18
100
AcDbEntity
  8
0
370
    50
100
AcDbLine
 10
1059.025928546589
 20
1150.871211312198
 30
0.0
 11
1059.025928546589
 21
1149.271211312198
 31
0.0
  0
LINE
  5
12EE8
330
18
100
AcDbEntity
  8
0
370
    50
100
AcDbLine
 10
1059.525928546589
 20
1146.871211312198
 30
0.0
 11
1058.525928546589
 21
1146.871211312198
 31
0.0
  0
CIRCLE
  5
12EE9
330
18
100
AcDbEntity
  8
0
370
    50
100
AcDbCircle
 10
1032.025928546589
 20
1148.871211312198
 30
0.0
 40
3.0
  0
LINE
  5
12EEA
330
18
100
AcDbEntity
  8
0
370
    50
100
AcDbLine
 10
1032.525928546589
 20
1146.871211312198
 30
0.0
 11
1031.525928546588
 21
1146.871211312198
 31
0.0
  0
LINE
  5
12EEB
330
18
100
AcDbEntity
  8
0
370
    50
100
AcDbLine
 10
1032.025928546589
 20
1150.871211312198
 30
0.0
 11
1032.025928546589
 21
1149.271211312198
 31
0.0
  0
LINE
  5
12EEC
330
18
100
AcDbEntity
  8
0
370
    50
100
AcDbLine
 10
1034.025928546589
 20
1149.271211312198
 30
0.0
 11
1030.025928546589
 21
1149.271211312198
 31
0.0
  0
LINE
  5
12EED
330
18
100
AcDbEntity
  8
0
370
    50
100
AcDbLine
 10
1030.775928546588
 20
1148.071211312198
 30
0.0
 11
1033.275928546589
 21
1148.071211312198
 31
0.0
  0
LINE
  5
12EEE
330
18
100
AcDbEntity
  8
0
100
AcDbLine
 10
1098.275929747551
 20
1155.72978288365
 30
0.0
 11
1098.275929747551
 21
1152.871211312198
 31
0.0
  0
LINE
  5
12EEF
330
18
100
AcDbEntity
  8
0
100
AcDbLine
 10
1078.025929747547
 20
1154.871211312198
 30
0.0
 11
1074.525929747547
 21
1154.871211312198
 31
0.0
  0
LINE
  5
12EF0
330
18
100
AcDbEntity
  8
0
100
AcDbLine
 10
1088.025929747547
 20
1165.871211312198
 30
0.0
 11
1074.525929747551
 21
1157.871211312198
 31
0.0
  0
LINE
  5
12EF1
330
18
100
AcDbEntity
  8
0
100
AcDbLine
 10
1074.525929747547
 20
1139.871211312198
 30
0.0
 11
1088.025929747547
 21
1131.871211312198
 31
0.0
  0
LINE
  5
12EF2
330
18
100
AcDbEntity
  8
0
100
AcDbLine
 10
1078.025929747547
 20
1142.871211312198
 30
0.0
 11
1074.525929747547
 21
1142.871211312198
 31
0.0
  0
ARC
  5
12EF3
330
18
100
AcDbEntity
  8
0
100
AcDbCircle
 10
1078.025929747547
 20
1148.871211312198
 30
0.0
 40
6.0
100
AcDbArc
 50
270.0
 51
90.0
  0
LINE
  5
12EF4
330
18
100
AcDbEntity
  8
0
100
AcDbLine
 10
1011.525929747547
 20
1152.442999079442
 30
0.0
 11
1011.525929747547
 21
1162.371211312198
 31
0.0
  0
LINE
  5
12EF5
330
18
100
AcDbEntity
  8
0
100
AcDbLine
 10
1011.525929747551
 20
1135.371211312198
 30
0.0
 11
1011.525929747547
 21
1145.299423544948
 31
0.0
  0
LINE
  5
12EF6
330
18
100
AcDbEntity
  8
0
100
AcDbLine
 10
1074.525929747547
 20
1157.871211312198
 30
0.0
 11
1074.525929747547
 21
1152.670882350589
 31
0.0
  0
LINE
  5
12EF7
330
18
100
AcDbEntity
  8
0
100
AcDbLine
 10
1074.525929747547
 20
1145.071540273807
 30
0.0
 11
1074.525929747547
 21
1139.871211312198
 31
0.0
  0
MTEXT
  5
12EF8
330
18
100
AcDbEntity
  8
0
 48
0.1
370
    -3
100
AcDbMText
 10
1105.275929747547
 20
1148.871211312198
 30
0.0
 40
7.0
 41
22.5
 71
     5
 72
     5
  1
U
 73
     1
 44
1.0
  0
LINE
  5
12EF9
330
18
100
AcDbEntity
  8
0
100
AcDbLine
 10
1088.025929747547
 20
1118.871211312198
 30
0.0
 11
1173.525929747547
 21
1118.871211312198
 31
0.0
  0
CIRCLE
  5
12EFA
330
18
100
AcDbEntity
  8
0
100
AcDbCircle
 10
1105.275929747547
 20
1134.871211312198
 30
0.0
 40
8.0
  0
LINE
  5
12EFB
330
18
100
AcDbEntity
  8
0
100
AcDbLine
 10
1094.025929747547
 20
1121.871211312198
 30
0.0
 11
1116.525929747547
 21
1121.871211312198
 31
0.0
  0
CIRCLE
  5
12EFC
330
18
100
AcDbEntity
  8
0
100
AcDbCircle
 10
1105.275929747547
 20
1134.871211312198
 30
0.0
 40
10.0
  0
LINE
  5
12EFD
330
18
100
AcDbEntity
  8
0
100
AcDbLine
 10
1112.275929747547
 20
1152.871211312198
 30
0.0
 11
1098.275929747551
 21
1152.871211312198
 31
0.0
  0
LINE
  5
12EFE
330
18
100
AcDbEntity
  8
0
100
AcDbLine
 10
1116.525929747547
 20
1152.871211312198
 30
0.0
 11
1094.025929747547
 21
1152.871211312198
 31
0.0
  0
LINE
  5
12EFF
330
18
100
AcDbEntity
  8
0
100
AcDbLine
 10
1116.525929747547
 20
1144.871211312198
 30
0.0
 11
1094.025929747547
 21
1144.871211312198
 31
0.0
  0
LINE
  5
12F00
330
18
100
AcDbEntity
  8
0
100
AcDbLine
 10
1207.892169629083
 20
1025.85136690701
 30
0.0
 11
1207.892169629087
 21
1024.851366907009
 31
0.0
  0
LINE
  5
12F01
330
18
100
AcDbEntity
  8
0
100
AcDbLine
 10
1195.892169629087
 20
1023.25136690701
 30
0.0
 11
1195.892169629087
 21
1024.85136690701
 31
0.0
  0
LINE
  5
12F02
330
18
100
AcDbEntity
  8
0
100
AcDbLine
 10
1207.892169629087
 20
1024.85136690701
 30
0.0
 11
1195.892169629087
 21
1024.85136690701
 31
0.0
  0
LINE
  5
12F03
330
18
100
AcDbEntity
  8
0
100
AcDbLine
 10
1206.292169629088
 20
1023.25136690701
 30
0.0
 11
1195.892169629087
 21
1023.25136690701
 31
0.0
  0
LINE
  5
12F04
330
18
100
AcDbEntity
  8
0
100
AcDbLine
 10
1458.033242979198
 20
1118.871211312164
 30
0.0
 11
1451.833221542399
 21
1118.871211312164
 31
0.0
  0
LINE
  5
12F05
330
18
100
AcDbEntity
  8
0
100
AcDbLine
 10
1451.833221542399
 20
1127.137906561229
 30
0.0
 11
1451.833221542399
 21
1118.871211312164
 31
0.0
  0
LINE
  5
12F06
330
18
100
AcDbEntity
  8
0
 48
3.0
370
    13
100
AcDbLine
 10
1689.366554875732
 20
1104.289250997118
 30
0.0
 11
1689.366554875732
 21
1106.204573227923
 31
0.0
  0
LINE
  5
12F07
330
18
100
AcDbEntity
  8
0
 48
3.0
370
    13
100
AcDbLine
 10
1690.699888209068
 20
1104.289250997118
 30
0.0
 11
1690.699888209068
 21
1106.204573227923
 31
0.0
  0
CIRCLE
  5
12F08
330
18
100
AcDbEntity
  8
0
 48
3.0
370
    13
100
AcDbCircle
 10
1690.033221542396
 20
1106.871239894587
 30
0.0
 40
4.0
  0
CIRCLE
  5
12F09
330
18
100
AcDbEntity
  8
0
 48
3.0
370
    13
100
AcDbCircle
 10
1690.033221542396
 20
1106.871239894587
 30
0.0
 40
3.333333333333333
  0
ARC
  5
12F0A
330
18
100
AcDbEntity
  8
0
 48
3.0
370
    13
100
AcDbCircle
 10
1690.033221542396
 20
1106.871239894587
 30
0.0
 40
2.666666666666666
100
AcDbArc
 50
255.5224878140705
 51
284.4775121859294
  0
LINE
  5
12F0B
330
18
100
AcDbEntity
  8
0
 48
3.0
370
    13
100
AcDbLine
 10
1690.699888209068
 20
1106.204573227923
 30
0.0
 11
1692.615210439869
 21
1106.204573227923
 31
0.0
  0
LINE
  5
12F0C
330
18
100
AcDbEntity
  8
0
 48
3.0
370
    13
100
AcDbLine
 10
1687.451232644924
 20
1106.204573227923
 30
0.0
 11
1689.366554875732
 21
1106.204573227923
 31
0.0
  0
LINE
  5
12F0D
330
18
100
AcDbEntity
  8
0
 48
3.0
370
    13
100
AcDbLine
 10
1690.699888209068
 20
1107.537906561255
 30
0.0
 11
1692.615210439869
 21
1107.537906561255
 31
0.0
  0
LINE
  5
12F0E
330
18
100
AcDbEntity
  8
0
 48
3.0
370
    13
100
AcDbLine
 10
1689.366554875732
 20
1107.537906561255
 30
0.0
 11
1689.366554875732
 21
1109.45322879206
 31
0.0
  0
LINE
  5
12F0F
330
18
100
AcDbEntity
  8
0
 48
3.0
370
    13
100
AcDbLine
 10
1690.699888209068
 20
1107.537906561255
 30
0.0
 11
1690.699888209068
 21
1109.45322879206
 31
0.0
  0
ARC
  5
12F10
330
18
100
AcDbEntity
  8
0
 48
3.0
370
    13
100
AcDbCircle
 10
1690.033221542396
 20
1106.871239894587
 30
0.0
 40
2.666666666666666
100
AcDbArc
 50
75.52248781407055
 51
104.4775121859294
  0
LINE
  5
12F11
330
18
100
AcDbEntity
  8
0
 48
3.0
370
    13
100
AcDbLine
 10
1687.451232644924
 20
1107.537906561255
 30
0.0
 11
1689.366554875732
 21
1107.537906561255
 31
0.0
  0
ARC
  5
12F12
330
18
100
AcDbEntity
  8
0
 48
3.0
370
    13
100
AcDbCircle
 10
1690.033221542396
 20
1106.871239894587
 30
0.0
 40
2.666666666666666
100
AcDbArc
 50
165.5224878141036
 51
194.4775121858963
  0
ARC
  5
12F13
330
18
100
AcDbEntity
  8
0
 48
3.0
370
    13
100
AcDbCircle
 10
1690.033221542396
 20
1106.871239894587
 30
0.0
 40
2.666666666666666
100
AcDbArc
 50
345.5224878141037
 51
14.47751218589629
  0
ARC
  5
12F14
330
18
100
AcDbEntity
  8
0
100
AcDbCircle
 10
1697.733221542397
 20
1066.871239894587
 30
0.0
 40
2.299999999999999
100
AcDbArc
 50
0.0
 51
39.70801368708732
  0
LINE
  5
12F15
330
18
100
AcDbEntity
  8
0
100
AcDbLine
 10
1697.733221542397
 20
1046.871239894587
 30
0.0
 11
1700.033221542397
 21
1046.871239894587
 31
0.0
  0
LINE
  5
12F16
330
18
100
AcDbEntity
  8
0
100
AcDbLine
 10
1700.033221542397
 20
1046.871239894587
 30
0.0
 11
1700.033221542393
 21
1066.871239894587
 31
0.0
  0
LINE
  5
12F17
330
18
100
AcDbEntity
  8
0
100
AcDbLine
 10
1697.733221542397
 20
1066.871239894587
 30
0.0
 11
1697.733221542397
 21
1046.871239894587
 31
0.0
  0
LINE
  5
12F18
330
18
100
AcDbEntity
  8
0
100
AcDbLine
 10
1698.033221542396
 20
1066.871239894586
 30
0.0
 11
1700.033221542397
 21
1068.871239894586
 31
0.0
  0
CIRCLE
  5
12F1D
330
18
100
AcDbEntity
  8
0
 48
3.0
370
    13
100
AcDbCircle
 10
1443.333221542396
 20
1228.371211312164
 30
-0.1778
 40
3.0
  0
LINE
  5
12F1E
330
18
100
AcDbEntity
  8
0
 48
0.4
100
AcDbLine
 10
1204.625929747553
 20
1212.87121131208
 30
-0.2794100433300004
 11
1206.625929747553
 21
1214.87121131208
 31
-0.2794100433300004
  0
CIRCLE
  5
12F1F
330
18
100
AcDbEntity
  8
0
 48
3.0
370
    13
100
AcDbCircle
 10
1200.625929747549
 20
1236.871239894621
 30
-0.2794100433300004
 40
3.0
  0
LINE
  5
12F20
330
18
100
AcDbEntity
  8
0
100
AcDbLine
 10
1123.775929747547
 20
1170.01263974074
 30
0.0
 11
1123.775929747547
 21
1183.371211312216
 31
0.0
  0
LINE
  5
12F21
330
18
100
AcDbEntity
  8
0
100
AcDbLine
 10
1112.275929747547
 20
1183.371211312216
 30
0.0
 11
1112.275929747547
 21
1170.012639740741
 31
0.0
  0
LINE
  5
12F22
330
18
100
AcDbEntity
  8
0
100
AcDbLine
 10
1112.275929747547
 20
1182.871211312198
 30
0.0
 11
1112.275929747547
 21
1183.371211312216
 31
0.0
  0
LINE
  5
12F23
330
18
100
AcDbEntity
  8
0
100
AcDbLine
 10
1168.025929747547
 20
1183.121211312198
 30
0.0
 11
1164.275929747547
 21
1183.121211312198
 31
0.0
  0
LINE
  5
12F24
330
18
100
AcDbEntity
  8
0
100
AcDbLine
 10
1163.275929747547
 20
1182.871211312198
 30
0.0
 11
1164.275929747547
 21
1182.871211312198
 31
0.0
  0
LINE
  5
12F25
330
18
100
AcDbEntity
  8
0
100
AcDbLine
 10
1164.275929747547
 20
1182.871211312198
 30
0.0
 11
1164.275929747547
 21
1183.371211312216
 31
0.0
  0
LINE
  5
12F26
330
18
100
AcDbEntity
  8
0
100
AcDbLine
 10
1137.775929747547
 20
1182.871211312198
 30
0.0
 11
1149.275929747547
 21
1182.871211312198
 31
0.0
  0
LINE
  5
12F27
330
18
100
AcDbEntity
  8
0
100
AcDbLine
 10
1123.775929747547
 20
1183.121211312198
 30
0.0
 11
1112.275929747551
 21
1183.121211312198
 31
0.0
  0
LINE
  5
12F28
330
18
100
AcDbEntity
  8
0
100
AcDbLine
 10
1163.275929747547
 20
1170.012639740741
 30
0.0
 11
1163.275929747547
 21
1183.371211312216
 31
0.0
  0
LINE
  5
12F29
330
18
100
AcDbEntity
  8
0
100
AcDbLine
 10
1149.275929747547
 20
1170.012639740741
 30
0.0
 11
1149.275929747547
 21
1182.871211312198
 31
0.0
  0
LINE
  5
12F2A
330
18
100
AcDbEntity
  8
0
100
AcDbLine
 10
1137.775929747547
 20
1170.012639740741
 30
0.0
 11
1137.775929747547
 21
1183.371211312216
 31
0.0
  0
LINE
  5
12F2B
330
18
100
AcDbEntity
  8
0
100
AcDbLine
 10
1137.775929747547
 20
1178.871211312198
 30
0.0
 11
1149.275929747547
 21
1178.871211312198
 31
0.0
  0
LINE
  5
12F2C
330
18
100
AcDbEntity
  8
0
100
AcDbLine
 10
1163.275929747547
 20
1178.871211312198
 30
0.0
 11
1173.525929747547
 21
1178.871211312198
 31
0.0
  0
LINE
  5
12F2D
330
18
100
AcDbEntity
  8
0
100
AcDbLine
 10
1137.775929747547
 20
1175.871211312198
 30
0.0
 11
1149.275929747547
 21
1175.871211312198
 31
0.0
  0
LINE
  5
12F2E
330
18
100
AcDbEntity
  8
0
100
AcDbLine
 10
1163.275929747547
 20
1175.871211312198
 30
0.0
 11
1167.525929747547
 21
1175.871211312198
 31
0.0
  0
LINE
  5
12F2F
330
18
100
AcDbEntity
  8
0
100
AcDbLine
 10
1205.025929747551
 20
1174.871211312198
 30
0.0
 11
1173.525929747547
 21
1174.871211312198
 31
0.0
  0
LINE
  5
12F30
330
18
100
AcDbEntity
  8
0
100
AcDbLine
 10
1119.525929747547
 20
1175.871211312198
 30
0.0
 11
1123.775929747547
 21
1175.871211312198
 31
0.0
  0
LINE
  5
12F31
330
18
100
AcDbEntity
  8
0
100
AcDbLine
 10
1112.275929747547
 20
1178.871211312198
 30
0.0
 11
1123.775929747547
 21
1178.871211312198
 31
0.0
  0
LINE
  5
12F32
330
18
100
AcDbEntity
  8
0
100
AcDbLine
 10
1112.275929747547
 20
1175.871211312198
 30
0.0
 11
1116.525929747547
 21
1175.871211312198
 31
0.0
  0
LINE
  5
12F33
330
18
100
AcDbEntity
  8
0
100
AcDbLine
 10
1206.625929747549
 20
1194.871239894593
 30
0.0
 11
1205.025929747551
 21
1194.871239894593
 31
0.0
  0
LINE
  5
12F34
330
18
100
AcDbEntity
  8
0
100
AcDbLine
 10
1206.625929747549
 20
1194.871239894593
 30
0.0
 11
1205.025929747551
 21
1194.871239894593
 31
0.0
  0
LINE
  5
12F35
330
18
100
AcDbEntity
  8
0
100
AcDbLine
 10
1142.775929747544
 20
1183.371211312216
 30
0.0
 11
1142.775929747547
 21
1182.871211312198
 31
0.0
  0
LINE
  5
12F36
330
18
100
AcDbEntity
  8
0
100
AcDbLine
 10
1144.775929747544
 20
1183.371211312216
 30
0.0
 11
1144.775929747547
 21
1182.871211312198
 31
0.0
  0
LINE
  5
12F37
330
18
100
AcDbEntity
  8
0
100
AcDbLine
 10
1204.025929747551
 20
1174.871211312198
 30
0.0
 11
1202.425929747545
 21
1174.871211312198
 31
0.0
  0
ARC
  5
12F38
330
18
100
AcDbEntity
  8
0
100
AcDbCircle
 10
1168.025929747547
 20
1184.121211312198
 30
0.0
 40
1.0
100
AcDbArc
 50
270.0
 51
311.4096221109358
  0
LINE
  5
12F39
330
18
100
AcDbEntity
  8
0
100
AcDbLine
 10
1204.025929747565
 20
1212.87121131208
 30
0.0
 11
1204.025929747565
 21
1183.371211312216
 31
0.0
  0
LINE
  5
12F3A
330
18
100
AcDbEntity
  8
0
100
AcDbLine
 10
1192.525929747558
 20
1183.371211312216
 30
0.0
 11
1205.025929747566
 21
1183.371211312216
 31
0.0
  0
TEXT
  5
12F3B
330
18
100
AcDbEntity
  8
0
 48
5.0
100
AcDbText
 10
1108.571865802078
 20
1199.164327497238
 30
0.0
 40
3.0
  1
CN2
  7
MSｺﾞｼｯｸ
 72
     2
 11
1114.419581538119
 21
1200.664327497237
 31
0.0
100
AcDbText
 73
     2
  0
TEXT
  5
12F3C
330
18
100
AcDbEntity
  8
0
 48
5.0
100
AcDbText
 10
1148.071865802078
 20
1199.164327497238
 30
0.0
 40
3.0
  1
CN1
  7
MSｺﾞｼｯｸ
 72
     2
 11
1153.919581538118
 21
1200.664327497237
 31
0.0
100
AcDbText
 73
     2
  0
LINE
  5
12F3D
330
18
100
AcDbEntity
  8
0
100
AcDbLine
 10
1205.025929747562
 20
1213.271211312089
 30
0.0
 11
1205.025929747566
 21
1183.371211312216
 31
0.0
  0
LINE
  5
12F3E
330
18
100
AcDbEntity
  8
0
100
AcDbLine
 10
1098.275929747551
 20
1183.371211312216
 30
0.0
 11
1098.275929747551
 21
1170.012639740746
 31
0.0
  0
LINE
  5
12F3F
330
18
100
AcDbEntity
  8
0
100
AcDbLine
 10
1047.52972974755
 20
1210.371211312216
 30
0.0
 11
1047.529729747546
 21
1194.873764789375
 31
0.0
  0
LINE
  5
12F40
330
18
100
AcDbEntity
  8
0
100
AcDbLine
 10
1098.275929747547
 20
1182.871211312198
 30
0.0
 11
1098.275929747547
 21
1183.371211312216
 31
0.0
  0
LINE
  5
12F41
330
18
100
AcDbEntity
  8
0
100
AcDbLine
 10
1098.275929747551
 20
1183.121211312198
 30
0.0
 11
1095.025929747547
 21
1183.121211312198
 31
0.0
  0
LINE
  5
12F42
330
18
100
AcDbEntity
  8
0
100
AcDbLine
 10
1088.025929747547
 20
1178.871211312198
 30
0.0
 11
1098.275929747551
 21
1178.871211312198
 31
0.0
  0
LINE
  5
12F43
330
18
100
AcDbEntity
  8
0
100
AcDbLine
 10
1094.025929747547
 20
1175.871211312198
 30
0.0
 11
1098.275929747551
 21
1175.871211312198
 31
0.0
  0
LINE
  5
12F44
330
18
100
AcDbEntity
  8
0
100
AcDbLine
 10
1035.025929747551
 20
1174.871211312198
 30
0.0
 11
1035.025929747547
 21
1183.871211312198
 31
0.0
  0
LINE
  5
12F45
330
18
100
AcDbEntity
  8
0
100
AcDbLine
 10
1035.025929747551
 20
1174.871211312198
 30
0.0
 11
1035.025929747547
 21
1183.871211312198
 31
0.0
  0
LINE
  5
12F46
330
18
100
AcDbEntity
  8
0
100
AcDbLine
 10
1019.425929747552
 20
1183.071211312202
 30
0.0
 11
1019.425929747552
 21
1194.873764789375
 31
0.0
  0
LINE
  5
12F47
330
18
100
AcDbEntity
  8
0
100
AcDbLine
 10
1020.225929747552
 20
1183.871211312201
 30
0.0
 11
1020.225929747552
 21
1194.873764789375
 31
0.0
  0
LINE
  5
12F48
330
18
100
AcDbEntity
  8
0
100
AcDbLine
 10
1021.525929747566
 20
1183.871211312198
 30
0.0
 11
1021.525929747566
 21
1194.873764789375
 31
0.0
  0
LINE
  5
12F49
330
18
100
AcDbEntity
  8
0
100
AcDbLine
 10
1047.529729747546
 20
1194.873764789375
 30
0.0
 11
1016.025929747576
 21
1194.873764789376
 31
0.0
  0
LINE
  5
12F4A
330
18
100
AcDbEntity
  8
0
100
AcDbLine
 10
1044.329329747544
 20
1207.817607194978
 30
0.0
 11
1026.727129747547
 21
1207.817607194978
 31
0.0
  0
LINE
  5
12F4B
330
18
100
AcDbEntity
  8
0
100
AcDbLine
 10
1026.727129747547
 20
1207.817607194978
 30
0.0
 11
1026.727129747547
 21
1210.371211312216
 31
0.0
  0
LINE
  5
12F4C
330
18
100
AcDbEntity
  8
0
100
AcDbLine
 10
1044.329329747544
 20
1210.371211312216
 30
0.0
 11
1044.329329747544
 21
1207.817607194978
 31
0.0
  0
CIRCLE
  5
12F4E
330
18
100
AcDbEntity
  8
0
100
AcDbCircle
 10
1028.525929747551
 20
1203.671211312199
 30
0.0
 40
2.0
  0
LINE
  5
12F4F
330
18
100
AcDbEntity
  8
0
100
AcDbLine
 10
1024.775929747551
 20
1207.471211312198
 30
0.0
 11
1024.775929747551
 21
1194.871211312198
 31
0.0
  0
LINE
  5
12F50
330
18
100
AcDbEntity
  8
0
100
AcDbLine
 10
1024.775929747551
 20
1207.471211312198
 30
0.0
 11
1047.275929747551
 21
1207.471211312199
 31
0.0
  0
LINE
  5
12F51
330
18
100
AcDbEntity
  8
0
100
AcDbLine
 10
1024.775929747551
 20
1195.871211312198
 30
0.0
 11
1047.275929747551
 21
1195.8712113122
 31
0.0
  0
CIRCLE
  5
12F52
330
18
100
AcDbEntity
  8
0
100
AcDbCircle
 10
1043.525929747551
 20
1203.671211312199
 30
0.0
 40
2.0
  0
CIRCLE
  5
12F53
330
18
100
AcDbEntity
  8
0
100
AcDbCircle
 10
1036.025929747551
 20
1203.671211312199
 30
0.0
 40
2.0
  0
LINE
  5
12F54
330
18
100
AcDbEntity
  8
0
100
AcDbLine
 10
1024.775929747551
 20
1194.871211312198
 30
0.0
 11
1047.275929747551
 21
1194.8712113122
 31
0.0
  0
LINE
  5
12F55
330
18
100
AcDbEntity
  8
0
100
AcDbLine
 10
1047.275929747551
 20
1207.471211312199
 30
0.0
 11
1047.275929747551
 21
1194.8712113122
 31
0.0
  0
LINE
  5
12F56
330
18
100
AcDbEntity
  8
0
100
AcDbLine
 10
1056.025929747576
 20
1183.871211312198
 30
0.0
 11
1021.525929747566
 21
1183.871211312198
 31
0.0
  0
LINE
  5
12F57
330
18
100
AcDbEntity
  8
0
100
AcDbLine
 10
1034.225929747552
 20
1183.071211312202
 30
0.0
 11
1034.225929747552
 21
1174.871211312198
 31
0.0
  0
LINE
  5
12F58
330
18
100
AcDbEntity
  8
0
100
AcDbLine
 10
1020.225929747552
 20
1183.871211312201
 30
0.0
 11
1034.225929747552
 21
1183.871211312201
 31
0.0
  0
LINE
  5
12F59
330
18
100
AcDbEntity
  8
0
100
AcDbLine
 10
1020.225929747552
 20
1193.871211312201
 30
0.0
 11
1016.025929747576
 21
1193.871211312201
 31
0.0
  0
LINE
  5
12F5A
330
18
100
AcDbEntity
  8
0
100
AcDbLine
 10
1020.225929747552
 20
1187.871211312201
 30
0.0
 11
1016.025929747576
 21
1187.871211312201
 31
0.0
  0
LINE
  5
12F5B
330
18
100
AcDbEntity
  8
0
100
AcDbLine
 10
1019.425929747552
 20
1183.071211312202
 30
0.0
 11
1034.225929747552
 21
1183.071211312202
 31
0.0
  0
ARC
  5
12F5C
330
18
100
AcDbEntity
  8
0
100
AcDbCircle
 10
1095.025929747547
 20
1184.121211312198
 30
0.0
 40
1.0
100
AcDbArc
 50
228.5903778890641
 51
270.0
  0
LINE
  5
12F5D
330
18
100
AcDbEntity
  8
0
100
AcDbLine
 10
1056.025929747576
 20
1183.371211312216
 30
0.0
 11
1056.025929747576
 21
1210.371211312216
 31
0.0
  0
LINE
  5
12F5E
330
18
100
AcDbEntity
  8
0
100
AcDbLine
 10
1016.025929747576
 20
1179.371211312216
 30
0.0
 11
1016.025929747576
 21
1210.371211312215
 31
0.0
  0
LINE
  5
12F5F
330
18
100
AcDbEntity
  8
0
100
AcDbLine
 10
1056.025929747576
 20
1210.371211312216
 30
0.0
 11
1016.025929747576
 21
1210.371211312215
 31
0.0
  0
LINE
  5
12F60
330
18
100
AcDbEntity
  8
0
100
AcDbLine
 10
1035.085553181115
 20
1212.371211312216
 30
0.0
 11
1048.085553181115
 21
1212.371211312216
 31
0.0
  0
TEXT
  5
12F61
330
18
100
AcDbEntity
  8
0
 48
5.0
100
AcDbText
 10
1064.521104380758
 20
1199.164327497238
 30
0.0
 40
3.0
  1
J1
  7
MSｺﾞｼｯｸ
 72
     2
 11
1068.419581538119
 21
1200.664327497237
 31
0.0
100
AcDbText
 73
     2
  0
TEXT
  5
12F62
330
18
100
AcDbEntity
  8
0
 48
5.0
100
AcDbText
 10
1086.021104380758
 20
1199.164327497238
 30
0.0
 40
3.0
  1
J2
  7
MSｺﾞｼｯｸ
 72
     2
 11
1089.919581538119
 21
1200.664327497237
 31
0.0
100
AcDbText
 73
     2
  0
LINE
  5
12F63
330
18
100
AcDbEntity
  8
0
100
AcDbLine
 10
1192.525929747558
 20
1183.371211312216
 30
0.0
 11
1056.025929747576
 21
1183.371211312216
 31
0.0
  0
LINE
  5
12F64
330
18
100
AcDbEntity
  8
0
100
AcDbLine
 10
1400.033221542396
 20
1212.871211312046
 30
0.0
 11
1401.033221542396
 21
1212.871211312046
 31
0.0
  0
LINE
  5
12F65
330
18
100
AcDbEntity
  8
0
 48
3.0
370
    13
100
AcDbLine
 10
1544.666554875735
 20
1188.289250997118
 30
0.0
 11
1544.666554875735
 21
1190.204573227923
 31
0.0
  0
LINE
  5
12F66
330
18
100
AcDbEntity
  8
0
 48
3.0
370
    13
100
AcDbLine
 10
1545.999888209071
 20
1188.289250997118
 30
0.0
 11
1545.999888209071
 21
1190.204573227923
 31
0.0
  0
CIRCLE
  5
12F67
330
18
100
AcDbEntity
  8
0
 48
3.0
370
    13
100
AcDbCircle
 10
1545.333221542399
 20
1190.871239894587
 30
0.0
 40
4.0
  0
CIRCLE
  5
12F68
330
18
100
AcDbEntity
  8
0
 48
3.0
370
    13
100
AcDbCircle
 10
1545.333221542399
 20
1190.871239894587
 30
0.0
 40
3.333333333333333
  0
ARC
  5
12F69
330
18
100
AcDbEntity
  8
0
 48
3.0
370
    13
100
AcDbCircle
 10
1545.333221542399
 20
1190.871239894587
 30
0.0
 40
2.666666666666666
100
AcDbArc
 50
255.5224878140705
 51
284.4775121859294
  0
LINE
  5
12F6A
330
18
100
AcDbEntity
  8
0
 48
3.0
370
    13
100
AcDbLine
 10
1545.999888209071
 20
1190.204573227923
 30
0.0
 11
1547.915210439872
 21
1190.204573227923
 31
0.0
  0
LINE
  5
12F6B
330
18
100
AcDbEntity
  8
0
 48
3.0
370
    13
100
AcDbLine
 10
1542.751232644927
 20
1190.204573227923
 30
0.0
 11
1544.666554875735
 21
1190.204573227923
 31
0.0
  0
LINE
  5
12F6C
330
18
100
AcDbEntity
  8
0
 48
3.0
370
    13
100
AcDbLine
 10
1545.999888209071
 20
1191.537906561255
 30
0.0
 11
1547.915210439872
 21
1191.537906561255
 31
0.0
  0
LINE
  5
12F6D
330
18
100
AcDbEntity
  8
0
 48
3.0
370
    13
100
AcDbLine
 10
1544.666554875735
 20
1191.537906561255
 30
0.0
 11
1544.666554875735
 21
1193.45322879206
 31
0.0
  0
LINE
  5
12F6E
330
18
100
AcDbEntity
  8
0
 48
3.0
370
    13
100
AcDbLine
 10
1545.999888209071
 20
1191.537906561255
 30
0.0
 11
1545.999888209071
 21
1193.45322879206
 31
0.0
  0
ARC
  5
12F6F
330
18
100
AcDbEntity
  8
0
 48
3.0
370
    13
100
AcDbCircle
 10
1545.333221542399
 20
1190.871239894587
 30
0.0
 40
2.666666666666666
100
AcDbArc
 50
75.52248781407055
 51
104.4775121859294
  0
LINE
  5
12F70
330
18
100
AcDbEntity
  8
0
 48
3.0
370
    13
100
AcDbLine
 10
1542.751232644927
 20
1191.537906561255
 30
0.0
 11
1544.666554875735
 21
1191.537906561255
 31
0.0
  0
ARC
  5
12F71
330
18
100
AcDbEntity
  8
0
 48
3.0
370
    13
100
AcDbCircle
 10
1545.333221542399
 20
1190.871239894587
 30
0.0
 40
2.666666666666666
100
AcDbArc
 50
165.5224878141036
 51
194.4775121858963
  0
ARC
  5
12F72
330
18
100
AcDbEntity
  8
0
 48
3.0
370
    13
100
AcDbCircle
 10
1545.333221542399
 20
1190.871239894587
 30
0.0
 40
2.666666666666666
100
AcDbArc
 50
345.5224878141037
 51
14.47751218589629
  0
LINE
  5
12F73
330
18
100
AcDbEntity
  8
0
 48
3.0
370
    13
100
AcDbLine
 10
1689.366554875732
 20
1214.289250997118
 30
0.0
 11
1689.366554875732
 21
1216.204573227923
 31
0.0
  0
LINE
  5
12F74
330
18
100
AcDbEntity
  8
0
 48
3.0
370
    13
100
AcDbLine
 10
1690.699888209068
 20
1214.289250997118
 30
0.0
 11
1690.699888209068
 21
1216.204573227923
 31
0.0
  0
CIRCLE
  5
12F75
330
18
100
AcDbEntity
  8
0
 48
3.0
370
    13
100
AcDbCircle
 10
1690.033221542396
 20
1216.871239894587
 30
0.0
 40
4.0
  0
CIRCLE
  5
12F76
330
18
100
AcDbEntity
  8
0
 48
3.0
370
    13
100
AcDbCircle
 10
1690.033221542396
 20
1216.871239894587
 30
0.0
 40
3.333333333333333
  0
ARC
  5
12F77
330
18
100
AcDbEntity
  8
0
 48
3.0
370
    13
100
AcDbCircle
 10
1690.033221542396
 20
1216.871239894587
 30
0.0
 40
2.666666666666666
100
AcDbArc
 50
255.5224878140705
 51
284.4775121859294
  0
LINE
  5
12F78
330
18
100
AcDbEntity
  8
0
 48
3.0
370
    13
100
AcDbLine
 10
1690.699888209068
 20
1216.204573227923
 30
0.0
 11
1692.615210439869
 21
1216.204573227923
 31
0.0
  0
LINE
  5
12F79
330
18
100
AcDbEntity
  8
0
 48
3.0
370
    13
100
AcDbLine
 10
1687.451232644924
 20
1216.204573227923
 30
0.0
 11
1689.366554875732
 21
1216.204573227923
 31
0.0
  0
LINE
  5
12F7A
330
18
100
AcDbEntity
  8
0
 48
3.0
370
    13
100
AcDbLine
 10
1690.699888209068
 20
1217.537906561255
 30
0.0
 11
1692.615210439869
 21
1217.537906561255
 31
0.0
  0
LINE
  5
12F7B
330
18
100
AcDbEntity
  8
0
 48
3.0
370
    13
100
AcDbLine
 10
1689.366554875732
 20
1217.537906561255
 30
0.0
 11
1689.366554875732
 21
1219.45322879206
 31
0.0
  0
LINE
  5
12F7C
330
18
100
AcDbEntity
  8
0
 48
3.0
370
    13
100
AcDbLine
 10
1690.699888209068
 20
1217.537906561255
 30
0.0
 11
1690.699888209068
 21
1219.45322879206
 31
0.0
  0
ARC
  5
12F7D
330
18
100
AcDbEntity
  8
0
 48
3.0
370
    13
100
AcDbCircle
 10
1690.033221542396
 20
1216.871239894587
 30
0.0
 40
2.666666666666666
100
AcDbArc
 50
75.52248781407055
 51
104.4775121859294
  0
LINE
  5
12F7E
330
18
100
AcDbEntity
  8
0
 48
3.0
370
    13
100
AcDbLine
 10
1687.451232644924
 20
1217.537906561255
 30
0.0
 11
1689.366554875732
 21
1217.537906561255
 31
0.0
  0
ARC
  5
12F7F
330
18
100
AcDbEntity
  8
0
 48
3.0
370
    13
100
AcDbCircle
 10
1690.033221542396
 20
1216.871239894587
 30
0.0
 40
2.666666666666666
100
AcDbArc
 50
165.5224878141036
 51
194.4775121858963
  0
ARC
  5
12F80
330
18
100
AcDbEntity
  8
0
 48
3.0
370
    13
100
AcDbCircle
 10
1690.033221542396
 20
1216.871239894587
 30
0.0
 40
2.666666666666666
100
AcDbArc
 50
345.5224878141037
 51
14.47751218589629
  0
ARC
  5
12F81
330
18
100
AcDbEntity
  8
0
 48
3.0
370
    13
100
AcDbCircle
 10
1018.522491515863
 20
1200.866411312201
 30
4.295750671762883
 40
3.0
100
AcDbArc
 50
213.6759179284697
 51
146.3240820715303
  0
LINE
  5
12F82
330
18
100
AcDbEntity
  8
0
 48
3.0
370
    13
100
AcDbLine
 10
1443.832564194866
 20
1228.871211312165
 30
6.265826007644324
 11
1443.832564194866
 21
1230.307702985269
 31
6.265826007644324
  0
LINE
  5
12F83
330
18
100
AcDbEntity
  8
0
 48
3.0
370
    13
100
AcDbLine
 10
1442.832564194866
 20
1228.871211312165
 30
6.265826007644324
 11
1442.832564194866
 21
1230.307702985269
 31
6.265826007644324
  0
LINE
  5
12F84
330
18
100
AcDbEntity
  8
0
 48
3.0
370
    13
100
AcDbLine
 10
1443.832564194866
 20
1228.871211312165
 30
6.265826007644324
 11
1445.269055867969
 21
1228.871211312165
 31
6.265826007644324
  0
LINE
  5
12F85
330
18
100
AcDbEntity
  8
0
 48
3.0
370
    13
100
AcDbLine
 10
1443.832564194866
 20
1227.871211312165
 30
6.265826007644324
 11
1445.269055867969
 21
1227.871211312165
 31
6.265826007644324
  0
ARC
  5
12F86
330
18
100
AcDbEntity
  8
0
 48
3.0
370
    13
100
AcDbCircle
 10
1443.332564194863
 20
1228.371211312165
 30
6.265826007644324
 40
2.0
100
AcDbArc
 50
255.5224878140705
 51
284.4775121859294
  0
LINE
  5
12F87
330
18
100
AcDbEntity
  8
0
 48
3.0
370
    13
100
AcDbLine
 10
1443.832564194866
 20
1226.434719639061
 30
6.265826007644324
 11
1443.832564194866
 21
1227.871211312165
 31
6.265826007644324
  0
LINE
  5
12F88
330
18
100
AcDbEntity
  8
0
 48
3.0
370
    13
100
AcDbLine
 10
1442.832564194866
 20
1226.434719639061
 30
6.265826007644324
 11
1442.832564194866
 21
1227.871211312165
 31
6.265826007644324
  0
ARC
  5
12F89
330
18
100
AcDbEntity
  8
0
 48
3.0
370
    13
100
AcDbCircle
 10
1443.332564194863
 20
1228.371211312165
 30
6.265826007644324
 40
2.0
100
AcDbArc
 50
345.5224878141037
 51
14.47751218589629
  0
ARC
  5
12F8A
330
18
100
AcDbEntity
  8
0
 48
3.0
370
    13
100
AcDbCircle
 10
1443.332564194863
 20
1228.371211312165
 30
6.265826007644324
 40
2.0
100
AcDbArc
 50
75.52248781407055
 51
104.4775121859294
  0
ARC
  5
12F8B
330
18
100
AcDbEntity
  8
0
 48
3.0
370
    13
100
AcDbCircle
 10
1443.332564194863
 20
1228.371211312165
 30
6.265826007644324
 40
2.0
100
AcDbArc
 50
165.5224878141036
 51
194.4775121858963
  0
LINE
  5
12F8C
330
18
100
AcDbEntity
  8
0
 48
3.0
370
    13
100
AcDbLine
 10
1441.396072521764
 20
1227.871211312165
 30
6.265826007644324
 11
1442.832564194866
 21
1227.871211312165
 31
6.265826007644324
  0
CIRCLE
  5
12F8D
330
18
100
AcDbEntity
  8
0
 48
3.0
370
    13
100
AcDbCircle
 10
1443.332564194863
 20
1228.371211312165
 30
6.265826007644324
 40
3.0
  0
CIRCLE
  5
12F8E
330
18
100
AcDbEntity
  8
0
 48
3.0
370
    13
100
AcDbCircle
 10
1443.332564194863
 20
1228.371211312165
 30
6.265826007644324
 40
2.5
  0
LINE
  5
12F8F
330
18
100
AcDbEntity
  8
0
 48
3.0
370
    13
100
AcDbLine
 10
1441.396072521764
 20
1228.871211312165
 30
6.265826007644324
 11
1442.832564194866
 21
1228.871211312165
 31
6.265826007644324
  0
LINE
  5
12F90
330
18
100
AcDbEntity
  8
0
 48
3.0
370
    13
100
AcDbLine
 10
1198.688780726917
 20
1237.371239894621
 30
6.164215964314323
 11
1200.12527240002
 21
1237.371239894621
 31
6.164215964314323
  0
CIRCLE
  5
12F91
330
18
100
AcDbEntity
  8
0
 48
3.0
370
    13
100
AcDbCircle
 10
1200.625272400017
 20
1236.871239894621
 30
6.164215964314323
 40
2.5
  0
CIRCLE
  5
12F92
330
18
100
AcDbEntity
  8
0
 48
3.0
370
    13
100
AcDbCircle
 10
1200.625272400017
 20
1236.871239894621
 30
6.164215964314323
 40
3.0
  0
LINE
  5
12F93
330
18
100
AcDbEntity
  8
0
 48
3.0
370
    13
100
AcDbLine
 10
1198.688780726917
 20
1236.371239894621
 30
6.164215964314323
 11
1200.12527240002
 21
1236.371239894621
 31
6.164215964314323
  0
ARC
  5
12F94
330
18
100
AcDbEntity
  8
0
 48
3.0
370
    13
100
AcDbCircle
 10
1200.625272400017
 20
1236.871239894621
 30
6.164215964314323
 40
2.0
100
AcDbArc
 50
165.5224878141036
 51
194.4775121858963
  0
ARC
  5
12F95
330
18
100
AcDbEntity
  8
0
 48
3.0
370
    13
100
AcDbCircle
 10
1200.625272400017
 20
1236.871239894621
 30
6.164215964314323
 40
2.0
100
AcDbArc
 50
75.52248781407055
 51
104.4775121859294
  0
ARC
  5
12F96
330
18
100
AcDbEntity
  8
0
 48
3.0
370
    13
100
AcDbCircle
 10
1200.625272400017
 20
1236.871239894621
 30
6.164215964314323
 40
2.0
100
AcDbArc
 50
345.5224878141037
 51
14.47751218589629
  0
LINE
  5
12F97
330
18
100
AcDbEntity
  8
0
 48
3.0
370
    13
100
AcDbLine
 10
1200.12527240002
 20
1234.934748221518
 30
6.164215964314323
 11
1200.12527240002
 21
1236.371239894621
 31
6.164215964314323
  0
LINE
  5
12F98
330
18
100
AcDbEntity
  8
0
 48
3.0
370
    13
100
AcDbLine
 10
1201.12527240002
 20
1234.934748221518
 30
6.164215964314323
 11
1201.12527240002
 21
1236.371239894621
 31
6.164215964314323
  0
ARC
  5
12F99
330
18
100
AcDbEntity
  8
0
 48
3.0
370
    13
100
AcDbCircle
 10
1200.625272400017
 20
1236.871239894621
 30
6.164215964314323
 40
2.0
100
AcDbArc
 50
255.5224878140705
 51
284.4775121859294
  0
LINE
  5
12F9A
330
18
100
AcDbEntity
  8
0
 48
3.0
370
    13
100
AcDbLine
 10
1201.12527240002
 20
1236.371239894621
 30
6.164215964314323
 11
1202.561764073123
 21
1236.371239894621
 31
6.164215964314323
  0
LINE
  5
12F9B
330
18
100
AcDbEntity
  8
0
 48
3.0
370
    13
100
AcDbLine
 10
1201.12527240002
 20
1237.371239894621
 30
6.164215964314323
 11
1202.561764073123
 21
1237.371239894621
 31
6.164215964314323
  0
LINE
  5
12F9C
330
18
100
AcDbEntity
  8
0
 48
3.0
370
    13
100
AcDbLine
 10
1200.12527240002
 20
1237.371239894621
 30
6.164215964314323
 11
1200.12527240002
 21
1238.807731567725
 31
6.164215964314323
  0
LINE
  5
12F9D
330
18
100
AcDbEntity
  8
0
 48
3.0
370
    13
100
AcDbLine
 10
1201.12527240002
 20
1237.371239894621
 30
6.164215964314323
 11
1201.12527240002
 21
1238.807731567725
 31
6.164215964314323
  0
LINE
  5
12F9E
330
18
100
AcDbEntity
  8
0
100
AcDbLine
 10
1164.286479385051
 20
1212.87121131208
 30
6.443626007644324
 11
1164.286479385051
 21
1212.171211312216
 31
6.443626007644324
  0
LINE
  5
12F9F
330
18
100
AcDbEntity
  8
0
100
AcDbLine
 10
1165.785553181116
 20
1212.87121131208
 30
6.443626007644324
 11
1165.785553181116
 21
1212.571211312216
 31
6.443626007644324
  0
LINE
  5
12FA0
330
18
100
AcDbEntity
  8
0
100
AcDbLine
 10
1165.785553181116
 20
1212.571211312216
 30
6.443626007644324
 11
1168.185553181114
 21
1212.571211312216
 31
6.443626007644324
  0
LINE
  5
12FA1
330
18
100
AcDbEntity
  8
0
100
AcDbLine
 10
1168.185553181114
 20
1212.571211312216
 30
6.443626007644324
 11
1168.185553181114
 21
1212.87121131208
 31
6.443626007644324
  0
LINE
  5
12FA2
330
18
100
AcDbEntity
  8
0
100
AcDbLine
 10
1137.684626977183
 20
1212.171211312216
 30
6.443626007644324
 11
1164.286479385051
 21
1212.171211312216
 31
6.443626007644324
  0
LINE
  5
12FA3
330
18
100
AcDbEntity
  8
0
100
AcDbLine
 10
1136.185553181114
 20
1212.571211312216
 30
6.443626007644324
 11
1133.785553181116
 21
1212.571211312216
 31
6.443626007644324
  0
LINE
  5
12FA4
330
18
100
AcDbEntity
  8
0
100
AcDbLine
 10
1137.684626977183
 20
1212.87121131208
 30
6.443626007644324
 11
1137.684626977183
 21
1212.171211312216
 31
6.443626007644324
  0
LINE
  5
12FA5
330
18
100
AcDbEntity
  8
0
100
AcDbLine
 10
1136.185553181114
 20
1212.87121131208
 30
6.443626007644324
 11
1136.185553181114
 21
1212.571211312216
 31
6.443626007644324
  0
LINE
  5
12FA6
330
18
100
AcDbEntity
  8
0
100
AcDbLine
 10
1133.785553181116
 20
1212.571211312216
 30
6.443626007644324
 11
1133.785553181116
 21
1212.87121131208
 31
6.443626007644324
  0
LINE
  5
12FA7
330
18
100
AcDbEntity
  8
0
100
AcDbLine
 10
1119.386479385049
 20
1212.87121131208
 30
6.443626007644324
 11
1119.386479385049
 21
1212.171211312216
 31
6.443626007644324
  0
LINE
  5
12FA8
330
18
100
AcDbEntity
  8
0
100
AcDbLine
 10
1120.885553181118
 20
1212.87121131208
 30
6.443626007644324
 11
1120.885553181118
 21
1212.571211312216
 31
6.443626007644324
  0
LINE
  5
12FA9
330
18
100
AcDbEntity
  8
0
100
AcDbLine
 10
1120.885553181118
 20
1212.571211312216
 30
6.443626007644324
 11
1123.285553181116
 21
1212.571211312216
 31
6.443626007644324
  0
LINE
  5
12FAA
330
18
100
AcDbEntity
  8
0
100
AcDbLine
 10
1123.285553181116
 20
1212.571211312216
 30
6.443626007644324
 11
1123.285553181116
 21
1212.87121131208
 31
6.443626007644324
  0
LINE
  5
12FAB
330
18
100
AcDbEntity
  8
0
100
AcDbLine
 10
1102.285553181116
 20
1212.571211312216
 30
6.443626007644324
 11
1099.885553181118
 21
1212.571211312216
 31
6.443626007644324
  0
LINE
  5
12FAC
330
18
100
AcDbEntity
  8
0
100
AcDbLine
 10
1103.784626977185
 20
1212.87121131208
 30
6.443626007644324
 11
1103.784626977181
 21
1212.171211312216
 31
6.443626007644324
  0
LINE
  5
12FAD
330
18
100
AcDbEntity
  8
0
100
AcDbLine
 10
1102.285553181116
 20
1212.87121131208
 30
6.443626007644324
 11
1102.285553181116
 21
1212.571211312216
 31
6.443626007644324
  0
LINE
  5
12FAE
330
18
100
AcDbEntity
  8
0
100
AcDbLine
 10
1099.885553181118
 20
1212.571211312216
 30
6.443626007644324
 11
1099.885553181118
 21
1212.87121131208
 31
6.443626007644324
  0
LINE
  5
12FAF
330
18
100
AcDbEntity
  8
0
100
AcDbLine
 10
1071.486479385048
 20
1212.87121131208
 30
6.443626007644324
 11
1071.486479385048
 21
1212.171211312216
 31
6.443626007644324
  0
LINE
  5
12FB0
330
18
100
AcDbEntity
  8
0
100
AcDbLine
 10
1072.93555318111
 20
1212.87121131208
 30
6.443626007644324
 11
1072.935553181114
 21
1212.571211312216
 31
6.443626007644324
  0
LINE
  5
12FB1
330
18
100
AcDbEntity
  8
0
100
AcDbLine
 10
1072.935553181114
 20
1212.571211312216
 30
6.443626007644324
 11
1075.335553181115
 21
1212.571211312216
 31
6.443626007644324
  0
LINE
  5
12FB2
330
18
100
AcDbEntity
  8
0
100
AcDbLine
 10
1075.335553181115
 20
1212.571211312216
 30
6.443626007644324
 11
1075.335553181115
 21
1212.87121131208
 31
6.443626007644324
  0
LINE
  5
12FB3
330
18
100
AcDbEntity
  8
0
100
AcDbLine
 10
1059.684626977183
 20
1212.87121131208
 30
6.443626007644324
 11
1059.684626977183
 21
1212.171211312216
 31
6.443626007644324
  0
LINE
  5
12FB4
330
18
100
AcDbEntity
  8
0
100
AcDbLine
 10
1048.085553181115
 20
1212.87121131208
 30
6.443626007644324
 11
1048.085553181115
 21
1212.371211312216
 31
6.443626007644324
  0
LINE
  5
12FB5
330
18
100
AcDbEntity
  8
0
100
AcDbLine
 10
1058.235553181117
 20
1212.87121131208
 30
6.443626007644324
 11
1058.235553181117
 21
1212.571211312216
 31
6.443626007644324
  0
LINE
  5
12FB6
330
18
100
AcDbEntity
  8
0
100
AcDbLine
 10
1058.235553181117
 20
1212.571211312216
 30
6.443626007644324
 11
1055.835553181115
 21
1212.571211312216
 31
6.443626007644324
  0
LINE
  5
12FB7
330
18
100
AcDbEntity
  8
0
100
AcDbLine
 10
1055.835553181115
 20
1212.571211312216
 30
6.443626007644324
 11
1055.835553181115
 21
1212.87121131208
 31
6.443626007644324
  0
LINE
  5
12FB8
330
18
100
AcDbEntity
  8
0
100
AcDbLine
 10
1035.085553181115
 20
1212.371211312216
 30
6.443626007644324
 11
1035.085553181115
 21
1212.87121131208
 31
6.443626007644324
  0
LINE
  5
12FB9
330
18
100
AcDbEntity
  8
0
100
AcDbLine
 10
1059.684626977183
 20
1212.171211312216
 30
6.443626007644324
 11
1071.486479385048
 21
1212.171211312216
 31
6.443626007644324
  0
LINE
  5
12FBA
330
18
100
AcDbEntity
  8
0
100
AcDbLine
 10
1103.784626977181
 20
1212.171211312216
 30
6.443626007644324
 11
1119.386479385049
 21
1212.171211312216
 31
6.443626007644324
  0
CIRCLE
  5
12FBB
330
18
100
AcDbEntity
  8
0
 48
3.0
370
    13
100
AcDbCircle
 10
1061.491293165714
 20
754.9513669070101
 30
8.591501343525765
 40
3.333333333333333
  0
ARC
  5
12FBC
330
18
100
AcDbEntity
  8
0
 48
3.0
370
    13
100
AcDbCircle
 10
1061.491293165714
 20
754.9513669070101
 30
8.591501343525765
 40
2.666666666666666
100
AcDbArc
 50
345.5224878141037
 51
14.47751218589629
  0
ARC
  5
12FBD
330
18
100
AcDbEntity
  8
0
 48
3.0
370
    13
100
AcDbCircle
 10
1061.491293165714
 20
754.9513669070101
 30
8.591501343525765
 40
2.666666666666666
100
AcDbArc
 50
165.5224878141036
 51
194.4775121858963
  0
CIRCLE
  5
12FBE
330
18
100
AcDbEntity
  8
0
 48
3.0
370
    13
100
AcDbCircle
 10
1061.491293165714
 20
754.9513669070101
 30
8.591501343525765
 40
4.0
  0
LINE
  5
12FBF
330
18
100
AcDbEntity
  8
0
 48
3.0
370
    13
100
AcDbLine
 10
1058.909304268245
 20
755.618033573678
 30
8.591501343525765
 11
1060.82462649905
 21
755.618033573678
 31
8.591501343525765
  0
ARC
  5
12FC0
330
18
100
AcDbEntity
  8
0
 48
3.0
370
    13
100
AcDbCircle
 10
1061.491293165714
 20
754.9513669070101
 30
8.591501343525765
 40
2.666666666666666
100
AcDbArc
 50
75.52248781407055
 51
104.4775121859294
  0
LINE
  5
12FC1
330
18
100
AcDbEntity
  8
0
 48
3.0
370
    13
100
AcDbLine
 10
1062.157959832386
 20
755.618033573678
 30
8.591501343525765
 11
1062.157959832386
 21
757.5333558044831
 31
8.591501343525765
  0
LINE
  5
12FC2
330
18
100
AcDbEntity
  8
0
 48
3.0
370
    13
100
AcDbLine
 10
1060.82462649905
 20
755.618033573678
 30
8.591501343525765
 11
1060.82462649905
 21
757.5333558044831
 31
8.591501343525765
  0
LINE
  5
12FC3
330
18
100
AcDbEntity
  8
0
 48
3.0
370
    13
100
AcDbLine
 10
1062.157959832386
 20
755.618033573678
 30
8.591501343525765
 11
1064.073282063187
 21
755.618033573678
 31
8.591501343525765
  0
LINE
  5
12FC4
330
18
100
AcDbEntity
  8
0
 48
3.0
370
    13
100
AcDbLine
 10
1062.157959832386
 20
752.3693780095391
 30
8.591501343525765
 11
1062.157959832386
 21
754.2847002403441
 31
8.591501343525765
  0
LINE
  5
12FC5
330
18
100
AcDbEntity
  8
0
 48
3.0
370
    13
100
AcDbLine
 10
1060.82462649905
 20
752.3693780095391
 30
8.591501343525765
 11
1060.82462649905
 21
754.2847002403441
 31
8.591501343525765
  0
ARC
  5
12FC6
330
18
100
AcDbEntity
  8
0
 48
3.0
370
    13
100
AcDbCircle
 10
1061.491293165714
 20
754.9513669070101
 30
8.591501343525765
 40
2.666666666666666
100
AcDbArc
 50
255.5224878140705
 51
284.4775121859294
  0
LINE
  5
12FC7
330
18
100
AcDbEntity
  8
0
 48
3.0
370
    13
100
AcDbLine
 10
1058.909304268245
 20
754.2847002403441
 30
8.591501343525765
 11
1060.82462649905
 21
754.2847002403441
 31
8.591501343525765
  0
LINE
  5
12FC8
330
18
100
AcDbEntity
  8
0
 48
3.0
370
    13
100
AcDbLine
 10
1062.157959832386
 20
754.2847002403441
 30
8.591501343525765
 11
1064.073282063187
 21
754.2847002403441
 31
8.591501343525765
  0
ARC
  5
12FC9
330
18
100
AcDbEntity
  8
0
 48
3.0
370
    13
100
AcDbCircle
 10
1077.774834168331
 20
1148.871211312201
 30
10.5107766794072
 40
3.333333333333333
100
AcDbArc
 50
345.5224878141037
 51
14.47751218589629
  0
ARC
  5
12FCA
330
18
100
AcDbEntity
  8
0
 48
3.0
370
    13
100
AcDbCircle
 10
1077.774834168331
 20
1148.871211312201
 30
10.5107766794072
 40
3.333333333333333
100
AcDbArc
 50
165.5224878141036
 51
194.4775121858963
  0
CIRCLE
  5
12FCB
330
18
100
AcDbEntity
  8
0
 48
3.0
370
    13
100
AcDbCircle
 10
1077.774834168331
 20
1148.871211312201
 30
10.5107766794072
 40
5.0
  0
CIRCLE
  5
12FCC
330
18
100
AcDbEntity
  8
0
 48
3.0
370
    13
100
AcDbCircle
 10
1077.774834168331
 20
1148.871211312201
 30
10.5107766794072
 40
4.166666666666666
  0
LINE
  5
12FCD
330
18
100
AcDbEntity
  8
0
 48
3.0
370
    13
100
AcDbLine
 10
1074.547348046495
 20
1149.704544645534
 30
10.5107766794072
 11
1076.941500834998
 21
1149.704544645534
 31
10.5107766794072
  0
ARC
  5
12FCE
330
18
100
AcDbEntity
  8
0
 48
3.0
370
    13
100
AcDbCircle
 10
1077.774834168331
 20
1148.871211312201
 30
10.5107766794072
 40
3.333333333333333
100
AcDbArc
 50
75.52248781407055
 51
104.4775121859294
  0
LINE
  5
12FCF
330
18
100
AcDbEntity
  8
0
 48
3.0
370
    13
100
AcDbLine
 10
1078.608167501666
 20
1149.704544645534
 30
10.5107766794072
 11
1078.608167501666
 21
1152.098697434041
 31
10.5107766794072
  0
LINE
  5
12FD0
330
18
100
AcDbEntity
  8
0
 48
3.0
370
    13
100
AcDbLine
 10
1076.941500834998
 20
1149.704544645534
 30
10.5107766794072
 11
1076.941500834998
 21
1152.098697434041
 31
10.5107766794072
  0
LINE
  5
12FD1
330
18
100
AcDbEntity
  8
0
 48
3.0
370
    13
100
AcDbLine
 10
1078.608167501666
 20
1149.704544645534
 30
10.5107766794072
 11
1081.002320290173
 21
1149.704544645534
 31
10.5107766794072
  0
LINE
  5
12FD2
330
18
100
AcDbEntity
  8
0
 48
3.0
370
    13
100
AcDbLine
 10
1078.608167501666
 20
1145.643725190362
 30
10.5107766794072
 11
1078.608167501666
 21
1148.037877978868
 31
10.5107766794072
  0
LINE
  5
12FD3
330
18
100
AcDbEntity
  8
0
 48
3.0
370
    13
100
AcDbLine
 10
1076.941500834998
 20
1145.643725190362
 30
10.5107766794072
 11
1076.941500834998
 21
1148.037877978868
 31
10.5107766794072
  0
ARC
  5
12FD4
330
18
100
AcDbEntity
  8
0
 48
3.0
370
    13
100
AcDbCircle
 10
1077.774834168331
 20
1148.871211312201
 30
10.5107766794072
 40
3.333333333333333
100
AcDbArc
 50
255.5224878140705
 51
284.4775121859294
  0
LINE
  5
12FD5
330
18
100
AcDbEntity
  8
0
 48
3.0
370
    13
100
AcDbLine
 10
1074.547348046495
 20
1148.037877978868
 30
10.5107766794072
 11
1076.941500834998
 21
1148.037877978868
 31
10.5107766794072
  0
LINE
  5
12FD6
330
18
100
AcDbEntity
  8
0
 48
3.0
370
    13
100
AcDbLine
 10
1078.608167501666
 20
1148.037877978868
 30
10.5107766794072
 11
1081.002320290173
 21
1148.037877978868
 31
10.5107766794072
  0
LINE
  5
12FD7
330
18
100
AcDbEntity
  8
0
 48
3.0
370
    13
100
AcDbLine
 10
1018.02183416833
 20
1198.929919639098
 30
10.7393766794072
 11
1018.02183416833
 21
1200.366411312201
 31
10.7393766794072
  0
LINE
  5
12FD8
330
18
100
AcDbEntity
  8
0
 48
3.0
370
    13
100
AcDbLine
 10
1019.02183416833
 20
1198.929919639098
 30
10.7393766794072
 11
1019.02183416833
 21
1200.366411312201
 31
10.7393766794072
  0
ARC
  5
12FD9
330
18
100
AcDbEntity
  8
0
 48
3.0
370
    13
100
AcDbCircle
 10
1018.52183416833
 20
1200.866411312201
 30
10.7393766794072
 40
3.0
100
AcDbArc
 50
213.6985523971955
 51
146.3014476028044
  0
ARC
  5
12FDA
330
18
100
AcDbEntity
  8
0
 48
3.0
370
    13
100
AcDbCircle
 10
1018.52183416833
 20
1200.866411312201
 30
10.7393766794072
 40
2.0
100
AcDbArc
 50
255.5224878140705
 51
284.4775121859294
  0
LINE
  5
12FDB
330
18
100
AcDbEntity
  8
0
 48
3.0
370
    13
100
AcDbLine
 10
1019.02183416833
 20
1200.366411312201
 30
10.7393766794072
 11
1020.458325841436
 21
1200.366411312201
 31
10.7393766794072
  0
LINE
  5
12FDC
330
18
100
AcDbEntity
  8
0
 48
3.0
370
    13
100
AcDbLine
 10
1016.585342495227
 20
1200.366411312201
 30
10.7393766794072
 11
1018.02183416833
 21
1200.366411312201
 31
10.7393766794072
  0
LINE
  5
12FDD
330
18
100
AcDbEntity
  8
0
 48
3.0
370
    13
100
AcDbLine
 10
1019.02183416833
 20
1201.366411312201
 30
10.7393766794072
 11
1020.458325841436
 21
1201.366411312201
 31
10.7393766794072
  0
LINE
  5
12FDE
330
18
100
AcDbEntity
  8
0
 48
3.0
370
    13
100
AcDbLine
 10
1018.02183416833
 20
1201.366411312201
 30
10.7393766794072
 11
1018.02183416833
 21
1202.802902985306
 31
10.7393766794072
  0
LINE
  5
12FDF
330
18
100
AcDbEntity
  8
0
 48
3.0
370
    13
100
AcDbLine
 10
1019.02183416833
 20
1201.366411312201
 30
10.7393766794072
 11
1019.02183416833
 21
1202.802902985306
 31
10.7393766794072
  0
ARC
  5
12FE0
330
18
100
AcDbEntity
  8
0
 48
3.0
370
    13
100
AcDbCircle
 10
1018.52183416833
 20
1200.866411312201
 30
10.7393766794072
 40
2.0
100
AcDbArc
 50
75.52248781407055
 51
104.4775121859294
  0
LINE
  5
12FE1
330
18
100
AcDbEntity
  8
0
 48
3.0
370
    13
100
AcDbLine
 10
1016.585342495227
 20
1201.366411312201
 30
10.7393766794072
 11
1018.02183416833
 21
1201.366411312201
 31
10.7393766794072
  0
ARC
  5
12FE2
330
18
100
AcDbEntity
  8
0
 48
3.0
370
    13
100
AcDbCircle
 10
1018.52183416833
 20
1200.866411312201
 30
10.7393766794072
 40
2.0
100
AcDbArc
 50
165.5224878141036
 51
194.4775121858963
  0
ARC
  5
12FE3
330
18
100
AcDbEntity
  8
0
 48
3.0
370
    13
100
AcDbCircle
 10
1018.52183416833
 20
1200.866411312201
 30
10.7393766794072
 40
2.0
100
AcDbArc
 50
345.5224878141037
 51
14.47751218589629
  0
CIRCLE
  5
12FE4
330
18
100
AcDbEntity
  8
0
 48
3.0
370
    13
100
AcDbCircle
 10
1018.52183416833
 20
1200.866411312201
 30
10.7393766794072
 40
2.5
  0
LINE
  5
12FE8
330
18
100
AcDbEntity
  8
0
100
AcDbLine
 10
1202.725929747548
 20
1604.871239894587
 30
0.0
 11
1202.725929747548
 21
1622.871239894587
 31
0.0
  0
LINE
  5
12FE9
330
18
100
AcDbEntity
  8
0
100
AcDbLine
 10
1697.733221542397
 20
1604.871239894587
 30
0.0
 11
1697.733221542397
 21
1624.871239894587
 31
0.0
  0
LINE
  5
12FEA
330
18
100
AcDbEntity
  8
0
100
AcDbLine
 10
1700.0332215424
 20
1624.871239894587
 30
0.0
 11
1700.033221542397
 21
1604.871239894587
 31
0.0
  0
CIRCLE
  5
12FEB
330
18
100
AcDbEntity
  8
0
 48
3.0
370
    13
100
AcDbCircle
 10
1443.333221542396
 20
1348.371211312164
 30
-0.1778
 40
3.0
  0
LINE
  5
12FEC
330
18
100
AcDbEntity
  8
0
 48
3.0
370
    13
100
AcDbLine
 10
1689.366554875736
 20
1324.289250997118
 30
0.0
 11
1689.366554875736
 21
1326.204573227923
 31
0.0
  0
LINE
  5
12FED
330
18
100
AcDbEntity
  8
0
 48
3.0
370
    13
100
AcDbLine
 10
1690.699888209072
 20
1324.289250997118
 30
0.0
 11
1690.699888209072
 21
1326.204573227923
 31
0.0
  0
CIRCLE
  5
12FEE
330
18
100
AcDbEntity
  8
0
 48
3.0
370
    13
100
AcDbCircle
 10
1690.0332215424
 20
1326.871239894587
 30
0.0
 40
4.0
  0
CIRCLE
  5
12FEF
330
18
100
AcDbEntity
  8
0
 48
3.0
370
    13
100
AcDbCircle
 10
1690.0332215424
 20
1326.871239894587
 30
0.0
 40
3.333333333333333
  0
ARC
  5
12FF0
330
18
100
AcDbEntity
  8
0
 48
3.0
370
    13
100
AcDbCircle
 10
1690.0332215424
 20
1326.871239894587
 30
0.0
 40
2.666666666666666
100
AcDbArc
 50
255.5224878140705
 51
284.4775121859294
  0
LINE
  5
12FF1
330
18
100
AcDbEntity
  8
0
 48
3.0
370
    13
100
AcDbLine
 10
1690.699888209072
 20
1326.204573227923
 30
0.0
 11
1692.615210439873
 21
1326.204573227923
 31
0.0
  0
LINE
  5
12FF2
330
18
100
AcDbEntity
  8
0
 48
3.0
370
    13
100
AcDbLine
 10
1687.451232644927
 20
1326.204573227923
 30
0.0
 11
1689.366554875736
 21
1326.204573227923
 31
0.0
  0
LINE
  5
12FF3
330
18
100
AcDbEntity
  8
0
 48
3.0
370
    13
100
AcDbLine
 10
1690.699888209072
 20
1327.537906561255
 30
0.0
 11
1692.615210439873
 21
1327.537906561255
 31
0.0
  0
LINE
  5
12FF4
330
18
100
AcDbEntity
  8
0
 48
3.0
370
    13
100
AcDbLine
 10
1689.366554875736
 20
1327.537906561255
 30
0.0
 11
1689.366554875736
 21
1329.45322879206
 31
0.0
  0
LINE
  5
12FF5
330
18
100
AcDbEntity
  8
0
 48
3.0
370
    13
100
AcDbLine
 10
1690.699888209072
 20
1327.537906561255
 30
0.0
 11
1690.699888209072
 21
1329.45322879206
 31
0.0
  0
ARC
  5
12FF6
330
18
100
AcDbEntity
  8
0
 48
3.0
370
    13
100
AcDbCircle
 10
1690.0332215424
 20
1326.871239894587
 30
0.0
 40
2.666666666666666
100
AcDbArc
 50
75.52248781407055
 51
104.4775121859294
  0
LINE
  5
12FF7
330
18
100
AcDbEntity
  8
0
 48
3.0
370
    13
100
AcDbLine
 10
1687.451232644927
 20
1327.537906561255
 30
0.0
 11
1689.366554875736
 21
1327.537906561255
 31
0.0
  0
ARC
  5
12FF8
330
18
100
AcDbEntity
  8
0
 48
3.0
370
    13
100
AcDbCircle
 10
1690.0332215424
 20
1326.871239894587
 30
0.0
 40
2.666666666666666
100
AcDbArc
 50
165.5224878141036
 51
194.4775121858963
  0
ARC
  5
12FF9
330
18
100
AcDbEntity
  8
0
 48
3.0
370
    13
100
AcDbCircle
 10
1690.0332215424
 20
1326.871239894587
 30
0.0
 40
2.666666666666666
100
AcDbArc
 50
345.5224878141037
 51
14.47751218589629
  0
LINE
  5
12FFA
330
18
100
AcDbEntity
  8
0
 48
3.0
370
    13
100
AcDbLine
 10
1689.366554875732
 20
1434.289250997117
 30
0.0
 11
1689.366554875732
 21
1436.204573227922
 31
0.0
  0
LINE
  5
12FFB
330
18
100
AcDbEntity
  8
0
 48
3.0
370
    13
100
AcDbLine
 10
1690.699888209068
 20
1434.289250997117
 30
0.0
 11
1690.699888209068
 21
1436.204573227922
 31
0.0
  0
CIRCLE
  5
12FFC
330
18
100
AcDbEntity
  8
0
 48
3.0
370
    13
100
AcDbCircle
 10
1690.033221542396
 20
1436.871239894587
 30
0.0
 40
4.0
  0
CIRCLE
  5
12FFD
330
18
100
AcDbEntity
  8
0
 48
3.0
370
    13
100
AcDbCircle
 10
1690.033221542396
 20
1436.871239894587
 30
0.0
 40
3.333333333333333
  0
ARC
  5
12FFE
330
18
100
AcDbEntity
  8
0
 48
3.0
370
    13
100
AcDbCircle
 10
1690.033221542396
 20
1436.871239894587
 30
0.0
 40
2.666666666666666
100
AcDbArc
 50
255.5224878140705
 51
284.4775121859294
  0
LINE
  5
12FFF
330
18
100
AcDbEntity
  8
0
 48
3.0
370
    13
100
AcDbLine
 10
1690.699888209068
 20
1436.204573227922
 30
0.0
 11
1692.615210439869
 21
1436.204573227922
 31
0.0
  0
LINE
  5
13000
330
18
100
AcDbEntity
  8
0
 48
3.0
370
    13
100
AcDbLine
 10
1687.451232644924
 20
1436.204573227922
 30
0.0
 11
1689.366554875732
 21
1436.204573227922
 31
0.0
  0
LINE
  5
13001
330
18
100
AcDbEntity
  8
0
 48
3.0
370
    13
100
AcDbLine
 10
1690.699888209068
 20
1437.537906561255
 30
0.0
 11
1692.615210439869
 21
1437.537906561255
 31
0.0
  0
LINE
  5
13002
330
18
100
AcDbEntity
  8
0
 48
3.0
370
    13
100
AcDbLine
 10
1689.366554875732
 20
1437.537906561255
 30
0.0
 11
1689.366554875732
 21
1439.45322879206
 31
0.0
  0
LINE
  5
13003
330
18
100
AcDbEntity
  8
0
 48
3.0
370
    13
100
AcDbLine
 10
1690.699888209068
 20
1437.537906561255
 30
0.0
 11
1690.699888209068
 21
1439.45322879206
 31
0.0
  0
ARC
  5
13004
330
18
100
AcDbEntity
  8
0
 48
3.0
370
    13
100
AcDbCircle
 10
1690.033221542396
 20
1436.871239894587
 30
0.0
 40
2.666666666666666
100
AcDbArc
 50
75.52248781407055
 51
104.4775121859294
  0
LINE
  5
13005
330
18
100
AcDbEntity
  8
0
 48
3.0
370
    13
100
AcDbLine
 10
1687.451232644924
 20
1437.537906561255
 30
0.0
 11
1689.366554875732
 21
1437.537906561255
 31
0.0
  0
ARC
  5
13006
330
18
100
AcDbEntity
  8
0
 48
3.0
370
    13
100
AcDbCircle
 10
1690.033221542396
 20
1436.871239894587
 30
0.0
 40
2.666666666666666
100
AcDbArc
 50
165.5224878141036
 51
194.4775121858963
  0
ARC
  5
13007
330
18
100
AcDbEntity
  8
0
 48
3.0
370
    13
100
AcDbCircle
 10
1690.033221542396
 20
1436.871239894587
 30
0.0
 40
2.666666666666666
100
AcDbArc
 50
345.5224878141037
 51
14.47751218589629
  0
LINE
  5
13008
330
18
100
AcDbEntity
  8
0
100
AcDbLine
 10
1698.0332215424
 20
1604.871239894587
 30
0.0
 11
1403.0332215424
 21
1604.871239894587
 31
0.0
  0
LINE
  5
13009
330
18
100
AcDbEntity
  8
0
 48
3.0
370
    13
100
AcDbLine
 10
1429.366554875736
 20
1594.289250997118
 30
0.0
 11
1429.366554875736
 21
1596.204573227923
 31
0.0
  0
LINE
  5
1300A
330
18
100
AcDbEntity
  8
0
 48
3.0
370
    13
100
AcDbLine
 10
1430.699888209072
 20
1594.289250997118
 30
0.0
 11
1430.699888209072
 21
1596.204573227923
 31
0.0
  0
CIRCLE
  5
1300B
330
18
100
AcDbEntity
  8
0
 48
3.0
370
    13
100
AcDbCircle
 10
1430.0332215424
 20
1596.871239894587
 30
0.0
 40
4.0
  0
CIRCLE
  5
1300C
330
18
100
AcDbEntity
  8
0
 48
3.0
370
    13
100
AcDbCircle
 10
1430.0332215424
 20
1596.871239894587
 30
0.0
 40
3.333333333333333
  0
ARC
  5
1300D
330
18
100
AcDbEntity
  8
0
 48
3.0
370
    13
100
AcDbCircle
 10
1430.0332215424
 20
1596.871239894587
 30
0.0
 40
2.666666666666666
100
AcDbArc
 50
255.5224878140705
 51
284.4775121859294
  0
LINE
  5
1300E
330
18
100
AcDbEntity
  8
0
 48
3.0
370
    13
100
AcDbLine
 10
1430.699888209072
 20
1596.204573227923
 30
0.0
 11
1432.615210439873
 21
1596.204573227923
 31
0.0
  0
LINE
  5
1300F
330
18
100
AcDbEntity
  8
0
 48
3.0
370
    13
100
AcDbLine
 10
1427.451232644927
 20
1596.204573227923
 30
0.0
 11
1429.366554875736
 21
1596.204573227923
 31
0.0
  0
LINE
  5
13010
330
18
100
AcDbEntity
  8
0
 48
3.0
370
    13
100
AcDbLine
 10
1430.699888209072
 20
1597.537906561255
 30
0.0
 11
1432.615210439873
 21
1597.537906561255
 31
0.0
  0
LINE
  5
13011
330
18
100
AcDbEntity
  8
0
 48
3.0
370
    13
100
AcDbLine
 10
1429.366554875736
 20
1597.537906561255
 30
0.0
 11
1429.366554875736
 21
1599.45322879206
 31
0.0
  0
LINE
  5
13012
330
18
100
AcDbEntity
  8
0
 48
3.0
370
    13
100
AcDbLine
 10
1430.699888209072
 20
1597.537906561255
 30
0.0
 11
1430.699888209072
 21
1599.45322879206
 31
0.0
  0
ARC
  5
13013
330
18
100
AcDbEntity
  8
0
 48
3.0
370
    13
100
AcDbCircle
 10
1430.0332215424
 20
1596.871239894587
 30
0.0
 40
2.666666666666666
100
AcDbArc
 50
75.52248781407055
 51
104.4775121859294
  0
LINE
  5
13014
330
18
100
AcDbEntity
  8
0
 48
3.0
370
    13
100
AcDbLine
 10
1427.451232644927
 20
1597.537906561255
 30
0.0
 11
1429.366554875736
 21
1597.537906561255
 31
0.0
  0
ARC
  5
13015
330
18
100
AcDbEntity
  8
0
 48
3.0
370
    13
100
AcDbCircle
 10
1430.0332215424
 20
1596.871239894587
 30
0.0
 40
2.666666666666666
100
AcDbArc
 50
165.5224878141036
 51
194.4775121858963
  0
ARC
  5
13016
330
18
100
AcDbEntity
  8
0
 48
3.0
370
    13
100
AcDbCircle
 10
1430.0332215424
 20
1596.871239894587
 30
0.0
 40
2.666666666666666
100
AcDbArc
 50
345.5224878141037
 51
14.47751218589629
  0
LINE
  5
13017
330
18
100
AcDbEntity
  8
0
 48
3.0
370
    13
100
AcDbLine
 10
1494.366554875732
 20
1594.289250997118
 30
0.0
 11
1494.366554875732
 21
1596.204573227923
 31
0.0
  0
LINE
  5
13018
330
18
100
AcDbEntity
  8
0
 48
3.0
370
    13
100
AcDbLine
 10
1495.699888209068
 20
1594.289250997118
 30
0.0
 11
1495.699888209068
 21
1596.204573227923
 31
0.0
  0
CIRCLE
  5
13019
330
18
100
AcDbEntity
  8
0
 48
3.0
370
    13
100
AcDbCircle
 10
1495.033221542397
 20
1596.871239894587
 30
0.0
 40
4.0
  0
CIRCLE
  5
1301A
330
18
100
AcDbEntity
  8
0
 48
3.0
370
    13
100
AcDbCircle
 10
1495.033221542397
 20
1596.871239894587
 30
0.0
 40
3.333333333333333
  0
ARC
  5
1301B
330
18
100
AcDbEntity
  8
0
 48
3.0
370
    13
100
AcDbCircle
 10
1495.033221542397
 20
1596.871239894587
 30
0.0
 40
2.666666666666666
100
AcDbArc
 50
255.5224878140705
 51
284.4775121859294
  0
LINE
  5
1301C
330
18
100
AcDbEntity
  8
0
 48
3.0
370
    13
100
AcDbLine
 10
1495.699888209068
 20
1596.204573227923
 30
0.0
 11
1497.615210439869
 21
1596.204573227923
 31
0.0
  0
LINE
  5
1301D
330
18
100
AcDbEntity
  8
0
 48
3.0
370
    13
100
AcDbLine
 10
1492.451232644923
 20
1596.204573227923
 30
0.0
 11
1494.366554875732
 21
1596.204573227923
 31
0.0
  0
LINE
  5
1301E
330
18
100
AcDbEntity
  8
0
 48
3.0
370
    13
100
AcDbLine
 10
1495.699888209068
 20
1597.537906561255
 30
0.0
 11
1497.615210439869
 21
1597.537906561255
 31
0.0
  0
LINE
  5
1301F
330
18
100
AcDbEntity
  8
0
 48
3.0
370
    13
100
AcDbLine
 10
1494.366554875732
 20
1597.537906561255
 30
0.0
 11
1494.366554875732
 21
1599.45322879206
 31
0.0
  0
LINE
  5
13020
330
18
100
AcDbEntity
  8
0
 48
3.0
370
    13
100
AcDbLine
 10
1495.699888209068
 20
1597.537906561255
 30
0.0
 11
1495.699888209068
 21
1599.45322879206
 31
0.0
  0
ARC
  5
13021
330
18
100
AcDbEntity
  8
0
 48
3.0
370
    13
100
AcDbCircle
 10
1495.033221542397
 20
1596.871239894587
 30
0.0
 40
2.666666666666666
100
AcDbArc
 50
75.52248781407055
 51
104.4775121859294
  0
LINE
  5
13022
330
18
100
AcDbEntity
  8
0
 48
3.0
370
    13
100
AcDbLine
 10
1492.451232644923
 20
1597.537906561255
 30
0.0
 11
1494.366554875732
 21
1597.537906561255
 31
0.0
  0
ARC
  5
13023
330
18
100
AcDbEntity
  8
0
 48
3.0
370
    13
100
AcDbCircle
 10
1495.033221542397
 20
1596.871239894587
 30
0.0
 40
2.666666666666666
100
AcDbArc
 50
165.5224878141036
 51
194.4775121858963
  0
ARC
  5
13024
330
18
100
AcDbEntity
  8
0
 48
3.0
370
    13
100
AcDbCircle
 10
1495.033221542397
 20
1596.871239894587
 30
0.0
 40
2.666666666666666
100
AcDbArc
 50
345.5224878141037
 51
14.47751218589629
  0
LINE
  5
13025
330
18
100
AcDbEntity
  8
0
100
AcDbLine
 10
1206.625929747553
 20
1602.871239894619
 30
-0.2794100433300004
 11
1204.625929747553
 21
1604.871239894618
 31
-0.2794100433300004
  0
LINE
  5
13026
330
18
100
AcDbEntity
  8
0
100
AcDbLine
 10
1205.025929747551
 20
1604.87123989462
 30
0.0
 11
1206.625929747549
 21
1604.87123989462
 31
0.0
  0
LINE
  5
13027
330
18
100
AcDbEntity
  8
0
 48
4.0
100
AcDbLine
 10
1135.525929747547
 20
1610.933417721078
 30
0.0
 11
1135.525929747547
 21
1613.871239894588
 31
0.0
  0
LINE
  5
13028
330
18
100
AcDbEntity
  8
0
 48
4.0
100
AcDbLine
 10
1142.525929747547
 20
1610.933417721078
 30
0.0
 11
1142.525929747547
 21
1613.871239894588
 31
0.0
  0
ARC
  5
13029
330
18
100
AcDbEntity
  8
0
 48
4.0
100
AcDbCircle
 10
1139.025929747547
 20
1604.871239894587
 30
0.0
 40
7.0
100
AcDbArc
 50
120.0000000000005
 51
180.0
  0
ARC
  5
1302A
330
18
100
AcDbEntity
  8
0
 48
4.0
100
AcDbCircle
 10
1139.025929747547
 20
1604.871239894587
 30
0.0
 40
7.0
100
AcDbArc
 50
0.0
 51
59.99999999999946
  0
ARC
  5
1302B
330
18
100
AcDbEntity
  8
0
 48
4.0
100
AcDbCircle
 10
1139.025929747547
 20
1613.871239894587
 30
0.0
 40
3.5
100
AcDbArc
 50
0.0
 51
180.0
  0
LINE
  5
1302C
330
18
100
AcDbEntity
  8
0
100
AcDbLine
 10
1146.025929747547
 20
1604.871239894587
 30
0.0
 11
1202.725929747548
 21
1604.871239894587
 31
0.0
  0
CIRCLE
  5
1302D
330
18
100
AcDbEntity
  8
0
 48
3.0
370
    13
100
AcDbCircle
 10
1200.625929747549
 20
1556.87123989462
 30
-0.2794100433300004
 40
3.0
  0
LINE
  5
1302E
330
18
100
AcDbEntity
  8
0
100
AcDbLine
 10
1400.033221542396
 20
1604.871239894587
 30
0.0
 11
1408.033221542396
 21
1604.871239894587
 31
0.0
  0
LINE
  5
1302F
330
18
100
AcDbEntity
  8
0
100
AcDbLine
 10
1401.033221542396
 20
1603.871239894587
 30
0.0
 11
1408.033221542396
 21
1603.871239894587
 31
0.0
  0
LINE
  5
13030
330
18
100
AcDbEntity
  8
0
100
AcDbLine
 10
1408.033221542396
 20
1603.871239894587
 30
0.0
 11
1408.033221542396
 21
1604.871239894587
 31
0.0
  0
LINE
  5
13031
330
18
100
AcDbEntity
  8
0
 48
3.0
370
    13
100
AcDbLine
 10
1544.666554875735
 20
1538.289250997117
 30
0.0
 11
1544.666554875735
 21
1540.204573227923
 31
0.0
  0
LINE
  5
13032
330
18
100
AcDbEntity
  8
0
 48
3.0
370
    13
100
AcDbLine
 10
1545.999888209071
 20
1538.289250997117
 30
0.0
 11
1545.999888209071
 21
1540.204573227923
 31
0.0
  0
CIRCLE
  5
13033
330
18
100
AcDbEntity
  8
0
 48
3.0
370
    13
100
AcDbCircle
 10
1545.333221542399
 20
1540.871239894587
 30
0.0
 40
4.0
  0
CIRCLE
  5
13034
330
18
100
AcDbEntity
  8
0
 48
3.0
370
    13
100
AcDbCircle
 10
1545.333221542399
 20
1540.871239894587
 30
0.0
 40
3.333333333333333
  0
ARC
  5
13035
330
18
100
AcDbEntity
  8
0
 48
3.0
370
    13
100
AcDbCircle
 10
1545.333221542399
 20
1540.871239894587
 30
0.0
 40
2.666666666666666
100
AcDbArc
 50
255.5224878140705
 51
284.4775121859294
  0
LINE
  5
13036
330
18
100
AcDbEntity
  8
0
 48
3.0
370
    13
100
AcDbLine
 10
1545.999888209071
 20
1540.204573227923
 30
0.0
 11
1547.915210439872
 21
1540.204573227923
 31
0.0
  0
LINE
  5
13037
330
18
100
AcDbEntity
  8
0
 48
3.0
370
    13
100
AcDbLine
 10
1542.751232644927
 20
1540.204573227923
 30
0.0
 11
1544.666554875735
 21
1540.204573227923
 31
0.0
  0
LINE
  5
13038
330
18
100
AcDbEntity
  8
0
 48
3.0
370
    13
100
AcDbLine
 10
1545.999888209071
 20
1541.537906561255
 30
0.0
 11
1547.915210439872
 21
1541.537906561255
 31
0.0
  0
LINE
  5
13039
330
18
100
AcDbEntity
  8
0
 48
3.0
370
    13
100
AcDbLine
 10
1544.666554875735
 20
1541.537906561255
 30
0.0
 11
1544.666554875735
 21
1543.45322879206
 31
0.0
  0
LINE
  5
1303A
330
18
100
AcDbEntity
  8
0
 48
3.0
370
    13
100
AcDbLine
 10
1545.999888209071
 20
1541.537906561255
 30
0.0
 11
1545.999888209071
 21
1543.45322879206
 31
0.0
  0
ARC
  5
1303B
330
18
100
AcDbEntity
  8
0
 48
3.0
370
    13
100
AcDbCircle
 10
1545.333221542399
 20
1540.871239894587
 30
0.0
 40
2.666666666666666
100
AcDbArc
 50
75.52248781407055
 51
104.4775121859294
  0
LINE
  5
1303C
330
18
100
AcDbEntity
  8
0
 48
3.0
370
    13
100
AcDbLine
 10
1542.751232644927
 20
1541.537906561255
 30
0.0
 11
1544.666554875735
 21
1541.537906561255
 31
0.0
  0
ARC
  5
1303D
330
18
100
AcDbEntity
  8
0
 48
3.0
370
    13
100
AcDbCircle
 10
1545.333221542399
 20
1540.871239894587
 30
0.0
 40
2.666666666666666
100
AcDbArc
 50
165.5224878141036
 51
194.4775121858963
  0
ARC
  5
1303E
330
18
100
AcDbEntity
  8
0
 48
3.0
370
    13
100
AcDbCircle
 10
1545.333221542399
 20
1540.871239894587
 30
0.0
 40
2.666666666666666
100
AcDbArc
 50
345.5224878141037
 51
14.47751218589629
  0
LINE
  5
1303F
330
18
100
AcDbEntity
  8
0
 48
3.0
370
    13
100
AcDbLine
 10
1689.366554875732
 20
1544.289250997118
 30
0.0
 11
1689.366554875732
 21
1546.204573227923
 31
0.0
  0
LINE
  5
13040
330
18
100
AcDbEntity
  8
0
 48
3.0
370
    13
100
AcDbLine
 10
1690.699888209068
 20
1544.289250997118
 30
0.0
 11
1690.699888209068
 21
1546.204573227923
 31
0.0
  0
CIRCLE
  5
13041
330
18
100
AcDbEntity
  8
0
 48
3.0
370
    13
100
AcDbCircle
 10
1690.033221542396
 20
1546.871239894587
 30
0.0
 40
4.0
  0
CIRCLE
  5
13042
330
18
100
AcDbEntity
  8
0
 48
3.0
370
    13
100
AcDbCircle
 10
1690.033221542396
 20
1546.871239894587
 30
0.0
 40
3.333333333333333
  0
ARC
  5
13043
330
18
100
AcDbEntity
  8
0
 48
3.0
370
    13
100
AcDbCircle
 10
1690.033221542396
 20
1546.871239894587
 30
0.0
 40
2.666666666666666
100
AcDbArc
 50
255.5224878140705
 51
284.4775121859294
  0
LINE
  5
13044
330
18
100
AcDbEntity
  8
0
 48
3.0
370
    13
100
AcDbLine
 10
1690.699888209068
 20
1546.204573227923
 30
0.0
 11
1692.615210439869
 21
1546.204573227923
 31
0.0
  0
LINE
  5
13045
330
18
100
AcDbEntity
  8
0
 48
3.0
370
    13
100
AcDbLine
 10
1687.451232644924
 20
1546.204573227923
 30
0.0
 11
1689.366554875732
 21
1546.204573227923
 31
0.0
  0
LINE
  5
13046
330
18
100
AcDbEntity
  8
0
 48
3.0
370
    13
100
AcDbLine
 10
1690.699888209068
 20
1547.537906561255
 30
0.0
 11
1692.615210439869
 21
1547.537906561255
 31
0.0
  0
LINE
  5
13047
330
18
100
AcDbEntity
  8
0
 48
3.0
370
    13
100
AcDbLine
 10
1689.366554875732
 20
1547.537906561255
 30
0.0
 11
1689.366554875732
 21
1549.45322879206
 31
0.0
  0
LINE
  5
13048
330
18
100
AcDbEntity
  8
0
 48
3.0
370
    13
100
AcDbLine
 10
1690.699888209068
 20
1547.537906561255
 30
0.0
 11
1690.699888209068
 21
1549.45322879206
 31
0.0
  0
ARC
  5
13049
330
18
100
AcDbEntity
  8
0
 48
3.0
370
    13
100
AcDbCircle
 10
1690.033221542396
 20
1546.871239894587
 30
0.0
 40
2.666666666666666
100
AcDbArc
 50
75.52248781407055
 51
104.4775121859294
  0
LINE
  5
1304A
330
18
100
AcDbEntity
  8
0
 48
3.0
370
    13
100
AcDbLine
 10
1687.451232644924
 20
1547.537906561255
 30
0.0
 11
1689.366554875732
 21
1547.537906561255
 31
0.0
  0
ARC
  5
1304B
330
18
100
AcDbEntity
  8
0
 48
3.0
370
    13
100
AcDbCircle
 10
1690.033221542396
 20
1546.871239894587
 30
0.0
 40
2.666666666666666
100
AcDbArc
 50
165.5224878141036
 51
194.4775121858963
  0
ARC
  5
1304C
330
18
100
AcDbEntity
  8
0
 48
3.0
370
    13
100
AcDbCircle
 10
1690.033221542396
 20
1546.871239894587
 30
0.0
 40
2.666666666666666
100
AcDbArc
 50
345.5224878141037
 51
14.47751218589629
  0
ARC
  5
1304D
330
18
100
AcDbEntity
  8
0
100
AcDbCircle
 10
1697.733221542397
 20
1604.871239894587
 30
0.0
 40
2.299999999999999
100
AcDbArc
 50
320.2919863129309
 51
0.0
  0
LINE
  5
1304E
330
18
100
AcDbEntity
  8
0
100
AcDbLine
 10
1680.0332215424
 20
1604.871239894587
 30
0.0
 11
1697.733221542397
 21
1604.871239894587
 31
0.0
  0
LINE
  5
1304F
330
18
100
AcDbEntity
  8
0
100
AcDbLine
 10
1698.0332215424
 20
1604.871239894587
 30
0.0
 11
1700.0332215424
 21
1602.871239894587
 31
0.0
  0
LINE
  5
13050
330
18
100
AcDbEntity
  8
0
100
AcDbLine
 10
1200.725929747548
 20
1624.871239894587
 30
0.0
 11
1202.725929747548
 21
1622.871239894587
 31
0.0
  0
LINE
  5
13051
330
18
100
AcDbEntity
  8
0
100
AcDbLine
 10
1697.733221542397
 20
1624.871239894587
 30
0.0
 11
1700.0332215424
 21
1624.871239894587
 31
0.0
  0
LINE
  5
13052
330
18
100
AcDbEntity
  8
0
 48
3.0
370
    13
100
AcDbLine
 10
1443.832564194866
 20
1348.871211312165
 30
6.265826007644324
 11
1443.832564194866
 21
1350.307702985269
 31
6.265826007644324
  0
LINE
  5
13053
330
18
100
AcDbEntity
  8
0
 48
3.0
370
    13
100
AcDbLine
 10
1442.832564194866
 20
1348.871211312165
 30
6.265826007644324
 11
1442.832564194866
 21
1350.307702985269
 31
6.265826007644324
  0
LINE
  5
13054
330
18
100
AcDbEntity
  8
0
 48
3.0
370
    13
100
AcDbLine
 10
1443.832564194866
 20
1348.871211312165
 30
6.265826007644324
 11
1445.269055867969
 21
1348.871211312165
 31
6.265826007644324
  0
LINE
  5
13055
330
18
100
AcDbEntity
  8
0
 48
3.0
370
    13
100
AcDbLine
 10
1443.832564194866
 20
1347.871211312165
 30
6.265826007644324
 11
1445.269055867969
 21
1347.871211312165
 31
6.265826007644324
  0
ARC
  5
13056
330
18
100
AcDbEntity
  8
0
 48
3.0
370
    13
100
AcDbCircle
 10
1443.332564194863
 20
1348.371211312165
 30
6.265826007644324
 40
2.0
100
AcDbArc
 50
255.5224878140705
 51
284.4775121859294
  0
LINE
  5
13057
330
18
100
AcDbEntity
  8
0
 48
3.0
370
    13
100
AcDbLine
 10
1443.832564194866
 20
1346.434719639061
 30
6.265826007644324
 11
1443.832564194866
 21
1347.871211312165
 31
6.265826007644324
  0
LINE
  5
13058
330
18
100
AcDbEntity
  8
0
 48
3.0
370
    13
100
AcDbLine
 10
1442.832564194866
 20
1346.434719639061
 30
6.265826007644324
 11
1442.832564194866
 21
1347.871211312165
 31
6.265826007644324
  0
ARC
  5
13059
330
18
100
AcDbEntity
  8
0
 48
3.0
370
    13
100
AcDbCircle
 10
1443.332564194863
 20
1348.371211312165
 30
6.265826007644324
 40
2.0
100
AcDbArc
 50
345.5224878141037
 51
14.47751218589629
  0
ARC
  5
1305A
330
18
100
AcDbEntity
  8
0
 48
3.0
370
    13
100
AcDbCircle
 10
1443.332564194863
 20
1348.371211312165
 30
6.265826007644324
 40
2.0
100
AcDbArc
 50
75.52248781407055
 51
104.4775121859294
  0
ARC
  5
1305B
330
18
100
AcDbEntity
  8
0
 48
3.0
370
    13
100
AcDbCircle
 10
1443.332564194863
 20
1348.371211312165
 30
6.265826007644324
 40
2.0
100
AcDbArc
 50
165.5224878141036
 51
194.4775121858963
  0
LINE
  5
1305C
330
18
100
AcDbEntity
  8
0
 48
3.0
370
    13
100
AcDbLine
 10
1441.396072521764
 20
1347.871211312165
 30
6.265826007644324
 11
1442.832564194866
 21
1347.871211312165
 31
6.265826007644324
  0
CIRCLE
  5
1305D
330
18
100
AcDbEntity
  8
0
 48
3.0
370
    13
100
AcDbCircle
 10
1443.332564194863
 20
1348.371211312165
 30
6.265826007644324
 40
3.0
  0
CIRCLE
  5
1305E
330
18
100
AcDbEntity
  8
0
 48
3.0
370
    13
100
AcDbCircle
 10
1443.332564194863
 20
1348.371211312165
 30
6.265826007644324
 40
2.5
  0
LINE
  5
1305F
330
18
100
AcDbEntity
  8
0
 48
3.0
370
    13
100
AcDbLine
 10
1441.396072521764
 20
1348.871211312165
 30
6.265826007644324
 11
1442.832564194866
 21
1348.871211312165
 31
6.265826007644324
  0
LINE
  5
13060
330
18
100
AcDbEntity
  8
0
 48
3.0
370
    13
100
AcDbLine
 10
1198.688780726917
 20
1557.371239894622
 30
6.164215964314323
 11
1200.12527240002
 21
1557.371239894622
 31
6.164215964314323
  0
CIRCLE
  5
13061
330
18
100
AcDbEntity
  8
0
 48
3.0
370
    13
100
AcDbCircle
 10
1200.625272400017
 20
1556.871239894621
 30
6.164215964314323
 40
2.5
  0
CIRCLE
  5
13062
330
18
100
AcDbEntity
  8
0
 48
3.0
370
    13
100
AcDbCircle
 10
1200.625272400017
 20
1556.871239894621
 30
6.164215964314323
 40
3.0
  0
LINE
  5
13063
330
18
100
AcDbEntity
  8
0
 48
3.0
370
    13
100
AcDbLine
 10
1198.688780726917
 20
1556.371239894621
 30
6.164215964314323
 11
1200.12527240002
 21
1556.371239894621
 31
6.164215964314323
  0
ARC
  5
13064
330
18
100
AcDbEntity
  8
0
 48
3.0
370
    13
100
AcDbCircle
 10
1200.625272400017
 20
1556.871239894621
 30
6.164215964314323
 40
2.0
100
AcDbArc
 50
165.5224878141036
 51
194.4775121858963
  0
ARC
  5
13065
330
18
100
AcDbEntity
  8
0
 48
3.0
370
    13
100
AcDbCircle
 10
1200.625272400017
 20
1556.871239894621
 30
6.164215964314323
 40
2.0
100
AcDbArc
 50
75.52248781407055
 51
104.4775121859294
  0
ARC
  5
13066
330
18
100
AcDbEntity
  8
0
 48
3.0
370
    13
100
AcDbCircle
 10
1200.625272400017
 20
1556.871239894621
 30
6.164215964314323
 40
2.0
100
AcDbArc
 50
345.5224878141037
 51
14.47751218589629
  0
LINE
  5
13067
330
18
100
AcDbEntity
  8
0
 48
3.0
370
    13
100
AcDbLine
 10
1200.12527240002
 20
1554.934748221518
 30
6.164215964314323
 11
1200.12527240002
 21
1556.371239894621
 31
6.164215964314323
  0
LINE
  5
13068
330
18
100
AcDbEntity
  8
0
 48
3.0
370
    13
100
AcDbLine
 10
1201.12527240002
 20
1554.934748221518
 30
6.164215964314323
 11
1201.12527240002
 21
1556.371239894621
 31
6.164215964314323
  0
ARC
  5
13069
330
18
100
AcDbEntity
  8
0
 48
3.0
370
    13
100
AcDbCircle
 10
1200.625272400017
 20
1556.871239894621
 30
6.164215964314323
 40
2.0
100
AcDbArc
 50
255.5224878140705
 51
284.4775121859294
  0
LINE
  5
1306A
330
18
100
AcDbEntity
  8
0
 48
3.0
370
    13
100
AcDbLine
 10
1201.12527240002
 20
1556.371239894621
 30
6.164215964314323
 11
1202.561764073123
 21
1556.371239894621
 31
6.164215964314323
  0
LINE
  5
1306B
330
18
100
AcDbEntity
  8
0
 48
3.0
370
    13
100
AcDbLine
 10
1201.12527240002
 20
1557.371239894622
 30
6.164215964314323
 11
1202.561764073123
 21
1557.371239894622
 31
6.164215964314323
  0
LINE
  5
1306C
330
18
100
AcDbEntity
  8
0
 48
3.0
370
    13
100
AcDbLine
 10
1200.12527240002
 20
1557.371239894622
 30
6.164215964314323
 11
1200.12527240002
 21
1558.807731567725
 31
6.164215964314323
  0
LINE
  5
1306D
330
18
100
AcDbEntity
  8
0
 48
3.0
370
    13
100
AcDbLine
 10
1201.12527240002
 20
1557.371239894622
 30
6.164215964314323
 11
1201.12527240002
 21
1558.807731567725
 31
6.164215964314323
  0
LINE
  5
13211
330
18
100
AcDbEntity
  8
0
100
AcDbLine
 10
950.7921696290814
 20
955.9513669070101
 30
0.0
 11
938.7921696290813
 21
955.9513669070101
 31
0.0
  0
LINE
  5
13212
330
18
100
AcDbEntity
  8
0
100
AcDbLine
 10
990.7921696290813
 20
955.9513669070101
 30
0.0
 11
978.7921696290814
 21
955.9513669070101
 31
0.0
  0
TEXT
  5
13264
330
18
100
AcDbEntity
  8
0
100
AcDbText
 10
1642.941159416539
 20
953.0500073672891
 30
0.0
 40
6.0
  1
ＮＣＲ－Ｒ／ＳＡ＊＊Ａ２＊－２０３＊（－Ｔ＊＊）
 41
0.7
  7
MSｺﾞｼｯｸ
100
AcDbText
  0
TEXT
  5
13265
330
18
100
AcDbEntity
  8
0
100
AcDbText
 10
1699.450287721616
 20
941.5293550533151
 30
0.0
 40
6.0
  1
VC外形図(電力回生)
  7
MSｺﾞｼｯｸ
100
AcDbText
  0
TEXT
  5
13266
330
18
100
AcDbEntity
  8
0
100
AcDbText
 10
1698.51567904637
 20
930.1714482854681
 30
0.0
 40
7.0
  1
ＳＥ－４８１３０
 41
0.9529999999999999
  7
MSｺﾞｼｯｸ
100
AcDbText
  0
VIEWPORT
  5
1326F
330
13268
100
AcDbEntity
 67
     1
  8
0
100
AcDbViewport
 10
142.5892486572265
 20
99.11291408538819
 30
0.0
 40
314.1477025756835
 41
286.8463379254214
 68
     1
 69
     1
 12
142.5892486572265
 22
99.11291408538819
 13
0.0
 23
0.0
 14
10.0
 24
10.0
 15
10.0
 25
10.0
 16
0.0
 26
0.0
 36
1.0
 17
0.0
 27
0.0
 37
0.0
 42
50.0
 43
0.0
 44
0.0
 45
286.8463379254214
 50
0.0
 51
0.0
 72
   100
 90
    32800
  1

281
     0
 71
     1
 74
     0
110
0.0
120
0.0
130
0.0
111
1.0
121
0.0
131
0.0
112
0.0
122
1.0
132
0.0
 79
     0
146
0.0
  0
ENDSEC
  0
SECTION
  2
OBJECTS
  0
DICTIONARY
  5
C
330
0
100
AcDbDictionary
281
     1
  3
ACAD_GROUP
350
D
  3
ACAD_LAYOUT
350
73F
  3
ACAD_MLINESTYLE
350
1B
  3
ACAD_PLOTSETTINGS
350
740
  3
ACAD_PLOTSTYLENAME
350
73D
  3
AcadDim
350
61D4
  3
AcDbVariableDictionary
350
7046
  3
DWGPROPS
350
933
  0
DICTIONARY
  5
D
102
{ACAD_REACTORS
330
C
102
}
330
C
100
AcDbDictionary
281
     1
  0
DICTIONARY
  5
73F
102
{ACAD_REACTORS
330
C
102
}
330
C
100
AcDbDictionary
281
     1
  3
Model
350
741
  3
ﾚｲｱｳﾄ1
350
13269
  0
DICTIONARY
  5
1B
102
{ACAD_REACTORS
330
C
102
}
330
C
100
AcDbDictionary
281
     1
  3
STANDARD
350
1C
  0
DICTIONARY
  5
740
102
{ACAD_REACTORS
330
C
102
}
330
C
100
AcDbDictionary
281
     1
  0
ACDBDICTIONARYWDFLT
  5
73D
102
{ACAD_REACTORS
330
C
102
}
330
C
100
AcDbDictionary
281
     1
  3
Normal
350
73E
100
AcDbDictionaryWithDefault
340
73E
  0
XRECORD
  5
61D4
102
{ACAD_REACTORS
330
C
102
}
330
C
100
AcDbXrecord
280
     1
 90
   990106
  3

 60
     0
 61
     0
 62
     1
 63
     3
 64
     0
 65
     0
 66
     0
 67
     3
 68
     1
 69
     0
 70
     0
 71
     0
 72
     0
 40
0.0
170
     0
  0
DICTIONARY
  5
7046
102
{ACAD_REACTORS
330
C
102
}
330
C
100
AcDbDictionary
281
     1
  3
DIMASSOC
350
7047
  0
XRECORD
  5
933
102
{ACAD_REACTORS
330
C
102
}
330
C
100
AcDbXrecord
280
     1
  1
DWGPROPS COOKIE
  2

  3

  4

  6

  7

  8
tada
  9

300
=
301
=
302
=
303
=
304
=
305
=
306
=
307
=
308
=
309
=
 40
0.601484837962963
 41
2451224.660162384
 42
2451942.757158912
  1

 90
        0
  0
LAYOUT
  5
741
102
{ACAD_REACTORS
330
73F
102
}
330
73F
100
AcDbPlotSettings
  1

  2
HP DesignJet 750C (D/A1) Color
  4

  6

 40
0.0
 41
0.0
 42
0.0
 43
0.0
 44
0.0
 45
0.0
 46
0.0
 47
0.0
 48
0.0
 49
0.0
140
0.0
141
0.0
142
1.0
143
1.0
 70
  1712
 72
     0
 73
     0
 74
     0
  7

 75
     0
147
1.0
148
0.0
149
0.0
100
AcDbLayout
  1
Model
 70
     1
 71
     0
 10
0.0
 20
0.0
 11
12.0
 21
9.0
 12
0.0
 22
0.0
 32
0.0
 14
0.0
 24
0.0
 34
0.0
 15
0.0
 25
0.0
 35
0.0
146
0.0
 13
0.0
 23
0.0
 33
0.0
 16
1.0
 26
0.0
 36
0.0
 17
0.0
 27
1.0
 37
0.0
 76
     0
330
18
  0
LAYOUT
  5
13269
102
{ACAD_REACTORS
330
73F
102
}
330
73F
100
AcDbPlotSettings
  1

  2
\\MANAMI\Canon LBP3900
  4
A4
  6

 40
5.873749732971191
 41
5.873747825622558
 42
5.873748779296875
 43
5.873748779296875
 44
209.9733276367187
 45
296.9259948730469
 46
0.0
 47
0.0
 48
0.0
 49
0.0
140
0.0
141
0.0
142
1.0
143
1.0
 70
   688
 72
     1
 73
     1
 74
     5
  7

 75
    16
147
1.0
148
0.0
149
0.0
100
AcDbLayout
  1
ﾚｲｱｳﾄ1
 70
     1
 71
     1
 10
-5.873748779296875
 20
-5.873749732971191
 11
291.05224609375
 21
204.0995779037475
 12
0.0
 22
0.0
 32
0.0
 14
28.51784982681273
 24
19.82258291244505
 34
0.0
 15
256.6606484413147
 25
178.4032462120056
 35
0.0
146
0.0
 13
0.0
 23
0.0
 33
0.0
 16
1.0
 26
0.0
 36
0.0
 17
0.0
 27
1.0
 37
0.0
 76
     0
330
13268
331
1326F
  0
MLINESTYLE
  5
1C
102
{ACAD_REACTORS
330
1B
102
}
330
1B
100
AcDbMlineStyle
  2
STANDARD
 70
     0
  3

 62
   256
 51
90.0
 52
90.0
 71
     2
 49
0.5
 62
   256
  6
BYLAYER
 49
-0.5
 62
   256
  6
BYLAYER
  0
ACDBPLACEHOLDER
  5
73E
102
{ACAD_REACTORS
330
73D
102
}
330
73D
  0
DICTIONARYVAR
  5
7047
102
{ACAD_REACTORS
330
7046
102
}
330
7046
100
DictionaryVariables
280
     0
  1
1
  0
ENDSEC
  0
EOF
