  0
SECTION
  2
HEADER
  9
$ACADVER
  1
AC1015
  9
$ACADMAINTVER
 70
    10
  9
$DWGCODEPAGE
  3
ANSI_932
  9
$INSBASE
 10
0.0
 20
0.0
 30
0.0
  9
$EXTMIN
 10
-239.6720039685181
 20
333.6445664856521
 30
0.0
  9
$EXTMAX
 10
148.7775658852369
 20
601.5725201608686
 30
0.0
  9
$LIMMIN
 10
0.0
 20
0.0
  9
$LIMMAX
 10
420.0
 20
297.0
  9
$ORTHOMODE
 70
     1
  9
$REGENMODE
 70
     1
  9
$FILLMODE
 70
     1
  9
$QTEXTMODE
 70
     0
  9
$MIRRTEXT
 70
     0
  9
$LTSCALE
 40
1.0
  9
$ATTMODE
 70
     1
  9
$TEXTSIZE
 40
2.5
  9
$TRACEWID
 40
1.0
  9
$TEXTSTYLE
  7
STANDARD
  9
$CLAYER
  8
文字
  9
$CELTYPE
  6
BYLAYER
  9
$CECOLOR
 62
   256
  9
$CELTSCALE
 40
1.0
  9
$DISPSILH
 70
     0
  9
$DIMSCALE
 40
1.0
  9
$DIMASZ
 40
1.5
  9
$DIMEXO
 40
0.5
  9
$DIMDLI
 40
0.38
  9
$DIMRND
 40
0.0
  9
$DIMDLE
 40
0.0
  9
$DIMEXE
 40
0.8
  9
$DIMTP
 40
0.0
  9
$DIMTM
 40
0.0
  9
$DIMTXT
 40
2.0
  9
$DIMCEN
 40
0.0
  9
$DIMTSZ
 40
0.0
  9
$DIMTOL
 70
     0
  9
$DIMLIM
 70
     0
  9
$DIMTIH
 70
     0
  9
$DIMTOH
 70
     0
  9
$DIMSE1
 70
     0
  9
$DIMSE2
 70
     0
  9
$DIMTAD
 70
     3
  9
$DIMZIN
 70
     8
  9
$DIMBLK
  1
OPEN30
  9
$DIMASO
 70
     1
  9
$DIMSHO
 70
     1
  9
$DIMPOST
  1

  9
$DIMAPOST
  1

  9
$DIMALT
 70
     0
  9
$DIMALTD
 70
     2
  9
$DIMALTF
 40
25.4
  9
$DIMLFAC
 40
1.0
  9
$DIMTOFL
 70
     0
  9
$DIMTVP
 40
0.0
  9
$DIMTIX
 70
     0
  9
$DIMSOXD
 70
     0
  9
$DIMSAH
 70
     0
  9
$DIMBLK1
  1

  9
$DIMBLK2
  1

  9
$DIMSTYLE
  2
まこ-10
  9
$DIMCLRD
 70
     4
  9
$DIMCLRE
 70
     4
  9
$DIMCLRT
 70
   256
  9
$DIMTFAC
 40
1.0
  9
$DIMGAP
 40
0.5
  9
$DIMJUST
 70
     0
  9
$DIMSD1
 70
     0
  9
$DIMSD2
 70
     0
  9
$DIMTOLJ
 70
     1
  9
$DIMTZIN
 70
     0
  9
$DIMALTZ
 70
     0
  9
$DIMALTTZ
 70
     0
  9
$DIMUPT
 70
     0
  9
$DIMDEC
 70
     2
  9
$DIMTDEC
 70
     2
  9
$DIMALTU
 70
     2
  9
$DIMALTTD
 70
     2
  9
$DIMTXSTY
  7
MSｺ_ｼｯｸ-0
  9
$DIMAUNIT
 70
     0
  9
$DIMADEC
 70
     2
  9
$DIMALTRND
 40
0.0
  9
$DIMAZIN
 70
     2
  9
$DIMDSEP
 70
    46
  9
$DIMATFIT
 70
     3
  9
$DIMFRAC
 70
     0
  9
$DIMLDRBLK
  1
OPEN30
  9
$DIMLUNIT
 70
     2
  9
$DIMLWD
 70
    13
  9
$DIMLWE
 70
    13
  9
$DIMTMOVE
 70
     0
  9
$LUNITS
 70
     2
  9
$LUPREC
 70
     4
  9
$SKETCHINC
 40
1.0
  9
$FILLETRAD
 40
10.0
  9
$AUNITS
 70
     0
  9
$AUPREC
 70
     0
  9
$MENU
  1
.
  9
$ELEVATION
 40
0.0
  9
$PELEVATION
 40
0.0
  9
$THICKNESS
 40
0.0
  9
$LIMCHECK
 70
     0
  9
$CHAMFERA
 40
5.0
  9
$CHAMFERB
 40
5.0
  9
$CHAMFERC
 40
20.0
  9
$CHAMFERD
 40
0.0
  9
$SKPOLY
 70
     0
  9
$TDCREATE
 40
2452479.723123183
  9
$TDUCREATE
 40
2452479.348123183
  9
$TDUPDATE
 40
2455905.594253449
  9
$TDUUPDATE
 40
2455905.219253449
  9
$TDINDWG
 40
6.9488856134
  9
$TDUSRTIMER
 40
6.9488825231
  9
$USRTIMER
 70
     1
  9
$ANGBASE
 50
0.0
  9
$ANGDIR
 70
     0
  9
$PDMODE
 70
     0
  9
$PDSIZE
 40
0.0
  9
$PLINEWID
 40
0.0
  9
$SPLFRAME
 70
     0
  9
$SPLINETYPE
 70
     6
  9
$SPLINESEGS
 70
     8
  9
$HANDSEED
  5
1E913
  9
$SURFTAB1
 70
     6
  9
$SURFTAB2
 70
     6
  9
$SURFTYPE
 70
     6
  9
$SURFU
 70
     6
  9
$SURFV
 70
     6
  9
$UCSBASE
  2

  9
$UCSNAME
  2

  9
$UCSORG
 10
0.0
 20
0.0
 30
0.0
  9
$UCSXDIR
 10
1.0
 20
0.0
 30
0.0
  9
$UCSYDIR
 10
0.0
 20
1.0
 30
0.0
  9
$UCSORTHOREF
  2

  9
$UCSORTHOVIEW
 70
     0
  9
$UCSORGTOP
 10
0.0
 20
0.0
 30
0.0
  9
$UCSORGBOTTOM
 10
0.0
 20
0.0
 30
0.0
  9
$UCSORGLEFT
 10
0.0
 20
0.0
 30
0.0
  9
$UCSORGRIGHT
 10
0.0
 20
0.0
 30
0.0
  9
$UCSORGFRONT
 10
0.0
 20
0.0
 30
0.0
  9
$UCSORGBACK
 10
0.0
 20
0.0
 30
0.0
  9
$PUCSBASE
  2

  9
$PUCSNAME
  2

  9
$PUCSORG
 10
0.0
 20
0.0
 30
0.0
  9
$PUCSXDIR
 10
1.0
 20
0.0
 30
0.0
  9
$PUCSYDIR
 10
0.0
 20
1.0
 30
0.0
  9
$PUCSORTHOREF
  2

  9
$PUCSORTHOVIEW
 70
     0
  9
$PUCSORGTOP
 10
0.0
 20
0.0
 30
0.0
  9
$PUCSORGBOTTOM
 10
0.0
 20
0.0
 30
0.0
  9
$PUCSORGLEFT
 10
0.0
 20
0.0
 30
0.0
  9
$PUCSORGRIGHT
 10
0.0
 20
0.0
 30
0.0
  9
$PUCSORGFRONT
 10
0.0
 20
0.0
 30
0.0
  9
$PUCSORGBACK
 10
0.0
 20
0.0
 30
0.0
  9
$USERI1
 70
     0
  9
$USERI2
 70
     0
  9
$USERI3
 70
     0
  9
$USERI4
 70
     0
  9
$USERI5
 70
     0
  9
$USERR1
 40
10.0
  9
$USERR2
 40
0.0
  9
$USERR3
 40
0.0
  9
$USERR4
 40
0.0
  9
$USERR5
 40
0.0
  9
$WORLDVIEW
 70
     1
  9
$SHADEDGE
 70
     3
  9
$SHADEDIF
 70
    70
  9
$TILEMODE
 70
     0
  9
$MAXACTVP
 70
    48
  9
$PINSBASE
 10
0.0
 20
0.0
 30
0.0
  9
$PLIMCHECK
 70
     0
  9
$PEXTMIN
 10
0.0
 20
0.0
 30
0.0
  9
$PEXTMAX
 10
400.0
 20
288.0
 30
0.0
  9
$PLIMMIN
 10
-8.56296794808758
 20
-8.539662779527942
  9
$PLIMMAX
 10
422.8498939493465
 20
296.5370087211093
  9
$UNITMODE
 70
     0
  9
$VISRETAIN
 70
     1
  9
$PLINEGEN
 70
     0
  9
$PSLTSCALE
 70
     0
  9
$TREEDEPTH
 70
  3020
  9
$CMLSTYLE
  2
STANDARD
  9
$CMLJUST
 70
     0
  9
$CMLSCALE
 40
20.0
  9
$PROXYGRAPHICS
 70
     1
  9
$MEASUREMENT
 70
     0
  9
$CELWEIGHT
370
    -1
  9
$ENDCAPS
280
     0
  9
$JOINSTYLE
280
     0
  9
$LWDISPLAY
290
     0
  9
$INSUNITS
 70
     0
  9
$HYPERLINKBASE
  1

  9
$STYLESHEET
  1

  9
$XEDIT
290
     1
  9
$CEPSNTYPE
380
     0
  9
$PSTYLEMODE
290
     1
  9
$FINGERPRINTGUID
  2
{6B368F64-F7EB-11D4-BFBA-00004C030E53}
  9
$VERSIONGUID
  2
{AAAF5537-ECD9-41C5-8CFA-03175E2B544E}
  9
$EXTNAMES
290
     1
  9
$PSVPSCALE
 40
0.0
  9
$OLESTARTUP
290
     0
  0
ENDSEC
  0
SECTION
  2
CLASSES
  0
CLASS
  1
HATCH
  2
AcDbHatch
  3
AutoCAD 2000
 90
    32768
280
     0
281
     1
  0
CLASS
  1
LWPOLYLINE
  2
AcDbPolyline
  3
AutoCAD 2000
 90
    32768
280
     0
281
     1
  0
CLASS
  1
ACDBDICTIONARYWDFLT
  2
AcDbDictionaryWithDefault
  3
AutoCAD 2000
 90
        0
280
     0
281
     0
  0
CLASS
  1
ACDBPLACEHOLDER
  2
AcDbPlaceHolder
  3
AutoCAD 2000
 90
        0
280
     0
281
     0
  0
CLASS
  1
LAYOUT
  2
AcDbLayout
  3
AutoCAD 2000
 90
        0
280
     0
281
     0
  0
CLASS
  1
DICTIONARYVAR
  2
AcDbDictionaryVar
  3
AutoCAD 2000
 90
        0
280
     0
281
     0
  0
CLASS
  1
LONG_TRANSACTION
  2
AcDbLongTransaction
  3
AutoCAD 2000
 90
    32768
280
     0
281
     0
  0
CLASS
  1
LWPOLYLINE
  2
AcDbPolyline
  3
AutoCAD 2000
 90
    32768
280
     0
281
     1
  0
CLASS
  1
HATCH
  2
AcDbHatch
  3
AutoCAD 2000
 90
    32768
280
     0
281
     1
  0
CLASS
  1
XRECORD
  2
AcDbXrecord
  3
AutoCAD 2000
 90
    32768
280
     0
281
     0
  0
CLASS
  1
LONG_TRANSACTION
  2
AcDbLongTransaction
  3
AutoCAD 2000
 90
    32768
280
     0
281
     0
  0
CLASS
  1
LWPOLYLINE
  2
AcDbPolyline
  3
AutoCAD 2000
 90
    32768
280
     0
281
     1
  0
CLASS
  1
HATCH
  2
AcDbHatch
  3
AutoCAD 2000
 90
    32768
280
     0
281
     1
  0
CLASS
  1
XRECORD
  2
AcDbXrecord
  3
AutoCAD 2000
 90
    32768
280
     0
281
     0
  0
CLASS
  1
LONG_TRANSACTION
  2
AcDbLongTransaction
  3
AutoCAD 2000
 90
    32768
280
     0
281
     0
  0
CLASS
  1
LWPOLYLINE
  2
AcDbPolyline
  3
AutoCAD 2000
 90
    32768
280
     0
281
     1
  0
CLASS
  1
HATCH
  2
AcDbHatch
  3
AutoCAD 2000
 90
    32768
280
     0
281
     1
  0
CLASS
  1
XRECORD
  2
AcDbXrecord
  3
AutoCAD 2000
 90
    32768
280
     0
281
     0
  0
ENDSEC
  0
SECTION
  2
TABLES
  0
TABLE
  2
VPORT
  5
8
330
0
100
AcDbSymbolTable
 70
     1
  0
VPORT
  5
1E897
330
8
100
AcDbSymbolTableRecord
100
AcDbViewportTableRecord
  2
*ACTIVE
 70
     0
 10
0.0
 20
0.0
 11
1.0
 21
1.0
 12
-45.44454638849152
 22
467.6259939776452
 13
-147.946845867692
 23
19.55743956420332
 14
10.0
 24
10.0
 15
10.0
 25
10.0
 16
0.0
 26
0.0
 36
1.0
 17
0.0
 27
0.0
 37
0.0
 40
270.0104835917596
 41
1.527918781725888
 42
50.0
 43
0.0
 44
0.0
 50
0.0
 51
0.0
 71
     0
 72
   100
 73
     1
 74
     0
 75
     0
 76
     0
 77
     0
 78
     0
281
     0
 65
     1
110
0.0
120
0.0
130
0.0
111
1.0
121
0.0
131
0.0
112
0.0
122
1.0
132
0.0
 79
     0
146
0.0
  0
ENDTAB
  0
TABLE
  2
LTYPE
  5
5
330
0
100
AcDbSymbolTable
 70
     4
  0
LTYPE
  5
12
330
5
100
AcDbSymbolTableRecord
100
AcDbLinetypeTableRecord
  2
BYBLOCK
 70
     0
  3

 72
    65
 73
     0
 40
0.0
  0
LTYPE
  5
13
330
5
100
AcDbSymbolTableRecord
100
AcDbLinetypeTableRecord
  2
BYLAYER
 70
     0
  3

 72
    65
 73
     0
 40
0.0
  0
LTYPE
  5
14
330
5
100
AcDbSymbolTableRecord
100
AcDbLinetypeTableRecord
  2
CONTINUOUS
 70
     0
  3
Solid line
 72
    65
 73
     0
 40
0.0
  0
LTYPE
  5
969
330
5
100
AcDbSymbolTableRecord
100
AcDbLinetypeTableRecord
  2
CENTER2
 70
     0
  3
Center (.5x) ___ _ ___ _ ___ _ ___ _ ___ _ ___
 72
    65
 73
     4
 40
28.57499999999999
 49
19.05
 74
     0
 49
-3.174999999999998
 74
     0
 49
3.174999999999998
 74
     0
 49
-3.174999999999998
 74
     0
  0
LTYPE
  5
BB7
330
5
100
AcDbSymbolTableRecord
100
AcDbLinetypeTableRecord
  2
HIDDEN
 70
     0
  3
Hidden __ __ __ __ __ __ __ __ __ __ __ __ __ _
 72
    65
 73
     2
 40
9.524999999999996
 49
6.349999999999997
 74
     0
 49
-3.174999999999998
 74
     0
  0
LTYPE
  5
774A
330
5
100
AcDbSymbolTableRecord
100
AcDbLinetypeTableRecord
  2
HIDDEN2
 70
     0
  3
Hidden (.5x) _ _ _ _ _ _ _ _ _ _ _ _ _ _ _ _ _
 72
    65
 73
     2
 40
0.1875
 49
0.125
 74
     0
 49
-0.0625
 74
     0
  0
ENDTAB
  0
TABLE
  2
LAYER
  5
2
330
0
100
AcDbSymbolTable
 70
    13
  0
LAYER
  5
E
330
2
100
AcDbSymbolTableRecord
100
AcDbLayerTableRecord
  2
0
 70
     2
 62
     7
  6
CONTINUOUS
370
    -3
390
73E
  0
LAYER
  5
2C
330
2
100
AcDbSymbolTableRecord
100
AcDbLayerTableRecord
  2
M_VIEW
 70
     0
 62
    -1
  6
CONTINUOUS
370
    -3
390
73E
  0
LAYER
  5
12B
330
2
100
AcDbSymbolTableRecord
100
AcDbLayerTableRecord
  2
DEFPOINTS
 70
     0
 62
    -7
  6
CONTINUOUS
290
     0
370
    -3
390
73E
  0
LAYER
  5
86A
330
2
100
AcDbSymbolTableRecord
100
AcDbLayerTableRecord
  2
文字改
 70
     0
 62
    40
  6
CONTINUOUS
370
    -3
390
73E
  0
LAYER
  5
8C6
330
2
100
AcDbSymbolTableRecord
100
AcDbLayerTableRecord
  2
文字
 70
     0
 62
     7
  6
CONTINUOUS
370
    -3
390
73E
  0
LAYER
  5
96A
330
2
100
AcDbSymbolTableRecord
100
AcDbLayerTableRecord
  2
中心線
 70
     0
 62
     7
  6
CENTER2
370
    -3
390
73E
  0
LAYER
  5
1521
330
2
100
AcDbSymbolTableRecord
100
AcDbLayerTableRecord
  2
実線
 70
     0
 62
     7
  6
CONTINUOUS
370
    -3
390
73E
  0
LAYER
  5
1522
330
2
100
AcDbSymbolTableRecord
100
AcDbLayerTableRecord
  2
隠れ線
 70
     0
 62
     7
  6
HIDDEN
370
    -3
390
73E
  0
LAYER
  5
1523
330
2
100
AcDbSymbolTableRecord
100
AcDbLayerTableRecord
  2
細線
 70
     0
 62
     7
  6
CONTINUOUS
370
    -3
390
73E
  0
LAYER
  5
1526
330
2
100
AcDbSymbolTableRecord
100
AcDbLayerTableRecord
  2
ｷｬｯﾌ_ﾎ_ﾙﾄ
 70
     0
 62
     7
  6
CONTINUOUS
370
    -3
390
73E
  0
LAYER
  5
44F0
330
2
100
AcDbSymbolTableRecord
100
AcDbLayerTableRecord
  2
ｺﾈｸﾀ
 70
     0
 62
     7
  6
CONTINUOUS
370
    -3
390
73E
  0
LAYER
  5
791A
330
2
100
AcDbSymbolTableRecord
100
AcDbLayerTableRecord
  2
ﾊｯﾁﾝｸ_
 70
     0
 62
     7
  6
CONTINUOUS
370
    -3
390
73E
  0
LAYER
  5
E02B
330
2
100
AcDbSymbolTableRecord
100
AcDbLayerTableRecord
  2
本体
 70
     0
 62
     7
  6
CONTINUOUS
370
    -3
390
73E
  0
ENDTAB
  0
TABLE
  2
STYLE
  5
3
330
0
100
AcDbSymbolTable
 70
     2
  0
STYLE
  5
F
330
3
100
AcDbSymbolTableRecord
100
AcDbTextStyleTableRecord
  2
STANDARD
 70
     0
 40
0.0
 41
1.0
 50
0.0
 71
     0
 42
2.5
  3
isocp.shx
  4
bigfont.shx
  0
STYLE
  5
8D7
330
3
100
AcDbSymbolTableRecord
100
AcDbTextStyleTableRecord
  2
MSｺ_ｼｯｸ-0
 70
     0
 40
0.0
 41
1.0
 50
0.0
 71
     0
 42
4.0
  3
simplex.shx
  4
bigfont.shx
  0
ENDTAB
  0
TABLE
  2
VIEW
  5
6
330
0
100
AcDbSymbolTable
 70
     0
  0
ENDTAB
  0
TABLE
  2
UCS
  5
7
330
0
100
AcDbSymbolTable
 70
     0
  0
ENDTAB
  0
TABLE
  2
APPID
  5
9
330
0
100
AcDbSymbolTable
 70
     2
  0
APPID
  5
10
330
9
100
AcDbSymbolTableRecord
100
AcDbRegAppTableRecord
  2
ACAD
 70
     0
  0
APPID
  5
1E5B6
330
9
100
AcDbSymbolTableRecord
100
AcDbRegAppTableRecord
  2
CONTENTBLOCKICON
 70
     0
  0
ENDTAB
  0
TABLE
  2
DIMSTYLE
  5
A
330
0
100
AcDbSymbolTable
 70
     2
100
AcDbDimStyleTable
 71
     0
  0
DIMSTYLE
105
1D
330
A
100
AcDbSymbolTableRecord
100
AcDbDimStyleTableRecord
  2
STANDARD
 70
     0
 41
3.0
 42
0.8
 44
0.8
 73
     0
 74
     0
 77
     3
 78
     8
140
3.0
141
0.0
147
0.5
176
     4
177
     4
178
   256
340
8D7
341
89E
342
89E
  0
DIMSTYLE
105
8264
330
A
100
AcDbSymbolTableRecord
100
AcDbDimStyleTableRecord
  2
まこ-10
 70
     0
 41
1.5
 42
0.5
 44
0.8
 73
     0
 74
     0
 77
     3
 78
     8
140
2.0
141
0.0
147
0.5
176
     4
177
     4
178
   256
271
     2
272
     2
340
8D7
341
89E
342
89E
  0
ENDTAB
  0
TABLE
  2
BLOCK_RECORD
  5
1
330
0
100
AcDbSymbolTable
 70
     2
  0
BLOCK_RECORD
  5
18
102
{ACAD_XDICTIONARY
360
1E5B4
102
}
330
1
100
AcDbSymbolTableRecord
100
AcDbBlockTableRecord
  2
*MODEL_SPACE
340
1E908
  0
BLOCK_RECORD
  5
15
102
{ACAD_XDICTIONARY
360
1E5B2
102
}
330
1
100
AcDbSymbolTableRecord
100
AcDbBlockTableRecord
  2
*PAPER_SPACE
340
1E909
  0
BLOCK_RECORD
  5
89E
330
1
100
AcDbSymbolTableRecord
100
AcDbBlockTableRecord
  2
_OPEN30
340
0
  0
BLOCK_RECORD
  5
11C3
330
1
100
AcDbSymbolTableRecord
100
AcDbBlockTableRecord
  2
_DATUMFILLED
340
0
102
{BLKREFS
331
1615B
331
1615C
102
}
  0
ENDTAB
  0
ENDSEC
  0
SECTION
  2
BLOCKS
  0
BLOCK
  5
19
330
18
100
AcDbEntity
  8
0
100
AcDbBlockBegin
  2
*MODEL_SPACE
 70
     0
 10
0.0
 20
0.0
 30
0.0
  3
*MODEL_SPACE
  1

  0
ENDBLK
  5
1A
330
18
100
AcDbEntity
  8
0
100
AcDbBlockEnd
  0
BLOCK
  5
16
330
15
100
AcDbEntity
 67
     1
  8
0
100
AcDbBlockBegin
  2
*PAPER_SPACE
 70
     0
 10
0.0
 20
0.0
 30
0.0
  3
*PAPER_SPACE
  1

  0
ENDBLK
  5
17
330
15
100
AcDbEntity
 67
     1
  8
0
100
AcDbBlockEnd
  0
BLOCK
  5
8A2
330
89E
100
AcDbEntity
  8
0
100
AcDbBlockBegin
  2
_OPEN30
 70
     0
 10
0.0
 20
0.0
 30
0.0
  3
_OPEN30
  1

  0
LINE
  5
89F
330
89E
100
AcDbEntity
  8
0
  6
ByBlock
 62
     0
100
AcDbLine
 10
-1.0
 20
0.26794919
 30
0.0
 11
0.0
 21
0.0
 31
0.0
  0
LINE
  5
8A0
330
89E
100
AcDbEntity
  8
0
  6
ByBlock
 62
     0
100
AcDbLine
 10
0.0
 20
0.0
 30
0.0
 11
-1.0
 21
-0.26794919
 31
0.0
  0
LINE
  5
8A1
330
89E
100
AcDbEntity
  8
0
  6
ByBlock
 62
     0
100
AcDbLine
 10
0.0
 20
0.0
 30
0.0
 11
-1.0
 21
0.0
 31
0.0
  0
ENDBLK
  5
8A3
330
89E
100
AcDbEntity
  8
0
100
AcDbBlockEnd
  0
BLOCK
  5
11C5
330
11C3
100
AcDbEntity
  8
0
100
AcDbBlockBegin
  2
_DATUMFILLED
 70
     0
 10
0.0
 20
0.0
 30
0.0
  3
_DATUMFILLED
  1

  0
SOLID
  5
11C4
330
11C3
100
AcDbEntity
  8
0
  6
ByBlock
 62
     0
100
AcDbTrace
 10
0.0
 20
0.5773502700000001
 30
0.0
 11
-1.0
 21
0.0
 31
0.0
 12
0.0
 22
-0.5773502700000001
 32
0.0
 13
0.0
 23
-0.5773502700000001
 33
0.0
  0
ENDBLK
  5
11C6
330
11C3
100
AcDbEntity
  8
0
100
AcDbBlockEnd
  0
ENDSEC
  0
SECTION
  2
ENTITIES
  0
LINE
  5
13396
330
18
100
AcDbEntity
  8
中心線
 48
0.3
100
AcDbLine
 10
-157.899442397714
 20
492.1917541000452
 30
0.0
 11
-145.2609906290598
 21
504.8302058686942
 31
0.0
  0
LINE
  5
13397
330
18
100
AcDbEntity
  8
中心線
 48
0.3
100
AcDbLine
 10
-56.87264298074481
 20
492.1917541000527
 30
0.0
 11
-69.51109474939624
 21
504.8302058687043
 31
0.0
  0
ARC
  5
1339D
330
18
100
AcDbEntity
  8
中心線
 48
0.3
100
AcDbCircle
 10
-107.3860426892139
 20
542.7051538085335
 30
0.0
 40
62.5
100
AcDbArc
 50
35.57951393406396
 51
54.42048606590873
  0
LINE
  5
1339F
330
18
100
AcDbEntity
  8
中心線
 48
0.3
100
AcDbLine
 10
-56.87264298073833
 20
593.2185535170092
 30
0.0
 11
-69.51109474938967
 21
580.5801017483577
 31
0.0
  0
LINE
  5
133A5
330
18
100
AcDbEntity
  8
本体
  6
Continuous
100
AcDbLine
 10
-163.3859341494778
 20
570.0699379700657
 30
0.0
 11
-163.3859341494778
 21
593.705153808532
 31
0.0
  0
ARC
  5
133A6
330
18
100
AcDbEntity
  8
中心線
 48
0.3
100
AcDbCircle
 10
-107.3860426892139
 20
542.7051538085335
 30
0.0
 40
62.5
100
AcDbArc
 50
125.5795139340912
 51
144.4204860659359
  0
LINE
  5
133A7
330
18
100
AcDbEntity
  8
中心線
 48
0.3
100
AcDbLine
 10
-157.899442397699
 20
593.2185535170183
 30
0.0
 11
-145.2609906290478
 21
580.5801017483668
 31
0.0
  0
ARC
  5
133AB
330
18
100
AcDbEntity
  8
本体
  6
Continuous
100
AcDbCircle
 10
-107.3860426891972
 20
542.7051538085057
 30
0.0
 40
56.0
100
AcDbArc
 50
212.1939475442804
 51
147.8060524556726
  0
LINE
  5
133AE
330
18
100
AcDbEntity
  8
本体
  6
Continuous
100
AcDbLine
 10
-51.38604268921222
 20
491.7051538085353
 30
0.0
 11
-51.38604268921222
 21
593.7051538085336
 31
0.0
  0
CIRCLE
  5
133B1
330
18
100
AcDbEntity
  8
本体
  6
Continuous
100
AcDbCircle
 10
-151.580216513375
 20
586.8993276326921
 30
0.0
 40
3.5
  0
LINE
  5
133B2
330
18
100
AcDbEntity
  8
本体
  6
Continuous
100
AcDbLine
 10
-158.3859341494778
 20
598.705153808532
 30
0.0
 11
-56.38604268921222
 21
598.7051538085336
 31
0.0
  0
ARC
  5
133B4
330
18
100
AcDbEntity
  8
本体
  6
Continuous
100
AcDbCircle
 10
-158.3859341494778
 20
593.705153808532
 30
0.0
 40
5.0
100
AcDbArc
 50
89.99999999999998
 51
180.0
  0
CIRCLE
  5
133B5
330
18
100
AcDbEntity
  8
隠れ線
 48
0.2
100
AcDbCircle
 10
-72.97145650815105
 20
591.8542764658734
 30
0.0
 40
2.0
  0
CIRCLE
  5
133BA
330
18
100
AcDbEntity
  8
本体
  6
Continuous
100
AcDbCircle
 10
-63.19186886505463
 20
586.8993276326921
 30
0.0
 40
6.5
  0
ARC
  5
133BB
330
18
100
AcDbEntity
  8
本体
  6
Continuous
100
AcDbCircle
 10
-56.38604268921222
 20
593.7051538085336
 30
0.0
 40
5.0
100
AcDbArc
 50
0.0
 51
89.99999999999998
  0
CIRCLE
  5
133BC
330
18
100
AcDbEntity
  8
本体
  6
Continuous
100
AcDbCircle
 10
-63.19186886505463
 20
586.8993276326921
 30
0.0
 40
3.5
  0
LINE
  5
133C0
330
18
100
AcDbEntity
  8
中心線
 48
0.3
100
AcDbLine
 10
-157.5906241534549
 20
492.5005723442911
 30
0.0
 11
-147.6911292168434
 21
502.4000672809027
 31
0.0
  0
CIRCLE
  5
133C1
330
18
100
AcDbEntity
  8
本体
  6
Continuous
100
AcDbCircle
 10
-151.5802165133725
 20
498.5109799843733
 30
0.0
 40
6.5
  0
CIRCLE
  5
133C2
330
18
100
AcDbEntity
  8
本体
  6
Continuous
100
AcDbCircle
 10
-151.5802165133725
 20
498.5109799843733
 30
0.0
 40
3.5
  0
ARC
  5
133C3
330
18
100
AcDbEntity
  8
中心線
 48
0.3
100
AcDbCircle
 10
-107.3860426892139
 20
542.7051538085335
 30
0.0
 40
62.5
100
AcDbArc
 50
215.5795139340639
 51
234.4204860659086
  0
LINE
  5
133C4
330
18
100
AcDbEntity
  8
本体
  6
Continuous
100
AcDbLine
 10
-158.3859341494768
 20
486.7051538085329
 30
0.0
 11
-56.38604268921222
 21
486.7051538085354
 31
0.0
  0
ARC
  5
133D5
330
18
100
AcDbEntity
  8
本体
  6
Continuous
100
AcDbCircle
 10
-107.3860426891934
 20
542.70515380852
 30
0.0
 40
62.5
100
AcDbArc
 50
154.4756713712506
 51
205.5243286287493
  0
ARC
  5
133D9
330
18
100
AcDbEntity
  8
本体
  6
Continuous
100
AcDbCircle
 10
-159.0072592575729
 20
575.2051538085184
 30
0.0
 40
5.0
100
AcDbArc
 50
270.0
 51
327.8060524556726
  0
ARC
  5
133DA
330
18
100
AcDbEntity
  8
本体
  6
Continuous
100
AcDbCircle
 10
-162.883790391241
 20
569.2051538085181
 30
0.0
 40
1.0
100
AcDbArc
 50
89.99999999999998
 51
154.4756713712506
  0
LINE
  5
133DB
330
18
100
AcDbEntity
  8
本体
  6
Continuous
100
AcDbLine
 10
-162.883790391241
 20
570.2051538085181
 30
0.0
 11
-159.0072592575729
 21
570.2051538085177
 31
0.0
  0
LINE
  5
133EE
330
18
100
AcDbEntity
  8
本体
  6
Continuous
100
AcDbLine
 10
-163.3859341494769
 20
491.7051538085329
 30
0.0
 11
-163.3859341494765
 21
515.3403696469711
 31
0.0
  0
ARC
  5
133F2
330
18
100
AcDbEntity
  8
本体
  6
Continuous
100
AcDbCircle
 10
-159.007259257589
 20
510.2051538085186
 30
0.0
 40
5.0
100
AcDbArc
 50
32.19394754428044
 51
89.99999999999998
  0
LINE
  5
133F4
330
18
100
AcDbEntity
  8
本体
  6
Continuous
100
AcDbLine
 10
-162.8837903912395
 20
515.2051538085181
 30
0.0
 11
-159.0072592575894
 21
515.2051538085186
 31
0.0
  0
ARC
  5
133F5
330
18
100
AcDbEntity
  8
本体
  6
Continuous
100
AcDbCircle
 10
-162.8837903912391
 20
516.2051538085184
 30
0.0
 40
1.0
100
AcDbArc
 50
205.5243286287493
 51
269.9999999999739
  0
ARC
  5
133F7
330
18
100
AcDbEntity
  8
本体
  6
Continuous
100
AcDbCircle
 10
-158.3859341494768
 20
491.7051538085329
 30
0.0
 40
5.0
100
AcDbArc
 50
180.0
 51
270.0
  0
LINE
  5
13431
330
18
100
AcDbEntity
  8
中心線
 48
0.4
100
AcDbLine
 10
-147.2428235175778
 20
502.8483729801693
 30
0.0
 11
-145.2609906290564
 21
504.8302058686907
 31
0.0
  0
CIRCLE
  5
13434
330
18
100
AcDbEntity
  8
隠れ線
 48
0.2
100
AcDbCircle
 10
-141.800628870277
 20
493.5560311511934
 30
0.0
 40
2.0
  0
CIRCLE
  5
13436
330
18
100
AcDbEntity
  8
本体
  6
Continuous
100
AcDbCircle
 10
-63.19186886507011
 20
498.5109799843678
 30
0.0
 40
3.5
  0
CIRCLE
  5
13437
330
18
100
AcDbEntity
  8
本体
  6
Continuous
100
AcDbCircle
 10
-63.19186886507011
 20
498.5109799843678
 30
0.0
 40
6.5
  0
ARC
  5
13438
330
18
100
AcDbEntity
  8
中心線
 48
0.3
100
AcDbCircle
 10
-107.3860426892139
 20
542.7051538085335
 30
0.0
 40
62.5
100
AcDbArc
 50
305.5795139340911
 51
324.420486065936
  0
ARC
  5
1343B
330
18
100
AcDbEntity
  8
本体
  6
Continuous
100
AcDbCircle
 10
-56.38604268921224
 20
491.7051538085353
 30
0.0
 40
5.0
100
AcDbArc
 50
270.0
 51
0.0
  0
LINE
  5
150FA
330
18
100
AcDbEntity
  8
中心線
 48
0.2
100
AcDbLine
 10
-114.1360426892132
 20
554.3964967596232
 30
0.0
 11
-118.1360426892132
 21
561.3246999898986
 31
0.0
  0
CIRCLE
  5
150FB
330
18
100
AcDbEntity
  8
実線
100
AcDbCircle
 10
-116.1360426892132
 20
557.8605983747609
 30
0.0
 40
1.875000000000681
  0
CIRCLE
  5
150FC
330
18
100
AcDbEntity
  8
細線
100
AcDbCircle
 10
-116.1360426892132
 20
557.8605983747609
 30
0.0
 40
2.500000000000454
  0
LINE
  5
150FD
330
18
100
AcDbEntity
  8
中心線
 48
0.2
100
AcDbLine
 10
-114.1360426892132
 20
531.013810857444
 30
0.0
 11
-118.1360426892132
 21
524.0856076271686
 31
0.0
  0
CIRCLE
  5
150FE
330
18
100
AcDbEntity
  8
細線
100
AcDbCircle
 10
-116.1360426892132
 20
527.5497092423063
 30
0.0
 40
2.500000000000454
  0
CIRCLE
  5
150FF
330
18
100
AcDbEntity
  8
実線
100
AcDbCircle
 10
-116.1360426892132
 20
527.5497092423063
 30
0.0
 40
1.875000000000681
  0
CIRCLE
  5
15100
330
18
100
AcDbEntity
  8
本体
  6
Continuous
100
AcDbCircle
 10
-107.3860426892135
 20
542.7051538085335
 30
0.0
 40
32.49999999999988
  0
CIRCLE
  5
15103
330
18
100
AcDbEntity
  8
本体
  6
Continuous
100
AcDbCircle
 10
-107.3860426892135
 20
542.7051538085335
 30
0.0
 40
25.0
  0
CIRCLE
  5
15104
330
18
100
AcDbEntity
  8
中心線
 48
0.2
100
AcDbCircle
 10
-107.3860426892135
 20
542.7051538085335
 30
0.0
 40
17.49999999999953
  0
CIRCLE
  5
15105
330
18
100
AcDbEntity
  8
本体
  6
Continuous
100
AcDbCircle
 10
-107.3860426892135
 20
542.7051538085335
 30
0.0
 40
9.5
  0
CIRCLE
  5
15106
330
18
100
AcDbEntity
  8
細線
100
AcDbCircle
 10
-124.886042689213
 20
542.7051538085335
 30
0.0
 40
2.500000000000454
  0
CIRCLE
  5
15108
330
18
100
AcDbEntity
  8
実線
100
AcDbCircle
 10
-124.886042689213
 20
542.7051538085335
 30
0.0
 40
1.875000000000681
  0
CIRCLE
  5
15109
330
18
100
AcDbEntity
  8
本体
  6
Continuous
100
AcDbCircle
 10
-132.2842730480159
 20
528.3301538085336
 30
0.0
 40
3.0
  0
CIRCLE
  5
1510C
330
18
100
AcDbEntity
  8
本体
  6
Continuous
100
AcDbCircle
 10
-132.2842730480163
 20
557.0801538085336
 30
0.0
 40
3.0
  0
CIRCLE
  5
15110
330
18
100
AcDbEntity
  8
細線
100
AcDbCircle
 10
-89.88604268921426
 20
542.7051538085335
 30
0.0
 40
2.500000000000454
  0
CIRCLE
  5
15111
330
18
100
AcDbEntity
  8
実線
100
AcDbCircle
 10
-89.88604268921426
 20
542.7051538085335
 30
0.0
 40
1.875000000000681
  0
CIRCLE
  5
15112
330
18
100
AcDbEntity
  8
本体
  6
Continuous
100
AcDbCircle
 10
-107.3860426892135
 20
513.9551538085336
 30
0.0
 40
3.0
  0
LINE
  5
15115
330
18
100
AcDbEntity
  8
中心線
 48
0.2
100
AcDbLine
 10
-100.6360426892138
 20
531.013810857444
 30
0.0
 11
-96.63604268921382
 21
524.0856076271686
 31
0.0
  0
CIRCLE
  5
15116
330
18
100
AcDbEntity
  8
細線
100
AcDbCircle
 10
-98.63604268921379
 20
527.5497092423059
 30
0.0
 40
2.500000000000454
  0
CIRCLE
  5
15117
330
18
100
AcDbEntity
  8
実線
100
AcDbCircle
 10
-98.63604268921379
 20
527.5497092423059
 30
0.0
 40
1.875000000000681
  0
CIRCLE
  5
15119
330
18
100
AcDbEntity
  8
本体
  6
Continuous
100
AcDbCircle
 10
-107.3860426892135
 20
571.4551538085336
 30
0.0
 40
3.0
  0
LINE
  5
1511B
330
18
100
AcDbEntity
  8
中心線
 48
0.2
100
AcDbLine
 10
-100.6360426892138
 20
554.3964967596232
 30
0.0
 11
-96.63604268921382
 21
561.3246999898986
 31
0.0
  0
CIRCLE
  5
1511C
330
18
100
AcDbEntity
  8
実線
100
AcDbCircle
 10
-98.63604268921379
 20
557.8605983747609
 30
0.0
 40
1.875000000000681
  0
CIRCLE
  5
1511D
330
18
100
AcDbEntity
  8
細線
100
AcDbCircle
 10
-98.63604268921379
 20
557.8605983747609
 30
0.0
 40
2.500000000000454
  0
CIRCLE
  5
1511F
330
18
100
AcDbEntity
  8
本体
  6
Continuous
100
AcDbCircle
 10
-82.48781233041109
 20
528.3301538085336
 30
0.0
 40
3.0
  0
CIRCLE
  5
15122
330
18
100
AcDbEntity
  8
本体
  6
Continuous
100
AcDbCircle
 10
-82.48781233041109
 20
557.0801538085336
 30
0.0
 40
3.0
  0
ARC
  5
1512A
330
18
100
AcDbEntity
  8
本体
  6
Continuous
100
AcDbCircle
 10
-107.3860426892135
 20
542.7051538085237
 30
0.0
 40
55.5
100
AcDbArc
 50
209.1255951906394
 51
224.1854590332136
  0
CIRCLE
  5
1512B
330
18
100
AcDbEntity
  8
本体
  6
Continuous
100
AcDbCircle
 10
-107.3860426892135
 20
542.7051538085335
 30
0.0
 40
33.0
  0
ARC
  5
1512C
330
18
100
AcDbEntity
  8
本体
  6
Continuous
100
AcDbCircle
 10
-107.3860426892135
 20
542.705153808522
 30
0.0
 40
62.0
100
AcDbArc
 50
155.2895487361274
 51
204.7104512638806
  0
LINE
  5
1512D
330
18
100
AcDbEntity
  8
本体
  6
Continuous
100
AcDbLine
 10
-162.8003910116489
 20
569.2051538085181
 30
0.0
 11
-156.7418934062289
 21
569.2051538085177
 31
0.0
  0
LINE
  5
1512F
330
18
100
AcDbEntity
  8
本体
  6
Continuous
100
AcDbLine
 10
-162.8003910116449
 20
516.2051538085182
 30
0.0
 11
-156.741893406223
 21
516.2051538085189
 31
0.0
  0
LINE
  5
1518B
330
18
100
AcDbEntity
  8
ｺﾈｸﾀ
 48
0.5
100
AcDbLine
 10
-169.8860426891932
 20
537.3151538085337
 30
0.0
 11
-169.6531921341468
 21
537.3151538085334
 31
0.0
  0
LINE
  5
1518C
330
18
100
AcDbEntity
  8
ｺﾈｸﾀ
 48
0.5
100
AcDbLine
 10
-169.8860426891932
 20
536.7051538085337
 30
0.0
 11
-169.5973760618205
 21
536.7051538085335
 31
0.0
  0
LINE
  5
1518D
330
18
100
AcDbEntity
  8
ｺﾈｸﾀ
 48
0.5
100
AcDbLine
 10
-169.8860426891938
 20
548.095153808533
 30
0.0
 11
-169.6531921341444
 21
548.095153808533
 31
0.0
  0
LINE
  5
1518E
330
18
100
AcDbEntity
  8
ｺﾈｸﾀ
 48
0.5
100
AcDbLine
 10
-169.8860426891938
 20
548.7051538085331
 30
0.0
 11
-169.5973760618181
 21
548.7051538085337
 31
0.0
  0
CIRCLE
  5
1519F
102
{ACAD_REACTORS
330
151AD
102
}
330
18
100
AcDbEntity
  8
ｷｬｯﾌ_ﾎ_ﾙﾄ
100
AcDbCircle
 10
-70.19222599884574
 20
579.8989706628357
 30
0.0
 40
3.0
  0
CIRCLE
  5
151A0
102
{ACAD_REACTORS
330
151AD
102
}
330
18
100
AcDbEntity
  8
ｷｬｯﾌ_ﾎ_ﾙﾄ
100
AcDbCircle
 10
-70.19222599884574
 20
579.8989706628357
 30
0.0
 40
2.450000000000001
  0
ARC
  5
151A1
102
{ACAD_REACTORS
330
151AD
102
}
330
18
100
AcDbEntity
  8
文字
100
AcDbCircle
 10
-69.37299504056159
 20
579.8989703351437
 30
0.0
 40
0.3823077805325932
100
AcDbArc
 50
119.9999885408455
 51
239.9999885408417
  0
ARC
  5
151A2
102
{ACAD_REACTORS
330
151AD
102
}
330
18
100
AcDbEntity
  8
文字
100
AcDbCircle
 10
-69.78261066159894
 20
579.189495595626
 30
0.0
 40
0.3823077805325932
100
AcDbArc
 50
59.99998854081222
 51
179.999988540835
  0
ARC
  5
151A3
102
{ACAD_REACTORS
330
151AD
102
}
330
18
100
AcDbEntity
  8
文字
100
AcDbCircle
 10
-69.78261037780885
 20
580.6084452385078
 30
0.0
 40
0.3823077805325932
100
AcDbArc
 50
179.999988540835
 51
299.9999885408456
  0
ARC
  5
151A4
102
{ACAD_REACTORS
330
151AD
102
}
330
18
100
AcDbEntity
  8
文字
100
AcDbCircle
 10
-70.19222599884574
 20
579.8989704989901
 30
0.0
 40
0.7100001638462447
100
AcDbArc
 50
267.7957610368709
 51
272.2042160447899
  0
ARC
  5
151A5
102
{ACAD_REACTORS
330
151AD
102
}
330
18
100
AcDbEntity
  8
文字
100
AcDbCircle
 10
-70.19222599884574
 20
579.8989704989901
 30
0.0
 40
0.7100001638462447
100
AcDbArc
 50
87.79576103687096
 51
92.20421604480309
  0
ARC
  5
151A6
102
{ACAD_REACTORS
330
151AD
102
}
330
18
100
AcDbEntity
  8
文字
100
AcDbCircle
 10
-70.60184133609276
 20
580.6084454023537
 30
0.0
 40
0.3823077805325932
100
AcDbArc
 50
239.9999885408417
 51
359.999988540835
  0
ARC
  5
151A7
102
{ACAD_REACTORS
330
151AD
102
}
330
18
100
AcDbEntity
  8
文字
100
AcDbCircle
 10
-70.60184161988264
 20
579.1894957594725
 30
0.0
 40
0.3823077805325932
100
AcDbArc
 50
359.999988540835
 51
119.9999885408601
  0
ARC
  5
151A8
102
{ACAD_REACTORS
330
151AD
102
}
330
18
100
AcDbEntity
  8
文字
100
AcDbCircle
 10
-71.01145695712991
 20
579.8989706628357
 30
0.0
 40
0.3823077805325932
100
AcDbArc
 50
299.9999885408456
 51
59.99998854084171
  0
ARC
  5
151A9
102
{ACAD_REACTORS
330
151AD
102
}
330
18
100
AcDbEntity
  8
文字
100
AcDbCircle
 10
-70.19222599884574
 20
579.8989704989901
 30
0.0
 40
0.7100001638462447
100
AcDbArc
 50
207.7957610368668
 51
212.204216044814
  0
ARC
  5
151AA
102
{ACAD_REACTORS
330
151AD
102
}
330
18
100
AcDbEntity
  8
文字
100
AcDbCircle
 10
-70.19222599884574
 20
579.8989704989901
 30
0.0
 40
0.7100001638462447
100
AcDbArc
 50
147.7957610368673
 51
152.204216044812
  0
ARC
  5
151AB
102
{ACAD_REACTORS
330
151AD
102
}
330
18
100
AcDbEntity
  8
文字
100
AcDbCircle
 10
-70.19222599884574
 20
579.8989704989901
 30
0.0
 40
0.7100001638462447
100
AcDbArc
 50
27.79576103686698
 51
32.20421604481414
  0
ARC
  5
151AC
102
{ACAD_REACTORS
330
151AD
102
}
330
18
100
AcDbEntity
  8
文字
100
AcDbCircle
 10
-70.19222599884574
 20
579.8989704989901
 30
0.0
 40
0.7100001638462447
100
AcDbArc
 50
327.7957610368511
 51
332.204216044812
  0
ARC
  5
151AE
330
18
100
AcDbEntity
  8
本体
  6
Continuous
100
AcDbCircle
 10
-107.3860426892135
 20
542.7051538085237
 30
0.0
 40
55.5
100
AcDbArc
 50
45.81454155623686
 51
134.1854590329253
  0
CIRCLE
  5
151AF
102
{ACAD_REACTORS
330
151BD
102
}
330
18
100
AcDbEntity
  8
ｷｬｯﾌ_ﾎ_ﾙﾄ
100
AcDbCircle
 10
-144.5798593795814
 20
579.8989704989901
 30
0.0
 40
3.0
  0
CIRCLE
  5
151B0
102
{ACAD_REACTORS
330
151BD
102
}
330
18
100
AcDbEntity
  8
ｷｬｯﾌ_ﾎ_ﾙﾄ
100
AcDbCircle
 10
-144.5798593795814
 20
579.8989704989901
 30
0.0
 40
2.450000000000001
  0
ARC
  5
151B1
102
{ACAD_REACTORS
330
151BD
102
}
330
18
100
AcDbEntity
  8
文字
100
AcDbCircle
 10
-143.7606284212971
 20
579.8989701712977
 30
0.0
 40
0.3823077805325932
100
AcDbArc
 50
119.9999885408455
 51
239.9999885408417
  0
ARC
  5
151B2
102
{ACAD_REACTORS
330
151BD
102
}
330
18
100
AcDbEntity
  8
文字
100
AcDbCircle
 10
-144.1702440423344
 20
579.1894954317797
 30
0.0
 40
0.3823077805325932
100
AcDbArc
 50
59.99998854081222
 51
179.999988540835
  0
ARC
  5
151B3
102
{ACAD_REACTORS
330
151BD
102
}
330
18
100
AcDbEntity
  8
文字
100
AcDbCircle
 10
-144.1702437585445
 20
580.6084450746617
 30
0.0
 40
0.3823077805325932
100
AcDbArc
 50
179.999988540835
 51
299.9999885408456
  0
ARC
  5
151B4
102
{ACAD_REACTORS
330
151BD
102
}
330
18
100
AcDbEntity
  8
文字
100
AcDbCircle
 10
-144.5798593795814
 20
579.8989703351443
 30
0.0
 40
0.7100001638462447
100
AcDbArc
 50
267.7957610368709
 51
272.2042160447899
  0
ARC
  5
151B5
102
{ACAD_REACTORS
330
151BD
102
}
330
18
100
AcDbEntity
  8
文字
100
AcDbCircle
 10
-144.5798593795814
 20
579.8989703351443
 30
0.0
 40
0.7100001638462447
100
AcDbArc
 50
87.79576103687096
 51
92.20421604480309
  0
ARC
  5
151B6
102
{ACAD_REACTORS
330
151BD
102
}
330
18
100
AcDbEntity
  8
文字
100
AcDbCircle
 10
-144.9894747168283
 20
580.6084452385078
 30
0.0
 40
0.3823077805325932
100
AcDbArc
 50
239.9999885408417
 51
359.999988540835
  0
ARC
  5
151B7
102
{ACAD_REACTORS
330
151BD
102
}
330
18
100
AcDbEntity
  8
文字
100
AcDbCircle
 10
-144.9894750006182
 20
579.1894955956265
 30
0.0
 40
0.3823077805325932
100
AcDbArc
 50
359.999988540835
 51
119.9999885408601
  0
ARC
  5
151B8
102
{ACAD_REACTORS
330
151BD
102
}
330
18
100
AcDbEntity
  8
文字
100
AcDbCircle
 10
-145.3990903378655
 20
579.8989704989901
 30
0.0
 40
0.3823077805325932
100
AcDbArc
 50
299.9999885408456
 51
59.99998854084171
  0
ARC
  5
151B9
102
{ACAD_REACTORS
330
151BD
102
}
330
18
100
AcDbEntity
  8
文字
100
AcDbCircle
 10
-144.5798593795814
 20
579.8989703351443
 30
0.0
 40
0.7100001638462447
100
AcDbArc
 50
207.7957610368668
 51
212.204216044814
  0
ARC
  5
151BA
102
{ACAD_REACTORS
330
151BD
102
}
330
18
100
AcDbEntity
  8
文字
100
AcDbCircle
 10
-144.5798593795814
 20
579.8989703351443
 30
0.0
 40
0.7100001638462447
100
AcDbArc
 50
147.7957610368673
 51
152.204216044812
  0
ARC
  5
151BB
102
{ACAD_REACTORS
330
151BD
102
}
330
18
100
AcDbEntity
  8
文字
100
AcDbCircle
 10
-144.5798593795814
 20
579.8989703351443
 30
0.0
 40
0.7100001638462447
100
AcDbArc
 50
27.79576103686698
 51
32.20421604481414
  0
ARC
  5
151BC
102
{ACAD_REACTORS
330
151BD
102
}
330
18
100
AcDbEntity
  8
文字
100
AcDbCircle
 10
-144.5798593795814
 20
579.8989703351443
 30
0.0
 40
0.7100001638462447
100
AcDbArc
 50
327.7957610368511
 51
332.204216044812
  0
ARC
  5
151BE
330
18
100
AcDbEntity
  8
本体
  6
Continuous
100
AcDbCircle
 10
-107.3860426892135
 20
542.7051538085237
 30
0.0
 40
55.5
100
AcDbArc
 50
135.8145409669229
 51
150.8744048093733
  0
CIRCLE
  5
151BF
102
{ACAD_REACTORS
330
151CD
102
}
330
18
100
AcDbEntity
  8
ｷｬｯﾌ_ﾎ_ﾙﾄ
100
AcDbCircle
 10
-144.5798593796089
 20
505.5113371181725
 30
0.0
 40
3.0
  0
CIRCLE
  5
151C0
102
{ACAD_REACTORS
330
151CD
102
}
330
18
100
AcDbEntity
  8
ｷｬｯﾌ_ﾎ_ﾙﾄ
100
AcDbCircle
 10
-144.5798593796089
 20
505.5113371181725
 30
0.0
 40
2.450000000000001
  0
ARC
  5
151C1
102
{ACAD_REACTORS
330
151CD
102
}
330
18
100
AcDbEntity
  8
文字
100
AcDbCircle
 10
-143.7606284213248
 20
505.5113367904803
 30
0.0
 40
0.3823077805325932
100
AcDbArc
 50
119.9999885408455
 51
239.9999885408417
  0
ARC
  5
151C2
102
{ACAD_REACTORS
330
151CD
102
}
330
18
100
AcDbEntity
  8
文字
100
AcDbCircle
 10
-144.170244042362
 20
504.8018620509625
 30
0.0
 40
0.3823077805325932
100
AcDbArc
 50
59.99998854081222
 51
179.999988540835
  0
ARC
  5
151C3
102
{ACAD_REACTORS
330
151CD
102
}
330
18
100
AcDbEntity
  8
文字
100
AcDbCircle
 10
-144.170243758572
 20
506.2208116938442
 30
0.0
 40
0.3823077805325932
100
AcDbArc
 50
179.999988540835
 51
299.9999885408456
  0
ARC
  5
151C4
102
{ACAD_REACTORS
330
151CD
102
}
330
18
100
AcDbEntity
  8
文字
100
AcDbCircle
 10
-144.5798593796089
 20
505.5113369543266
 30
0.0
 40
0.7100001638462447
100
AcDbArc
 50
267.7957610368709
 51
272.2042160447899
  0
ARC
  5
151C5
102
{ACAD_REACTORS
330
151CD
102
}
330
18
100
AcDbEntity
  8
文字
100
AcDbCircle
 10
-144.5798593796089
 20
505.5113369543266
 30
0.0
 40
0.7100001638462447
100
AcDbArc
 50
87.79576103687096
 51
92.20421604480309
  0
ARC
  5
151C6
102
{ACAD_REACTORS
330
151CD
102
}
330
18
100
AcDbEntity
  8
文字
100
AcDbCircle
 10
-144.9894747168561
 20
506.2208118576903
 30
0.0
 40
0.3823077805325932
100
AcDbArc
 50
239.9999885408417
 51
359.999988540835
  0
ARC
  5
151C7
102
{ACAD_REACTORS
330
151CD
102
}
330
18
100
AcDbEntity
  8
文字
100
AcDbCircle
 10
-144.989475000646
 20
504.801862214809
 30
0.0
 40
0.3823077805325932
100
AcDbArc
 50
359.999988540835
 51
119.9999885408601
  0
ARC
  5
151C8
102
{ACAD_REACTORS
330
151CD
102
}
330
18
100
AcDbEntity
  8
文字
100
AcDbCircle
 10
-145.3990903378929
 20
505.5113371181725
 30
0.0
 40
0.3823077805325932
100
AcDbArc
 50
299.9999885408456
 51
59.99998854084171
  0
ARC
  5
151C9
102
{ACAD_REACTORS
330
151CD
102
}
330
18
100
AcDbEntity
  8
文字
100
AcDbCircle
 10
-144.5798593796089
 20
505.5113369543266
 30
0.0
 40
0.7100001638462447
100
AcDbArc
 50
207.7957610368668
 51
212.204216044814
  0
ARC
  5
151CA
102
{ACAD_REACTORS
330
151CD
102
}
330
18
100
AcDbEntity
  8
文字
100
AcDbCircle
 10
-144.5798593796089
 20
505.5113369543266
 30
0.0
 40
0.7100001638462447
100
AcDbArc
 50
147.7957610368673
 51
152.204216044812
  0
ARC
  5
151CB
102
{ACAD_REACTORS
330
151CD
102
}
330
18
100
AcDbEntity
  8
文字
100
AcDbCircle
 10
-144.5798593796089
 20
505.5113369543266
 30
0.0
 40
0.7100001638462447
100
AcDbArc
 50
27.79576103686698
 51
32.20421604481414
  0
ARC
  5
151CC
102
{ACAD_REACTORS
330
151CD
102
}
330
18
100
AcDbEntity
  8
文字
100
AcDbCircle
 10
-144.5798593796089
 20
505.5113369543266
 30
0.0
 40
0.7100001638462447
100
AcDbArc
 50
327.7957610368511
 51
332.204216044812
  0
ARC
  5
151CE
330
18
100
AcDbEntity
  8
本体
  6
Continuous
100
AcDbCircle
 10
-107.3860426892135
 20
542.7051538085237
 30
0.0
 40
55.5
100
AcDbArc
 50
225.8145409667179
 51
314.1854590329018
  0
CIRCLE
  5
151CF
102
{ACAD_REACTORS
330
151DD
102
}
330
18
100
AcDbEntity
  8
ｷｬｯﾌ_ﾎ_ﾙﾄ
100
AcDbCircle
 10
-70.19222599878029
 20
505.5113371180881
 30
0.0
 40
3.0
  0
CIRCLE
  5
151D0
102
{ACAD_REACTORS
330
151DD
102
}
330
18
100
AcDbEntity
  8
ｷｬｯﾌ_ﾎ_ﾙﾄ
100
AcDbCircle
 10
-70.19222599878029
 20
505.5113371180881
 30
0.0
 40
2.450000000000001
  0
ARC
  5
151D1
102
{ACAD_REACTORS
330
151DD
102
}
330
18
100
AcDbEntity
  8
文字
100
AcDbCircle
 10
-69.37299504049613
 20
505.5113367903961
 30
0.0
 40
0.3823077805325932
100
AcDbArc
 50
119.9999885408455
 51
239.9999885408417
  0
ARC
  5
151D2
102
{ACAD_REACTORS
330
151DD
102
}
330
18
100
AcDbEntity
  8
文字
100
AcDbCircle
 10
-69.78261066153348
 20
504.8018620508785
 30
0.0
 40
0.3823077805325932
100
AcDbArc
 50
59.99998854081222
 51
179.999988540835
  0
ARC
  5
151D3
102
{ACAD_REACTORS
330
151DD
102
}
330
18
100
AcDbEntity
  8
文字
100
AcDbCircle
 10
-69.78261037774338
 20
506.2208116937601
 30
0.0
 40
0.3823077805325932
100
AcDbArc
 50
179.999988540835
 51
299.9999885408456
  0
ARC
  5
151D4
102
{ACAD_REACTORS
330
151DD
102
}
330
18
100
AcDbEntity
  8
文字
100
AcDbCircle
 10
-70.19222599878029
 20
505.5113369542423
 30
0.0
 40
0.7100001638462447
100
AcDbArc
 50
267.7957610368709
 51
272.2042160447899
  0
ARC
  5
151D5
102
{ACAD_REACTORS
330
151DD
102
}
330
18
100
AcDbEntity
  8
文字
100
AcDbCircle
 10
-70.19222599878029
 20
505.5113369542423
 30
0.0
 40
0.7100001638462447
100
AcDbArc
 50
87.79576103687096
 51
92.20421604480309
  0
ARC
  5
151D6
102
{ACAD_REACTORS
330
151DD
102
}
330
18
100
AcDbEntity
  8
文字
100
AcDbCircle
 10
-70.60184133602732
 20
506.2208118576061
 30
0.0
 40
0.3823077805325932
100
AcDbArc
 50
239.9999885408417
 51
359.999988540835
  0
ARC
  5
151D7
102
{ACAD_REACTORS
330
151DD
102
}
330
18
100
AcDbEntity
  8
文字
100
AcDbCircle
 10
-70.6018416198172
 20
504.8018622147249
 30
0.0
 40
0.3823077805325932
100
AcDbArc
 50
359.999988540835
 51
119.9999885408601
  0
ARC
  5
151D8
102
{ACAD_REACTORS
330
151DD
102
}
330
18
100
AcDbEntity
  8
文字
100
AcDbCircle
 10
-71.01145695706444
 20
505.5113371180881
 30
0.0
 40
0.3823077805325932
100
AcDbArc
 50
299.9999885408456
 51
59.99998854084171
  0
ARC
  5
151D9
102
{ACAD_REACTORS
330
151DD
102
}
330
18
100
AcDbEntity
  8
文字
100
AcDbCircle
 10
-70.19222599878029
 20
505.5113369542423
 30
0.0
 40
0.7100001638462447
100
AcDbArc
 50
207.7957610368668
 51
212.204216044814
  0
ARC
  5
151DA
102
{ACAD_REACTORS
330
151DD
102
}
330
18
100
AcDbEntity
  8
文字
100
AcDbCircle
 10
-70.19222599878029
 20
505.5113369542423
 30
0.0
 40
0.7100001638462447
100
AcDbArc
 50
147.7957610368673
 51
152.204216044812
  0
ARC
  5
151DB
102
{ACAD_REACTORS
330
151DD
102
}
330
18
100
AcDbEntity
  8
文字
100
AcDbCircle
 10
-70.19222599878029
 20
505.5113369542423
 30
0.0
 40
0.7100001638462447
100
AcDbArc
 50
27.79576103686698
 51
32.20421604481414
  0
ARC
  5
151DC
102
{ACAD_REACTORS
330
151DD
102
}
330
18
100
AcDbEntity
  8
文字
100
AcDbCircle
 10
-70.19222599878029
 20
505.5113369542423
 30
0.0
 40
0.7100001638462447
100
AcDbArc
 50
327.7957610368511
 51
332.204216044812
  0
ARC
  5
151DE
330
18
100
AcDbEntity
  8
本体
  6
Continuous
100
AcDbCircle
 10
-107.3860426892135
 20
542.7051538085237
 30
0.0
 40
55.5
100
AcDbArc
 50
315.8145409670946
 51
44.18545869631382
  0
LINE
  5
151E7
102
{ACAD_REACTORS
330
151EE
102
}
330
18
100
AcDbEntity
  8
ｷｬｯﾌ_ﾎ_ﾙﾄ
100
AcDbLine
 10
-108.8294180525319
 20
571.4551540721977
 30
0.0
 11
-108.1077305392105
 21
572.7051538319384
 31
0.0
  0
LINE
  5
151E8
102
{ACAD_REACTORS
330
151EE
102
}
330
18
100
AcDbEntity
  8
ｷｬｯﾌ_ﾎ_ﾙﾄ
100
AcDbLine
 10
-108.1077301725319
 20
570.2051539968315
 30
0.0
 11
-108.8294180525319
 21
571.4551540721977
 31
0.0
  0
CIRCLE
  5
151E9
102
{ACAD_REACTORS
330
151EE
102
}
330
18
100
AcDbEntity
  8
ｷｬｯﾌ_ﾎ_ﾙﾄ
100
AcDbCircle
 10
-107.3860426892135
 20
571.4551538085336
 30
0.0
 40
2.75
  0
LINE
  5
151EA
102
{ACAD_REACTORS
330
151EE
102
}
330
18
100
AcDbEntity
  8
ｷｬｯﾌ_ﾎ_ﾙﾄ
100
AcDbLine
 10
-106.664354889211
 20
570.2051538717324
 30
0.0
 11
-105.9426670694808
 21
571.4551539007542
 31
0.0
  0
LINE
  5
151EB
102
{ACAD_REACTORS
330
151EE
102
}
330
18
100
AcDbEntity
  8
ｷｬｯﾌ_ﾎ_ﾙﾄ
100
AcDbLine
 10
-106.6643548392109
 20
570.2051537851287
 30
0.0
 11
-108.107730142532
 21
570.2051539448704
 31
0.0
  0
LINE
  5
151EC
102
{ACAD_REACTORS
330
151EE
102
}
330
18
100
AcDbEntity
  8
ｷｬｯﾌ_ﾎ_ﾙﾄ
100
AcDbLine
 10
-108.1077304892111
 20
572.7051537453362
 30
0.0
 11
-106.6643547994803
 21
572.7051537163124
 31
0.0
  0
LINE
  5
151ED
102
{ACAD_REACTORS
330
151EE
102
}
330
18
100
AcDbEntity
  8
ｷｬｯﾌ_ﾎ_ﾙﾄ
100
AcDbLine
 10
-105.9426670094804
 20
571.4551537968317
 30
0.0
 11
-106.6643547994803
 21
572.7051537163124
 31
0.0
  0
LINE
  5
151F0
102
{ACAD_REACTORS
330
151F7
102
}
330
18
100
AcDbEntity
  8
ｷｬｯﾌ_ﾎ_ﾙﾄ
100
AcDbLine
 10
-133.7276484113343
 20
557.0801540721978
 30
0.0
 11
-133.0059608980133
 21
558.3301538319384
 31
0.0
  0
LINE
  5
151F1
102
{ACAD_REACTORS
330
151F7
102
}
330
18
100
AcDbEntity
  8
ｷｬｯﾌ_ﾎ_ﾙﾄ
100
AcDbLine
 10
-133.0059605313344
 20
555.8301539968315
 30
0.0
 11
-133.7276484113343
 21
557.0801540721978
 31
0.0
  0
CIRCLE
  5
151F2
102
{ACAD_REACTORS
330
151F7
102
}
330
18
100
AcDbEntity
  8
ｷｬｯﾌ_ﾎ_ﾙﾄ
100
AcDbCircle
 10
-132.2842730480163
 20
557.0801538085336
 30
0.0
 40
2.75
  0
LINE
  5
151F3
102
{ACAD_REACTORS
330
151F7
102
}
330
18
100
AcDbEntity
  8
ｷｬｯﾌ_ﾎ_ﾙﾄ
100
AcDbLine
 10
-131.5625852480135
 20
555.8301538717325
 30
0.0
 11
-130.8408974282835
 21
557.0801539007543
 31
0.0
  0
LINE
  5
151F4
102
{ACAD_REACTORS
330
151F7
102
}
330
18
100
AcDbEntity
  8
ｷｬｯﾌ_ﾎ_ﾙﾄ
100
AcDbLine
 10
-131.5625851980134
 20
555.8301537851284
 30
0.0
 11
-133.0059605013349
 21
555.8301539448704
 31
0.0
  0
LINE
  5
151F5
102
{ACAD_REACTORS
330
151F7
102
}
330
18
100
AcDbEntity
  8
ｷｬｯﾌ_ﾎ_ﾙﾄ
100
AcDbLine
 10
-133.0059608480139
 20
558.3301537453364
 30
0.0
 11
-131.562585158283
 21
558.3301537163126
 31
0.0
  0
LINE
  5
151F6
102
{ACAD_REACTORS
330
151F7
102
}
330
18
100
AcDbEntity
  8
ｷｬｯﾌ_ﾎ_ﾙﾄ
100
AcDbLine
 10
-130.8408973682832
 20
557.080153796832
 30
0.0
 11
-131.562585158283
 21
558.3301537163126
 31
0.0
  0
LINE
  5
151F8
102
{ACAD_REACTORS
330
151FF
102
}
330
18
100
AcDbEntity
  8
ｷｬｯﾌ_ﾎ_ﾙﾄ
100
AcDbLine
 10
-133.7276484113343
 20
528.3301540721978
 30
0.0
 11
-133.0059608980129
 21
529.5801538319384
 31
0.0
  0
LINE
  5
151F9
102
{ACAD_REACTORS
330
151FF
102
}
330
18
100
AcDbEntity
  8
ｷｬｯﾌ_ﾎ_ﾙﾄ
100
AcDbLine
 10
-133.0059605313344
 20
527.0801539968315
 30
0.0
 11
-133.7276484113343
 21
528.3301540721978
 31
0.0
  0
CIRCLE
  5
151FA
102
{ACAD_REACTORS
330
151FF
102
}
330
18
100
AcDbEntity
  8
ｷｬｯﾌ_ﾎ_ﾙﾄ
100
AcDbCircle
 10
-132.2842730480159
 20
528.3301538085336
 30
0.0
 40
2.75
  0
LINE
  5
151FB
102
{ACAD_REACTORS
330
151FF
102
}
330
18
100
AcDbEntity
  8
ｷｬｯﾌ_ﾎ_ﾙﾄ
100
AcDbLine
 10
-131.5625852480133
 20
527.0801538717323
 30
0.0
 11
-130.8408974282831
 21
528.3301539007545
 31
0.0
  0
LINE
  5
151FC
102
{ACAD_REACTORS
330
151FF
102
}
330
18
100
AcDbEntity
  8
ｷｬｯﾌ_ﾎ_ﾙﾄ
100
AcDbLine
 10
-131.5625851980134
 20
527.0801537851284
 30
0.0
 11
-133.0059605013347
 21
527.0801539448703
 31
0.0
  0
LINE
  5
151FD
102
{ACAD_REACTORS
330
151FF
102
}
330
18
100
AcDbEntity
  8
ｷｬｯﾌ_ﾎ_ﾙﾄ
100
AcDbLine
 10
-133.0059608480135
 20
529.5801537453361
 30
0.0
 11
-131.562585158283
 21
529.5801537163124
 31
0.0
  0
LINE
  5
151FE
102
{ACAD_REACTORS
330
151FF
102
}
330
18
100
AcDbEntity
  8
ｷｬｯﾌ_ﾎ_ﾙﾄ
100
AcDbLine
 10
-130.840897368283
 20
528.3301537968318
 30
0.0
 11
-131.562585158283
 21
529.5801537163124
 31
0.0
  0
LINE
  5
15200
102
{ACAD_REACTORS
330
15207
102
}
330
18
100
AcDbEntity
  8
ｷｬｯﾌ_ﾎ_ﾙﾄ
100
AcDbLine
 10
-108.8294180525319
 20
513.9551540721978
 30
0.0
 11
-108.1077305392105
 21
515.2051538319384
 31
0.0
  0
LINE
  5
15201
102
{ACAD_REACTORS
330
15207
102
}
330
18
100
AcDbEntity
  8
ｷｬｯﾌ_ﾎ_ﾙﾄ
100
AcDbLine
 10
-108.1077301725319
 20
512.7051539968315
 30
0.0
 11
-108.8294180525319
 21
513.9551540721978
 31
0.0
  0
CIRCLE
  5
15202
102
{ACAD_REACTORS
330
15207
102
}
330
18
100
AcDbEntity
  8
ｷｬｯﾌ_ﾎ_ﾙﾄ
100
AcDbCircle
 10
-107.3860426892135
 20
513.9551538085336
 30
0.0
 40
2.75
  0
LINE
  5
15203
102
{ACAD_REACTORS
330
15207
102
}
330
18
100
AcDbEntity
  8
ｷｬｯﾌ_ﾎ_ﾙﾄ
100
AcDbLine
 10
-106.664354889211
 20
512.7051538717323
 30
0.0
 11
-105.9426670694808
 21
513.9551539007543
 31
0.0
  0
LINE
  5
15204
102
{ACAD_REACTORS
330
15207
102
}
330
18
100
AcDbEntity
  8
ｷｬｯﾌ_ﾎ_ﾙﾄ
100
AcDbLine
 10
-106.6643548392109
 20
512.7051537851285
 30
0.0
 11
-108.107730142532
 21
512.7051539448704
 31
0.0
  0
LINE
  5
15205
102
{ACAD_REACTORS
330
15207
102
}
330
18
100
AcDbEntity
  8
ｷｬｯﾌ_ﾎ_ﾙﾄ
100
AcDbLine
 10
-108.1077304892111
 20
515.2051537453361
 30
0.0
 11
-106.6643547994803
 21
515.2051537163124
 31
0.0
  0
LINE
  5
15206
102
{ACAD_REACTORS
330
15207
102
}
330
18
100
AcDbEntity
  8
ｷｬｯﾌ_ﾎ_ﾙﾄ
100
AcDbLine
 10
-105.9426670094804
 20
513.9551537968318
 30
0.0
 11
-106.6643547994803
 21
515.2051537163124
 31
0.0
  0
LINE
  5
15208
102
{ACAD_REACTORS
330
1520F
102
}
330
18
100
AcDbEntity
  8
ｷｬｯﾌ_ﾎ_ﾙﾄ
100
AcDbLine
 10
-83.93118769372922
 20
528.3301540721978
 30
0.0
 11
-83.20950018040793
 21
529.5801538319384
 31
0.0
  0
LINE
  5
15209
102
{ACAD_REACTORS
330
1520F
102
}
330
18
100
AcDbEntity
  8
ｷｬｯﾌ_ﾎ_ﾙﾄ
100
AcDbLine
 10
-83.20949981372924
 20
527.0801539968315
 30
0.0
 11
-83.93118769372922
 21
528.3301540721978
 31
0.0
  0
CIRCLE
  5
1520A
102
{ACAD_REACTORS
330
1520F
102
}
330
18
100
AcDbEntity
  8
ｷｬｯﾌ_ﾎ_ﾙﾄ
100
AcDbCircle
 10
-82.48781233041086
 20
528.3301538085336
 30
0.0
 40
2.75
  0
LINE
  5
1520B
102
{ACAD_REACTORS
330
1520F
102
}
330
18
100
AcDbEntity
  8
ｷｬｯﾌ_ﾎ_ﾙﾄ
100
AcDbLine
 10
-81.76612453040858
 20
527.0801538717323
 30
0.0
 11
-81.04443671067809
 21
528.3301539007545
 31
0.0
  0
LINE
  5
1520C
102
{ACAD_REACTORS
330
1520F
102
}
330
18
100
AcDbEntity
  8
ｷｬｯﾌ_ﾎ_ﾙﾄ
100
AcDbLine
 10
-81.76612448040822
 20
527.0801537851284
 30
0.0
 11
-83.20949978372954
 21
527.0801539448703
 31
0.0
  0
LINE
  5
1520D
102
{ACAD_REACTORS
330
1520F
102
}
330
18
100
AcDbEntity
  8
ｷｬｯﾌ_ﾎ_ﾙﾄ
100
AcDbLine
 10
-83.20950013040844
 20
529.5801537453361
 30
0.0
 11
-81.76612444067783
 21
529.5801537163124
 31
0.0
  0
LINE
  5
1520E
102
{ACAD_REACTORS
330
1520F
102
}
330
18
100
AcDbEntity
  8
ｷｬｯﾌ_ﾎ_ﾙﾄ
100
AcDbLine
 10
-81.04443665067782
 20
528.3301537968318
 30
0.0
 11
-81.76612444067783
 21
529.5801537163124
 31
0.0
  0
LINE
  5
15210
102
{ACAD_REACTORS
330
15217
102
}
330
18
100
AcDbEntity
  8
ｷｬｯﾌ_ﾎ_ﾙﾄ
100
AcDbLine
 10
-83.93118769372945
 20
557.0801540721978
 30
0.0
 11
-83.20950018040816
 21
558.3301538319384
 31
0.0
  0
LINE
  5
15211
102
{ACAD_REACTORS
330
15217
102
}
330
18
100
AcDbEntity
  8
ｷｬｯﾌ_ﾎ_ﾙﾄ
100
AcDbLine
 10
-83.20949981372946
 20
555.8301539968315
 30
0.0
 11
-83.93118769372945
 21
557.0801540721978
 31
0.0
  0
CIRCLE
  5
15212
102
{ACAD_REACTORS
330
15217
102
}
330
18
100
AcDbEntity
  8
ｷｬｯﾌ_ﾎ_ﾙﾄ
100
AcDbCircle
 10
-82.48781233041109
 20
557.0801538085336
 30
0.0
 40
2.75
  0
LINE
  5
15213
102
{ACAD_REACTORS
330
15217
102
}
330
18
100
AcDbEntity
  8
ｷｬｯﾌ_ﾎ_ﾙﾄ
100
AcDbLine
 10
-81.76612453040883
 20
555.8301538717325
 30
0.0
 11
-81.04443671067832
 21
557.0801539007543
 31
0.0
  0
LINE
  5
15214
102
{ACAD_REACTORS
330
15217
102
}
330
18
100
AcDbEntity
  8
ｷｬｯﾌ_ﾎ_ﾙﾄ
100
AcDbLine
 10
-81.76612448040845
 20
555.8301537851284
 30
0.0
 11
-83.20949978372977
 21
555.8301539448704
 31
0.0
  0
LINE
  5
15215
102
{ACAD_REACTORS
330
15217
102
}
330
18
100
AcDbEntity
  8
ｷｬｯﾌ_ﾎ_ﾙﾄ
100
AcDbLine
 10
-83.20950013040869
 20
558.3301537453364
 30
0.0
 11
-81.76612444067808
 21
558.3301537163126
 31
0.0
  0
LINE
  5
15216
102
{ACAD_REACTORS
330
15217
102
}
330
18
100
AcDbEntity
  8
ｷｬｯﾌ_ﾎ_ﾙﾄ
100
AcDbLine
 10
-81.04443665067803
 20
557.080153796832
 30
0.0
 11
-81.76612444067808
 21
558.3301537163126
 31
0.0
  0
LINE
  5
15226
330
18
100
AcDbEntity
  8
本体
  6
Continuous
100
AcDbLine
 10
-169.886042689221
 20
400.4471294008308
 30
0.0
 11
-51.38604268921678
 21
400.4471294008308
 31
0.0
  0
LINE
  5
1522B
330
18
100
AcDbEntity
  8
本体
  6
Continuous
100
AcDbLine
 10
-82.68604268921015
 20
450.4430211334719
 30
0.0
 11
-132.0860426892179
 21
450.4430211334716
 31
0.0
  0
LINE
  5
15235
330
18
100
AcDbEntity
  8
中心線
 48
0.2
100
AcDbLine
 10
-159.3260648548359
 20
409.4450752671551
 30
0.0
 11
-191.4273934548145
 21
409.4450752671551
 31
0.0
  0
LINE
  5
1526D
330
18
100
AcDbEntity
  8
ｺﾈｸﾀ
100
AcDbLine
 10
-169.8860426892203
 20
427.4471294008383
 30
0.0
 11
-169.886042689222
 21
439.4471294008384
 31
0.0
  0
LINE
  5
152AD
330
18
100
AcDbEntity
  8
本体
  6
Continuous
100
AcDbLine
 10
-169.5860426892213
 20
446.9471294008383
 30
0.0
 11
-169.8860426892213
 21
446.647129400839
 31
0.0
  0
LINE
  5
15390
330
18
100
AcDbEntity
  8
本体
  6
Continuous
100
AcDbLine
 10
-139.8860426892172
 20
448.4430211334718
 30
0.0
 11
-139.8860426892172
 21
447.4471294008329
 31
0.0
  0
LINE
  5
15391
330
18
100
AcDbEntity
  8
本体
  6
Continuous
100
AcDbLine
 10
-139.8860426892172
 20
448.4430211334718
 30
0.0
 11
-139.3860426892169
 21
448.9430211334719
 31
0.0
  0
LINE
  5
1544F
330
18
100
AcDbEntity
  8
本体
  6
Continuous
100
AcDbLine
 10
-132.3860426892169
 20
450.1430211334719
 30
0.0
 11
-132.3860426892169
 21
448.9430211334719
 31
0.0
  0
LINE
  5
15480
330
18
100
AcDbEntity
  8
本体
  6
Continuous
100
AcDbLine
 10
-132.3860426892169
 20
450.1430211334719
 30
0.0
 11
-132.0860426892169
 21
450.4430211334719
 31
0.0
  0
LINE
  5
15496
330
18
100
AcDbEntity
  8
中心線
 48
0.2
100
AcDbLine
 10
-107.386042689221
 20
434.8333469721662
 30
0.0
 11
-107.386042689221
 21
397.9450752671521
 31
0.0
  0
LINE
  5
15498
330
18
100
AcDbEntity
  8
中心線
 48
0.2
100
AcDbLine
 10
-107.3860426892135
 20
429.8164842733099
 30
0.0
 11
-107.3860426892135
 21
397.9430211334723
 31
0.0
  0
LINE
  5
15499
330
18
100
AcDbEntity
  8
中心線
 48
5.0
100
AcDbLine
 10
-107.3860426892199
 20
418.1450752671509
 30
0.0
 11
-107.3860426892199
 21
427.1450752671518
 31
0.0
  0
LINE
  5
1549A
330
18
100
AcDbEntity
  8
中心線
 48
5.0
100
AcDbLine
 10
-107.386042689209
 20
412.6430211334719
 30
0.0
 11
-107.386042689209
 21
422.643021133472
 31
0.0
  0
LINE
  5
154C6
330
18
100
AcDbEntity
  8
中心線
 48
0.2
100
AcDbLine
 10
-107.3860426892135
 20
452.5701107816082
 30
0.0
 11
-107.3860426892135
 21
436.3634321748328
 31
0.0
  0
LINE
  5
154CF
330
18
100
AcDbEntity
  8
ﾊｯﾁﾝｸ_
100
AcDbLine
 10
-92.46577191593884
 20
450.4430211334716
 30
0.0
 11
-92.38604268920903
 21
450.3632919067418
 31
0.0
  0
LINE
  5
154DF
330
18
100
AcDbEntity
  8
本体
  6
Continuous
100
AcDbLine
 10
-51.88604268922975
 20
446.947129400833
 30
0.0
 11
-74.38604268921995
 21
446.947129400833
 31
0.0
  0
LINE
  5
154E0
330
18
100
AcDbEntity
  8
本体
  6
Continuous
100
AcDbLine
 10
-51.88604268922975
 20
447.4471294008329
 30
0.0
 11
-169.3860426892213
 21
447.4471294008329
 31
0.0
  0
LINE
  5
15580
330
18
100
AcDbEntity
  8
本体
  6
Continuous
100
AcDbLine
 10
-139.3860426892148
 20
448.9430211334739
 30
0.0
 11
-75.38604268920995
 21
448.9430211334719
 31
0.0
  0
LINE
  5
1558D
330
18
100
AcDbEntity
  8
本体
  6
Continuous
100
AcDbLine
 10
-82.38604268920996
 20
450.1430211334719
 30
0.0
 11
-82.38604268920996
 21
448.9430211334719
 31
0.0
  0
LINE
  5
155A8
330
18
100
AcDbEntity
  8
本体
  6
Continuous
100
AcDbLine
 10
-82.38604268920996
 20
450.1430211334719
 30
0.0
 11
-82.68604268921015
 21
450.4430211334719
 31
0.0
  0
LINE
  5
155B1
330
18
100
AcDbEntity
  8
本体
  6
Continuous
100
AcDbLine
 10
-74.88604268920996
 20
448.4430211334718
 30
0.0
 11
-74.88604268920996
 21
447.4471294008329
 31
0.0
  0
LINE
  5
155B4
330
18
100
AcDbEntity
  8
本体
  6
Continuous
100
AcDbLine
 10
-74.88604268920996
 20
448.4430211334718
 30
0.0
 11
-75.38604268920995
 21
448.9430211334719
 31
0.0
  0
LINE
  5
155E2
330
18
100
AcDbEntity
  8
本体
  6
Continuous
100
AcDbLine
 10
-51.38604268922178
 20
446.6471294008331
 30
0.0
 11
-51.38604268921678
 21
400.4471294008308
 31
0.0
  0
LINE
  5
15608
330
18
100
AcDbEntity
  8
本体
  6
Continuous
100
AcDbLine
 10
-51.38604268921813
 20
418.4450752671536
 30
0.0
 11
-51.38604268921815
 21
418.4471294008308
 31
0.0
  0
LINE
  5
15631
330
18
100
AcDbEntity
  8
本体
  6
Continuous
100
AcDbLine
 10
-51.68604268922196
 20
446.9471294008328
 30
0.0
 11
-51.38604268922178
 21
446.6471294008331
 31
0.0
  0
LINE
  5
15634
330
18
100
AcDbEntity
  8
本体
  6
Continuous
100
AcDbLine
 10
-51.88604268922975
 20
447.4471294008329
 30
0.0
 11
-51.88604268922975
 21
446.947129400833
 31
0.0
  0
LINE
  5
1563A
330
18
100
AcDbEntity
  8
中心線
 48
0.3
100
AcDbLine
 10
-169.9694610859569
 20
542.7051538085335
 30
0.0
 11
-48.51867633688152
 21
542.7051538085335
 31
0.0
  0
LINE
  5
1563C
330
18
100
AcDbEntity
  8
中心線
 48
0.3
100
AcDbLine
 10
-107.3860426892135
 20
483.8377874562078
 30
0.0
 11
-107.3860426892135
 21
601.5725201608326
 31
0.0
  0
LINE
  5
1565E
330
18
100
AcDbEntity
  8
本体
  6
Continuous
100
AcDbLine
 10
-169.3860426892213
 20
446.9471294008488
 30
0.0
 11
-140.3860426892094
 21
446.9471294008415
 31
0.0
  0
LINE
  5
15661
330
18
100
AcDbEntity
  8
本体
  6
Continuous
100
AcDbLine
 10
-169.3860426892213
 20
447.4471294008488
 30
0.0
 11
-169.3860426892213
 21
446.9471294008488
 31
0.0
  0
LINE
  5
15664
330
18
100
AcDbEntity
  8
本体
  6
Continuous
100
AcDbLine
 10
-51.68604268922196
 20
446.9471294008328
 30
0.0
 11
-169.5860426892213
 21
446.9471294008383
 31
0.0
  0
LINE
  5
15667
330
18
100
AcDbEntity
  8
本体
  6
Continuous
100
AcDbLine
 10
-169.8860426892212
 20
446.647129400839
 30
0.0
 11
-169.886042689221
 21
400.4471294008308
 31
0.0
  0
LINE
  5
15687
330
18
100
AcDbEntity
  8
中心線
 48
0.2
100
AcDbLine
 10
-159.3260648548359
 20
433.4471294008385
 30
0.0
 11
-191.4273934548145
 21
433.4471294008386
 31
0.0
  0
LINE
  5
15688
330
18
100
AcDbEntity
  8
本体
  6
Continuous
100
AcDbLine
 10
-167.886042689221
 20
420.4471294008308
 30
0.0
 11
-53.38604268921815
 21
420.4471294008308
 31
0.0
  0
LINE
  5
156AB
330
18
100
AcDbEntity
  8
文字
100
AcDbLine
 10
-51.78604268921358
 20
447.4471294008329
 30
0.0
 11
-57.78604268921363
 21
447.4471294008329
 31
0.0
  0
LINE
  5
156AC
330
18
100
AcDbEntity
  8
文字
100
AcDbLine
 10
-57.78604268921357
 20
448.0471294008331
 30
0.0
 11
-57.78604268921357
 21
447.4471294008329
 31
0.0
  0
LINE
  5
156AD
330
18
100
AcDbEntity
  8
ｷｬｯﾌ_ﾎ_ﾙﾄ
100
AcDbLine
 10
-57.78604268921357
 20
448.0471294008331
 30
0.0
 11
-57.58604268921352
 21
448.2471294008332
 31
0.0
  0
LINE
  5
156AE
330
18
100
AcDbEntity
  8
ｷｬｯﾌ_ﾎ_ﾙﾄ
100
AcDbLine
 10
-57.58604268921352
 20
448.2471294008332
 30
0.0
 11
-51.98604268921362
 21
448.2471294008332
 31
0.0
  0
LINE
  5
156AF
330
18
100
AcDbEntity
  8
ｷｬｯﾌ_ﾎ_ﾙﾄ
100
AcDbLine
 10
-57.78604268921357
 20
448.0471294008331
 30
0.0
 11
-51.78604268921358
 21
448.0471294008331
 31
0.0
  0
LINE
  5
156B0
330
18
100
AcDbEntity
  8
中心線
 48
0.2
100
AcDbLine
 10
-54.78604268921357
 20
449.0471294008332
 30
0.0
 11
-54.78604268921357
 21
445.327216544643
 31
0.0
  0
LINE
  5
156B1
330
18
100
AcDbEntity
  8
ｷｬｯﾌ_ﾎ_ﾙﾄ
100
AcDbLine
 10
-51.78604268921358
 20
448.0471294008331
 30
0.0
 11
-51.78604268921358
 21
447.4471294008329
 31
0.0
  0
LINE
  5
156B2
330
18
100
AcDbEntity
  8
ｷｬｯﾌ_ﾎ_ﾙﾄ
100
AcDbLine
 10
-51.78604268921358
 20
448.0471294008331
 30
0.0
 11
-51.98604268921362
 21
448.2471294008332
 31
0.0
  0
LINE
  5
156CF
330
18
100
AcDbEntity
  8
隠れ線
  6
HIDDEN2
 48
10.0
100
AcDbLine
 10
-97.88604268921361
 20
450.4491835345063
 30
0.0
 11
-97.88604268921361
 21
401.4430211334715
 31
0.0
  0
LINE
  5
156D0
330
18
100
AcDbEntity
  8
隠れ線
  6
HIDDEN2
 48
10.0
100
AcDbLine
 10
-116.8860426892136
 20
450.4491835345072
 30
0.0
 11
-116.8860426892136
 21
401.4430211334715
 31
0.0
  0
LINE
  5
156D2
330
18
100
AcDbEntity
  8
隠れ線
  6
HIDDEN2
 48
10.0
100
AcDbLine
 10
-70.3860426892211
 20
400.4471294008308
 30
0.0
 11
-70.3860426892211
 21
402.447129400828
 31
0.0
  0
LINE
  5
156D3
330
18
100
AcDbEntity
  8
隠れ線
  6
HIDDEN2
 48
10.0
100
AcDbLine
 10
-144.3860426892209
 20
400.4471294008308
 30
0.0
 11
-144.3860426892209
 21
402.447129400828
 31
0.0
  0
LINE
  5
156D5
330
18
100
AcDbEntity
  8
隠れ線
  6
HIDDEN2
 48
10.0
100
AcDbLine
 10
-144.3860426892209
 20
402.447129400828
 30
0.0
 11
-116.8860426892136
 21
402.447129400828
 31
0.0
  0
LINE
  5
159D7
330
18
100
AcDbEntity
  8
中心線
 48
0.3
100
AcDbLine
 10
81.9358018764599
 20
483.8377874562437
 30
0.0
 11
81.9358018764599
 21
601.5725201608686
 31
0.0
  0
LINE
  5
159D8
330
18
100
AcDbEntity
  8
中心線
 48
0.3
100
AcDbLine
 10
148.4993698539973
 20
542.7051538085335
 30
0.0
 11
23.0684355241508
 21
542.7051538085335
 31
0.0
  0
LINE
  5
159DC
330
18
100
AcDbEntity
  8
本体
  6
Continuous
100
AcDbLine
 10
132.9356933367238
 20
598.705153808532
 30
0.0
 11
30.93580187645851
 21
598.7051538085336
 31
0.0
  0
LINE
  5
159DE
330
18
100
AcDbEntity
  8
本体
  6
Continuous
100
AcDbLine
 10
132.9356933367232
 20
486.7051538085329
 30
0.0
 11
30.93580187645851
 21
486.7051538085354
 31
0.0
  0
LINE
  5
159E5
330
18
100
AcDbEntity
  8
本体
  6
Continuous
100
AcDbLine
 10
137.9356933367229
 20
491.7051538085329
 30
0.0
 11
137.9356933367228
 21
515.3403696469711
 31
0.0
  0
CIRCLE
  5
159E9
330
18
100
AcDbEntity
  8
本体
  6
Continuous
100
AcDbCircle
 10
126.1299757006188
 20
498.5109799843733
 30
0.0
 40
3.5
  0
ARC
  5
159EB
330
18
100
AcDbEntity
  8
本体
  6
Continuous
100
AcDbCircle
 10
132.9356933367232
 20
491.7051538085329
 30
0.0
 40
5.0
100
AcDbArc
 50
270.0
 51
0.000000000000007
  0
ARC
  5
15A0D
330
18
100
AcDbEntity
  8
本体
  6
Continuous
100
AcDbCircle
 10
81.93580187643988
 20
542.70515380852
 30
0.0
 40
62.5
100
AcDbArc
 50
334.4756713712506
 51
25.52432862874936
  0
ARC
  5
15A0E
330
18
100
AcDbEntity
  8
本体
  6
Continuous
100
AcDbCircle
 10
137.4335495784855
 20
516.2051538085184
 30
0.0
 40
1.0
100
AcDbArc
 50
300.1419315434121
 51
334.4756713712506
  0
CIRCLE
  5
15A2F
330
18
100
AcDbEntity
  8
本体
  6
Continuous
100
AcDbCircle
 10
126.1299757006214
 20
586.8993276326921
 30
0.0
 40
3.5
  0
LINE
  5
15A31
330
18
100
AcDbEntity
  8
本体
  6
Continuous
100
AcDbLine
 10
137.9356933367237
 20
570.0699379700657
 30
0.0
 11
137.9356933367237
 21
593.705153808532
 31
0.0
  0
ARC
  5
15A32
330
18
100
AcDbEntity
  8
本体
  6
Continuous
100
AcDbCircle
 10
137.4335495784872
 20
569.2051538085181
 30
0.0
 40
1.0
100
AcDbArc
 50
25.52432862874936
 51
59.85806845661688
  0
ARC
  5
15A36
330
18
100
AcDbEntity
  8
本体
  6
Continuous
100
AcDbCircle
 10
132.9356933367238
 20
593.705153808532
 30
0.0
 40
5.0
100
AcDbArc
 50
0.000000000000007
 51
90.00000000000005
  0
LINE
  5
15A51
330
18
100
AcDbEntity
  8
本体
  6
Continuous
100
AcDbLine
 10
25.93580187645851
 20
491.7051538085353
 30
0.0
 11
25.93580187645851
 21
593.7051538085336
 31
0.0
  0
CIRCLE
  5
15A53
330
18
100
AcDbEntity
  8
本体
  6
Continuous
100
AcDbCircle
 10
37.74162805231643
 20
498.5109799843678
 30
0.0
 40
3.5
  0
ARC
  5
15A62
330
18
100
AcDbEntity
  8
本体
  6
Continuous
100
AcDbCircle
 10
30.93580187645855
 20
491.7051538085353
 30
0.0
 40
5.0
100
AcDbArc
 50
180.0
 51
270.0
  0
CIRCLE
  5
15A65
330
18
100
AcDbEntity
  8
本体
  6
Continuous
100
AcDbCircle
 10
37.74162805230094
 20
586.8993276326921
 30
0.0
 40
3.5
  0
CIRCLE
  5
15A75
330
18
100
AcDbEntity
  8
本体
  6
Continuous
100
AcDbCircle
 10
81.9358018764599
 20
542.7051538085335
 30
0.0
 40
9.5
  0
ARC
  5
15AA5
330
18
100
AcDbEntity
  8
本体
  6
Continuous
100
AcDbCircle
 10
30.93580187645851
 20
593.7051538085336
 30
0.0
 40
5.0
100
AcDbArc
 50
90.00000000000005
 51
180.0
  0
CIRCLE
  5
15B0F
330
18
100
AcDbEntity
  8
本体
  6
Continuous
100
AcDbCircle
 10
-151.5802165133939
 20
586.8993276326921
 30
0.0
 40
6.5
  0
CIRCLE
  5
15B10
330
18
100
AcDbEntity
  8
本体
  6
Continuous
100
AcDbCircle
 10
81.9358018764599
 20
542.7051538085335
 30
0.0
 40
37.0
  0
CIRCLE
  5
15B11
330
18
100
AcDbEntity
  8
本体
  6
Continuous
100
AcDbCircle
 10
81.9358018764599
 20
542.7051538085335
 30
0.0
 40
36.5
  0
CIRCLE
  5
15D8E
102
{ACAD_REACTORS
330
15D9C
102
}
330
18
100
AcDbEntity
  8
ｷｬｯﾌ_ﾎ_ﾙﾄ
100
AcDbCircle
 10
97.1858018764604
 20
569.1189286239582
 30
0.0
 40
3.5
  0
CIRCLE
  5
15D8F
102
{ACAD_REACTORS
330
15D9C
102
}
330
18
100
AcDbEntity
  8
ｷｬｯﾌ_ﾎ_ﾙﾄ
100
AcDbCircle
 10
97.1858018764604
 20
569.1189286239582
 30
0.0
 40
2.858333333333336
  0
ARC
  5
15D90
102
{ACAD_REACTORS
330
15D9C
102
}
330
18
100
AcDbEntity
  8
文字
100
AcDbCircle
 10
96.35641600913167
 20
569.5977752200615
 30
0.0
 40
0.446923180059133
100
AcDbArc
 50
269.9999885408479
 51
29.99998854083837
  0
ARC
  5
15D91
102
{ACAD_REACTORS
330
15D9C
102
}
330
18
100
AcDbEntity
  8
文字
100
AcDbCircle
 10
96.35641581759323
 20
568.6400826913632
 30
0.0
 40
0.446923180059133
100
AcDbArc
 50
329.9999885408372
 51
89.99998854084807
  0
ARC
  5
15D92
102
{ACAD_REACTORS
330
15D9C
102
}
330
18
100
AcDbEntity
  8
文字
100
AcDbCircle
 10
97.18580197222951
 20
569.1189287898352
 30
0.0
 40
0.8300001915383901
100
AcDbArc
 50
177.795761036871
 51
182.204216044816
  0
ARC
  5
15D93
102
{ACAD_REACTORS
330
15D9C
102
}
330
18
100
AcDbEntity
  8
文字
100
AcDbCircle
 10
97.18580197222951
 20
569.1189287898352
 30
0.0
 40
0.8300001915383901
100
AcDbArc
 50
297.7957610368596
 51
302.2042160448141
  0
ARC
  5
15D94
102
{ACAD_REACTORS
330
15D9C
102
}
330
18
100
AcDbEntity
  8
文字
100
AcDbCircle
 10
97.18580197222951
 20
569.1189287898352
 30
0.0
 40
0.8300001915383901
100
AcDbArc
 50
57.79576103688189
 51
62.20421604479594
  0
ARC
  5
15D95
102
{ACAD_REACTORS
330
15D9C
102
}
330
18
100
AcDbEntity
  8
文字
100
AcDbCircle
 10
98.01518793532757
 20
568.6400823596089
 30
0.0
 40
0.446923180059133
100
AcDbArc
 50
89.99998854084807
 51
209.9999885408383
  0
ARC
  5
15D96
102
{ACAD_REACTORS
330
15D9C
102
}
330
18
100
AcDbEntity
  8
文字
100
AcDbCircle
 10
97.18580197222951
 20
569.1189287898352
 30
0.0
 40
0.8300001915383901
100
AcDbArc
 50
357.7957610368708
 51
2.204216044816246
  0
ARC
  5
15D97
102
{ACAD_REACTORS
330
15D9C
102
}
330
18
100
AcDbEntity
  8
文字
100
AcDbCircle
 10
98.01518812686602
 20
569.5977748883067
 30
0.0
 40
0.446923180059133
100
AcDbArc
 50
149.9999885408372
 51
269.999988540861
  0
ARC
  5
15D98
102
{ACAD_REACTORS
330
15D9C
102
}
330
18
100
AcDbEntity
  8
文字
100
AcDbCircle
 10
97.18580197222951
 20
569.1189287898352
 30
0.0
 40
0.8300001915383901
100
AcDbArc
 50
237.7957610368674
 51
242.2042160448104
  0
ARC
  5
15D99
102
{ACAD_REACTORS
330
15D9C
102
}
330
18
100
AcDbEntity
  8
文字
100
AcDbCircle
 10
97.18580197222951
 20
569.1189287898352
 30
0.0
 40
0.8300001915383901
100
AcDbArc
 50
117.7957610368451
 51
122.2042160448141
  0
ARC
  5
15D9A
102
{ACAD_REACTORS
330
15D9C
102
}
330
18
100
AcDbEntity
  8
文字
100
AcDbCircle
 10
97.18580178069084
 20
568.1612362611372
 30
0.0
 40
0.446923180059133
100
AcDbArc
 50
29.99998854083837
 51
149.9999885408372
  0
ARC
  5
15D9B
102
{ACAD_REACTORS
330
15D9C
102
}
330
18
100
AcDbEntity
  8
文字
100
AcDbCircle
 10
97.18580216376842
 20
570.0766213185334
 30
0.0
 40
0.446923180059133
100
AcDbArc
 50
209.9999885408148
 51
329.9999885408372
  0
CIRCLE
  5
15D9D
102
{ACAD_REACTORS
330
15DAB
102
}
330
18
100
AcDbEntity
  8
ｷｬｯﾌ_ﾎ_ﾙﾄ
100
AcDbCircle
 10
51.43580178069072
 20
542.7051536426563
 30
0.0
 40
3.5
  0
CIRCLE
  5
15D9E
102
{ACAD_REACTORS
330
15DAB
102
}
330
18
100
AcDbEntity
  8
ｷｬｯﾌ_ﾎ_ﾙﾄ
100
AcDbCircle
 10
51.43580178069072
 20
542.7051536426563
 30
0.0
 40
2.858333333333336
  0
ARC
  5
15D9F
102
{ACAD_REACTORS
330
15DAB
102
}
330
18
100
AcDbEntity
  8
文字
100
AcDbCircle
 10
50.60641591336199
 20
543.1840002387596
 30
0.0
 40
0.446923180059133
100
AcDbArc
 50
269.9999885408479
 51
29.99998854083837
  0
ARC
  5
15DA0
102
{ACAD_REACTORS
330
15DAB
102
}
330
18
100
AcDbEntity
  8
文字
100
AcDbCircle
 10
50.60641572182356
 20
542.2263077100615
 30
0.0
 40
0.446923180059133
100
AcDbArc
 50
329.9999885408372
 51
89.99998854084807
  0
ARC
  5
15DA1
102
{ACAD_REACTORS
330
15DAB
102
}
330
18
100
AcDbEntity
  8
文字
100
AcDbCircle
 10
51.43580187645985
 20
542.7051538085334
 30
0.0
 40
0.8300001915383901
100
AcDbArc
 50
177.795761036871
 51
182.204216044816
  0
ARC
  5
15DA2
102
{ACAD_REACTORS
330
15DAB
102
}
330
18
100
AcDbEntity
  8
文字
100
AcDbCircle
 10
51.43580187645985
 20
542.7051538085334
 30
0.0
 40
0.8300001915383901
100
AcDbArc
 50
297.7957610368596
 51
302.2042160448141
  0
ARC
  5
15DA3
102
{ACAD_REACTORS
330
15DAB
102
}
330
18
100
AcDbEntity
  8
文字
100
AcDbCircle
 10
51.43580187645985
 20
542.7051538085334
 30
0.0
 40
0.8300001915383901
100
AcDbArc
 50
57.79576103688189
 51
62.20421604479594
  0
ARC
  5
15DA4
102
{ACAD_REACTORS
330
15DAB
102
}
330
18
100
AcDbEntity
  8
文字
100
AcDbCircle
 10
52.26518783955789
 20
542.2263073783072
 30
0.0
 40
0.446923180059133
100
AcDbArc
 50
89.99998854084807
 51
209.9999885408383
  0
ARC
  5
15DA5
102
{ACAD_REACTORS
330
15DAB
102
}
330
18
100
AcDbEntity
  8
文字
100
AcDbCircle
 10
51.43580187645985
 20
542.7051538085334
 30
0.0
 40
0.8300001915383901
100
AcDbArc
 50
357.7957610368708
 51
2.204216044816246
  0
ARC
  5
15DA6
102
{ACAD_REACTORS
330
15DAB
102
}
330
18
100
AcDbEntity
  8
文字
100
AcDbCircle
 10
52.26518803109632
 20
543.183999907005
 30
0.0
 40
0.446923180059133
100
AcDbArc
 50
149.9999885408372
 51
269.999988540861
  0
ARC
  5
15DA7
102
{ACAD_REACTORS
330
15DAB
102
}
330
18
100
AcDbEntity
  8
文字
100
AcDbCircle
 10
51.43580187645985
 20
542.7051538085334
 30
0.0
 40
0.8300001915383901
100
AcDbArc
 50
237.7957610368674
 51
242.2042160448104
  0
ARC
  5
15DA8
102
{ACAD_REACTORS
330
15DAB
102
}
330
18
100
AcDbEntity
  8
文字
100
AcDbCircle
 10
51.43580187645985
 20
542.7051538085334
 30
0.0
 40
0.8300001915383901
100
AcDbArc
 50
117.7957610368451
 51
122.2042160448141
  0
ARC
  5
15DA9
102
{ACAD_REACTORS
330
15DAB
102
}
330
18
100
AcDbEntity
  8
文字
100
AcDbCircle
 10
51.43580168492116
 20
541.7474612798351
 30
0.0
 40
0.446923180059133
100
AcDbArc
 50
29.99998854083837
 51
149.9999885408372
  0
ARC
  5
15DAA
102
{ACAD_REACTORS
330
15DAB
102
}
330
18
100
AcDbEntity
  8
文字
100
AcDbCircle
 10
51.43580206799875
 20
543.6628463372312
 30
0.0
 40
0.446923180059133
100
AcDbArc
 50
209.9999885408148
 51
329.9999885408372
  0
CIRCLE
  5
15DAC
102
{ACAD_REACTORS
330
15DBA
102
}
330
18
100
AcDbEntity
  8
ｷｬｯﾌ_ﾎ_ﾙﾄ
100
AcDbCircle
 10
97.18580178069039
 20
516.2913788272303
 30
0.0
 40
3.5
  0
CIRCLE
  5
15DAD
102
{ACAD_REACTORS
330
15DBA
102
}
330
18
100
AcDbEntity
  8
ｷｬｯﾌ_ﾎ_ﾙﾄ
100
AcDbCircle
 10
97.18580178069039
 20
516.2913788272303
 30
0.0
 40
2.858333333333336
  0
ARC
  5
15DAE
102
{ACAD_REACTORS
330
15DBA
102
}
330
18
100
AcDbEntity
  8
文字
100
AcDbCircle
 10
96.35641591336169
 20
516.7702254233335
 30
0.0
 40
0.446923180059133
100
AcDbArc
 50
269.9999885408479
 51
29.99998854083837
  0
ARC
  5
15DAF
102
{ACAD_REACTORS
330
15DBA
102
}
330
18
100
AcDbEntity
  8
文字
100
AcDbCircle
 10
96.35641572182322
 20
515.8125328946355
 30
0.0
 40
0.446923180059133
100
AcDbArc
 50
329.9999885408372
 51
89.99998854084807
  0
ARC
  5
15DB0
102
{ACAD_REACTORS
330
15DBA
102
}
330
18
100
AcDbEntity
  8
文字
100
AcDbCircle
 10
97.18580187645947
 20
516.2913789931073
 30
0.0
 40
0.8300001915383901
100
AcDbArc
 50
177.795761036871
 51
182.204216044816
  0
ARC
  5
15DB1
102
{ACAD_REACTORS
330
15DBA
102
}
330
18
100
AcDbEntity
  8
文字
100
AcDbCircle
 10
97.18580187645947
 20
516.2913789931073
 30
0.0
 40
0.8300001915383901
100
AcDbArc
 50
297.7957610368596
 51
302.2042160448141
  0
ARC
  5
15DB2
102
{ACAD_REACTORS
330
15DBA
102
}
330
18
100
AcDbEntity
  8
文字
100
AcDbCircle
 10
97.18580187645947
 20
516.2913789931073
 30
0.0
 40
0.8300001915383901
100
AcDbArc
 50
57.79576103688189
 51
62.20421604479594
  0
ARC
  5
15DB3
102
{ACAD_REACTORS
330
15DBA
102
}
330
18
100
AcDbEntity
  8
文字
100
AcDbCircle
 10
98.01518783955756
 20
515.8125325628811
 30
0.0
 40
0.446923180059133
100
AcDbArc
 50
89.99998854084807
 51
209.9999885408383
  0
ARC
  5
15DB4
102
{ACAD_REACTORS
330
15DBA
102
}
330
18
100
AcDbEntity
  8
文字
100
AcDbCircle
 10
97.18580187645947
 20
516.2913789931073
 30
0.0
 40
0.8300001915383901
100
AcDbArc
 50
357.7957610368708
 51
2.204216044816246
  0
ARC
  5
15DB5
102
{ACAD_REACTORS
330
15DBA
102
}
330
18
100
AcDbEntity
  8
文字
100
AcDbCircle
 10
98.01518803109601
 20
516.7702250915789
 30
0.0
 40
0.446923180059133
100
AcDbArc
 50
149.9999885408372
 51
269.999988540861
  0
ARC
  5
15DB6
102
{ACAD_REACTORS
330
15DBA
102
}
330
18
100
AcDbEntity
  8
文字
100
AcDbCircle
 10
97.18580187645947
 20
516.2913789931073
 30
0.0
 40
0.8300001915383901
100
AcDbArc
 50
237.7957610368674
 51
242.2042160448104
  0
ARC
  5
15DB7
102
{ACAD_REACTORS
330
15DBA
102
}
330
18
100
AcDbEntity
  8
文字
100
AcDbCircle
 10
97.18580187645947
 20
516.2913789931073
 30
0.0
 40
0.8300001915383901
100
AcDbArc
 50
117.7957610368451
 51
122.2042160448141
  0
ARC
  5
15DB8
102
{ACAD_REACTORS
330
15DBA
102
}
330
18
100
AcDbEntity
  8
文字
100
AcDbCircle
 10
97.1858016849208
 20
515.3336864644093
 30
0.0
 40
0.446923180059133
100
AcDbArc
 50
29.99998854083837
 51
149.9999885408372
  0
ARC
  5
15DB9
102
{ACAD_REACTORS
330
15DBA
102
}
330
18
100
AcDbEntity
  8
文字
100
AcDbCircle
 10
97.18580206799842
 20
517.2490715218055
 30
0.0
 40
0.446923180059133
100
AcDbArc
 50
209.9999885408148
 51
329.9999885408372
  0
HATCH
  5
15DBC
330
18
100
AcDbEntity
  8
細線
100
AcDbHatch
 10
0.0
 20
0.0
 30
0.0
210
0.0
220
0.0
230
1.0
  2
ANSI31
 70
     0
 71
     0
 91
        2
 92
        7
 72
     1
 73
     1
 93
        3
 10
46.40152722869285
 20
593.5114722109586
 42
0.4191038107697311
 10
45.88291160681953
 20
590.7071235931709
 42
0.0
 10
47.521215695398
 20
591.8542764658734
 42
-0.0083339121174286
 97
        0
 92
        7
 72
     1
 73
     1
 93
        3
 10
47.521215695398
 20
591.8542764658734
 42
0.0083339121174259
 10
48.69551429838927
 20
590.235319149879
 42
0.4093401658298795
 10
49.15951978397647
 20
593.0014293385751
 42
0.0
 97
        0
 75
     0
 76
     1
 52
450.0
 41
1.0
 77
     0
 78
     1
 53
134.9999999999999
 43
-1140.377435552339
 44
-695.9725542632193
 45
-0.0883883476483185
 46
-0.0883883476483184
 79
     0
 47
0.0097153979852775
 98
        2
 10
46.869876656458
 20
592.3476681911536
 10
48.32718627539495
 20
592.0852624735947
  0
CIRCLE
  5
15DBD
330
18
100
AcDbEntity
  8
本体
  6
Continuous
100
AcDbCircle
 10
47.5212156953999
 20
591.8542764658731
 30
0.0
 40
2.0
  0
CIRCLE
  5
15DBE
330
18
100
AcDbEntity
  8
本体
  6
Continuous
100
AcDbCircle
 10
116.3503880575206
 20
493.5560311511943
 30
0.0
 40
2.0
  0
HATCH
  5
15DBF
330
18
100
AcDbEntity
  8
細線
100
AcDbHatch
 10
0.0
 20
0.0
 30
0.0
210
0.0
220
0.0
230
1.0
  2
ANSI31
 70
     0
 71
     0
 91
        2
 92
        7
 72
     1
 73
     1
 93
        3
 10
117.4700765242254
 20
491.8988354061084
 42
0.4191038107697311
 10
117.9886921460987
 20
494.7031840238969
 42
0.0
 10
116.3503880575202
 20
493.5560311511945
 42
-0.0083339121174286
 97
        0
 92
        7
 72
     1
 73
     1
 93
        3
 10
116.3503880575202
 20
493.5560311511934
 42
0.0083339121174259
 10
115.176089454529
 20
495.174988467189
 42
0.4093401658298795
 10
114.7120839689417
 20
492.4088782784921
 42
0.0
 97
        0
 75
     0
 76
     1
 52
270.0
 41
1.0
 77
     0
 78
     1
 53
314.9999999999999
 43
1304.249039305257
 44
1781.382861880286
 45
0.0883883476483185
 46
0.0883883476483184
 79
     0
 47
0.0097153979852775
 98
        2
 10
117.0017270964603
 20
493.0626394259133
 10
115.5444174775232
 20
493.3250451434733
  0
ARC
  5
15DC0
330
18
100
AcDbEntity
  8
中心線
 48
0.3
100
AcDbCircle
 10
81.93580187645968
 20
542.7051538085342
 30
0.0
 40
59.99999999999936
100
AcDbArc
 50
295.0000000000051
 51
330.7793864332571
  0
LINE
  5
15DC1
330
18
100
AcDbEntity
  8
中心線
 48
0.3
100
AcDbLine
 10
114.7194753281705
 20
495.885215914791
 30
0.0
 11
118.1332823391935
 21
491.0097942365966
 31
0.0
  0
ARC
  5
15DC2
330
18
100
AcDbEntity
  8
中心線
 48
0.3
100
AcDbCircle
 10
81.93580187645968
 20
542.7051538085342
 30
0.0
 40
59.99999999999936
100
AcDbArc
 50
115.0000000000052
 51
147.0127631638401
  0
LINE
  5
15DC3
330
18
100
AcDbEntity
  8
中心線
 48
0.3
100
AcDbLine
 10
45.73832141372827
 20
594.4005133804733
 30
0.0
 11
49.15212842475034
 21
589.5250917022779
 31
0.0
  0
CIRCLE
  5
15E00
330
18
100
AcDbEntity
  8
本体
  6
Continuous
100
AcDbCircle
 10
81.93580187645986
 20
542.7051538085335
 30
0.0
 40
10.9
  0
ARC
  5
15E32
330
18
100
AcDbEntity
  8
本体
  6
Continuous
100
AcDbCircle
 10
-156.741893406223
 20
515.2051538085188
 30
0.0
 40
1.0
100
AcDbArc
 50
29.12559519064066
 51
90.0000000000057
  0
ARC
  5
15E33
330
18
100
AcDbEntity
  8
本体
  6
Continuous
100
AcDbCircle
 10
-162.8003910116453
 20
517.2051538085181
 30
0.0
 40
1.0
100
AcDbArc
 50
204.710451263881
 51
270.0000000000065
  0
ARC
  5
15E34
330
18
100
AcDbEntity
  8
本体
  6
Continuous
100
AcDbCircle
 10
-162.8003910116489
 20
568.2051538085175
 30
0.0
 40
1.0
100
AcDbArc
 50
89.99999999999756
 51
155.2895487361273
  0
ARC
  5
15E35
330
18
100
AcDbEntity
  8
本体
  6
Continuous
100
AcDbCircle
 10
-156.7418934062289
 20
570.2051538085177
 30
0.0
 40
1.0
100
AcDbArc
 50
269.9999999999973
 51
330.8744048093739
  0
INSERT
  5
1615B
330
18
100
AcDbEntity
  8
文字
  6
Continuous
100
AcDbBlockReference
  2
_DATUMFILLED
 10
-142.3860426892138
 20
542.7051538085337
 30
0.0
 41
2.0
 42
2.0
 43
2.0
 50
180.0
1001
ACAD
1000
DSTYLE
1002
{
1070
   341
1005
11C3
1070
   147
1040
0.5
1070
    77
1070
     0
1002
}
  0
INSERT
  5
1615C
330
18
100
AcDbEntity
  8
文字
  6
Continuous
100
AcDbBlockReference
  2
_DATUMFILLED
 10
-137.8860426892136
 20
542.7051538085337
 30
0.0
 41
-2.0
 42
2.0
 43
2.0
 50
180.0
1001
ACAD
1000
DSTYLE
1002
{
1070
   341
1005
11C3
1070
   147
1040
0.5
1070
    77
1070
     0
1002
}
  0
ARC
  5
16C93
330
18
100
AcDbEntity
  8
本体
  6
Continuous
100
AcDbCircle
 10
-53.38604268921815
 20
418.4471294008308
 30
0.0
 40
2.0
100
AcDbArc
 50
0.0
 51
90.0
  0
ARC
  5
16C94
330
18
100
AcDbEntity
  8
本体
  6
Continuous
100
AcDbCircle
 10
-167.886042689221
 20
418.4471294008308
 30
0.0
 40
2.0
100
AcDbArc
 50
90.0
 51
180.0000000000002
  0
LINE
  5
16CF9
102
{ACAD_REACTORS
330
16D1D
102
}
330
18
100
AcDbEntity
  8
ｺﾈｸﾀ
100
AcDbLine
 10
-179.8860426891934
 20
534.0513538085335
 30
0.0
 11
-187.8860426891934
 21
534.0513538085335
 31
0.0
  0
LINE
  5
16CFA
102
{ACAD_REACTORS
330
16D1D
102
}
330
18
100
AcDbEntity
  8
ｺﾈｸﾀ
100
AcDbLine
 10
-179.8860426891934
 20
551.3589538085336
 30
0.0
 11
-187.8860426891934
 21
551.3589538085336
 31
0.0
  0
LINE
  5
16CFB
102
{ACAD_REACTORS
330
16D1D
102
}
330
18
100
AcDbEntity
  8
ｺﾈｸﾀ
100
AcDbLine
 10
-179.8860426891934
 20
539.1382538085338
 30
0.0
 11
-187.0468544022608
 21
539.1382538085338
 31
0.0
  0
LINE
  5
16CFC
102
{ACAD_REACTORS
330
16D1D
102
}
330
18
100
AcDbEntity
  8
ｺﾈｸﾀ
100
AcDbLine
 10
-179.8860426891934
 20
537.6182538085333
 30
0.0
 11
-187.0468544022608
 21
537.6182538085333
 31
0.0
  0
LINE
  5
16CFD
102
{ACAD_REACTORS
330
16D1D
102
}
330
18
100
AcDbEntity
  8
ｺﾈｸﾀ
100
AcDbLine
 10
-179.8860426891934
 20
547.7920538085339
 30
0.0
 11
-187.0468544022608
 21
547.7920538085339
 31
0.0
  0
LINE
  5
16CFE
102
{ACAD_REACTORS
330
16D1D
102
}
330
18
100
AcDbEntity
  8
ｺﾈｸﾀ
100
AcDbLine
 10
-179.8860426891934
 20
546.2720538085334
 30
0.0
 11
-187.0468544022608
 21
546.2720538085334
 31
0.0
  0
LINE
  5
16CFF
102
{ACAD_REACTORS
330
16D1D
102
}
330
18
100
AcDbEntity
  8
中心線
100
AcDbLine
 10
-193.1830940855395
 20
542.7051538085335
 30
0.0
 11
-162.3447095292498
 21
542.7051538085335
 31
0.0
  0
LINE
  5
16D00
102
{ACAD_REACTORS
330
16D1D
102
}
330
18
100
AcDbEntity
  8
ｺﾈｸﾀ
 48
0.5
100
AcDbLine
 10
-193.3860426891941
 20
540.2051538085343
 30
0.0
 11
-191.8860426891944
 21
540.2051538085337
 31
0.0
  0
LINE
  5
16D01
102
{ACAD_REACTORS
330
16D1D
102
}
330
18
100
AcDbEntity
  8
ｺﾈｸﾀ
100
AcDbLine
 10
-193.3860426891934
 20
540.2051538085336
 30
0.0
 11
-191.8860426891934
 21
540.2051538085336
 31
0.0
  0
LINE
  5
16D02
102
{ACAD_REACTORS
330
16D1D
102
}
330
18
100
AcDbEntity
  8
ｺﾈｸﾀ
100
AcDbLine
 10
-193.3860426891934
 20
540.2051538085336
 30
0.0
 11
-193.3860426891934
 21
545.2095263015926
 31
0.0
  0
LINE
  5
16D03
102
{ACAD_REACTORS
330
16D1D
102
}
330
18
100
AcDbEntity
  8
ｺﾈｸﾀ
 48
0.5
100
AcDbLine
 10
-193.3767391435137
 20
540.2095263081942
 30
0.0
 11
-196.742717004072
 21
540.2095263081936
 31
0.0
  0
LINE
  5
16D04
102
{ACAD_REACTORS
330
16D1D
102
}
330
18
100
AcDbEntity
  8
ｺﾈｸﾀ
 48
0.5
100
AcDbLine
 10
-191.8860426891934
 20
545.2095263015926
 30
0.0
 11
-196.7427170040739
 21
545.2095263015927
 31
0.0
  0
ARC
  5
16D05
102
{ACAD_REACTORS
330
16D1D
102
}
330
18
100
AcDbEntity
  8
ｺﾈｸﾀ
 48
0.5
100
AcDbCircle
 10
-198.1478395574668
 20
541.4595263065432
 30
0.0
 40
1.880656636903949
100
AcDbArc
 50
318.3436407292453
 51
41.6563592707512
  0
ARC
  5
16D06
102
{ACAD_REACTORS
330
16D1D
102
}
330
18
100
AcDbEntity
  8
ｺﾈｸﾀ
 48
0.5
100
AcDbCircle
 10
-195.3375944506797
 20
541.4595263065428
 30
0.0
 40
1.880656636903949
100
AcDbArc
 50
138.3436407292452
 51
221.656359270751
  0
ARC
  5
16D07
102
{ACAD_REACTORS
330
16D1D
102
}
330
18
100
AcDbEntity
  8
ｺﾈｸﾀ
 48
0.5
100
AcDbCircle
 10
-195.3375944506803
 20
543.9595263032438
 30
0.0
 40
1.880656636903949
100
AcDbArc
 50
138.3436407292452
 51
221.656359270751
  0
LINE
  5
16D08
102
{ACAD_REACTORS
330
16D1D
102
}
330
18
100
AcDbEntity
  8
ｺﾈｸﾀ
100
AcDbLine
 10
-187.8860426891934
 20
534.0513538085335
 30
0.0
 11
-191.8860426891934
 21
537.4077523332426
 31
0.0
  0
ARC
  5
16D09
102
{ACAD_REACTORS
330
16D1D
102
}
330
18
100
AcDbEntity
  8
ｺﾈｸﾀ
100
AcDbCircle
 10
-179.8860426891934
 20
534.0513538085335
 30
0.0
 40
8.0
100
AcDbArc
 50
153.5214655209855
 51
180.0
  0
LINE
  5
16D0A
102
{ACAD_REACTORS
330
16D1D
102
}
330
18
100
AcDbEntity
  8
ｺﾈｸﾀ
100
AcDbLine
 10
-187.8860426891934
 20
534.0513538085335
 30
0.0
 11
-187.8860426891934
 21
551.3589538085336
 31
0.0
  0
LINE
  5
16D0B
102
{ACAD_REACTORS
330
16D1D
102
}
330
18
100
AcDbEntity
  8
ｺﾈｸﾀ
100
AcDbLine
 10
-191.8860426891934
 20
537.4077523332426
 30
0.0
 11
-191.8860426891934
 21
548.0025552838243
 31
0.0
  0
ARC
  5
16D0C
102
{ACAD_REACTORS
330
16D1D
102
}
330
18
100
AcDbEntity
  8
ｺﾈｸﾀ
100
AcDbCircle
 10
-179.8860426891934
 20
542.7051538085335
 30
0.0
 40
8.0
100
AcDbArc
 50
153.5214655209855
 51
206.4785344790143
  0
LINE
  5
16D0D
102
{ACAD_REACTORS
330
16D1D
102
}
330
18
100
AcDbEntity
  8
ｺﾈｸﾀ
100
AcDbLine
 10
-187.0468544022608
 20
539.1382538085338
 30
0.0
 11
-187.0468544022608
 21
537.6182538085333
 31
0.0
  0
LINE
  5
16D0E
102
{ACAD_REACTORS
330
16D1D
102
}
330
18
100
AcDbEntity
  8
ｺﾈｸﾀ
100
AcDbLine
 10
-187.0468544022608
 20
547.7920538085339
 30
0.0
 11
-187.0468544022608
 21
546.2720538085334
 31
0.0
  0
LINE
  5
16D0F
102
{ACAD_REACTORS
330
16D1D
102
}
330
18
100
AcDbEntity
  8
ｺﾈｸﾀ
100
AcDbLine
 10
-187.8860426891934
 20
551.3589538085336
 30
0.0
 11
-191.8860426891934
 21
548.0025552838243
 31
0.0
  0
ARC
  5
16D10
102
{ACAD_REACTORS
330
16D1D
102
}
330
18
100
AcDbEntity
  8
ｺﾈｸﾀ
100
AcDbCircle
 10
-179.8860426891934
 20
551.3589538085336
 30
0.0
 40
8.0
100
AcDbArc
 50
180.0
 51
206.4785344790143
  0
LINE
  5
16D11
102
{ACAD_REACTORS
330
16D1D
102
}
330
18
100
AcDbEntity
  8
ｺﾈｸﾀ
100
AcDbLine
 10
-169.8860426891934
 20
551.3589538085336
 30
0.0
 11
-169.8860426891934
 21
534.0513538085335
 31
0.0
  0
LINE
  5
16D12
102
{ACAD_REACTORS
330
16D1D
102
}
330
18
100
AcDbEntity
  8
ｺﾈｸﾀ
100
AcDbLine
 10
-179.8860426891934
 20
534.0513538085335
 30
0.0
 11
-179.8860426891934
 21
551.3589538085336
 31
0.0
  0
LINE
  5
16D13
102
{ACAD_REACTORS
330
16D1D
102
}
330
18
100
AcDbEntity
  8
ｺﾈｸﾀ
100
AcDbLine
 10
-174.8860426891934
 20
534.0513538085335
 30
0.0
 11
-174.8860426891934
 21
551.3589538085336
 31
0.0
  0
LINE
  5
16D14
102
{ACAD_REACTORS
330
16D1D
102
}
330
18
100
AcDbEntity
  8
ｺﾈｸﾀ
100
AcDbLine
 10
-169.8860426891934
 20
534.0513538085335
 30
0.0
 11
-174.8860426891934
 21
534.0513538085335
 31
0.0
  0
LINE
  5
16D15
102
{ACAD_REACTORS
330
16D1D
102
}
330
18
100
AcDbEntity
  8
ｺﾈｸﾀ
100
AcDbLine
 10
-169.8860426891934
 20
551.3589538085336
 30
0.0
 11
-174.8860426891934
 21
551.3589538085336
 31
0.0
  0
LINE
  5
16D16
102
{ACAD_REACTORS
330
16D1D
102
}
330
18
100
AcDbEntity
  8
ｺﾈｸﾀ
100
AcDbLine
 10
-174.8860426891934
 20
536.7051525468979
 30
0.0
 11
-179.8860426891934
 21
536.7051512852632
 31
0.0
  0
LINE
  5
16D17
102
{ACAD_REACTORS
330
16D1D
102
}
330
18
100
AcDbEntity
  8
ｺﾈｸﾀ
100
AcDbLine
 10
-174.8860426891934
 20
548.7051525469007
 30
0.0
 11
-179.8860426891934
 21
548.7051512852668
 31
0.0
  0
LINE
  5
16D18
102
{ACAD_REACTORS
330
16D1D
102
}
330
18
100
AcDbEntity
  8
ｺﾈｸﾀ
100
AcDbLine
 10
-169.8860426891934
 20
539.1382538085338
 30
0.0
 11
-174.8860426891934
 21
539.1382538085338
 31
0.0
  0
LINE
  5
16D19
102
{ACAD_REACTORS
330
16D1D
102
}
330
18
100
AcDbEntity
  8
ｺﾈｸﾀ
100
AcDbLine
 10
-169.8860426891934
 20
537.6182538085333
 30
0.0
 11
-174.8860426891934
 21
537.6182538085333
 31
0.0
  0
LINE
  5
16D1A
102
{ACAD_REACTORS
330
16D1D
102
}
330
18
100
AcDbEntity
  8
ｺﾈｸﾀ
100
AcDbLine
 10
-169.8860426891934
 20
546.2720538085334
 30
0.0
 11
-174.8860426891934
 21
546.2720538085334
 31
0.0
  0
LINE
  5
16D1B
102
{ACAD_REACTORS
330
16D1D
102
}
330
18
100
AcDbEntity
  8
ｺﾈｸﾀ
100
AcDbLine
 10
-169.8860426891934
 20
547.7920538085339
 30
0.0
 11
-174.8860426891934
 21
547.7920538085339
 31
0.0
  0
LINE
  5
16D1E
330
18
100
AcDbEntity
  8
ｺﾈｸﾀ
100
AcDbLine
 10
-169.8860426892212
 20
438.5340294008384
 30
0.0
 11
-174.8860426892212
 21
438.5340294008384
 31
0.0
  0
LINE
  5
16D1F
330
18
100
AcDbEntity
  8
ｺﾈｸﾀ
100
AcDbLine
 10
-169.8860426892212
 20
437.0140294008383
 30
0.0
 11
-174.8860426892212
 21
437.0140294008383
 31
0.0
  0
LINE
  5
16D20
330
18
100
AcDbEntity
  8
ｺﾈｸﾀ
100
AcDbLine
 10
-169.8860426892212
 20
428.3602294008383
 30
0.0
 11
-174.8860426892212
 21
428.3602294008383
 31
0.0
  0
LINE
  5
16D21
330
18
100
AcDbEntity
  8
ｺﾈｸﾀ
100
AcDbLine
 10
-169.8860426892212
 20
429.8802294008386
 30
0.0
 11
-174.8860426892212
 21
429.8802294008386
 31
0.0
  0
LINE
  5
16D22
330
18
100
AcDbEntity
  8
ｺﾈｸﾀ
100
AcDbLine
 10
-169.8860426892212
 20
442.1009294008386
 30
0.0
 11
-174.8860426892212
 21
442.1009294008386
 31
0.0
  0
LINE
  5
16D23
330
18
100
AcDbEntity
  8
ｺﾈｸﾀ
100
AcDbLine
 10
-169.8860426892212
 20
424.7933294008383
 30
0.0
 11
-174.8860426892212
 21
424.7933294008383
 31
0.0
  0
LINE
  5
16D24
330
18
100
AcDbEntity
  8
中心線
100
AcDbLine
 10
-193.183094085567
 20
433.4471294008385
 30
0.0
 11
-162.3447095292775
 21
433.4471294008385
 31
0.0
  0
LINE
  5
16D25
330
18
100
AcDbEntity
  8
ｺﾈｸﾀ
100
AcDbLine
 10
-174.8860426892212
 20
424.7933294008383
 30
0.0
 11
-174.8860426892212
 21
442.1009294008386
 31
0.0
  0
LINE
  5
16D26
330
18
100
AcDbEntity
  8
ｺﾈｸﾀ
100
AcDbLine
 10
-179.8860426892209
 20
424.7933294008383
 30
0.0
 11
-179.8860426892209
 21
442.1009294008386
 31
0.0
  0
LINE
  5
16D27
330
18
100
AcDbEntity
  8
ｺﾈｸﾀ
100
AcDbLine
 10
-187.886042689221
 20
424.7933294008383
 30
0.0
 11
-187.886042689221
 21
442.1009294008386
 31
0.0
  0
ARC
  5
16D28
330
18
100
AcDbEntity
  8
ｺﾈｸﾀ
100
AcDbCircle
 10
-179.8860426892209
 20
424.7933294008383
 30
0.0
 40
8.0
100
AcDbArc
 50
153.5214655209855
 51
180.0
  0
LINE
  5
16D29
330
18
100
AcDbEntity
  8
ｺﾈｸﾀ
100
AcDbLine
 10
-187.886042689221
 20
424.7933294008383
 30
0.0
 11
-191.886042689221
 21
428.1497279255477
 31
0.0
  0
LINE
  5
16D2A
330
18
100
AcDbEntity
  8
ｺﾈｸﾀ
100
AcDbLine
 10
-179.8860426892209
 20
424.7933294008383
 30
0.0
 11
-187.886042689221
 21
424.7933294008383
 31
0.0
  0
LINE
  5
16D2B
330
18
100
AcDbEntity
  8
ｺﾈｸﾀ
100
AcDbLine
 10
-179.8860426892209
 20
437.0140294008383
 30
0.0
 11
-187.0468544022884
 21
437.0140294008383
 31
0.0
  0
LINE
  5
16D2C
330
18
100
AcDbEntity
  8
ｺﾈｸﾀ
100
AcDbLine
 10
-179.8860426892209
 20
438.5340294008384
 30
0.0
 11
-187.0468544022884
 21
438.5340294008384
 31
0.0
  0
LINE
  5
16D2D
330
18
100
AcDbEntity
  8
ｺﾈｸﾀ
100
AcDbLine
 10
-179.8860426892209
 20
428.3602294008383
 30
0.0
 11
-187.0468544022884
 21
428.3602294008383
 31
0.0
  0
LINE
  5
16D2E
330
18
100
AcDbEntity
  8
ｺﾈｸﾀ
100
AcDbLine
 10
-179.8860426892209
 20
429.8802294008386
 30
0.0
 11
-187.0468544022884
 21
429.8802294008386
 31
0.0
  0
LINE
  5
16D2F
330
18
100
AcDbEntity
  8
ｺﾈｸﾀ
100
AcDbLine
 10
-179.8860426892209
 20
442.1009294008386
 30
0.0
 11
-187.886042689221
 21
442.1009294008386
 31
0.0
  0
LINE
  5
16D30
330
18
100
AcDbEntity
  8
ｺﾈｸﾀ
100
AcDbLine
 10
-187.0468544022884
 20
438.5340294008384
 30
0.0
 11
-187.0468544022884
 21
437.0140294008383
 31
0.0
  0
LINE
  5
16D31
330
18
100
AcDbEntity
  8
ｺﾈｸﾀ
100
AcDbLine
 10
-191.886042689221
 20
428.1497279255477
 30
0.0
 11
-191.886042689221
 21
438.7445308761293
 31
0.0
  0
LINE
  5
16D32
330
18
100
AcDbEntity
  8
ｺﾈｸﾀ
 48
0.5
100
AcDbLine
 10
-191.886042689221
 20
436.2015018938975
 30
0.0
 11
-193.6922308277351
 21
436.2015018938977
 31
0.0
  0
LINE
  5
16D37
330
18
100
AcDbEntity
  8
ｺﾈｸﾀ
100
AcDbLine
 10
-187.0468544022884
 20
429.8802294008386
 30
0.0
 11
-187.0468544022884
 21
428.3602294008383
 31
0.0
  0
ARC
  5
16D38
330
18
100
AcDbEntity
  8
ｺﾈｸﾀ
100
AcDbCircle
 10
-179.8860426892209
 20
433.4471294008385
 30
0.0
 40
8.0
100
AcDbArc
 50
153.5214655209855
 51
206.4785344790143
  0
LINE
  5
16D3B
330
18
100
AcDbEntity
  8
ｺﾈｸﾀ
 48
0.5
100
AcDbLine
 10
-193.692230827736
 20
430.6971294008391
 30
0.0
 11
-191.8860426892221
 21
430.6971294008388
 31
0.0
  0
ARC
  5
16D3C
330
18
100
AcDbEntity
  8
ｺﾈｸﾀ
100
AcDbCircle
 10
-179.8860426892209
 20
442.1009294008386
 30
0.0
 40
8.0
100
AcDbArc
 50
180.0
 51
206.4785344790143
  0
LINE
  5
16D3D
330
18
100
AcDbEntity
  8
ｺﾈｸﾀ
100
AcDbLine
 10
-187.886042689221
 20
442.1009294008386
 30
0.0
 11
-191.886042689221
 21
438.7445308761293
 31
0.0
  0
LINE
  5
16D3E
330
18
100
AcDbEntity
  8
ｺﾈｸﾀ
100
AcDbLine
 10
-174.8860426892212
 20
427.4471281392028
 30
0.0
 11
-179.8860426892209
 21
427.4471268775682
 31
0.0
  0
LINE
  5
16D3F
330
18
100
AcDbEntity
  8
ｺﾈｸﾀ
100
AcDbLine
 10
-174.8860426892212
 20
439.4471281392056
 30
0.0
 11
-179.8860426892209
 21
439.4471268775718
 31
0.0
  0
LINE
  5
16D40
330
18
100
AcDbEntity
  8
ｺﾈｸﾀ
100
AcDbLine
 10
-169.8860426892212
 20
442.1009294008386
 30
0.0
 11
-169.8860426892212
 21
424.7933294008383
 31
0.0
  0
LINE
  5
16D42
330
18
100
AcDbEntity
  8
ｺﾈｸﾀ
100
AcDbLine
 10
-169.886042689221
 20
414.5319752671555
 30
0.0
 11
-174.886042689221
 21
414.5319752671555
 31
0.0
  0
LINE
  5
16D43
330
18
100
AcDbEntity
  8
ｺﾈｸﾀ
100
AcDbLine
 10
-169.886042689221
 20
413.0119752671551
 30
0.0
 11
-174.886042689221
 21
413.0119752671551
 31
0.0
  0
LINE
  5
16D44
330
18
100
AcDbEntity
  8
ｺﾈｸﾀ
100
AcDbLine
 10
-169.886042689221
 20
404.3581752671546
 30
0.0
 11
-174.886042689221
 21
404.3581752671546
 31
0.0
  0
LINE
  5
16D45
330
18
100
AcDbEntity
  8
ｺﾈｸﾀ
100
AcDbLine
 10
-169.886042689221
 20
405.8781752671555
 30
0.0
 11
-174.886042689221
 21
405.8781752671555
 31
0.0
  0
LINE
  5
16D46
330
18
100
AcDbEntity
  8
ｺﾈｸﾀ
100
AcDbLine
 10
-169.886042689221
 20
418.0988752671551
 30
0.0
 11
-174.886042689221
 21
418.0988752671551
 31
0.0
  0
LINE
  5
16D47
330
18
100
AcDbEntity
  8
ｺﾈｸﾀ
100
AcDbLine
 10
-169.886042689221
 20
400.7912752671551
 30
0.0
 11
-174.886042689221
 21
400.7912752671551
 31
0.0
  0
LINE
  5
16D48
330
18
100
AcDbEntity
  8
中心線
100
AcDbLine
 10
-193.183094085567
 20
409.4450752671551
 30
0.0
 11
-162.3447095292775
 21
409.4450752671551
 31
0.0
  0
LINE
  5
16D49
330
18
100
AcDbEntity
  8
ｺﾈｸﾀ
100
AcDbLine
 10
-174.886042689221
 20
400.7912752671551
 30
0.0
 11
-174.886042689221
 21
418.0988752671551
 31
0.0
  0
LINE
  5
16D4A
330
18
100
AcDbEntity
  8
ｺﾈｸﾀ
100
AcDbLine
 10
-179.8860426892209
 20
400.7912752671551
 30
0.0
 11
-179.8860426892209
 21
418.0988752671551
 31
0.0
  0
LINE
  5
16D4B
330
18
100
AcDbEntity
  8
ｺﾈｸﾀ
100
AcDbLine
 10
-187.886042689221
 20
400.7912752671551
 30
0.0
 11
-187.886042689221
 21
418.0988752671551
 31
0.0
  0
ARC
  5
16D4C
330
18
100
AcDbEntity
  8
ｺﾈｸﾀ
100
AcDbCircle
 10
-179.8860426892209
 20
400.7912752671551
 30
0.0
 40
8.0
100
AcDbArc
 50
153.5214655209855
 51
180.0
  0
LINE
  5
16D4D
330
18
100
AcDbEntity
  8
ｺﾈｸﾀ
100
AcDbLine
 10
-187.886042689221
 20
400.7912752671551
 30
0.0
 11
-191.886042689221
 21
404.1476737918642
 31
0.0
  0
LINE
  5
16D4E
330
18
100
AcDbEntity
  8
ｺﾈｸﾀ
100
AcDbLine
 10
-179.8860426892209
 20
400.7912752671551
 30
0.0
 11
-187.886042689221
 21
400.7912752671551
 31
0.0
  0
LINE
  5
16D4F
330
18
100
AcDbEntity
  8
ｺﾈｸﾀ
100
AcDbLine
 10
-179.8860426892209
 20
413.0119752671551
 30
0.0
 11
-187.0468544022883
 21
413.0119752671551
 31
0.0
  0
LINE
  5
16D50
330
18
100
AcDbEntity
  8
ｺﾈｸﾀ
100
AcDbLine
 10
-179.8860426892209
 20
414.5319752671555
 30
0.0
 11
-187.0468544022883
 21
414.5319752671555
 31
0.0
  0
LINE
  5
16D51
330
18
100
AcDbEntity
  8
ｺﾈｸﾀ
100
AcDbLine
 10
-179.8860426892209
 20
404.3581752671546
 30
0.0
 11
-187.0468544022883
 21
404.3581752671546
 31
0.0
  0
LINE
  5
16D52
330
18
100
AcDbEntity
  8
ｺﾈｸﾀ
100
AcDbLine
 10
-179.8860426892209
 20
405.8781752671555
 30
0.0
 11
-187.0468544022883
 21
405.8781752671555
 31
0.0
  0
LINE
  5
16D53
330
18
100
AcDbEntity
  8
ｺﾈｸﾀ
100
AcDbLine
 10
-179.8860426892209
 20
418.0988752671551
 30
0.0
 11
-187.886042689221
 21
418.0988752671551
 31
0.0
  0
LINE
  5
16D54
330
18
100
AcDbEntity
  8
ｺﾈｸﾀ
100
AcDbLine
 10
-187.0468544022883
 20
414.5319752671555
 30
0.0
 11
-187.0468544022883
 21
413.0119752671551
 31
0.0
  0
LINE
  5
16D55
330
18
100
AcDbEntity
  8
ｺﾈｸﾀ
100
AcDbLine
 10
-191.886042689221
 20
404.1476737918642
 30
0.0
 11
-191.886042689221
 21
414.7424767424459
 31
0.0
  0
LINE
  5
16D56
330
18
100
AcDbEntity
  8
ｺﾈｸﾀ
 48
0.5
100
AcDbLine
 10
-191.886042689221
 20
411.9994477602141
 30
0.0
 11
-194.0922308277269
 21
411.9994477602141
 31
0.0
  0
LINE
  5
16D5B
330
18
100
AcDbEntity
  8
ｺﾈｸﾀ
100
AcDbLine
 10
-187.0468544022883
 20
405.8781752671555
 30
0.0
 11
-187.0468544022883
 21
404.3581752671546
 31
0.0
  0
ARC
  5
16D5C
330
18
100
AcDbEntity
  8
ｺﾈｸﾀ
100
AcDbCircle
 10
-179.8860426892209
 20
409.4450752671551
 30
0.0
 40
8.0
100
AcDbArc
 50
153.5214655209855
 51
206.4785344790143
  0
LINE
  5
16D5F
330
18
100
AcDbEntity
  8
ｺﾈｸﾀ
 48
0.5
100
AcDbLine
 10
-194.0922308277264
 20
406.8950752671558
 30
0.0
 11
-191.8860426892219
 21
406.8950752671557
 31
0.0
  0
ARC
  5
16D60
330
18
100
AcDbEntity
  8
ｺﾈｸﾀ
100
AcDbCircle
 10
-179.8860426892209
 20
418.0988752671551
 30
0.0
 40
8.0
100
AcDbArc
 50
180.0
 51
206.4785344790143
  0
LINE
  5
16D61
330
18
100
AcDbEntity
  8
ｺﾈｸﾀ
100
AcDbLine
 10
-187.886042689221
 20
418.0988752671551
 30
0.0
 11
-191.886042689221
 21
414.7424767424459
 31
0.0
  0
LINE
  5
16D62
330
18
100
AcDbEntity
  8
ｺﾈｸﾀ
100
AcDbLine
 10
-174.886042689221
 20
403.4450740055197
 30
0.0
 11
-179.8860426892209
 21
403.445072743885
 31
0.0
  0
LINE
  5
16D63
330
18
100
AcDbEntity
  8
ｺﾈｸﾀ
100
AcDbLine
 10
-174.886042689221
 20
415.4450740055223
 30
0.0
 11
-179.8860426892209
 21
415.4450727438883
 31
0.0
  0
LINE
  5
16D64
330
18
100
AcDbEntity
  8
ｺﾈｸﾀ
100
AcDbLine
 10
-169.886042689221
 20
418.0988752671551
 30
0.0
 11
-169.886042689221
 21
400.7912752671551
 31
0.0
  0
LINE
  5
16D66
330
18
100
AcDbEntity
  8
ｺﾈｸﾀ
 48
0.5
100
AcDbLine
 10
-169.8860426891938
 20
548.7051538085331
 30
0.0
 11
-169.8860426891932
 21
536.7051538085337
 31
0.0
  0
LINE
  5
1AB8B
330
18
100
AcDbEntity
  8
本体
  6
Continuous
100
AcDbLine
 10
-6.411057043082282
 20
488.7051538085288
 30
0.0
 11
-6.411057043082337
 21
596.7051538085287
 31
0.0
  0
LINE
  5
1AB8C
330
18
100
AcDbEntity
  8
本体
  6
Continuous
100
AcDbLine
 10
-32.91105704308415
 20
598.4051538085252
 30
0.0
 11
-32.91105704308931
 21
487.0051538085305
 31
0.0
  0
LINE
  5
1AB8D
330
18
100
AcDbEntity
  8
本体
  6
Continuous
100
AcDbLine
 10
-32.91105704309867
 20
487.0051538085398
 30
0.0
 11
-32.91105704309279
 21
509.7051538085375
 31
0.0
  0
LINE
  5
1AB8E
330
18
100
AcDbEntity
  8
本体
  6
Continuous
100
AcDbLine
 10
-33.41105704308438
 20
598.2051538085173
 30
0.0
 11
-33.41105704308432
 21
487.2051538085485
 31
0.0
  0
LINE
  5
1AB8F
330
18
100
AcDbEntity
  8
本体
  6
Continuous
100
AcDbLine
 10
13.58894295691764
 20
486.7051538085227
 30
0.0
 11
13.58894295691764
 21
598.7051538085303
 31
0.0
  0
LINE
  5
1ABEA
330
18
100
AcDbEntity
  8
隠れ線
  6
HIDDEN2
 48
10.0
100
AcDbLine
 10
-36.41311117675849
 20
533.2051538085336
 30
0.0
 11
11.58894295692131
 21
533.2051538085336
 31
0.0
  0
LINE
  5
1ABEB
330
18
100
AcDbEntity
  8
隠れ線
  6
HIDDEN2
 48
10.0
100
AcDbLine
 10
-36.41311117675758
 20
552.2051538085336
 30
0.0
 11
11.58894295692043
 21
552.2051538085336
 31
0.0
  0
LINE
  5
1ABEC
330
18
100
AcDbEntity
  8
本体
  6
Continuous
100
AcDbLine
 10
-32.61105704308443
 20
598.7051538085254
 30
0.0
 11
13.58894295691764
 21
598.7051538085303
 31
0.0
  0
LINE
  5
1ABED
330
18
100
AcDbEntity
  8
中心線
 48
0.2
100
AcDbLine
 10
-15.78041191556121
 20
542.7051538085335
 30
0.0
 11
16.0930512242762
 21
542.7051538085335
 31
0.0
  0
LINE
  5
1ABEE
330
18
100
AcDbEntity
  8
中心線
 48
0.2
100
AcDbLine
 10
-20.79727461441757
 20
542.7051538085261
 30
0.0
 11
16.09099709059658
 21
542.7051538085261
 31
0.0
  0
LINE
  5
1ABEF
330
18
100
AcDbEntity
  8
隠れ線
  6
HIDDEN2
 48
10.0
100
AcDbLine
 10
11.58894295692043
 20
505.7051538085262
 30
0.0
 11
11.58894295692043
 21
579.7051538085261
 31
0.0
  0
LINE
  5
1ABF0
330
18
100
AcDbEntity
  8
隠れ線
  6
HIDDEN2
 48
10.0
100
AcDbLine
 10
13.58894295691764
 20
505.7051538085262
 30
0.0
 11
11.58894295692043
 21
505.7051538085262
 31
0.0
  0
LINE
  5
1ABF1
330
18
100
AcDbEntity
  8
隠れ線
  6
HIDDEN2
 48
10.0
100
AcDbLine
 10
13.58894295691764
 20
579.7051538085261
 30
0.0
 11
11.58894295692043
 21
579.7051538085261
 31
0.0
  0
LINE
  5
1AC00
330
18
100
AcDbEntity
  8
本体
  6
Continuous
100
AcDbLine
 10
-34.90694877572519
 20
510.7051538085321
 30
0.0
 11
-34.90694877572309
 21
574.7051538085372
 31
0.0
  0
LINE
  5
1AC01
330
18
100
AcDbEntity
  8
本体
  6
Continuous
100
AcDbLine
 10
-36.40694877572332
 20
567.4051538085372
 30
0.0
 11
-36.40694877572286
 21
518.0051538085292
 31
0.0
  0
LINE
  5
1AC02
330
18
100
AcDbEntity
  8
中心線
 48
0.2
100
AcDbLine
 10
-38.53403842385978
 20
542.7051538085335
 30
0.0
 11
-22.32735981708423
 21
542.7051538085335
 31
0.0
  0
LINE
  5
1AC03
330
18
100
AcDbEntity
  8
中心線
 48
5.0
100
AcDbLine
 10
-4.109002909402318
 20
542.7051538085272
 30
0.0
 11
-13.10900290940321
 21
542.7051538085272
 31
0.0
  0
LINE
  5
1AC04
330
18
100
AcDbEntity
  8
中心線
 48
5.0
100
AcDbLine
 10
1.393051224276615
 20
542.7051538085382
 30
0.0
 11
-8.606948775723367
 21
542.7051538085382
 31
0.0
  0
LINE
  5
1AC08
330
18
100
AcDbEntity
  8
本体
  6
Continuous
100
AcDbLine
 10
-36.10694877572337
 20
517.70515380853
 30
0.0
 11
-36.40694877572332
 21
518.0051538085301
 31
0.0
  0
LINE
  5
1AC09
330
18
100
AcDbEntity
  8
本体
  6
Continuous
100
AcDbLine
 10
-36.10694877572337
 20
517.70515380853
 30
0.0
 11
-34.90694877572332
 21
517.70515380853
 31
0.0
  0
LINE
  5
1AC0A
330
18
100
AcDbEntity
  8
本体
  6
Continuous
100
AcDbLine
 10
-34.40694877572307
 20
510.20515380853
 30
0.0
 11
-34.90694877572309
 21
510.70515380853
 31
0.0
  0
LINE
  5
1AC0B
330
18
100
AcDbEntity
  8
本体
  6
Continuous
100
AcDbLine
 10
-34.40694877572307
 20
510.20515380853
 30
0.0
 11
-33.41105704308427
 21
510.20515380853
 31
0.0
  0
LINE
  5
1AC0D
330
18
100
AcDbEntity
  8
ﾊｯﾁﾝｸ_
100
AcDbLine
 10
-36.40694877572286
 20
557.6254245818083
 30
0.0
 11
-36.32721954899307
 21
557.7051538085381
 31
0.0
  0
ARC
  5
1AC10
330
18
100
AcDbEntity
  8
本体
  6
Continuous
100
AcDbCircle
 10
-4.411057043082351
 20
596.7051538085287
 30
0.0
 40
2.0
100
AcDbArc
 50
90.0
 51
180.0
  0
LINE
  5
1AC11
330
18
100
AcDbEntity
  8
本体
  6
Continuous
100
AcDbLine
 10
-4.409002909405231
 20
598.7051538085291
 30
0.0
 11
-4.411057043082351
 21
598.7051538085291
 31
0.0
  0
LINE
  5
1AC1A
330
18
100
AcDbEntity
  8
本体
  6
Continuous
100
AcDbLine
 10
-32.91105704308437
 20
598.2051538085173
 30
0.0
 11
-32.91105704308437
 21
575.7051538085272
 31
0.0
  0
LINE
  5
1AC1C
330
18
100
AcDbEntity
  8
本体
  6
Continuous
100
AcDbLine
 10
-34.40694877572307
 20
575.2051538085372
 30
0.0
 11
-34.90694877572309
 21
574.7051538085372
 31
0.0
  0
LINE
  5
1AC1D
330
18
100
AcDbEntity
  8
本体
  6
Continuous
100
AcDbLine
 10
-34.40694877572307
 20
575.2051538085372
 30
0.0
 11
-33.41105704308432
 21
575.2051538085372
 31
0.0
  0
LINE
  5
1AC1E
330
18
100
AcDbEntity
  8
本体
  6
Continuous
100
AcDbLine
 10
-36.10694877572337
 20
567.7051538085372
 30
0.0
 11
-36.40694877572332
 21
567.4051538085372
 31
0.0
  0
LINE
  5
1AC1F
330
18
100
AcDbEntity
  8
本体
  6
Continuous
100
AcDbLine
 10
-36.10694877572337
 20
567.7051538085372
 30
0.0
 11
-34.90694877572332
 21
567.7051538085372
 31
0.0
  0
LINE
  5
1AC2D
330
18
100
AcDbEntity
  8
本体
  6
Continuous
100
AcDbLine
 10
-33.41105704308438
 20
598.2051538085173
 30
0.0
 11
-32.91105704308437
 21
598.2051538085173
 31
0.0
  0
LINE
  5
1AC2E
330
18
100
AcDbEntity
  8
本体
  6
Continuous
100
AcDbLine
 10
-32.91105704308415
 20
598.4051538085252
 30
0.0
 11
-32.61105704308443
 21
598.7051538085254
 31
0.0
  0
LINE
  5
1AD17
330
18
100
AcDbEntity
  8
本体
  6
Continuous
100
AcDbLine
 10
-4.411057043082323
 20
593.7051538085285
 30
0.0
 11
12.03514630446075
 21
593.7051538085303
 31
0.0
  0
LINE
  5
1B19F
330
18
100
AcDbEntity
  8
ｺﾈｸﾀ
 48
0.5
100
AcDbLine
 10
-232.1833927139854
 20
513.1913662729325
 30
0.0
 11
-232.1853874119812
 21
501.7413664466798
 31
0.0
  0
LINE
  5
1B1A0
330
18
100
AcDbEntity
  8
ｺﾈｸﾀ
 48
0.5
100
AcDbLine
 10
-227.5333927845464
 20
513.1905561990737
 30
0.0
 11
-227.5353874825419
 21
501.740556372821
 31
0.0
  0
LINE
  5
1B1A1
330
18
100
AcDbEntity
  8
ｺﾈｸﾀ
 48
0.5
100
AcDbLine
 10
-220.5682833382576
 20
513.1893428112958
 30
0.0
 11
-220.5702780362531
 21
501.7393429850431
 31
0.0
  0
LINE
  5
1B1A2
330
18
100
AcDbEntity
  8
ｺﾈｸﾀ
 48
0.5
100
AcDbLine
 10
-225.2182832676968
 20
513.1901528851543
 30
0.0
 11
-225.2202779656915
 21
501.7401530589018
 31
0.0
  0
LINE
  5
1B1A3
330
18
100
AcDbEntity
  8
ｺﾈｸﾀ
 48
0.5
100
AcDbLine
 10
-219.0227692546492
 20
487.4390731774187
 30
0.0
 11
-233.7727690308262
 21
487.4416427665395
 31
0.0
  0
LINE
  5
1B1A4
330
18
100
AcDbEntity
  8
ｺﾈｸﾀ
 48
0.5
100
AcDbLine
 10
-218.9853876122828
 20
501.7390668821786
 30
0.0
 11
-233.7702778359505
 21
501.7416425495444
 31
0.0
  0
LINE
  5
1B1A5
330
18
100
AcDbEntity
  8
ｺﾈｸﾀ
 48
0.5
100
AcDbLine
 10
-233.7727690308262
 20
487.4416427665395
 30
0.0
 11
-233.7702778359505
 21
501.7416425495444
 31
0.0
  0
LINE
  5
1B1A8
330
18
100
AcDbEntity
  8
ｺﾈｸﾀ
 48
0.5
100
AcDbLine
 10
-216.8217762942719
 20
493.1386898301737
 30
0.0
 11
-215.0718547150714
 21
492.6883849704968
 31
0.0
  0
LINE
  5
1B1A9
330
18
100
AcDbEntity
  8
ｺﾈｸﾀ
 48
0.5
100
AcDbLine
 10
-215.0718547150714
 20
492.6883849704968
 30
0.0
 11
-217.069816434369
 21
504.3887332118195
 31
0.0
  0
LINE
  5
1B1AA
330
18
100
AcDbEntity
  8
ｺﾈｸﾀ
 48
0.5
100
AcDbLine
 10
-219.0227692546492
 20
487.4390731774187
 30
0.0
 11
-219.0208851796435
 21
498.2540730133073
 31
0.0
  0
LINE
  5
1B1AB
330
18
100
AcDbEntity
  8
ｺﾈｸﾀ
 48
0.5
100
AcDbLine
 10
-224.1174836540945
 20
475.5416613436705
 30
0.0
 11
-224.2425641173118
 21
475.9394043302028
 31
0.0
  0
LINE
  5
1B1AC
330
18
100
AcDbEntity
  8
ｺﾈｸﾀ
 48
0.5
100
AcDbLine
 10
-226.5172301807184
 20
475.5420794021561
 30
0.0
 11
-226.6425033361162
 21
475.9404351299686
 31
0.0
  0
LINE
  5
1B1AD
330
18
100
AcDbEntity
  8
ｺﾈｸﾀ
 48
0.5
100
AcDbLine
 10
-224.1174836540945
 20
475.5416613436705
 30
0.0
 11
-228.7669780013672
 21
475.5416613436705
 31
0.0
  0
LINE
  5
1B1AE
330
18
100
AcDbEntity
  8
ｺﾈｸﾀ
 48
0.5
100
AcDbLine
 10
-225.2472672167974
 20
479.1342566763701
 30
0.0
 11
-225.4482078366942
 21
479.7732271456037
 31
0.0
  0
LINE
  5
1B1AF
330
18
100
AcDbEntity
  8
ｺﾈｸﾀ
 48
0.5
100
AcDbLine
 10
-226.2424867728629
 20
475.9403489959527
 30
0.0
 11
-226.4434273927586
 21
476.5793194651863
 31
0.0
  0
LINE
  5
1B1B0
330
18
100
AcDbEntity
  8
ｺﾈｸﾀ
 48
0.5
100
AcDbLine
 10
-226.4529109361798
 20
482.9680794917707
 30
0.0
 11
-227.8594952754589
 21
487.4408727764053
 31
0.0
  0
LINE
  5
1B1B1
330
18
100
AcDbEntity
  8
ｺﾈｸﾀ
 48
0.5
100
AcDbLine
 10
-227.6472064356009
 20
479.1352874761354
 30
0.0
 11
-230.2592418020824
 21
487.4412908348908
 31
0.0
  0
LINE
  5
1B1B2
330
18
100
AcDbEntity
  8
ｺﾈｸﾀ
 48
0.5
100
AcDbLine
 10
-227.4481304922451
 20
479.7741718113534
 30
0.0
 11
-229.8592304114049
 21
487.4412211491321
 31
0.0
  0
LINE
  5
1B1B3
330
18
100
AcDbEntity
  8
ｺﾈｸﾀ
 48
0.5
100
AcDbLine
 10
-228.6244055363479
 20
475.9992119296379
 30
0.0
 11
-232.2594950083879
 21
487.442405819382
 31
0.0
  0
LINE
  5
1B1B4
330
18
100
AcDbEntity
  8
ｺﾈｸﾀ
 48
0.5
100
AcDbLine
 10
-228.7671255938299
 20
475.5411876826606
 30
0.0
 11
-225.0594954454133
 21
487.4398972036018
 31
0.0
  0
LINE
  5
1B1B5
330
18
100
AcDbEntity
  8
ｺﾈｸﾀ
 48
0.5
100
AcDbLine
 10
-226.7671257152255
 20
475.5404908449441
 30
0.0
 11
-223.0594955668089
 21
487.4392003658845
 31
0.0
  0
LINE
  5
1B1B6
330
18
100
AcDbEntity
  8
ｺﾈｸﾀ
 48
0.5
100
AcDbLine
 10
-226.3671257395059
 20
475.5403514774001
 30
0.0
 11
-222.6594955910881
 21
487.4390609983414
 31
0.0
  0
LINE
  5
1B1B7
330
18
100
AcDbEntity
  8
ｺﾈｸﾀ
 48
0.5
100
AcDbLine
 10
-224.3671258609015
 20
475.5396546396837
 30
0.0
 11
-220.659495712484
 21
487.4383641606241
 31
0.0
  0
LINE
  5
1B1B8
330
18
100
AcDbEntity
  8
ｺﾈｸﾀ
 48
0.5
100
AcDbLine
 10
-217.069816434369
 20
504.3887332118195
 30
0.0
 11
-218.3057425039502
 21
504.3889485218008
 31
0.0
  0
LINE
  5
1B1B9
330
18
100
AcDbEntity
  8
ｺﾈｸﾀ
 48
0.5
100
AcDbLine
 10
-219.0208851796435
 20
498.2540730133073
 30
0.0
 11
-216.8217762942719
 21
493.1386898301737
 31
0.0
  0
LINE
  5
1B1BA
330
18
100
AcDbEntity
  8
ｺﾈｸﾀ
 48
0.5
100
AcDbLine
 10
-218.3057425039502
 20
504.3889485218008
 30
0.0
 11
-218.992195872947
 21
501.7125220211806
 31
0.0
  0
LINE
  5
1B1BB
330
18
100
AcDbEntity
  8
ｺﾈｸﾀ
 48
0.5
100
AcDbLine
 10
-220.5682833382576
 20
513.1893428112958
 30
0.0
 11
-232.1833927139854
 21
513.1913662729325
 31
0.0
  0
LINE
  5
1B1C0
330
18
100
AcDbEntity
  8
ｺﾈｸﾀ
 48
0.5
100
AcDbLine
 10
-229.1922308277309
 20
475.5416613436705
 30
0.0
 11
-223.6922308277308
 21
475.5416613436705
 31
0.0
  0
LINE
  5
1B1C1
330
18
100
AcDbEntity
  8
ｺﾈｸﾀ
 48
0.5
100
AcDbLine
 10
-223.6922308277308
 20
475.5416613436705
 30
0.0
 11
-223.6922308277308
 21
466.2015018938975
 31
0.0
  0
LINE
  5
1B1C2
330
18
100
AcDbEntity
  8
ｺﾈｸﾀ
 48
0.5
100
AcDbLine
 10
-229.1922308277309
 20
475.5416613436705
 30
0.0
 11
-229.1922308277309
 21
466.1971294008392
 31
0.0
  0
ARC
  5
1B1C3
330
18
100
AcDbEntity
  8
ｺﾈｸﾀ
 48
0.5
100
AcDbCircle
 10
-193.692230827731
 20
466.2015018938975
 30
0.0
 40
30.0
100
AcDbArc
 50
180.0
 51
269.9999999999919
  0
ARC
  5
1B1C4
330
18
100
AcDbEntity
  8
ｺﾈｸﾀ
 48
0.5
100
AcDbCircle
 10
-193.692230827731
 20
466.1971294008392
 30
0.0
 40
35.5
100
AcDbArc
 50
180.0
 51
269.9999999999918
  0
ARC
  5
1B1C8
330
18
100
AcDbEntity
  8
ｺﾈｸﾀ
 48
0.5
100
AcDbCircle
 10
-194.0922308277309
 20
376.895075267156
 30
0.0
 40
30.0
100
AcDbArc
 50
89.9999999999914
 51
180.0
  0
ARC
  5
1B1C9
330
18
100
AcDbEntity
  8
ｺﾈｸﾀ
 48
0.5
100
AcDbCircle
 10
-194.0922308277309
 20
376.8994477602144
 30
0.0
 40
35.1
100
AcDbArc
 50
89.99999999999337
 51
180.0
  0
LINE
  5
1B1CF
330
18
100
AcDbEntity
  8
ｺﾈｸﾀ
 48
0.5
100
AcDbLine
 10
-236.4085250270449
 20
342.3975513413836
 30
0.0
 11
-235.9739374188785
 21
345.5442614385704
 31
0.0
  0
LINE
  5
1B1D0
330
18
100
AcDbEntity
  8
ｺﾈｸﾀ
 48
0.5
100
AcDbLine
 10
-239.6720039685181
 20
354.0981200477455
 30
0.0
 11
-237.7240422484614
 21
342.3977805168945
 31
0.0
  0
LINE
  5
1B1D1
330
18
100
AcDbEntity
  8
ｺﾈｸﾀ
 48
0.5
100
AcDbLine
 10
-219.2755668609601
 20
333.6445664856521
 30
0.0
 11
-219.2734937687194
 21
345.5445663050761
 31
0.0
  0
LINE
  5
1B1D2
330
18
100
AcDbEntity
  8
ｺﾈｸﾀ
 48
0.5
100
AcDbLine
 10
-234.2255666341019
 20
333.6471709166592
 30
0.0
 11
-234.2234935418613
 21
345.5471707360832
 31
0.0
  0
LINE
  5
1B1D3
330
18
100
AcDbEntity
  8
ｺﾈｸﾀ
 48
0.5
100
AcDbLine
 10
-230.4755666910053
 20
333.6465176312896
 30
0.0
 11
-230.4734935987656
 21
345.5465174507128
 31
0.0
  0
LINE
  5
1B1D4
330
18
100
AcDbEntity
  8
ｺﾈｸﾀ
 48
0.5
100
AcDbLine
 10
-228.7234936253208
 20
345.546212584207
 30
0.0
 11
-228.7255667175609
 21
333.6462127647838
 31
0.0
  0
LINE
  5
1B1D5
330
18
100
AcDbEntity
  8
ｺﾈｸﾀ
 48
0.5
100
AcDbLine
 10
-224.7734936852605
 20
345.5455244569514
 30
0.0
 11
-224.7755667774995
 21
333.6455246375273
 31
0.0
  0
LINE
  5
1B1D6
330
18
100
AcDbEntity
  8
ｺﾈｸﾀ
 48
0.5
100
AcDbLine
 10
-223.0255668040549
 20
333.6452197710216
 30
0.0
 11
-223.0234937118159
 21
345.5452195904456
 31
0.0
  0
LINE
  5
1B1D7
330
18
100
AcDbEntity
  8
ｺﾈｸﾀ
 48
0.5
100
AcDbLine
 10
-219.2755668609601
 20
333.6445664856521
 30
0.0
 11
-234.2255666341019
 21
333.6471709166592
 31
0.0
  0
LINE
  5
1B1D8
330
18
100
AcDbEntity
  8
ｺﾈｸﾀ
 48
0.5
100
AcDbLine
 10
-237.7240422484614
 20
342.3977805168945
 30
0.0
 11
-236.4085250270449
 21
342.3975513413836
 31
0.0
  0
LINE
  5
1B1D9
330
18
100
AcDbEntity
  8
ｺﾈｸﾀ
 48
0.5
100
AcDbLine
 10
-237.9220823893176
 20
353.6478151880681
 30
0.0
 11
-239.6720039685181
 21
354.0981200477455
 31
0.0
  0
LINE
  5
1B1DA
330
18
100
AcDbEntity
  8
ｺﾈｸﾀ
 48
0.5
100
AcDbLine
 10
-227.9334408538
 20
371.4960754950827
 30
0.0
 11
-231.7218179734909
 21
359.0967351262107
 31
0.0
  0
LINE
  5
1B1DB
330
18
100
AcDbEntity
  8
ｺﾈｸﾀ
 48
0.5
100
AcDbLine
 10
-226.646133119005
 20
359.0958508940232
 30
0.0
 11
-226.6422308277309
 21
371.4958505541146
 31
0.0
  0
LINE
  5
1B1DC
330
18
100
AcDbEntity
  8
ｺﾈｸﾀ
 48
0.5
100
AcDbLine
 10
-225.3510208016626
 20
371.4956256131455
 30
0.0
 11
-221.5704482645199
 21
359.0949666618337
 31
0.0
  0
LINE
  5
1B1DD
330
18
100
AcDbEntity
  8
ｺﾈｸﾀ
 48
0.5
100
AcDbLine
 10
-235.7711329805381
 20
359.0974405550888
 30
0.0
 11
-217.5211332574729
 21
359.0942612329564
 31
0.0
  0
LINE
  5
1B1DE
330
18
100
AcDbEntity
  8
ｺﾈｸﾀ
 48
0.5
100
AcDbLine
 10
-217.5234937952749
 20
345.5442614385704
 30
0.0
 11
-235.9739374188785
 21
345.5442614385704
 31
0.0
  0
LINE
  5
1B1DF
330
18
100
AcDbEntity
  8
ｺﾈｸﾀ
 48
0.5
100
AcDbLine
 10
-235.7729659764458
 20
348.5756458429561
 30
0.0
 11
-237.9220823893176
 21
353.6478151880681
 31
0.0
  0
LINE
  5
1B1E0
330
18
100
AcDbEntity
  8
ｺﾈｸﾀ
 48
0.5
100
AcDbLine
 10
-235.7711329805381
 20
359.0974405550888
 30
0.0
 11
-235.7729659764458
 21
348.5756458429561
 31
0.0
  0
LINE
  5
1B1E1
330
18
100
AcDbEntity
  8
ｺﾈｸﾀ
 48
0.5
100
AcDbLine
 10
-217.5211332574729
 20
359.0942612329564
 30
0.0
 11
-217.5234937952749
 21
345.5442614385704
 31
0.0
  0
LINE
  5
1B255
330
18
100
AcDbEntity
  8
ｺﾈｸﾀ
100
AcDbLine
 10
144.4358018764398
 20
537.618253808533
 30
0.0
 11
148.6243421199471
 21
537.618253808533
 31
0.0
  0
LINE
  5
1B256
330
18
100
AcDbEntity
  8
ｺﾈｸﾀ
100
AcDbLine
 10
144.4358018764398
 20
539.1382538085337
 30
0.0
 11
148.7135362366949
 21
539.1382538085337
 31
0.0
  0
LINE
  5
1B257
330
18
100
AcDbEntity
  8
ｺﾈｸﾀ
100
AcDbLine
 10
144.4358018764398
 20
547.7920538085337
 30
0.0
 11
147.6575279537715
 21
547.7920538085337
 31
0.0
  0
LINE
  5
1B258
330
18
100
AcDbEntity
  8
ｺﾈｸﾀ
100
AcDbLine
 10
144.4358018764398
 20
546.2720538085333
 30
0.0
 11
147.5958449133779
 21
546.2720538085333
 31
0.0
  0
LINE
  5
1B259
330
18
100
AcDbEntity
  8
ｺﾈｸﾀ
100
AcDbLine
 10
144.4358018764398
 20
534.0513538085335
 30
0.0
 11
147.8449196784798
 21
534.0513538085335
 31
0.0
  0
LINE
  5
1B25A
330
18
100
AcDbEntity
  8
ｺﾈｸﾀ
100
AcDbLine
 10
144.4358018764398
 20
551.3589538085334
 30
0.0
 11
148.290172678157
 21
551.3589538085334
 31
0.0
  0
LINE
  5
1B277
330
18
100
AcDbEntity
  8
ｺﾈｸﾀ
100
AcDbLine
 10
144.4358018764398
 20
534.0513538085335
 30
0.0
 11
144.4358018764398
 21
551.3589538085334
 31
0.0
  0
SPLINE
  5
1B279
330
18
100
AcDbEntity
  8
文字
100
AcDbSpline
210
0.0
220
0.0
230
1.0
 70
     8
 71
     3
 72
    10
 73
     6
 74
     4
 42
0.0000000001
 43
0.0000000001
 44
0.0000000001
 40
0.0
 40
0.0
 40
0.0
 40
0.0
 40
8.398400793205988
 40
13.44740042016558
 40
20.95481397840008
 40
20.95481397840008
 40
20.95481397840008
 40
20.95481397840008
 10
148.7775658852369
 20
553.2878833395888
 30
0.0
 10
148.0544813156185
 20
550.5015250973801
 30
0.0
 10
146.89668854236
 20
546.0400477376283
 30
0.0
 10
149.4082029570206
 20
539.2139788441138
 30
0.0
 10
148.1616231319654
 20
535.0780579094744
 30
0.0
 10
147.4162995955374
 20
532.6052124843881
 30
0.0
 11
148.7775658852369
 21
553.2878833395888
 31
0.0
 11
147.6885521517683
 21
544.9603876192873
 31
0.0
 11
148.6686641610353
 21
540.0074311605317
 31
0.0
 11
147.4162995955374
 21
532.6052124843881
 31
0.0
  0
LINE
  5
1B383
330
18
100
AcDbEntity
  8
ｺﾈｸﾀ
 48
0.5
100
AcDbLine
 10
-229.1922308277309
 20
371.4958505541146
 30
0.0
 11
-224.0922308277308
 21
371.4958505541146
 31
0.0
  0
LINE
  5
1B384
330
18
100
AcDbEntity
  8
ｺﾈｸﾀ
 48
0.5
100
AcDbLine
 10
-229.1922308277309
 20
371.4958505541146
 30
0.0
 11
-229.1922308277309
 21
376.8994477602144
 31
0.0
  0
LINE
  5
1B385
330
18
100
AcDbEntity
  8
ｺﾈｸﾀ
 48
0.5
100
AcDbLine
 10
-224.0922308277308
 20
371.4958505541146
 30
0.0
 11
-224.0922308277308
 21
376.895075267156
 31
0.0
  0
LINE
  5
1D0E0
330
18
100
AcDbEntity
  8
隠れ線
  6
HIDDEN2
 48
10.0
100
AcDbLine
 10
-97.88604268921361
 20
401.4430211334715
 30
0.0
 11
-116.8860426892136
 21
401.4430211334715
 31
0.0
  0
LINE
  5
1D0E1
330
18
100
AcDbEntity
  8
隠れ線
  6
HIDDEN2
 48
10.0
100
AcDbLine
 10
-97.88604268921361
 20
402.447129400828
 30
0.0
 11
-70.3860426892211
 21
402.447129400828
 31
0.0
  0
LINE
  5
1D120
330
18
100
AcDbEntity
  8
本体
  6
Continuous
100
AcDbLine
 10
-4.411057043096333
 20
491.7051538085295
 30
0.0
 11
12.03514630444677
 21
491.7051538085231
 31
0.0
  0
ARC
  5
1D121
330
18
100
AcDbEntity
  8
本体
  6
Continuous
100
AcDbCircle
 10
-4.411057043097184
 20
488.7051538085288
 30
0.0
 40
2.0
100
AcDbArc
 50
179.999999999984
 51
269.999999999984
  0
LINE
  5
1D122
330
18
100
AcDbEntity
  8
本体
  6
Continuous
100
AcDbLine
 10
-32.91105704309945
 20
487.0051538085406
 30
0.0
 11
-32.61105704309979
 21
486.7051538085403
 31
0.0
  0
LINE
  5
1D123
330
18
100
AcDbEntity
  8
本体
  6
Continuous
100
AcDbLine
 10
-32.61105704309979
 20
486.7051538085403
 30
0.0
 11
13.58894295690226
 21
486.7051538085227
 31
0.0
  0
LINE
  5
1D124
330
18
100
AcDbEntity
  8
本体
  6
Continuous
100
AcDbLine
 10
-33.41105704309962
 20
487.2051538085485
 30
0.0
 11
-32.91105704309962
 21
487.2051538085479
 31
0.0
  0
LINE
  5
1D126
330
18
100
AcDbEntity
  8
ｷｬｯﾌ_ﾎ_ﾙﾄ
100
AcDbLine
 10
-34.01105704308445
 20
582.8989704989901
 30
0.0
 11
-33.41105704308438
 21
582.8989704989901
 31
0.0
  0
LINE
  5
1D127
330
18
100
AcDbEntity
  8
ｷｬｯﾌ_ﾎ_ﾙﾄ
100
AcDbLine
 10
-34.01105704308445
 20
582.8989704989901
 30
0.0
 11
-34.2110570430845
 21
582.6989704989901
 31
0.0
  0
LINE
  5
1D128
330
18
100
AcDbEntity
  8
中心線
 48
0.2
100
AcDbLine
 10
-35.01105704308451
 20
579.8989704989901
 30
0.0
 11
-31.29114418689436
 21
579.8989704989901
 31
0.0
  0
LINE
  5
1D129
330
18
100
AcDbEntity
  8
文字
100
AcDbLine
 10
-34.01105704308451
 20
576.8989704989901
 30
0.0
 11
-33.41105704308438
 21
576.8989704989901
 31
0.0
  0
LINE
  5
1D12A
330
18
100
AcDbEntity
  8
ｷｬｯﾌ_ﾎ_ﾙﾄ
100
AcDbLine
 10
-34.01105704308445
 20
576.8989704989901
 30
0.0
 11
-34.2110570430845
 21
577.0989704989903
 31
0.0
  0
LINE
  5
1D12B
330
18
100
AcDbEntity
  8
ｷｬｯﾌ_ﾎ_ﾙﾄ
100
AcDbLine
 10
-34.2110570430845
 20
577.0989704989903
 30
0.0
 11
-34.2110570430845
 21
582.6989704989901
 31
0.0
  0
LINE
  5
1D12C
330
18
100
AcDbEntity
  8
ｷｬｯﾌ_ﾎ_ﾙﾄ
100
AcDbLine
 10
-34.01105704308445
 20
576.8989704989901
 30
0.0
 11
-34.01105704308445
 21
582.8989704989901
 31
0.0
  0
LINE
  5
1D12D
330
18
100
AcDbEntity
  8
文字
100
AcDbLine
 10
-33.41105704308438
 20
582.8989704989901
 30
0.0
 11
-33.41105704308438
 21
576.89897049899
 31
0.0
  0
LINE
  5
1D12F
330
18
100
AcDbEntity
  8
ｷｬｯﾌ_ﾎ_ﾙﾄ
100
AcDbLine
 10
-34.01105704308441
 20
502.5113369542425
 30
0.0
 11
-34.01105704308441
 21
508.5113369542423
 31
0.0
  0
LINE
  5
1D130
330
18
100
AcDbEntity
  8
ｷｬｯﾌ_ﾎ_ﾙﾄ
100
AcDbLine
 10
-34.21105704308446
 20
502.7113369542425
 30
0.0
 11
-34.21105704308446
 21
508.3113369542424
 31
0.0
  0
LINE
  5
1D131
330
18
100
AcDbEntity
  8
ｷｬｯﾌ_ﾎ_ﾙﾄ
100
AcDbLine
 10
-34.01105704308441
 20
502.5113369542425
 30
0.0
 11
-34.21105704308446
 21
502.7113369542425
 31
0.0
  0
LINE
  5
1D132
330
18
100
AcDbEntity
  8
文字
100
AcDbLine
 10
-34.01105704308447
 20
502.5113369542425
 30
0.0
 11
-33.41105704308432
 21
502.5113369542425
 31
0.0
  0
LINE
  5
1D133
330
18
100
AcDbEntity
  8
中心線
 48
0.2
100
AcDbLine
 10
-35.01105704308447
 20
505.5113369542423
 30
0.0
 11
-31.29114418689432
 21
505.5113369542423
 31
0.0
  0
LINE
  5
1D134
330
18
100
AcDbEntity
  8
ｷｬｯﾌ_ﾎ_ﾙﾄ
100
AcDbLine
 10
-34.01105704308441
 20
508.5113369542423
 30
0.0
 11
-34.21105704308446
 21
508.3113369542424
 31
0.0
  0
LINE
  5
1D135
330
18
100
AcDbEntity
  8
ｷｬｯﾌ_ﾎ_ﾙﾄ
100
AcDbLine
 10
-34.01105704308441
 20
508.5113369542423
 30
0.0
 11
-33.41105704308432
 21
508.5113369542423
 31
0.0
  0
LINE
  5
1E86A
330
18
100
AcDbEntity
  8
中心線
 48
0.3
100
AcDbLine
 10
31.42240216797435
 20
593.2185535170183
 30
0.0
 11
44.06085393662553
 21
580.5801017483668
 31
0.0
  0
ARC
  5
1E86B
330
18
100
AcDbEntity
  8
中心線
 48
0.3
100
AcDbCircle
 10
81.93580187645945
 20
542.7051538085335
 30
0.0
 40
62.5
100
AcDbArc
 50
125.5795139340912
 51
144.4204860659359
  0
LINE
  5
1E86C
330
18
100
AcDbEntity
  8
中心線
 48
0.3
100
AcDbLine
 10
132.449201584935
 20
593.2185535170092
 30
0.0
 11
119.8107498162837
 21
580.5801017483577
 31
0.0
  0
ARC
  5
1E86D
330
18
100
AcDbEntity
  8
中心線
 48
0.3
100
AcDbCircle
 10
81.93580187645945
 20
542.7051538085335
 30
0.0
 40
62.5
100
AcDbArc
 50
35.57951393406396
 51
54.42048606590873
  0
LINE
  5
1E86E
330
18
100
AcDbEntity
  8
中心線
 48
0.3
100
AcDbLine
 10
31.73122041221844
 20
492.5005723442911
 30
0.0
 11
41.63071534882994
 21
502.4000672809027
 31
0.0
  0
ARC
  5
1E86F
330
18
100
AcDbEntity
  8
中心線
 48
0.3
100
AcDbCircle
 10
81.93580187645945
 20
542.7051538085335
 30
0.0
 40
62.5
100
AcDbArc
 50
215.5795139340639
 51
234.4204860659086
  0
LINE
  5
1E870
330
18
100
AcDbEntity
  8
中心線
 48
0.3
100
AcDbLine
 10
132.4492015849284
 20
492.1917541000527
 30
0.0
 11
119.810749816277
 21
504.8302058687043
 31
0.0
  0
ARC
  5
1E871
330
18
100
AcDbEntity
  8
中心線
 48
0.3
100
AcDbCircle
 10
81.93580187645945
 20
542.7051538085335
 30
0.0
 40
62.5
100
AcDbArc
 50
305.5795139340911
 51
324.420486065936
  0
VIEWPORT
  5
23
330
15
100
AcDbEntity
 67
     1
  8
0
100
AcDbViewport
 10
252.0169484621086
 20
143.998673663602
 30
0.0
 40
547.485967984683
 41
290.2160131175443
 68
     1
 69
     1
 12
252.0169484621086
 22
143.998673663602
 13
0.0
 23
0.0
 14
10.0
 24
10.0
 15
10.0
 25
10.0
 16
0.0
 26
0.0
 36
1.0
 17
0.0
 27
0.0
 37
0.0
 42
50.0
 43
0.0
 44
0.0
 45
290.2160131175443
 50
0.0
 51
0.0
 72
   100
 90
    32768
  1

281
     0
 71
     1
 74
     0
110
0.0
120
0.0
130
0.0
111
1.0
121
0.0
131
0.0
112
0.0
122
1.0
132
0.0
 79
     0
146
0.0
  0
VIEWPORT
  5
2E
330
15
100
AcDbEntity
 67
     1
  8
M_VIEW
100
AcDbViewport
 10
200.0
 20
144.0
 30
0.0
 40
400.0
 41
288.0
 68
     2
 69
     2
 12
-41.86542094676245
 22
468.4154260451296
 13
0.0
 23
0.0
 14
10.0
 24
10.0
 15
10.0
 25
10.0
 16
0.0
 26
0.0
 36
1.0
 17
0.0
 27
0.0
 37
0.0
 42
50.0
 43
0.0
 44
0.0
 45
288.0000133166273
 50
0.0
 51
0.0
 72
   100
 90
    32768
  1

281
     0
 71
     1
 74
     0
110
0.0
120
0.0
130
0.0
111
1.0
121
0.0
131
0.0
112
0.0
122
1.0
132
0.0
 79
     0
146
0.0
  0
TEXT
  5
6DC
330
15
100
AcDbEntity
 67
     1
  8
文字改
  6
Continuous
100
AcDbText
 10
387.4022848534178
 20
5.981155417998706
 30
0.0
 40
7.0
  1

 41
0.9529999999999999
100
AcDbText
  0
TEXT
  5
2442
330
15
100
AcDbEntity
 67
     1
  8
文字
100
AcDbText
 10
323.402284853418
 20
6.326609872841799
 30
0.0
 40
7.0
  1
ＳＥ－４０３１１
 41
0.9529999999999999
100
AcDbText
  0
MTEXT
  5
1E857
330
15
100
AcDbEntity
 67
     1
  8
文字
100
AcDbMText
 10
217.7662252220958
 20
25.66583484197973
 30
0.0
 40
6.0
 41
184.041739613629
 71
     1
 72
     5
  1
τDISCﾓｰﾀ ND110-050-F(INC) NMR-NAMBA2A-071A
 73
     1
 44
1.0
1001
ACAD
1000
MTEXTBEGIN
1070
    73
1070
     1
1070
    44
1040
1.0
1070
    74
1070
     0
1000
MTEXTEND
  0
ENDSEC
  0
SECTION
  2
OBJECTS
  0
DICTIONARY
  5
C
330
0
100
AcDbDictionary
281
     1
  3
ACAD_GROUP
350
D
  3
ACAD_LAYOUT
350
73F
  3
ACAD_MLINESTYLE
350
1B
  3
ACAD_PLOTSETTINGS
350
740
  3
ACAD_PLOTSTYLENAME
350
73D
  3
ACADDIM
350
15E25
  3
ACDBVARIABLEDICTIONARY
350
11AC
  0
DICTIONARY
  5
1E5B4
330
18
100
AcDbDictionary
280
     1
281
     1
  3
ACAD_LAYOUTSELFREF
360
1E900
  0
DICTIONARY
  5
1E5B2
330
15
100
AcDbDictionary
280
     1
281
     1
  3
ACAD_LAYOUTSELFREF
360
1E8FF
  0
DICTIONARY
  5
D
102
{ACAD_REACTORS
330
C
102
}
330
C
100
AcDbDictionary
281
     1
  3
*A1
350
DCF
  3
*A10
350
499E
  3
*A100
350
33B9
  3
*A101
350
B6E4
  3
*A102
350
5CA6
  3
*A103
350
1134
  3
*A104
350
B982
  3
*A105
350
328C
  3
*A106
350
499B
  3
*A107
350
7AE5
  3
*A108
350
1D642
  3
*A109
350
1D653
  3
*A11
350
1D609
  3
*A110
350
B6FA
  3
*A111
350
1D5D0
  3
*A112
350
1D6F0
  3
*A113
350
8213
  3
*A114
350
1519E
  3
*A115
350
1D616
  3
*A116
350
1D5E4
  3
*A117
350
2CA6
  3
*A118
350
1D5C7
  3
*A119
350
B6FD
  3
*A12
350
1D61B
  3
*A120
350
9655
  3
*A121
350
820D
  3
*A122
350
8822
  3
*A123
350
1A86F
  3
*A124
350
4ABD
  3
*A125
350
B6EC
  3
*A126
350
2FF1
  3
*A127
350
1D6A3
  3
*A128
350
151CD
  3
*A129
350
1D5CB
  3
*A13
350
1D5CA
  3
*A130
350
1D682
  3
*A131
350
B980
  3
*A132
350
151F7
  3
*A133
350
B6F7
  3
*A134
350
1D5E5
  3
*A135
350
4F1E
  3
*A136
350
1D61F
  3
*A137
350
42D1
  3
*A138
350
1D6AE
  3
*A139
350
1D6EB
  3
*A14
350
15AD5
  3
*A140
350
16DB8
  3
*A141
350
9807
  3
*A142
350
1D6D3
  3
*A143
350
B6ED
  3
*A144
350
B6F8
  3
*A145
350
B6EB
  3
*A146
350
A3EA
  3
*A147
350
B983
  3
*A148
350
77D2
  3
*A149
350
BE9C
  3
*A15
350
B6F9
  3
*A150
350
4998
  3
*A151
350
10A4
  3
*A152
350
512B
  3
*A153
350
B6EF
  3
*A154
350
A397
  3
*A155
350
1D6D4
  3
*A156
350
1D5AF
  3
*A157
350
77C8
  3
*A158
350
1D620
  3
*A159
350
880F
  3
*A16
350
1D6CA
  3
*A160
350
1D5B0
  3
*A161
350
1D5B1
  3
*A162
350
1D5CE
  3
*A163
350
1D683
  3
*A164
350
1D608
  3
*A165
350
1D5B2
  3
*A166
350
1D654
  3
*A167
350
1D5B3
  3
*A168
350
822C
  3
*A169
350
1D6D5
  3
*A17
350
B986
  3
*A170
350
1D5FE
  3
*A171
350
57BB
  3
*A172
350
1D5B4
  3
*A173
350
1D5B5
  3
*A174
350
5F9B
  3
*A175
350
3289
  3
*A176
350
15AD6
  3
*A177
350
1D5FF
  3
*A178
350
A63B
  3
*A179
350
317C
  3
*A18
350
980E
  3
*A180
350
1D684
  3
*A181
350
8813
  3
*A182
350
1D5CF
  3
*A183
350
821C
  3
*A184
350
1D5E6
  3
*A185
350
1D672
  3
*A186
350
1D655
  3
*A187
350
1D5B6
  3
*A188
350
1065
  3
*A189
350
1D5B7
  3
*A19
350
1D5D8
  3
*A190
350
2FF6
  3
*A191
350
1D5B8
  3
*A192
350
1D5B9
  3
*A193
350
1D5BA
  3
*A194
350
1D5BB
  3
*A195
350
1D5BC
  3
*A196
350
1D675
  3
*A197
350
1D685
  3
*A198
350
1D5BD
  3
*A199
350
1D60E
  3
*A2
350
965C
  3
*A20
350
A3BD
  3
*A200
350
8818
  3
*A201
350
1D64E
  3
*A202
350
1D621
  3
*A203
350
B6E1
  3
*A204
350
1D606
  3
*A205
350
4983
  3
*A206
350
1D5E7
  3
*A207
350
1D5E8
  3
*A208
350
15D9C
  3
*A209
350
15AD8
  3
*A21
350
5DD4
  3
*A210
350
1D5E9
  3
*A211
350
1D5C0
  3
*A212
350
1D6CC
  3
*A213
350
1D5DB
  3
*A214
350
1D60A
  3
*A215
350
1D6AF
  3
*A216
350
1D5EA
  3
*A217
350
1D5EB
  3
*A218
350
1D5EC
  3
*A219
350
B6E5
  3
*A22
350
B6E2
  3
*A220
350
1D656
  3
*A221
350
1158
  3
*A222
350
1D6D6
  3
*A223
350
16D8F
  3
*A224
350
A3B9
  3
*A225
350
1D5ED
  3
*A226
350
5E6B
  3
*A227
350
1D5EE
  3
*A228
350
1D5EF
  3
*A229
350
5128
  3
*A23
350
151DD
  3
*A230
350
1D5D4
  3
*A231
350
112B
  3
*A232
350
3305
  3
*A233
350
64A9
  3
*A234
350
1D5C1
  3
*A235
350
2CA5
  3
*A236
350
1D5F0
  3
*A237
350
1D5D9
  3
*A238
350
1161
  3
*A239
350
1D5F1
  3
*A24
350
1D5DE
  3
*A240
350
1D657
  3
*A241
350
5E55
  3
*A242
350
1D5F2
  3
*A243
350
1D5F3
  3
*A244
350
1D60D
  3
*A245
350
1D6B0
  3
*A246
350
1D641
  3
*A247
350
1D5F4
  3
*A248
350
1A62E
  3
*A249
350
1D5F5
  3
*A25
350
5D44
  3
*A250
350
8823
  3
*A251
350
1D638
  3
*A252
350
156A8
  3
*A253
350
1D5F6
  3
*A254
350
1D5F7
  3
*A255
350
2FE2
  3
*A256
350
1D5C2
  3
*A257
350
4AAE
  3
*A258
350
1D639
  3
*A259
350
1077
  3
*A26
350
77B9
  3
*A260
350
1D6B1
  3
*A261
350
151EE
  3
*A262
350
42D2
  3
*A263
350
4992
  3
*A264
350
1D622
  3
*A265
350
1D6A1
  3
*A266
350
1D686
  3
*A267
350
1D5F8
  3
*A268
350
B6F5
  3
*A269
350
1D5F9
  3
*A27
350
49DB
  3
*A270
350
881E
  3
*A271
350
4989
  3
*A272
350
1D5FA
  3
*A273
350
1D5FB
  3
*A274
350
1D5FC
  3
*A275
350
DED1
  3
*A276
350
1D6B2
  3
*A277
350
1D5FD
  3
*A278
350
1D647
  3
*A279
350
49C7
  3
*A28
350
1D680
  3
*A280
350
1D658
  3
*A281
350
5E4A
  3
*A282
350
B6FE
  3
*A283
350
8819
  3
*A284
350
1D623
  3
*A285
350
1D624
  3
*A286
350
151FF
  3
*A287
350
498C
  3
*A288
350
1D625
  3
*A289
350
1D600
  3
*A29
350
1D6F2
  3
*A290
350
1D618
  3
*A291
350
1D643
  3
*A292
350
1D6D7
  3
*A293
350
1D626
  3
*A294
350
1D627
  3
*A295
350
1D628
  3
*A296
350
B6F2
  3
*A297
350
1D687
  3
*A298
350
4AB4
  3
*A299
350
57BA
  3
*A3
350
42BF
  3
*A30
350
605A
  3
*A300
350
1D629
  3
*A301
350
15DBA
  3
*A302
350
1D62A
  3
*A303
350
1D62B
  3
*A304
350
5E29
  3
*A305
350
1D612
  3
*A306
350
1B02E
  3
*A307
350
8805
  3
*A308
350
10D1
  3
*A309
350
1D601
  3
*A31
350
3286
  3
*A310
350
7AD2
  3
*A311
350
1D617
  3
*A312
350
818C
  3
*A313
350
1D62C
  3
*A314
350
1D688
  3
*A315
350
881D
  3
*A316
350
1D62D
  3
*A317
350
1D62E
  3
*A318
350
1D646
  3
*A319
350
1D6D8
  3
*A32
350
1D674
  3
*A320
350
1D62F
  3
*A321
350
A3EB
  3
*A322
350
1D630
  3
*A323
350
A5E5
  3
*A324
350
1D66C
  3
*A325
350
5134
  3
*A326
350
1D631
  3
*A327
350
1D632
  3
*A328
350
106E
  3
*A329
350
1D602
  3
*A33
350
B6EA
  3
*A330
350
1D66D
  3
*A331
350
1D5D1
  3
*A332
350
1D6D9
  3
*A333
350
2C9E
  3
*A334
350
7C28
  3
*A335
350
2FE9
  3
*A336
350
1D659
  3
*A337
350
1D6CB
  3
*A338
350
1D6B3
  3
*A339
350
1D633
  3
*A34
350
A38F
  3
*A340
350
1D634
  3
*A341
350
B6E0
  3
*A342
350
33BD
  3
*A343
350
1D635
  3
*A344
350
B6E9
  3
*A345
350
1D636
  3
*A346
350
A62F
  3
*A347
350
1D6DA
  3
*A348
350
1D637
  3
*A349
350
1D67A
  3
*A35
350
64A5
  3
*A350
350
1D689
  3
*A351
350
4A14
  3
*A352
350
15AD4
  3
*A353
350
8375
  3
*A354
350
1D65A
  3
*A355
350
1D65B
  3
*A356
350
64AD
  3
*A357
350
83DB
  3
*A358
350
1D65C
  3
*A359
350
1D63A
  3
*A36
350
1D650
  3
*A360
350
1D676
  3
*A361
350
B6F6
  3
*A362
350
1D65D
  3
*A363
350
10AD
  3
*A364
350
3487
  3
*A365
350
1AD15
  3
*A366
350
1D6B4
  3
*A367
350
81E4
  3
*A368
350
6062
  3
*A369
350
1D65E
  3
*A37
350
5133
  3
*A370
350
1D65F
  3
*A371
350
1D660
  3
*A372
350
1D5CC
  3
*A373
350
1D64A
  3
*A374
350
2FE3
  3
*A375
350
6F78
  3
*A376
350
512A
  3
*A377
350
1D63B
  3
*A378
350
5DC8
  3
*A379
350
1D64F
  3
*A38
350
B6FB
  3
*A380
350
1D661
  3
*A381
350
1D6B5
  3
*A382
350
B6E3
  3
*A383
350
1D662
  3
*A384
350
1D663
  3
*A385
350
1D679
  3
*A386
350
5DE0
  3
*A387
350
1D664
  3
*A388
350
1B042
  3
*A389
350
1D665
  3
*A39
350
B97D
  3
*A390
350
1D69B
  3
*A391
350
880E
  3
*A392
350
1D666
  3
*A393
350
1D667
  3
*A394
350
1D5CD
  3
*A395
350
1D63C
  3
*A396
350
1D69C
  3
*A397
350
1D60F
  3
*A398
350
8221
  3
*A399
350
8814
  3
*A4
350
5E65
  3
*A40
350
8187
  3
*A400
350
1D68A
  3
*A401
350
1D6F1
  3
*A402
350
1D6DB
  3
*A403
350
1520F
  3
*A404
350
1D668
  3
*A405
350
1119
  3
*A406
350
B6EE
  3
*A407
350
1D669
  3
*A408
350
339E
  3
*A409
350
1D66A
  3
*A41
350
317D
  3
*A410
350
83B1
  3
*A411
350
1D66B
  3
*A412
350
1D6A8
  3
*A413
350
1D6B6
  3
*A414
350
B6F3
  3
*A415
350
A3C5
  3
*A416
350
1D5C5
  3
*A417
350
1D68B
  3
*A418
350
1D68C
  3
*A419
350
3398
  3
*A42
350
1D5E2
  3
*A420
350
1D68D
  3
*A421
350
1D66E
  3
*A422
350
1D6A4
  3
*A423
350
178CD
  3
*A424
350
1D68E
  3
*A425
350
5DEC
  3
*A426
350
49C4
  3
*A427
350
9650
  3
*A428
350
1D6DC
  3
*A429
350
A37B
  3
*A43
350
820E
  3
*A430
350
1D68F
  3
*A431
350
3183
  3
*A432
350
1D690
  3
*A433
350
1D60B
  3
*A434
350
1D67C
  3
*A435
350
49A1
  3
*A436
350
5E68
  3
*A437
350
1D5C8
  3
*A438
350
1D66F
  3
*A439
350
151E6
  3
*A44
350
1D681
  3
*A440
350
1D691
  3
*A441
350
1D6DD
  3
*A442
350
1D5D5
  3
*A443
350
1D692
  3
*A444
350
1D693
  3
*A445
350
1D6A7
  3
*A446
350
8189
  3
*A447
350
1D694
  3
*A448
350
151AD
  3
*A449
350
1D695
  3
*A45
350
1D6C5
  3
*A450
350
A38B
  3
*A451
350
1D696
  3
*A452
350
1D697
  3
*A453
350
1D60C
  3
*A454
350
1D670
  3
*A455
350
1D6C6
  3
*A456
350
1D648
  3
*A457
350
1092
  3
*A458
350
57B9
  3
*A459
350
1D6B7
  3
*A46
350
2FF7
  3
*A460
350
5D38
  3
*A461
350
4AA4
  3
*A462
350
1D698
  3
*A463
350
B6E6
  3
*A464
350
10FE
  3
*A465
350
1D699
  3
*A466
350
7AE6
  3
*A467
350
1A74B
  3
*A468
350
57BE
  3
*A469
350
1D69A
  3
*A47
350
1D6D1
  3
*A470
350
1D6DE
  3
*A471
350
1D5D2
  3
*A472
350
B6F1
  3
*A473
350
1D604
  3
*A474
350
7C29
  3
*A475
350
1D6B8
  3
*A476
350
1D5C3
  3
*A477
350
1D6B9
  3
*A478
350
1D69D
  3
*A479
350
1D6CD
  3
*A48
350
7AC6
  3
*A480
350
1D6BA
  3
*A481
350
33BA
  3
*A482
350
42C0
  3
*A483
350
1D5DA
  3
*A484
350
109B
  3
*A485
350
606A
  3
*A486
350
1D6BB
  3
*A487
350
57BD
  3
*A488
350
1D6BC
  3
*A489
350
1D644
  3
*A49
350
1D6AA
  3
*A490
350
15207
  3
*A491
350
1D5D6
  3
*A492
350
1D607
  3
*A493
350
1D69E
  3
*A494
350
57BF
  3
*A495
350
1D6BD
  3
*A496
350
A393
  3
*A497
350
1D613
  3
*A498
350
1D6BE
  3
*A499
350
1D6BF
  3
*A5
350
1D6D0
  3
*A50
350
822B
  3
*A500
350
1D6C0
  3
*A501
350
1D5DF
  3
*A502
350
1D6C1
  3
*A503
350
5E3F
  3
*A504
350
880A
  3
*A505
350
B984
  3
*A506
350
1D645
  3
*A507
350
1D69F
  3
*A508
350
1D6EC
  3
*A509
350
1D67B
  3
*A51
350
7AF2
  3
*A510
350
1122
  3
*A511
350
1D6DF
  3
*A512
350
5C9F
  3
*A513
350
A3CD
  3
*A514
350
1D6C2
  3
*A515
350
8065
  3
*A516
350
1D5D7
  3
*A517
350
1D6C3
  3
*A518
350
4214
  3
*A519
350
5F9C
  3
*A52
350
57BC
  3
*A520
350
1D6C4
  3
*A521
350
49E4
  3
*A522
350
1D610
  3
*A523
350
116A
  3
*A524
350
1D63E
  3
*A525
350
6400
  3
*A526
350
B981
  3
*A527
350
1D603
  3
*A528
350
1D6E0
  3
*A529
350
1D6C7
  3
*A53
350
4A96
  3
*A530
350
1D6E1
  3
*A531
350
8227
  3
*A532
350
10C8
  3
*A533
350
151BD
  3
*A534
350
113D
  3
*A535
350
A3D1
  3
*A536
350
1D6E2
  3
*A537
350
4A10
  3
*A538
350
1D6E3
  3
*A539
350
1D677
  3
*A54
350
81E6
  3
*A540
350
1D614
  3
*A541
350
1D640
  3
*A542
350
1D6C8
  3
*A543
350
8062
  3
*A544
350
1D6E4
  3
*A545
350
15AD1
  3
*A546
350
1D64B
  3
*A547
350
1D6E5
  3
*A548
350
1D6E6
  3
*A549
350
1D6E7
  3
*A55
350
1D61C
  3
*A550
350
1D6E8
  3
*A551
350
4980
  3
*A552
350
15AD7
  3
*A553
350
114F
  3
*A554
350
1D678
  3
*A555
350
1D6C9
  3
*A556
350
10BF
  3
*A557
350
1D6A9
  3
*A558
350
8809
  3
*A559
350
15AD0
  3
*A56
350
10F5
  3
*A560
350
6F77
  3
*A561
350
1D6E9
  3
*A562
350
B985
  3
*A563
350
1D615
  3
*A564
350
818A
  3
*A565
350
B6F4
  3
*A566
350
7C2A
  3
*A567
350
1D6EA
  3
*A568
350
5129
  3
*A569
350
1D649
  3
*A57
350
2A28
  3
*A570
350
8072
  3
*A571
350
BE9B
  3
*A572
350
806F
  3
*A573
350
1D63D
  3
*A574
350
5E62
  3
*A575
350
1D6ED
  3
*A576
350
5E34
  3
*A577
350
65A8
  3
*A578
350
1D5DC
  3
*A579
350
10EC
  3
*A58
350
B6E8
  3
*A580
350
8222
  3
*A581
350
821D
  3
*A582
350
33A2
  3
*A583
350
B97C
  3
*A584
350
1D6A5
  3
*A585
350
1D64C
  3
*A586
350
1D673
  3
*A587
350
1D6EE
  3
*A588
350
8218
  3
*A589
350
3522
  3
*A59
350
5E04
  3
*A590
350
1D67D
  3
*A591
350
B6F0
  3
*A592
350
A637
  3
*A593
350
A383
  3
*A594
350
15217
  3
*A595
350
4F1D
  3
*A596
350
A387
  3
*A597
350
A37F
  3
*A598
350
1D6A6
  3
*A599
350
1D6EF
  3
*A6
350
178D7
  3
*A60
350
1D6D2
  3
*A600
350
B6FC
  3
*A601
350
4AB1
  3
*A602
350
1D5DD
  3
*A603
350
6221
  3
*A604
350
49C1
  3
*A605
350
1D64D
  3
*A606
350
B6E7
  3
*A607
350
1D5C6
  3
*A608
350
4ABC
  3
*A609
350
5E1D
  3
*A61
350
5DF8
  3
*A610
350
498F
  3
*A611
350
4995
  3
*A612
350
9808
  3
*A613
350
A3B5
  3
*A614
350
1D671
  3
*A615
350
31CE
  3
*A616
350
8804
  3
*A617
350
15AD9
  3
*A618
350
7555
  3
*A619
350
1D619
  3
*A62
350
1AD14
  3
*A620
350
16D1D
  3
*A621
350
15D8D
  3
*A622
350
1D5E0
  3
*A623
350
2C9A
  3
*A624
350
1D6CE
  3
*A625
350
1D67E
  3
*A626
350
1D6A2
  3
*A627
350
5E6E
  3
*A628
350
A3C9
  3
*A629
350
9656
  3
*A63
350
1D6AB
  3
*A630
350
178CE
  3
*A631
350
8051
  3
*A632
350
49CA
  3
*A633
350
A3C1
  3
*A634
350
1D5D3
  3
*A635
350
8212
  3
*A636
350
10E3
  3
*A637
350
1D6CF
  3
*A638
350
15AD3
  3
*A639
350
1D5C4
  3
*A64
350
49DE
  3
*A640
350
1D61A
  3
*A641
350
83B2
  3
*A642
350
7556
  3
*A643
350
1D67F
  3
*A644
350
1146
  3
*A645
350
1D605
  3
*A646
350
1D5E1
  3
*A647
350
818B
  3
*A648
350
10B6
  3
*A65
350
1B038
  3
*A66
350
1D5E3
  3
*A67
350
5E5F
  3
*A68
350
1D6A0
  3
*A69
350
8217
  3
*A7
350
1110
  3
*A70
350
A633
  3
*A71
350
4986
  3
*A72
350
1D651
  3
*A73
350
1D5C9
  3
*A74
350
15DAB
  3
*A75
350
1D61D
  3
*A76
350
8043
  3
*A77
350
1107
  3
*A78
350
1D6AC
  3
*A79
350
2FE8
  3
*A8
350
964C
  3
*A80
350
1D5BE
  3
*A81
350
49E1
  3
*A82
350
64A1
  3
*A83
350
10DA
  3
*A84
350
1080
  3
*A85
350
8226
  3
*A86
350
1D611
  3
*A87
350
1D5BF
  3
*A88
350
980D
  3
*A89
350
16041
  3
*A9
350
A63F
  3
*A90
350
81E1
  3
*A91
350
1D652
  3
*A92
350
15AD2
  3
*A93
350
1089
  3
*A94
350
1D6AD
  3
*A95
350
4A97
  3
*A96
350
1D63F
  3
*A97
350
1D61E
  3
*A98
350
619C
  3
*A99
350
339B
  0
DICTIONARY
  5
73F
102
{ACAD_REACTORS
330
C
102
}
330
C
100
AcDbDictionary
281
     1
  3
Model
350
1E908
  3
ﾚｲｱｳﾄ1
350
1E909
  0
DICTIONARY
  5
1B
102
{ACAD_REACTORS
330
C
102
}
330
C
100
AcDbDictionary
281
     1
  3
STANDARD
350
1C
  0
DICTIONARY
  5
740
102
{ACAD_REACTORS
330
C
102
}
330
C
100
AcDbDictionary
281
     1
  0
ACDBDICTIONARYWDFLT
  5
73D
102
{ACAD_REACTORS
330
C
102
}
330
C
100
AcDbDictionary
281
     1
  3
Normal
350
73E
100
AcDbDictionaryWithDefault
340
73E
  0
XRECORD
  5
15E25
102
{ACAD_REACTORS
330
C
102
}
330
C
100
AcDbXrecord
280
     1
 90
   990106
  3

 60
     0
 61
     0
 62
     4
 63
     4
 64
     1
 65
     0
 66
     0
 67
     3
 68
     1
 69
     0
 70
     0
 71
     0
 72
     0
 40
0.0
170
     2
  0
DICTIONARY
  5
11AC
102
{ACAD_REACTORS
330
C
102
}
330
C
100
AcDbDictionary
281
     1
  3
DIMASSOC
350
11AD
  3
SORTENTS
350
AD08
  0
XRECORD
  5
1E900
102
{ACAD_REACTORS
330
1E5B4
102
}
330
1E5B4
100
AcDbXrecord
280
     1
340
18
  0
XRECORD
  5
1E8FF
102
{ACAD_REACTORS
330
1E5B2
102
}
330
1E5B2
100
AcDbXrecord
280
     1
340
15
  0
GROUP
  5
DCF
102
{ACAD_REACTORS
330
D
102
}
330
D
100
AcDbGroup
300

 70
     1
 71
     1
  0
GROUP
  5
499E
102
{ACAD_REACTORS
330
D
102
}
330
D
100
AcDbGroup
300

 70
     1
 71
     1
  0
GROUP
  5
33B9
102
{ACAD_REACTORS
330
D
102
}
330
D
100
AcDbGroup
300

 70
     1
 71
     1
  0
GROUP
  5
B6E4
102
{ACAD_REACTORS
330
D
102
}
330
D
100
AcDbGroup
300

 70
     1
 71
     1
  0
GROUP
  5
5CA6
102
{ACAD_REACTORS
330
D
102
}
330
D
100
AcDbGroup
300

 70
     1
 71
     1
  0
GROUP
  5
1134
102
{ACAD_REACTORS
330
D
102
}
330
D
100
AcDbGroup
300

 70
     1
 71
     1
  0
GROUP
  5
B982
102
{ACAD_REACTORS
330
D
102
}
330
D
100
AcDbGroup
300

 70
     1
 71
     1
  0
GROUP
  5
328C
102
{ACAD_REACTORS
330
D
102
}
330
D
100
AcDbGroup
300

 70
     1
 71
     1
  0
GROUP
  5
499B
102
{ACAD_REACTORS
330
D
102
}
330
D
100
AcDbGroup
300

 70
     1
 71
     1
  0
GROUP
  5
7AE5
102
{ACAD_REACTORS
330
D
102
}
330
D
100
AcDbGroup
300

 70
     1
 71
     1
  0
GROUP
  5
1D642
102
{ACAD_REACTORS
330
D
102
}
330
D
100
AcDbGroup
300

 70
     1
 71
     1
  0
GROUP
  5
1D653
102
{ACAD_REACTORS
330
D
102
}
330
D
100
AcDbGroup
300

 70
     1
 71
     1
  0
GROUP
  5
1D609
102
{ACAD_REACTORS
330
D
102
}
330
D
100
AcDbGroup
300

 70
     1
 71
     1
  0
GROUP
  5
B6FA
102
{ACAD_REACTORS
330
D
102
}
330
D
100
AcDbGroup
300

 70
     1
 71
     1
  0
GROUP
  5
1D5D0
102
{ACAD_REACTORS
330
D
102
}
330
D
100
AcDbGroup
300

 70
     1
 71
     1
  0
GROUP
  5
1D6F0
102
{ACAD_REACTORS
330
D
102
}
330
D
100
AcDbGroup
300

 70
     1
 71
     1
  0
GROUP
  5
8213
102
{ACAD_REACTORS
330
D
102
}
330
D
100
AcDbGroup
300

 70
     1
 71
     1
  0
GROUP
  5
1519E
102
{ACAD_REACTORS
330
D
102
}
330
D
100
AcDbGroup
300

 70
     1
 71
     1
  0
GROUP
  5
1D616
102
{ACAD_REACTORS
330
D
102
}
330
D
100
AcDbGroup
300

 70
     1
 71
     1
  0
GROUP
  5
1D5E4
102
{ACAD_REACTORS
330
D
102
}
330
D
100
AcDbGroup
300

 70
     1
 71
     1
  0
GROUP
  5
2CA6
102
{ACAD_REACTORS
330
D
102
}
330
D
100
AcDbGroup
300

 70
     1
 71
     1
  0
GROUP
  5
1D5C7
102
{ACAD_REACTORS
330
D
102
}
330
D
100
AcDbGroup
300

 70
     1
 71
     1
  0
GROUP
  5
B6FD
102
{ACAD_REACTORS
330
D
102
}
330
D
100
AcDbGroup
300

 70
     1
 71
     1
  0
GROUP
  5
1D61B
102
{ACAD_REACTORS
330
D
102
}
330
D
100
AcDbGroup
300

 70
     1
 71
     1
  0
GROUP
  5
9655
102
{ACAD_REACTORS
330
D
102
}
330
D
100
AcDbGroup
300

 70
     1
 71
     1
  0
GROUP
  5
820D
102
{ACAD_REACTORS
330
D
102
}
330
D
100
AcDbGroup
300

 70
     1
 71
     1
  0
GROUP
  5
8822
102
{ACAD_REACTORS
330
D
102
}
330
D
100
AcDbGroup
300

 70
     1
 71
     1
  0
GROUP
  5
1A86F
102
{ACAD_REACTORS
330
D
102
}
330
D
100
AcDbGroup
300

 70
     1
 71
     1
  0
GROUP
  5
4ABD
102
{ACAD_REACTORS
330
D
102
}
330
D
100
AcDbGroup
300

 70
     1
 71
     1
  0
GROUP
  5
B6EC
102
{ACAD_REACTORS
330
D
102
}
330
D
100
AcDbGroup
300

 70
     1
 71
     1
  0
GROUP
  5
2FF1
102
{ACAD_REACTORS
330
D
102
}
330
D
100
AcDbGroup
300

 70
     1
 71
     1
  0
GROUP
  5
1D6A3
102
{ACAD_REACTORS
330
D
102
}
330
D
100
AcDbGroup
300

 70
     1
 71
     1
  0
GROUP
  5
151CD
102
{ACAD_REACTORS
330
D
102
}
330
D
100
AcDbGroup
300

 70
     1
 71
     1
340
151BF
340
151C0
340
151C1
340
151C2
340
151C3
340
151C4
340
151C5
340
151C6
340
151C7
340
151C8
340
151C9
340
151CA
340
151CB
340
151CC
  0
GROUP
  5
1D5CB
102
{ACAD_REACTORS
330
D
102
}
330
D
100
AcDbGroup
300

 70
     1
 71
     1
  0
GROUP
  5
1D5CA
102
{ACAD_REACTORS
330
D
102
}
330
D
100
AcDbGroup
300

 70
     1
 71
     1
  0
GROUP
  5
1D682
102
{ACAD_REACTORS
330
D
102
}
330
D
100
AcDbGroup
300

 70
     1
 71
     1
  0
GROUP
  5
B980
102
{ACAD_REACTORS
330
D
102
}
330
D
100
AcDbGroup
300

 70
     1
 71
     1
  0
GROUP
  5
151F7
102
{ACAD_REACTORS
330
D
102
}
330
D
100
AcDbGroup
300

 70
     1
 71
     1
340
151F0
340
151F1
340
151F2
340
151F3
340
151F4
340
151F5
340
151F6
  0
GROUP
  5
B6F7
102
{ACAD_REACTORS
330
D
102
}
330
D
100
AcDbGroup
300

 70
     1
 71
     1
  0
GROUP
  5
1D5E5
102
{ACAD_REACTORS
330
D
102
}
330
D
100
AcDbGroup
300

 70
     1
 71
     1
  0
GROUP
  5
4F1E
102
{ACAD_REACTORS
330
D
102
}
330
D
100
AcDbGroup
300

 70
     1
 71
     1
  0
GROUP
  5
1D61F
102
{ACAD_REACTORS
330
D
102
}
330
D
100
AcDbGroup
300

 70
     1
 71
     1
  0
GROUP
  5
42D1
102
{ACAD_REACTORS
330
D
102
}
330
D
100
AcDbGroup
300

 70
     1
 71
     1
  0
GROUP
  5
1D6AE
102
{ACAD_REACTORS
330
D
102
}
330
D
100
AcDbGroup
300

 70
     1
 71
     1
  0
GROUP
  5
1D6EB
102
{ACAD_REACTORS
330
D
102
}
330
D
100
AcDbGroup
300

 70
     1
 71
     1
  0
GROUP
  5
15AD5
102
{ACAD_REACTORS
330
D
102
}
330
D
100
AcDbGroup
300

 70
     1
 71
     1
  0
GROUP
  5
16DB8
102
{ACAD_REACTORS
330
D
102
}
330
D
100
AcDbGroup
300

 70
     1
 71
     1
  0
GROUP
  5
9807
102
{ACAD_REACTORS
330
D
102
}
330
D
100
AcDbGroup
300

 70
     1
 71
     1
  0
GROUP
  5
1D6D3
102
{ACAD_REACTORS
330
D
102
}
330
D
100
AcDbGroup
300

 70
     1
 71
     1
  0
GROUP
  5
B6ED
102
{ACAD_REACTORS
330
D
102
}
330
D
100
AcDbGroup
300

 70
     1
 71
     1
  0
GROUP
  5
B6F8
102
{ACAD_REACTORS
330
D
102
}
330
D
100
AcDbGroup
300

 70
     1
 71
     1
  0
GROUP
  5
B6EB
102
{ACAD_REACTORS
330
D
102
}
330
D
100
AcDbGroup
300

 70
     1
 71
     1
  0
GROUP
  5
A3EA
102
{ACAD_REACTORS
330
D
102
}
330
D
100
AcDbGroup
300

 70
     1
 71
     1
  0
GROUP
  5
B983
102
{ACAD_REACTORS
330
D
102
}
330
D
100
AcDbGroup
300

 70
     1
 71
     1
  0
GROUP
  5
77D2
102
{ACAD_REACTORS
330
D
102
}
330
D
100
AcDbGroup
300

 70
     1
 71
     1
  0
GROUP
  5
BE9C
102
{ACAD_REACTORS
330
D
102
}
330
D
100
AcDbGroup
300

 70
     1
 71
     1
  0
GROUP
  5
B6F9
102
{ACAD_REACTORS
330
D
102
}
330
D
100
AcDbGroup
300

 70
     1
 71
     1
  0
GROUP
  5
4998
102
{ACAD_REACTORS
330
D
102
}
330
D
100
AcDbGroup
300

 70
     1
 71
     1
  0
GROUP
  5
10A4
102
{ACAD_REACTORS
330
D
102
}
330
D
100
AcDbGroup
300

 70
     1
 71
     1
  0
GROUP
  5
512B
102
{ACAD_REACTORS
330
D
102
}
330
D
100
AcDbGroup
300

 70
     1
 71
     1
  0
GROUP
  5
B6EF
102
{ACAD_REACTORS
330
D
102
}
330
D
100
AcDbGroup
300

 70
     1
 71
     1
  0
GROUP
  5
A397
102
{ACAD_REACTORS
330
D
102
}
330
D
100
AcDbGroup
300

 70
     1
 71
     1
  0
GROUP
  5
1D6D4
102
{ACAD_REACTORS
330
D
102
}
330
D
100
AcDbGroup
300

 70
     1
 71
     1
  0
GROUP
  5
1D5AF
102
{ACAD_REACTORS
330
D
102
}
330
D
100
AcDbGroup
300

 70
     1
 71
     1
  0
GROUP
  5
77C8
102
{ACAD_REACTORS
330
D
102
}
330
D
100
AcDbGroup
300

 70
     1
 71
     1
  0
GROUP
  5
1D620
102
{ACAD_REACTORS
330
D
102
}
330
D
100
AcDbGroup
300

 70
     1
 71
     1
  0
GROUP
  5
880F
102
{ACAD_REACTORS
330
D
102
}
330
D
100
AcDbGroup
300

 70
     1
 71
     1
  0
GROUP
  5
1D6CA
102
{ACAD_REACTORS
330
D
102
}
330
D
100
AcDbGroup
300

 70
     1
 71
     1
  0
GROUP
  5
1D5B0
102
{ACAD_REACTORS
330
D
102
}
330
D
100
AcDbGroup
300

 70
     3
 71
     1
  0
GROUP
  5
1D5B1
102
{ACAD_REACTORS
330
D
102
}
330
D
100
AcDbGroup
300

 70
     1
 71
     1
  0
GROUP
  5
1D5CE
102
{ACAD_REACTORS
330
D
102
}
330
D
100
AcDbGroup
300

 70
     1
 71
     1
  0
GROUP
  5
1D683
102
{ACAD_REACTORS
330
D
102
}
330
D
100
AcDbGroup
300

 70
     1
 71
     1
  0
GROUP
  5
1D608
102
{ACAD_REACTORS
330
D
102
}
330
D
100
AcDbGroup
300

 70
     1
 71
     1
  0
GROUP
  5
1D5B2
102
{ACAD_REACTORS
330
D
102
}
330
D
100
AcDbGroup
300

 70
     1
 71
     1
  0
GROUP
  5
1D654
102
{ACAD_REACTORS
330
D
102
}
330
D
100
AcDbGroup
300

 70
     1
 71
     1
  0
GROUP
  5
1D5B3
102
{ACAD_REACTORS
330
D
102
}
330
D
100
AcDbGroup
300

 70
     1
 71
     1
  0
GROUP
  5
822C
102
{ACAD_REACTORS
330
D
102
}
330
D
100
AcDbGroup
300

 70
     1
 71
     1
  0
GROUP
  5
1D6D5
102
{ACAD_REACTORS
330
D
102
}
330
D
100
AcDbGroup
300

 70
     1
 71
     1
  0
GROUP
  5
B986
102
{ACAD_REACTORS
330
D
102
}
330
D
100
AcDbGroup
300

 70
     1
 71
     1
  0
GROUP
  5
1D5FE
102
{ACAD_REACTORS
330
D
102
}
330
D
100
AcDbGroup
300

 70
     1
 71
     1
  0
GROUP
  5
57BB
102
{ACAD_REACTORS
330
D
102
}
330
D
100
AcDbGroup
300

 70
     1
 71
     1
  0
GROUP
  5
1D5B4
102
{ACAD_REACTORS
330
D
102
}
330
D
100
AcDbGroup
300

 70
     1
 71
     1
  0
GROUP
  5
1D5B5
102
{ACAD_REACTORS
330
D
102
}
330
D
100
AcDbGroup
300

 70
     1
 71
     1
  0
GROUP
  5
5F9B
102
{ACAD_REACTORS
330
D
102
}
330
D
100
AcDbGroup
300

 70
     1
 71
     1
  0
GROUP
  5
3289
102
{ACAD_REACTORS
330
D
102
}
330
D
100
AcDbGroup
300

 70
     1
 71
     1
  0
GROUP
  5
15AD6
102
{ACAD_REACTORS
330
D
102
}
330
D
100
AcDbGroup
300

 70
     1
 71
     1
  0
GROUP
  5
1D5FF
102
{ACAD_REACTORS
330
D
102
}
330
D
100
AcDbGroup
300

 70
     1
 71
     1
  0
GROUP
  5
A63B
102
{ACAD_REACTORS
330
D
102
}
330
D
100
AcDbGroup
300

 70
     1
 71
     1
  0
GROUP
  5
317C
102
{ACAD_REACTORS
330
D
102
}
330
D
100
AcDbGroup
300

 70
     1
 71
     1
  0
GROUP
  5
980E
102
{ACAD_REACTORS
330
D
102
}
330
D
100
AcDbGroup
300

 70
     1
 71
     1
  0
GROUP
  5
1D684
102
{ACAD_REACTORS
330
D
102
}
330
D
100
AcDbGroup
300

 70
     1
 71
     1
  0
GROUP
  5
8813
102
{ACAD_REACTORS
330
D
102
}
330
D
100
AcDbGroup
300

 70
     1
 71
     1
  0
GROUP
  5
1D5CF
102
{ACAD_REACTORS
330
D
102
}
330
D
100
AcDbGroup
300

 70
     1
 71
     1
  0
GROUP
  5
821C
102
{ACAD_REACTORS
330
D
102
}
330
D
100
AcDbGroup
300

 70
     1
 71
     1
  0
GROUP
  5
1D5E6
102
{ACAD_REACTORS
330
D
102
}
330
D
100
AcDbGroup
300

 70
     1
 71
     1
  0
GROUP
  5
1D672
102
{ACAD_REACTORS
330
D
102
}
330
D
100
AcDbGroup
300

 70
     1
 71
     1
  0
GROUP
  5
1D655
102
{ACAD_REACTORS
330
D
102
}
330
D
100
AcDbGroup
300

 70
     1
 71
     1
  0
GROUP
  5
1D5B6
102
{ACAD_REACTORS
330
D
102
}
330
D
100
AcDbGroup
300

 70
     1
 71
     1
  0
GROUP
  5
1065
102
{ACAD_REACTORS
330
D
102
}
330
D
100
AcDbGroup
300

 70
     1
 71
     1
  0
GROUP
  5
1D5B7
102
{ACAD_REACTORS
330
D
102
}
330
D
100
AcDbGroup
300

 70
     1
 71
     1
  0
GROUP
  5
1D5D8
102
{ACAD_REACTORS
330
D
102
}
330
D
100
AcDbGroup
300

 70
     1
 71
     1
  0
GROUP
  5
2FF6
102
{ACAD_REACTORS
330
D
102
}
330
D
100
AcDbGroup
300

 70
     1
 71
     1
  0
GROUP
  5
1D5B8
102
{ACAD_REACTORS
330
D
102
}
330
D
100
AcDbGroup
300

 70
     3
 71
     1
  0
GROUP
  5
1D5B9
102
{ACAD_REACTORS
330
D
102
}
330
D
100
AcDbGroup
300

 70
     1
 71
     1
  0
GROUP
  5
1D5BA
102
{ACAD_REACTORS
330
D
102
}
330
D
100
AcDbGroup
300

 70
     1
 71
     1
  0
GROUP
  5
1D5BB
102
{ACAD_REACTORS
330
D
102
}
330
D
100
AcDbGroup
300

 70
     1
 71
     1
  0
GROUP
  5
1D5BC
102
{ACAD_REACTORS
330
D
102
}
330
D
100
AcDbGroup
300

 70
     1
 71
     1
  0
GROUP
  5
1D675
102
{ACAD_REACTORS
330
D
102
}
330
D
100
AcDbGroup
300

 70
     1
 71
     1
  0
GROUP
  5
1D685
102
{ACAD_REACTORS
330
D
102
}
330
D
100
AcDbGroup
300

 70
     1
 71
     1
  0
GROUP
  5
1D5BD
102
{ACAD_REACTORS
330
D
102
}
330
D
100
AcDbGroup
300

 70
     1
 71
     1
  0
GROUP
  5
1D60E
102
{ACAD_REACTORS
330
D
102
}
330
D
100
AcDbGroup
300

 70
     1
 71
     1
  0
GROUP
  5
965C
102
{ACAD_REACTORS
330
D
102
}
330
D
100
AcDbGroup
300

 70
     1
 71
     1
  0
GROUP
  5
A3BD
102
{ACAD_REACTORS
330
D
102
}
330
D
100
AcDbGroup
300

 70
     1
 71
     1
  0
GROUP
  5
8818
102
{ACAD_REACTORS
330
D
102
}
330
D
100
AcDbGroup
300

 70
     1
 71
     1
  0
GROUP
  5
1D64E
102
{ACAD_REACTORS
330
D
102
}
330
D
100
AcDbGroup
300

 70
     1
 71
     1
  0
GROUP
  5
1D621
102
{ACAD_REACTORS
330
D
102
}
330
D
100
AcDbGroup
300

 70
     1
 71
     1
  0
GROUP
  5
B6E1
102
{ACAD_REACTORS
330
D
102
}
330
D
100
AcDbGroup
300

 70
     1
 71
     1
  0
GROUP
  5
1D606
102
{ACAD_REACTORS
330
D
102
}
330
D
100
AcDbGroup
300

 70
     1
 71
     1
  0
GROUP
  5
4983
102
{ACAD_REACTORS
330
D
102
}
330
D
100
AcDbGroup
300

 70
     1
 71
     1
  0
GROUP
  5
1D5E7
102
{ACAD_REACTORS
330
D
102
}
330
D
100
AcDbGroup
300

 70
     1
 71
     1
  0
GROUP
  5
1D5E8
102
{ACAD_REACTORS
330
D
102
}
330
D
100
AcDbGroup
300

 70
     1
 71
     1
  0
GROUP
  5
15D9C
102
{ACAD_REACTORS
330
D
102
}
330
D
100
AcDbGroup
300

 70
     1
 71
     1
340
15D8E
340
15D8F
340
15D90
340
15D91
340
15D92
340
15D93
340
15D94
340
15D95
340
15D96
340
15D97
340
15D98
340
15D99
340
15D9A
340
15D9B
  0
GROUP
  5
15AD8
102
{ACAD_REACTORS
330
D
102
}
330
D
100
AcDbGroup
300

 70
     1
 71
     1
  0
GROUP
  5
5DD4
102
{ACAD_REACTORS
330
D
102
}
330
D
100
AcDbGroup
300

 70
     1
 71
     1
  0
GROUP
  5
1D5E9
102
{ACAD_REACTORS
330
D
102
}
330
D
100
AcDbGroup
300

 70
     1
 71
     1
  0
GROUP
  5
1D5C0
102
{ACAD_REACTORS
330
D
102
}
330
D
100
AcDbGroup
300

 70
     1
 71
     1
  0
GROUP
  5
1D6CC
102
{ACAD_REACTORS
330
D
102
}
330
D
100
AcDbGroup
300

 70
     1
 71
     1
  0
GROUP
  5
1D5DB
102
{ACAD_REACTORS
330
D
102
}
330
D
100
AcDbGroup
300

 70
     1
 71
     1
  0
GROUP
  5
1D60A
102
{ACAD_REACTORS
330
D
102
}
330
D
100
AcDbGroup
300

 70
     1
 71
     1
  0
GROUP
  5
1D6AF
102
{ACAD_REACTORS
330
D
102
}
330
D
100
AcDbGroup
300

 70
     1
 71
     1
  0
GROUP
  5
1D5EA
102
{ACAD_REACTORS
330
D
102
}
330
D
100
AcDbGroup
300

 70
     1
 71
     1
  0
GROUP
  5
1D5EB
102
{ACAD_REACTORS
330
D
102
}
330
D
100
AcDbGroup
300

 70
     1
 71
     1
  0
GROUP
  5
1D5EC
102
{ACAD_REACTORS
330
D
102
}
330
D
100
AcDbGroup
300

 70
     1
 71
     1
  0
GROUP
  5
B6E5
102
{ACAD_REACTORS
330
D
102
}
330
D
100
AcDbGroup
300

 70
     1
 71
     1
  0
GROUP
  5
B6E2
102
{ACAD_REACTORS
330
D
102
}
330
D
100
AcDbGroup
300

 70
     1
 71
     1
  0
GROUP
  5
1D656
102
{ACAD_REACTORS
330
D
102
}
330
D
100
AcDbGroup
300

 70
     1
 71
     1
  0
GROUP
  5
1158
102
{ACAD_REACTORS
330
D
102
}
330
D
100
AcDbGroup
300

 70
     1
 71
     1
  0
GROUP
  5
1D6D6
102
{ACAD_REACTORS
330
D
102
}
330
D
100
AcDbGroup
300

 70
     1
 71
     1
  0
GROUP
  5
16D8F
102
{ACAD_REACTORS
330
D
102
}
330
D
100
AcDbGroup
300

 70
     1
 71
     1
  0
GROUP
  5
A3B9
102
{ACAD_REACTORS
330
D
102
}
330
D
100
AcDbGroup
300

 70
     1
 71
     1
  0
GROUP
  5
1D5ED
102
{ACAD_REACTORS
330
D
102
}
330
D
100
AcDbGroup
300

 70
     1
 71
     1
  0
GROUP
  5
5E6B
102
{ACAD_REACTORS
330
D
102
}
330
D
100
AcDbGroup
300

 70
     1
 71
     1
  0
GROUP
  5
1D5EE
102
{ACAD_REACTORS
330
D
102
}
330
D
100
AcDbGroup
300

 70
     1
 71
     1
  0
GROUP
  5
1D5EF
102
{ACAD_REACTORS
330
D
102
}
330
D
100
AcDbGroup
300

 70
     1
 71
     1
  0
GROUP
  5
5128
102
{ACAD_REACTORS
330
D
102
}
330
D
100
AcDbGroup
300

 70
     1
 71
     1
  0
GROUP
  5
151DD
102
{ACAD_REACTORS
330
D
102
}
330
D
100
AcDbGroup
300

 70
     1
 71
     1
340
151CF
340
151D0
340
151D1
340
151D2
340
151D3
340
151D4
340
151D5
340
151D6
340
151D7
340
151D8
340
151D9
340
151DA
340
151DB
340
151DC
  0
GROUP
  5
1D5D4
102
{ACAD_REACTORS
330
D
102
}
330
D
100
AcDbGroup
300

 70
     1
 71
     1
  0
GROUP
  5
112B
102
{ACAD_REACTORS
330
D
102
}
330
D
100
AcDbGroup
300

 70
     1
 71
     1
  0
GROUP
  5
3305
102
{ACAD_REACTORS
330
D
102
}
330
D
100
AcDbGroup
300

 70
     1
 71
     1
  0
GROUP
  5
64A9
102
{ACAD_REACTORS
330
D
102
}
330
D
100
AcDbGroup
300

 70
     1
 71
     1
  0
GROUP
  5
1D5C1
102
{ACAD_REACTORS
330
D
102
}
330
D
100
AcDbGroup
300

 70
     1
 71
     1
  0
GROUP
  5
2CA5
102
{ACAD_REACTORS
330
D
102
}
330
D
100
AcDbGroup
300

 70
     1
 71
     1
  0
GROUP
  5
1D5F0
102
{ACAD_REACTORS
330
D
102
}
330
D
100
AcDbGroup
300

 70
     1
 71
     1
  0
GROUP
  5
1D5D9
102
{ACAD_REACTORS
330
D
102
}
330
D
100
AcDbGroup
300

 70
     1
 71
     1
  0
GROUP
  5
1161
102
{ACAD_REACTORS
330
D
102
}
330
D
100
AcDbGroup
300

 70
     1
 71
     1
  0
GROUP
  5
1D5F1
102
{ACAD_REACTORS
330
D
102
}
330
D
100
AcDbGroup
300

 70
     1
 71
     1
  0
GROUP
  5
1D5DE
102
{ACAD_REACTORS
330
D
102
}
330
D
100
AcDbGroup
300

 70
     1
 71
     1
  0
GROUP
  5
1D657
102
{ACAD_REACTORS
330
D
102
}
330
D
100
AcDbGroup
300

 70
     1
 71
     1
  0
GROUP
  5
5E55
102
{ACAD_REACTORS
330
D
102
}
330
D
100
AcDbGroup
300

 70
     1
 71
     1
  0
GROUP
  5
1D5F2
102
{ACAD_REACTORS
330
D
102
}
330
D
100
AcDbGroup
300

 70
     1
 71
     1
  0
GROUP
  5
1D5F3
102
{ACAD_REACTORS
330
D
102
}
330
D
100
AcDbGroup
300

 70
     1
 71
     1
  0
GROUP
  5
1D60D
102
{ACAD_REACTORS
330
D
102
}
330
D
100
AcDbGroup
300

 70
     1
 71
     1
  0
GROUP
  5
1D6B0
102
{ACAD_REACTORS
330
D
102
}
330
D
100
AcDbGroup
300

 70
     1
 71
     1
  0
GROUP
  5
1D641
102
{ACAD_REACTORS
330
D
102
}
330
D
100
AcDbGroup
300

 70
     3
 71
     1
  0
GROUP
  5
1D5F4
102
{ACAD_REACTORS
330
D
102
}
330
D
100
AcDbGroup
300

 70
     3
 71
     1
  0
GROUP
  5
1A62E
102
{ACAD_REACTORS
330
D
102
}
330
D
100
AcDbGroup
300

 70
     1
 71
     1
  0
GROUP
  5
1D5F5
102
{ACAD_REACTORS
330
D
102
}
330
D
100
AcDbGroup
300

 70
     1
 71
     1
  0
GROUP
  5
5D44
102
{ACAD_REACTORS
330
D
102
}
330
D
100
AcDbGroup
300

 70
     1
 71
     1
  0
GROUP
  5
8823
102
{ACAD_REACTORS
330
D
102
}
330
D
100
AcDbGroup
300

 70
     1
 71
     1
  0
GROUP
  5
1D638
102
{ACAD_REACTORS
330
D
102
}
330
D
100
AcDbGroup
300

 70
     1
 71
     1
  0
GROUP
  5
156A8
102
{ACAD_REACTORS
330
D
102
}
330
D
100
AcDbGroup
300

 70
     1
 71
     1
  0
GROUP
  5
1D5F6
102
{ACAD_REACTORS
330
D
102
}
330
D
100
AcDbGroup
300

 70
     1
 71
     1
  0
GROUP
  5
1D5F7
102
{ACAD_REACTORS
330
D
102
}
330
D
100
AcDbGroup
300

 70
     1
 71
     1
  0
GROUP
  5
2FE2
102
{ACAD_REACTORS
330
D
102
}
330
D
100
AcDbGroup
300

 70
     1
 71
     1
  0
GROUP
  5
1D5C2
102
{ACAD_REACTORS
330
D
102
}
330
D
100
AcDbGroup
300

 70
     1
 71
     1
  0
GROUP
  5
4AAE
102
{ACAD_REACTORS
330
D
102
}
330
D
100
AcDbGroup
300

 70
     1
 71
     1
  0
GROUP
  5
1D639
102
{ACAD_REACTORS
330
D
102
}
330
D
100
AcDbGroup
300

 70
     1
 71
     1
  0
GROUP
  5
1077
102
{ACAD_REACTORS
330
D
102
}
330
D
100
AcDbGroup
300

 70
     1
 71
     1
  0
GROUP
  5
77B9
102
{ACAD_REACTORS
330
D
102
}
330
D
100
AcDbGroup
300

 70
     1
 71
     1
  0
GROUP
  5
1D6B1
102
{ACAD_REACTORS
330
D
102
}
330
D
100
AcDbGroup
300

 70
     1
 71
     1
  0
GROUP
  5
151EE
102
{ACAD_REACTORS
330
D
102
}
330
D
100
AcDbGroup
300

 70
     1
 71
     1
340
151E7
340
151E8
340
151E9
340
151EA
340
151EB
340
151EC
340
151ED
  0
GROUP
  5
42D2
102
{ACAD_REACTORS
330
D
102
}
330
D
100
AcDbGroup
300

 70
     1
 71
     1
  0
GROUP
  5
4992
102
{ACAD_REACTORS
330
D
102
}
330
D
100
AcDbGroup
300

 70
     1
 71
     1
  0
GROUP
  5
1D622
102
{ACAD_REACTORS
330
D
102
}
330
D
100
AcDbGroup
300

 70
     1
 71
     1
  0
GROUP
  5
1D6A1
102
{ACAD_REACTORS
330
D
102
}
330
D
100
AcDbGroup
300

 70
     1
 71
     1
  0
GROUP
  5
1D686
102
{ACAD_REACTORS
330
D
102
}
330
D
100
AcDbGroup
300

 70
     1
 71
     1
  0
GROUP
  5
1D5F8
102
{ACAD_REACTORS
330
D
102
}
330
D
100
AcDbGroup
300

 70
     1
 71
     1
  0
GROUP
  5
B6F5
102
{ACAD_REACTORS
330
D
102
}
330
D
100
AcDbGroup
300

 70
     1
 71
     1
  0
GROUP
  5
1D5F9
102
{ACAD_REACTORS
330
D
102
}
330
D
100
AcDbGroup
300

 70
     1
 71
     1
  0
GROUP
  5
49DB
102
{ACAD_REACTORS
330
D
102
}
330
D
100
AcDbGroup
300

 70
     1
 71
     1
  0
GROUP
  5
881E
102
{ACAD_REACTORS
330
D
102
}
330
D
100
AcDbGroup
300

 70
     1
 71
     1
  0
GROUP
  5
4989
102
{ACAD_REACTORS
330
D
102
}
330
D
100
AcDbGroup
300

 70
     1
 71
     1
  0
GROUP
  5
1D5FA
102
{ACAD_REACTORS
330
D
102
}
330
D
100
AcDbGroup
300

 70
     1
 71
     1
  0
GROUP
  5
1D5FB
102
{ACAD_REACTORS
330
D
102
}
330
D
100
AcDbGroup
300

 70
     1
 71
     1
  0
GROUP
  5
1D5FC
102
{ACAD_REACTORS
330
D
102
}
330
D
100
AcDbGroup
300

 70
     1
 71
     1
  0
GROUP
  5
DED1
102
{ACAD_REACTORS
330
D
102
}
330
D
100
AcDbGroup
300

 70
     1
 71
     1
  0
GROUP
  5
1D6B2
102
{ACAD_REACTORS
330
D
102
}
330
D
100
AcDbGroup
300

 70
     1
 71
     1
  0
GROUP
  5
1D5FD
102
{ACAD_REACTORS
330
D
102
}
330
D
100
AcDbGroup
300

 70
     1
 71
     1
  0
GROUP
  5
1D647
102
{ACAD_REACTORS
330
D
102
}
330
D
100
AcDbGroup
300

 70
     1
 71
     1
  0
GROUP
  5
49C7
102
{ACAD_REACTORS
330
D
102
}
330
D
100
AcDbGroup
300

 70
     1
 71
     1
  0
GROUP
  5
1D680
102
{ACAD_REACTORS
330
D
102
}
330
D
100
AcDbGroup
300

 70
     1
 71
     1
  0
GROUP
  5
1D658
102
{ACAD_REACTORS
330
D
102
}
330
D
100
AcDbGroup
300

 70
     1
 71
     1
  0
GROUP
  5
5E4A
102
{ACAD_REACTORS
330
D
102
}
330
D
100
AcDbGroup
300

 70
     1
 71
     1
  0
GROUP
  5
B6FE
102
{ACAD_REACTORS
330
D
102
}
330
D
100
AcDbGroup
300

 70
     1
 71
     1
  0
GROUP
  5
8819
102
{ACAD_REACTORS
330
D
102
}
330
D
100
AcDbGroup
300

 70
     1
 71
     1
  0
GROUP
  5
1D623
102
{ACAD_REACTORS
330
D
102
}
330
D
100
AcDbGroup
300

 70
     1
 71
     1
  0
GROUP
  5
1D624
102
{ACAD_REACTORS
330
D
102
}
330
D
100
AcDbGroup
300

 70
     1
 71
     1
  0
GROUP
  5
151FF
102
{ACAD_REACTORS
330
D
102
}
330
D
100
AcDbGroup
300

 70
     1
 71
     1
340
151F8
340
151F9
340
151FA
340
151FB
340
151FC
340
151FD
340
151FE
  0
GROUP
  5
498C
102
{ACAD_REACTORS
330
D
102
}
330
D
100
AcDbGroup
300

 70
     1
 71
     1
  0
GROUP
  5
1D625
102
{ACAD_REACTORS
330
D
102
}
330
D
100
AcDbGroup
300

 70
     1
 71
     1
  0
GROUP
  5
1D600
102
{ACAD_REACTORS
330
D
102
}
330
D
100
AcDbGroup
300

 70
     1
 71
     1
  0
GROUP
  5
1D6F2
102
{ACAD_REACTORS
330
D
102
}
330
D
100
AcDbGroup
300

 70
     1
 71
     1
  0
GROUP
  5
1D618
102
{ACAD_REACTORS
330
D
102
}
330
D
100
AcDbGroup
300

 70
     1
 71
     1
  0
GROUP
  5
1D643
102
{ACAD_REACTORS
330
D
102
}
330
D
100
AcDbGroup
300

 70
     1
 71
     1
  0
GROUP
  5
1D6D7
102
{ACAD_REACTORS
330
D
102
}
330
D
100
AcDbGroup
300

 70
     1
 71
     1
  0
GROUP
  5
1D626
102
{ACAD_REACTORS
330
D
102
}
330
D
100
AcDbGroup
300

 70
     1
 71
     1
  0
GROUP
  5
1D627
102
{ACAD_REACTORS
330
D
102
}
330
D
100
AcDbGroup
300

 70
     1
 71
     1
  0
GROUP
  5
1D628
102
{ACAD_REACTORS
330
D
102
}
330
D
100
AcDbGroup
300

 70
     1
 71
     1
  0
GROUP
  5
B6F2
102
{ACAD_REACTORS
330
D
102
}
330
D
100
AcDbGroup
300

 70
     1
 71
     1
  0
GROUP
  5
1D687
102
{ACAD_REACTORS
330
D
102
}
330
D
100
AcDbGroup
300

 70
     1
 71
     1
  0
GROUP
  5
4AB4
102
{ACAD_REACTORS
330
D
102
}
330
D
100
AcDbGroup
300

 70
     1
 71
     1
  0
GROUP
  5
57BA
102
{ACAD_REACTORS
330
D
102
}
330
D
100
AcDbGroup
300

 70
     1
 71
     1
  0
GROUP
  5
42BF
102
{ACAD_REACTORS
330
D
102
}
330
D
100
AcDbGroup
300

 70
     1
 71
     1
  0
GROUP
  5
605A
102
{ACAD_REACTORS
330
D
102
}
330
D
100
AcDbGroup
300

 70
     1
 71
     1
  0
GROUP
  5
1D629
102
{ACAD_REACTORS
330
D
102
}
330
D
100
AcDbGroup
300

 70
     1
 71
     1
  0
GROUP
  5
15DBA
102
{ACAD_REACTORS
330
D
102
}
330
D
100
AcDbGroup
300

 70
     1
 71
     1
340
15DAC
340
15DAD
340
15DAE
340
15DAF
340
15DB0
340
15DB1
340
15DB2
340
15DB3
340
15DB4
340
15DB5
340
15DB6
340
15DB7
340
15DB8
340
15DB9
  0
GROUP
  5
1D62A
102
{ACAD_REACTORS
330
D
102
}
330
D
100
AcDbGroup
300

 70
     1
 71
     1
  0
GROUP
  5
1D62B
102
{ACAD_REACTORS
330
D
102
}
330
D
100
AcDbGroup
300

 70
     1
 71
     1
  0
GROUP
  5
5E29
102
{ACAD_REACTORS
330
D
102
}
330
D
100
AcDbGroup
300

 70
     1
 71
     1
  0
GROUP
  5
1D612
102
{ACAD_REACTORS
330
D
102
}
330
D
100
AcDbGroup
300

 70
     1
 71
     1
  0
GROUP
  5
1B02E
102
{ACAD_REACTORS
330
D
102
}
330
D
100
AcDbGroup
300

 70
     1
 71
     1
  0
GROUP
  5
8805
102
{ACAD_REACTORS
330
D
102
}
330
D
100
AcDbGroup
300

 70
     1
 71
     1
  0
GROUP
  5
10D1
102
{ACAD_REACTORS
330
D
102
}
330
D
100
AcDbGroup
300

 70
     1
 71
     1
  0
GROUP
  5
1D601
102
{ACAD_REACTORS
330
D
102
}
330
D
100
AcDbGroup
300

 70
     1
 71
     1
  0
GROUP
  5
3286
102
{ACAD_REACTORS
330
D
102
}
330
D
100
AcDbGroup
300

 70
     1
 71
     1
  0
GROUP
  5
7AD2
102
{ACAD_REACTORS
330
D
102
}
330
D
100
AcDbGroup
300

 70
     1
 71
     1
  0
GROUP
  5
1D617
102
{ACAD_REACTORS
330
D
102
}
330
D
100
AcDbGroup
300

 70
     1
 71
     1
  0
GROUP
  5
818C
102
{ACAD_REACTORS
330
D
102
}
330
D
100
AcDbGroup
300

 70
     1
 71
     1
  0
GROUP
  5
1D62C
102
{ACAD_REACTORS
330
D
102
}
330
D
100
AcDbGroup
300

 70
     1
 71
     1
  0
GROUP
  5
1D688
102
{ACAD_REACTORS
330
D
102
}
330
D
100
AcDbGroup
300

 70
     1
 71
     1
  0
GROUP
  5
881D
102
{ACAD_REACTORS
330
D
102
}
330
D
100
AcDbGroup
300

 70
     1
 71
     1
  0
GROUP
  5
1D62D
102
{ACAD_REACTORS
330
D
102
}
330
D
100
AcDbGroup
300

 70
     1
 71
     1
  0
GROUP
  5
1D62E
102
{ACAD_REACTORS
330
D
102
}
330
D
100
AcDbGroup
300

 70
     1
 71
     1
  0
GROUP
  5
1D646
102
{ACAD_REACTORS
330
D
102
}
330
D
100
AcDbGroup
300

 70
     1
 71
     1
  0
GROUP
  5
1D6D8
102
{ACAD_REACTORS
330
D
102
}
330
D
100
AcDbGroup
300

 70
     1
 71
     1
  0
GROUP
  5
1D674
102
{ACAD_REACTORS
330
D
102
}
330
D
100
AcDbGroup
300

 70
     1
 71
     1
  0
GROUP
  5
1D62F
102
{ACAD_REACTORS
330
D
102
}
330
D
100
AcDbGroup
300

 70
     1
 71
     1
  0
GROUP
  5
A3EB
102
{ACAD_REACTORS
330
D
102
}
330
D
100
AcDbGroup
300

 70
     1
 71
     1
  0
GROUP
  5
1D630
102
{ACAD_REACTORS
330
D
102
}
330
D
100
AcDbGroup
300

 70
     1
 71
     1
  0
GROUP
  5
A5E5
102
{ACAD_REACTORS
330
D
102
}
330
D
100
AcDbGroup
300

 70
     1
 71
     1
  0
GROUP
  5
1D66C
102
{ACAD_REACTORS
330
D
102
}
330
D
100
AcDbGroup
300

 70
     1
 71
     1
  0
GROUP
  5
5134
102
{ACAD_REACTORS
330
D
102
}
330
D
100
AcDbGroup
300

 70
     1
 71
     1
  0
GROUP
  5
1D631
102
{ACAD_REACTORS
330
D
102
}
330
D
100
AcDbGroup
300

 70
     1
 71
     1
  0
GROUP
  5
1D632
102
{ACAD_REACTORS
330
D
102
}
330
D
100
AcDbGroup
300

 70
     1
 71
     1
  0
GROUP
  5
106E
102
{ACAD_REACTORS
330
D
102
}
330
D
100
AcDbGroup
300

 70
     1
 71
     1
  0
GROUP
  5
1D602
102
{ACAD_REACTORS
330
D
102
}
330
D
100
AcDbGroup
300

 70
     1
 71
     1
  0
GROUP
  5
B6EA
102
{ACAD_REACTORS
330
D
102
}
330
D
100
AcDbGroup
300

 70
     1
 71
     1
  0
GROUP
  5
1D66D
102
{ACAD_REACTORS
330
D
102
}
330
D
100
AcDbGroup
300

 70
     1
 71
     1
  0
GROUP
  5
1D5D1
102
{ACAD_REACTORS
330
D
102
}
330
D
100
AcDbGroup
300

 70
     1
 71
     1
  0
GROUP
  5
1D6D9
102
{ACAD_REACTORS
330
D
102
}
330
D
100
AcDbGroup
300

 70
     1
 71
     1
  0
GROUP
  5
2C9E
102
{ACAD_REACTORS
330
D
102
}
330
D
100
AcDbGroup
300

 70
     1
 71
     1
  0
GROUP
  5
7C28
102
{ACAD_REACTORS
330
D
102
}
330
D
100
AcDbGroup
300

 70
     1
 71
     1
  0
GROUP
  5
2FE9
102
{ACAD_REACTORS
330
D
102
}
330
D
100
AcDbGroup
300

 70
     1
 71
     1
  0
GROUP
  5
1D659
102
{ACAD_REACTORS
330
D
102
}
330
D
100
AcDbGroup
300

 70
     1
 71
     1
  0
GROUP
  5
1D6CB
102
{ACAD_REACTORS
330
D
102
}
330
D
100
AcDbGroup
300

 70
     1
 71
     1
  0
GROUP
  5
1D6B3
102
{ACAD_REACTORS
330
D
102
}
330
D
100
AcDbGroup
300

 70
     1
 71
     1
  0
GROUP
  5
1D633
102
{ACAD_REACTORS
330
D
102
}
330
D
100
AcDbGroup
300

 70
     1
 71
     1
  0
GROUP
  5
A38F
102
{ACAD_REACTORS
330
D
102
}
330
D
100
AcDbGroup
300

 70
     1
 71
     1
  0
GROUP
  5
1D634
102
{ACAD_REACTORS
330
D
102
}
330
D
100
AcDbGroup
300

 70
     1
 71
     1
  0
GROUP
  5
B6E0
102
{ACAD_REACTORS
330
D
102
}
330
D
100
AcDbGroup
300

 70
     1
 71
     1
  0
GROUP
  5
33BD
102
{ACAD_REACTORS
330
D
102
}
330
D
100
AcDbGroup
300

 70
     1
 71
     1
  0
GROUP
  5
1D635
102
{ACAD_REACTORS
330
D
102
}
330
D
100
AcDbGroup
300

 70
     1
 71
     1
  0
GROUP
  5
B6E9
102
{ACAD_REACTORS
330
D
102
}
330
D
100
AcDbGroup
300

 70
     1
 71
     1
  0
GROUP
  5
1D636
102
{ACAD_REACTORS
330
D
102
}
330
D
100
AcDbGroup
300

 70
     1
 71
     1
  0
GROUP
  5
A62F
102
{ACAD_REACTORS
330
D
102
}
330
D
100
AcDbGroup
300

 70
     1
 71
     1
  0
GROUP
  5
1D6DA
102
{ACAD_REACTORS
330
D
102
}
330
D
100
AcDbGroup
300

 70
     1
 71
     1
  0
GROUP
  5
1D637
102
{ACAD_REACTORS
330
D
102
}
330
D
100
AcDbGroup
300

 70
     1
 71
     1
  0
GROUP
  5
1D67A
102
{ACAD_REACTORS
330
D
102
}
330
D
100
AcDbGroup
300

 70
     1
 71
     1
  0
GROUP
  5
64A5
102
{ACAD_REACTORS
330
D
102
}
330
D
100
AcDbGroup
300

 70
     1
 71
     1
  0
GROUP
  5
1D689
102
{ACAD_REACTORS
330
D
102
}
330
D
100
AcDbGroup
300

 70
     1
 71
     1
  0
GROUP
  5
4A14
102
{ACAD_REACTORS
330
D
102
}
330
D
100
AcDbGroup
300

 70
     1
 71
     1
  0
GROUP
  5
15AD4
102
{ACAD_REACTORS
330
D
102
}
330
D
100
AcDbGroup
300

 70
     1
 71
     1
  0
GROUP
  5
8375
102
{ACAD_REACTORS
330
D
102
}
330
D
100
AcDbGroup
300

 70
     1
 71
     1
  0
GROUP
  5
1D65A
102
{ACAD_REACTORS
330
D
102
}
330
D
100
AcDbGroup
300

 70
     1
 71
     1
  0
GROUP
  5
1D65B
102
{ACAD_REACTORS
330
D
102
}
330
D
100
AcDbGroup
300

 70
     1
 71
     1
  0
GROUP
  5
64AD
102
{ACAD_REACTORS
330
D
102
}
330
D
100
AcDbGroup
300

 70
     1
 71
     1
  0
GROUP
  5
83DB
102
{ACAD_REACTORS
330
D
102
}
330
D
100
AcDbGroup
300

 70
     1
 71
     1
  0
GROUP
  5
1D65C
102
{ACAD_REACTORS
330
D
102
}
330
D
100
AcDbGroup
300

 70
     3
 71
     1
  0
GROUP
  5
1D63A
102
{ACAD_REACTORS
330
D
102
}
330
D
100
AcDbGroup
300

 70
     1
 71
     1
  0
GROUP
  5
1D650
102
{ACAD_REACTORS
330
D
102
}
330
D
100
AcDbGroup
300

 70
     1
 71
     1
  0
GROUP
  5
1D676
102
{ACAD_REACTORS
330
D
102
}
330
D
100
AcDbGroup
300

 70
     3
 71
     1
  0
GROUP
  5
B6F6
102
{ACAD_REACTORS
330
D
102
}
330
D
100
AcDbGroup
300

 70
     1
 71
     1
  0
GROUP
  5
1D65D
102
{ACAD_REACTORS
330
D
102
}
330
D
100
AcDbGroup
300

 70
     1
 71
     1
  0
GROUP
  5
10AD
102
{ACAD_REACTORS
330
D
102
}
330
D
100
AcDbGroup
300

 70
     1
 71
     1
  0
GROUP
  5
3487
102
{ACAD_REACTORS
330
D
102
}
330
D
100
AcDbGroup
300

 70
     1
 71
     1
  0
GROUP
  5
1AD15
102
{ACAD_REACTORS
330
D
102
}
330
D
100
AcDbGroup
300

 70
     1
 71
     1
  0
GROUP
  5
1D6B4
102
{ACAD_REACTORS
330
D
102
}
330
D
100
AcDbGroup
300

 70
     1
 71
     1
  0
GROUP
  5
81E4
102
{ACAD_REACTORS
330
D
102
}
330
D
100
AcDbGroup
300

 70
     1
 71
     1
  0
GROUP
  5
6062
102
{ACAD_REACTORS
330
D
102
}
330
D
100
AcDbGroup
300

 70
     1
 71
     1
  0
GROUP
  5
1D65E
102
{ACAD_REACTORS
330
D
102
}
330
D
100
AcDbGroup
300

 70
     1
 71
     1
  0
GROUP
  5
5133
102
{ACAD_REACTORS
330
D
102
}
330
D
100
AcDbGroup
300

 70
     1
 71
     1
  0
GROUP
  5
1D65F
102
{ACAD_REACTORS
330
D
102
}
330
D
100
AcDbGroup
300

 70
     1
 71
     1
  0
GROUP
  5
1D660
102
{ACAD_REACTORS
330
D
102
}
330
D
100
AcDbGroup
300

 70
     1
 71
     1
  0
GROUP
  5
1D5CC
102
{ACAD_REACTORS
330
D
102
}
330
D
100
AcDbGroup
300

 70
     1
 71
     1
  0
GROUP
  5
1D64A
102
{ACAD_REACTORS
330
D
102
}
330
D
100
AcDbGroup
300

 70
     1
 71
     1
  0
GROUP
  5
2FE3
102
{ACAD_REACTORS
330
D
102
}
330
D
100
AcDbGroup
300

 70
     1
 71
     1
  0
GROUP
  5
6F78
102
{ACAD_REACTORS
330
D
102
}
330
D
100
AcDbGroup
300

 70
     1
 71
     1
  0
GROUP
  5
512A
102
{ACAD_REACTORS
330
D
102
}
330
D
100
AcDbGroup
300

 70
     1
 71
     1
  0
GROUP
  5
1D63B
102
{ACAD_REACTORS
330
D
102
}
330
D
100
AcDbGroup
300

 70
     1
 71
     1
  0
GROUP
  5
5DC8
102
{ACAD_REACTORS
330
D
102
}
330
D
100
AcDbGroup
300

 70
     1
 71
     1
  0
GROUP
  5
1D64F
102
{ACAD_REACTORS
330
D
102
}
330
D
100
AcDbGroup
300

 70
     1
 71
     1
  0
GROUP
  5
B6FB
102
{ACAD_REACTORS
330
D
102
}
330
D
100
AcDbGroup
300

 70
     1
 71
     1
  0
GROUP
  5
1D661
102
{ACAD_REACTORS
330
D
102
}
330
D
100
AcDbGroup
300

 70
     1
 71
     1
  0
GROUP
  5
1D6B5
102
{ACAD_REACTORS
330
D
102
}
330
D
100
AcDbGroup
300

 70
     3
 71
     1
  0
GROUP
  5
B6E3
102
{ACAD_REACTORS
330
D
102
}
330
D
100
AcDbGroup
300

 70
     1
 71
     1
  0
GROUP
  5
1D662
102
{ACAD_REACTORS
330
D
102
}
330
D
100
AcDbGroup
300

 70
     1
 71
     1
  0
GROUP
  5
1D663
102
{ACAD_REACTORS
330
D
102
}
330
D
100
AcDbGroup
300

 70
     1
 71
     1
  0
GROUP
  5
1D679
102
{ACAD_REACTORS
330
D
102
}
330
D
100
AcDbGroup
300

 70
     3
 71
     1
  0
GROUP
  5
5DE0
102
{ACAD_REACTORS
330
D
102
}
330
D
100
AcDbGroup
300

 70
     1
 71
     1
  0
GROUP
  5
1D664
102
{ACAD_REACTORS
330
D
102
}
330
D
100
AcDbGroup
300

 70
     1
 71
     1
  0
GROUP
  5
1B042
102
{ACAD_REACTORS
330
D
102
}
330
D
100
AcDbGroup
300

 70
     1
 71
     1
  0
GROUP
  5
1D665
102
{ACAD_REACTORS
330
D
102
}
330
D
100
AcDbGroup
300

 70
     1
 71
     1
  0
GROUP
  5
B97D
102
{ACAD_REACTORS
330
D
102
}
330
D
100
AcDbGroup
300

 70
     1
 71
     1
  0
GROUP
  5
1D69B
102
{ACAD_REACTORS
330
D
102
}
330
D
100
AcDbGroup
300

 70
     1
 71
     1
  0
GROUP
  5
880E
102
{ACAD_REACTORS
330
D
102
}
330
D
100
AcDbGroup
300

 70
     1
 71
     1
  0
GROUP
  5
1D666
102
{ACAD_REACTORS
330
D
102
}
330
D
100
AcDbGroup
300

 70
     1
 71
     1
  0
GROUP
  5
1D667
102
{ACAD_REACTORS
330
D
102
}
330
D
100
AcDbGroup
300

 70
     1
 71
     1
  0
GROUP
  5
1D5CD
102
{ACAD_REACTORS
330
D
102
}
330
D
100
AcDbGroup
300

 70
     1
 71
     1
  0
GROUP
  5
1D63C
102
{ACAD_REACTORS
330
D
102
}
330
D
100
AcDbGroup
300

 70
     3
 71
     1
  0
GROUP
  5
1D69C
102
{ACAD_REACTORS
330
D
102
}
330
D
100
AcDbGroup
300

 70
     1
 71
     1
  0
GROUP
  5
1D60F
102
{ACAD_REACTORS
330
D
102
}
330
D
100
AcDbGroup
300

 70
     1
 71
     1
  0
GROUP
  5
8221
102
{ACAD_REACTORS
330
D
102
}
330
D
100
AcDbGroup
300

 70
     1
 71
     1
  0
GROUP
  5
8814
102
{ACAD_REACTORS
330
D
102
}
330
D
100
AcDbGroup
300

 70
     1
 71
     1
  0
GROUP
  5
5E65
102
{ACAD_REACTORS
330
D
102
}
330
D
100
AcDbGroup
300

 70
     1
 71
     1
  0
GROUP
  5
8187
102
{ACAD_REACTORS
330
D
102
}
330
D
100
AcDbGroup
300

 70
     1
 71
     1
  0
GROUP
  5
1D68A
102
{ACAD_REACTORS
330
D
102
}
330
D
100
AcDbGroup
300

 70
     1
 71
     1
  0
GROUP
  5
1D6F1
102
{ACAD_REACTORS
330
D
102
}
330
D
100
AcDbGroup
300

 70
     1
 71
     1
  0
GROUP
  5
1D6DB
102
{ACAD_REACTORS
330
D
102
}
330
D
100
AcDbGroup
300

 70
     1
 71
     1
  0
GROUP
  5
1520F
102
{ACAD_REACTORS
330
D
102
}
330
D
100
AcDbGroup
300

 70
     1
 71
     1
340
15208
340
15209
340
1520A
340
1520B
340
1520C
340
1520D
340
1520E
  0
GROUP
  5
1D668
102
{ACAD_REACTORS
330
D
102
}
330
D
100
AcDbGroup
300

 70
     1
 71
     1
  0
GROUP
  5
1119
102
{ACAD_REACTORS
330
D
102
}
330
D
100
AcDbGroup
300

 70
     1
 71
     1
  0
GROUP
  5
B6EE
102
{ACAD_REACTORS
330
D
102
}
330
D
100
AcDbGroup
300

 70
     1
 71
     1
  0
GROUP
  5
1D669
102
{ACAD_REACTORS
330
D
102
}
330
D
100
AcDbGroup
300

 70
     1
 71
     1
  0
GROUP
  5
339E
102
{ACAD_REACTORS
330
D
102
}
330
D
100
AcDbGroup
300

 70
     1
 71
     1
  0
GROUP
  5
1D66A
102
{ACAD_REACTORS
330
D
102
}
330
D
100
AcDbGroup
300

 70
     1
 71
     1
  0
GROUP
  5
317D
102
{ACAD_REACTORS
330
D
102
}
330
D
100
AcDbGroup
300

 70
     1
 71
     1
  0
GROUP
  5
83B1
102
{ACAD_REACTORS
330
D
102
}
330
D
100
AcDbGroup
300

 70
     1
 71
     1
  0
GROUP
  5
1D66B
102
{ACAD_REACTORS
330
D
102
}
330
D
100
AcDbGroup
300

 70
     1
 71
     1
  0
GROUP
  5
1D6A8
102
{ACAD_REACTORS
330
D
102
}
330
D
100
AcDbGroup
300

 70
     1
 71
     1
  0
GROUP
  5
1D6B6
102
{ACAD_REACTORS
330
D
102
}
330
D
100
AcDbGroup
300

 70
     1
 71
     1
  0
GROUP
  5
B6F3
102
{ACAD_REACTORS
330
D
102
}
330
D
100
AcDbGroup
300

 70
     1
 71
     1
  0
GROUP
  5
A3C5
102
{ACAD_REACTORS
330
D
102
}
330
D
100
AcDbGroup
300

 70
     1
 71
     1
  0
GROUP
  5
1D5C5
102
{ACAD_REACTORS
330
D
102
}
330
D
100
AcDbGroup
300

 70
     1
 71
     1
  0
GROUP
  5
1D68B
102
{ACAD_REACTORS
330
D
102
}
330
D
100
AcDbGroup
300

 70
     1
 71
     1
  0
GROUP
  5
1D68C
102
{ACAD_REACTORS
330
D
102
}
330
D
100
AcDbGroup
300

 70
     1
 71
     1
  0
GROUP
  5
3398
102
{ACAD_REACTORS
330
D
102
}
330
D
100
AcDbGroup
300

 70
     1
 71
     1
  0
GROUP
  5
1D5E2
102
{ACAD_REACTORS
330
D
102
}
330
D
100
AcDbGroup
300

 70
     1
 71
     1
  0
GROUP
  5
1D68D
102
{ACAD_REACTORS
330
D
102
}
330
D
100
AcDbGroup
300

 70
     1
 71
     1
  0
GROUP
  5
1D66E
102
{ACAD_REACTORS
330
D
102
}
330
D
100
AcDbGroup
300

 70
     1
 71
     1
  0
GROUP
  5
1D6A4
102
{ACAD_REACTORS
330
D
102
}
330
D
100
AcDbGroup
300

 70
     1
 71
     1
  0
GROUP
  5
178CD
102
{ACAD_REACTORS
330
D
102
}
330
D
100
AcDbGroup
300

 70
     1
 71
     1
  0
GROUP
  5
1D68E
102
{ACAD_REACTORS
330
D
102
}
330
D
100
AcDbGroup
300

 70
     1
 71
     1
  0
GROUP
  5
5DEC
102
{ACAD_REACTORS
330
D
102
}
330
D
100
AcDbGroup
300

 70
     1
 71
     1
  0
GROUP
  5
49C4
102
{ACAD_REACTORS
330
D
102
}
330
D
100
AcDbGroup
300

 70
     1
 71
     1
  0
GROUP
  5
9650
102
{ACAD_REACTORS
330
D
102
}
330
D
100
AcDbGroup
300

 70
     1
 71
     1
  0
GROUP
  5
1D6DC
102
{ACAD_REACTORS
330
D
102
}
330
D
100
AcDbGroup
300

 70
     1
 71
     1
  0
GROUP
  5
A37B
102
{ACAD_REACTORS
330
D
102
}
330
D
100
AcDbGroup
300

 70
     1
 71
     1
  0
GROUP
  5
820E
102
{ACAD_REACTORS
330
D
102
}
330
D
100
AcDbGroup
300

 70
     1
 71
     1
  0
GROUP
  5
1D68F
102
{ACAD_REACTORS
330
D
102
}
330
D
100
AcDbGroup
300

 70
     3
 71
     1
  0
GROUP
  5
3183
102
{ACAD_REACTORS
330
D
102
}
330
D
100
AcDbGroup
300

 70
     1
 71
     1
  0
GROUP
  5
1D690
102
{ACAD_REACTORS
330
D
102
}
330
D
100
AcDbGroup
300

 70
     1
 71
     1
  0
GROUP
  5
1D60B
102
{ACAD_REACTORS
330
D
102
}
330
D
100
AcDbGroup
300

 70
     1
 71
     1
  0
GROUP
  5
1D67C
102
{ACAD_REACTORS
330
D
102
}
330
D
100
AcDbGroup
300

 70
     1
 71
     1
  0
GROUP
  5
49A1
102
{ACAD_REACTORS
330
D
102
}
330
D
100
AcDbGroup
300

 70
     1
 71
     1
  0
GROUP
  5
5E68
102
{ACAD_REACTORS
330
D
102
}
330
D
100
AcDbGroup
300

 70
     1
 71
     1
  0
GROUP
  5
1D5C8
102
{ACAD_REACTORS
330
D
102
}
330
D
100
AcDbGroup
300

 70
     1
 71
     1
  0
GROUP
  5
1D66F
102
{ACAD_REACTORS
330
D
102
}
330
D
100
AcDbGroup
300

 70
     1
 71
     1
  0
GROUP
  5
151E6
102
{ACAD_REACTORS
330
D
102
}
330
D
100
AcDbGroup
300

 70
     1
 71
     1
  0
GROUP
  5
1D681
102
{ACAD_REACTORS
330
D
102
}
330
D
100
AcDbGroup
300

 70
     1
 71
     1
  0
GROUP
  5
1D691
102
{ACAD_REACTORS
330
D
102
}
330
D
100
AcDbGroup
300

 70
     1
 71
     1
  0
GROUP
  5
1D6DD
102
{ACAD_REACTORS
330
D
102
}
330
D
100
AcDbGroup
300

 70
     1
 71
     1
  0
GROUP
  5
1D5D5
102
{ACAD_REACTORS
330
D
102
}
330
D
100
AcDbGroup
300

 70
     1
 71
     1
  0
GROUP
  5
1D692
102
{ACAD_REACTORS
330
D
102
}
330
D
100
AcDbGroup
300

 70
     1
 71
     1
  0
GROUP
  5
1D693
102
{ACAD_REACTORS
330
D
102
}
330
D
100
AcDbGroup
300

 70
     1
 71
     1
  0
GROUP
  5
1D6A7
102
{ACAD_REACTORS
330
D
102
}
330
D
100
AcDbGroup
300

 70
     1
 71
     1
  0
GROUP
  5
8189
102
{ACAD_REACTORS
330
D
102
}
330
D
100
AcDbGroup
300

 70
     1
 71
     1
  0
GROUP
  5
1D694
102
{ACAD_REACTORS
330
D
102
}
330
D
100
AcDbGroup
300

 70
     3
 71
     1
  0
GROUP
  5
151AD
102
{ACAD_REACTORS
330
D
102
}
330
D
100
AcDbGroup
300

 70
     1
 71
     1
340
1519F
340
151A0
340
151A1
340
151A2
340
151A3
340
151A4
340
151A5
340
151A6
340
151A7
340
151A8
340
151A9
340
151AA
340
151AB
340
151AC
  0
GROUP
  5
1D695
102
{ACAD_REACTORS
330
D
102
}
330
D
100
AcDbGroup
300

 70
     1
 71
     1
  0
GROUP
  5
1D6C5
102
{ACAD_REACTORS
330
D
102
}
330
D
100
AcDbGroup
300

 70
     1
 71
     1
  0
GROUP
  5
A38B
102
{ACAD_REACTORS
330
D
102
}
330
D
100
AcDbGroup
300

 70
     1
 71
     1
  0
GROUP
  5
1D696
102
{ACAD_REACTORS
330
D
102
}
330
D
100
AcDbGroup
300

 70
     1
 71
     1
  0
GROUP
  5
1D697
102
{ACAD_REACTORS
330
D
102
}
330
D
100
AcDbGroup
300

 70
     1
 71
     1
  0
GROUP
  5
1D60C
102
{ACAD_REACTORS
330
D
102
}
330
D
100
AcDbGroup
300

 70
     1
 71
     1
  0
GROUP
  5
1D670
102
{ACAD_REACTORS
330
D
102
}
330
D
100
AcDbGroup
300

 70
     1
 71
     1
  0
GROUP
  5
1D6C6
102
{ACAD_REACTORS
330
D
102
}
330
D
100
AcDbGroup
300

 70
     1
 71
     1
  0
GROUP
  5
1D648
102
{ACAD_REACTORS
330
D
102
}
330
D
100
AcDbGroup
300

 70
     1
 71
     1
  0
GROUP
  5
1092
102
{ACAD_REACTORS
330
D
102
}
330
D
100
AcDbGroup
300

 70
     1
 71
     1
  0
GROUP
  5
57B9
102
{ACAD_REACTORS
330
D
102
}
330
D
100
AcDbGroup
300

 70
     1
 71
     1
  0
GROUP
  5
1D6B7
102
{ACAD_REACTORS
330
D
102
}
330
D
100
AcDbGroup
300

 70
     1
 71
     1
  0
GROUP
  5
2FF7
102
{ACAD_REACTORS
330
D
102
}
330
D
100
AcDbGroup
300

 70
     1
 71
     1
  0
GROUP
  5
5D38
102
{ACAD_REACTORS
330
D
102
}
330
D
100
AcDbGroup
300

 70
     1
 71
     1
  0
GROUP
  5
4AA4
102
{ACAD_REACTORS
330
D
102
}
330
D
100
AcDbGroup
300

 70
     1
 71
     1
  0
GROUP
  5
1D698
102
{ACAD_REACTORS
330
D
102
}
330
D
100
AcDbGroup
300

 70
     1
 71
     1
  0
GROUP
  5
B6E6
102
{ACAD_REACTORS
330
D
102
}
330
D
100
AcDbGroup
300

 70
     1
 71
     1
  0
GROUP
  5
10FE
102
{ACAD_REACTORS
330
D
102
}
330
D
100
AcDbGroup
300

 70
     1
 71
     1
  0
GROUP
  5
1D699
102
{ACAD_REACTORS
330
D
102
}
330
D
100
AcDbGroup
300

 70
     1
 71
     1
  0
GROUP
  5
7AE6
102
{ACAD_REACTORS
330
D
102
}
330
D
100
AcDbGroup
300

 70
     1
 71
     1
  0
GROUP
  5
1A74B
102
{ACAD_REACTORS
330
D
102
}
330
D
100
AcDbGroup
300

 70
     1
 71
     1
  0
GROUP
  5
57BE
102
{ACAD_REACTORS
330
D
102
}
330
D
100
AcDbGroup
300

 70
     1
 71
     1
  0
GROUP
  5
1D69A
102
{ACAD_REACTORS
330
D
102
}
330
D
100
AcDbGroup
300

 70
     1
 71
     1
  0
GROUP
  5
1D6D1
102
{ACAD_REACTORS
330
D
102
}
330
D
100
AcDbGroup
300

 70
     1
 71
     1
  0
GROUP
  5
1D6DE
102
{ACAD_REACTORS
330
D
102
}
330
D
100
AcDbGroup
300

 70
     1
 71
     1
  0
GROUP
  5
1D5D2
102
{ACAD_REACTORS
330
D
102
}
330
D
100
AcDbGroup
300

 70
     1
 71
     1
  0
GROUP
  5
B6F1
102
{ACAD_REACTORS
330
D
102
}
330
D
100
AcDbGroup
300

 70
     1
 71
     1
  0
GROUP
  5
1D604
102
{ACAD_REACTORS
330
D
102
}
330
D
100
AcDbGroup
300

 70
     1
 71
     1
  0
GROUP
  5
7C29
102
{ACAD_REACTORS
330
D
102
}
330
D
100
AcDbGroup
300

 70
     1
 71
     1
  0
GROUP
  5
1D6B8
102
{ACAD_REACTORS
330
D
102
}
330
D
100
AcDbGroup
300

 70
     1
 71
     1
  0
GROUP
  5
1D5C3
102
{ACAD_REACTORS
330
D
102
}
330
D
100
AcDbGroup
300

 70
     1
 71
     1
  0
GROUP
  5
1D6B9
102
{ACAD_REACTORS
330
D
102
}
330
D
100
AcDbGroup
300

 70
     1
 71
     1
  0
GROUP
  5
1D69D
102
{ACAD_REACTORS
330
D
102
}
330
D
100
AcDbGroup
300

 70
     1
 71
     1
  0
GROUP
  5
1D6CD
102
{ACAD_REACTORS
330
D
102
}
330
D
100
AcDbGroup
300

 70
     1
 71
     1
  0
GROUP
  5
7AC6
102
{ACAD_REACTORS
330
D
102
}
330
D
100
AcDbGroup
300

 70
     1
 71
     1
  0
GROUP
  5
1D6BA
102
{ACAD_REACTORS
330
D
102
}
330
D
100
AcDbGroup
300

 70
     1
 71
     1
  0
GROUP
  5
33BA
102
{ACAD_REACTORS
330
D
102
}
330
D
100
AcDbGroup
300

 70
     1
 71
     1
  0
GROUP
  5
42C0
102
{ACAD_REACTORS
330
D
102
}
330
D
100
AcDbGroup
300

 70
     1
 71
     1
  0
GROUP
  5
1D5DA
102
{ACAD_REACTORS
330
D
102
}
330
D
100
AcDbGroup
300

 70
     1
 71
     1
  0
GROUP
  5
109B
102
{ACAD_REACTORS
330
D
102
}
330
D
100
AcDbGroup
300

 70
     1
 71
     1
  0
GROUP
  5
606A
102
{ACAD_REACTORS
330
D
102
}
330
D
100
AcDbGroup
300

 70
     1
 71
     1
  0
GROUP
  5
1D6BB
102
{ACAD_REACTORS
330
D
102
}
330
D
100
AcDbGroup
300

 70
     1
 71
     1
  0
GROUP
  5
57BD
102
{ACAD_REACTORS
330
D
102
}
330
D
100
AcDbGroup
300

 70
     1
 71
     1
  0
GROUP
  5
1D6BC
102
{ACAD_REACTORS
330
D
102
}
330
D
100
AcDbGroup
300

 70
     1
 71
     1
  0
GROUP
  5
1D644
102
{ACAD_REACTORS
330
D
102
}
330
D
100
AcDbGroup
300

 70
     1
 71
     1
  0
GROUP
  5
1D6AA
102
{ACAD_REACTORS
330
D
102
}
330
D
100
AcDbGroup
300

 70
     1
 71
     1
  0
GROUP
  5
15207
102
{ACAD_REACTORS
330
D
102
}
330
D
100
AcDbGroup
300

 70
     1
 71
     1
340
15200
340
15201
340
15202
340
15203
340
15204
340
15205
340
15206
  0
GROUP
  5
1D5D6
102
{ACAD_REACTORS
330
D
102
}
330
D
100
AcDbGroup
300

 70
     1
 71
     1
  0
GROUP
  5
1D607
102
{ACAD_REACTORS
330
D
102
}
330
D
100
AcDbGroup
300

 70
     1
 71
     1
  0
GROUP
  5
1D69E
102
{ACAD_REACTORS
330
D
102
}
330
D
100
AcDbGroup
300

 70
     1
 71
     1
  0
GROUP
  5
57BF
102
{ACAD_REACTORS
330
D
102
}
330
D
100
AcDbGroup
300

 70
     1
 71
     1
  0
GROUP
  5
1D6BD
102
{ACAD_REACTORS
330
D
102
}
330
D
100
AcDbGroup
300

 70
     1
 71
     1
  0
GROUP
  5
A393
102
{ACAD_REACTORS
330
D
102
}
330
D
100
AcDbGroup
300

 70
     1
 71
     1
  0
GROUP
  5
1D613
102
{ACAD_REACTORS
330
D
102
}
330
D
100
AcDbGroup
300

 70
     1
 71
     1
  0
GROUP
  5
1D6BE
102
{ACAD_REACTORS
330
D
102
}
330
D
100
AcDbGroup
300

 70
     3
 71
     1
  0
GROUP
  5
1D6BF
102
{ACAD_REACTORS
330
D
102
}
330
D
100
AcDbGroup
300

 70
     1
 71
     1
  0
GROUP
  5
1D6D0
102
{ACAD_REACTORS
330
D
102
}
330
D
100
AcDbGroup
300

 70
     1
 71
     1
  0
GROUP
  5
822B
102
{ACAD_REACTORS
330
D
102
}
330
D
100
AcDbGroup
300

 70
     1
 71
     1
  0
GROUP
  5
1D6C0
102
{ACAD_REACTORS
330
D
102
}
330
D
100
AcDbGroup
300

 70
     1
 71
     1
  0
GROUP
  5
1D5DF
102
{ACAD_REACTORS
330
D
102
}
330
D
100
AcDbGroup
300

 70
     1
 71
     1
  0
GROUP
  5
1D6C1
102
{ACAD_REACTORS
330
D
102
}
330
D
100
AcDbGroup
300

 70
     1
 71
     1
  0
GROUP
  5
5E3F
102
{ACAD_REACTORS
330
D
102
}
330
D
100
AcDbGroup
300

 70
     1
 71
     1
  0
GROUP
  5
880A
102
{ACAD_REACTORS
330
D
102
}
330
D
100
AcDbGroup
300

 70
     1
 71
     1
  0
GROUP
  5
B984
102
{ACAD_REACTORS
330
D
102
}
330
D
100
AcDbGroup
300

 70
     1
 71
     1
  0
GROUP
  5
1D645
102
{ACAD_REACTORS
330
D
102
}
330
D
100
AcDbGroup
300

 70
     1
 71
     1
  0
GROUP
  5
1D69F
102
{ACAD_REACTORS
330
D
102
}
330
D
100
AcDbGroup
300

 70
     1
 71
     1
  0
GROUP
  5
1D6EC
102
{ACAD_REACTORS
330
D
102
}
330
D
100
AcDbGroup
300

 70
     1
 71
     1
  0
GROUP
  5
1D67B
102
{ACAD_REACTORS
330
D
102
}
330
D
100
AcDbGroup
300

 70
     1
 71
     1
  0
GROUP
  5
7AF2
102
{ACAD_REACTORS
330
D
102
}
330
D
100
AcDbGroup
300

 70
     1
 71
     1
  0
GROUP
  5
1122
102
{ACAD_REACTORS
330
D
102
}
330
D
100
AcDbGroup
300

 70
     1
 71
     1
  0
GROUP
  5
1D6DF
102
{ACAD_REACTORS
330
D
102
}
330
D
100
AcDbGroup
300

 70
     1
 71
     1
  0
GROUP
  5
5C9F
102
{ACAD_REACTORS
330
D
102
}
330
D
100
AcDbGroup
300

 70
     1
 71
     1
  0
GROUP
  5
A3CD
102
{ACAD_REACTORS
330
D
102
}
330
D
100
AcDbGroup
300

 70
     1
 71
     1
  0
GROUP
  5
1D6C2
102
{ACAD_REACTORS
330
D
102
}
330
D
100
AcDbGroup
300

 70
     1
 71
     1
  0
GROUP
  5
8065
102
{ACAD_REACTORS
330
D
102
}
330
D
100
AcDbGroup
300

 70
     1
 71
     1
  0
GROUP
  5
1D5D7
102
{ACAD_REACTORS
330
D
102
}
330
D
100
AcDbGroup
300

 70
     1
 71
     1
  0
GROUP
  5
1D6C3
102
{ACAD_REACTORS
330
D
102
}
330
D
100
AcDbGroup
300

 70
     1
 71
     1
  0
GROUP
  5
4214
102
{ACAD_REACTORS
330
D
102
}
330
D
100
AcDbGroup
300

 70
     1
 71
     1
  0
GROUP
  5
5F9C
102
{ACAD_REACTORS
330
D
102
}
330
D
100
AcDbGroup
300

 70
     1
 71
     1
  0
GROUP
  5
57BC
102
{ACAD_REACTORS
330
D
102
}
330
D
100
AcDbGroup
300

 70
     1
 71
     1
  0
GROUP
  5
1D6C4
102
{ACAD_REACTORS
330
D
102
}
330
D
100
AcDbGroup
300

 70
     1
 71
     1
  0
GROUP
  5
49E4
102
{ACAD_REACTORS
330
D
102
}
330
D
100
AcDbGroup
300

 70
     1
 71
     1
  0
GROUP
  5
1D610
102
{ACAD_REACTORS
330
D
102
}
330
D
100
AcDbGroup
300

 70
     1
 71
     1
  0
GROUP
  5
116A
102
{ACAD_REACTORS
330
D
102
}
330
D
100
AcDbGroup
300

 70
     1
 71
     1
  0
GROUP
  5
1D63E
102
{ACAD_REACTORS
330
D
102
}
330
D
100
AcDbGroup
300

 70
     1
 71
     1
  0
GROUP
  5
6400
102
{ACAD_REACTORS
330
D
102
}
330
D
100
AcDbGroup
300

 70
     1
 71
     1
  0
GROUP
  5
B981
102
{ACAD_REACTORS
330
D
102
}
330
D
100
AcDbGroup
300

 70
     1
 71
     1
  0
GROUP
  5
1D603
102
{ACAD_REACTORS
330
D
102
}
330
D
100
AcDbGroup
300

 70
     1
 71
     1
  0
GROUP
  5
1D6E0
102
{ACAD_REACTORS
330
D
102
}
330
D
100
AcDbGroup
300

 70
     1
 71
     1
  0
GROUP
  5
1D6C7
102
{ACAD_REACTORS
330
D
102
}
330
D
100
AcDbGroup
300

 70
     1
 71
     1
  0
GROUP
  5
4A96
102
{ACAD_REACTORS
330
D
102
}
330
D
100
AcDbGroup
300

 70
     1
 71
     1
  0
GROUP
  5
1D6E1
102
{ACAD_REACTORS
330
D
102
}
330
D
100
AcDbGroup
300

 70
     1
 71
     1
  0
GROUP
  5
8227
102
{ACAD_REACTORS
330
D
102
}
330
D
100
AcDbGroup
300

 70
     1
 71
     1
  0
GROUP
  5
10C8
102
{ACAD_REACTORS
330
D
102
}
330
D
100
AcDbGroup
300

 70
     1
 71
     1
  0
GROUP
  5
151BD
102
{ACAD_REACTORS
330
D
102
}
330
D
100
AcDbGroup
300

 70
     1
 71
     1
340
151AF
340
151B0
340
151B1
340
151B2
340
151B3
340
151B4
340
151B5
340
151B6
340
151B7
340
151B8
340
151B9
340
151BA
340
151BB
340
151BC
  0
GROUP
  5
113D
102
{ACAD_REACTORS
330
D
102
}
330
D
100
AcDbGroup
300

 70
     1
 71
     1
  0
GROUP
  5
A3D1
102
{ACAD_REACTORS
330
D
102
}
330
D
100
AcDbGroup
300

 70
     1
 71
     1
  0
GROUP
  5
1D6E2
102
{ACAD_REACTORS
330
D
102
}
330
D
100
AcDbGroup
300

 70
     1
 71
     1
  0
GROUP
  5
4A10
102
{ACAD_REACTORS
330
D
102
}
330
D
100
AcDbGroup
300

 70
     1
 71
     1
  0
GROUP
  5
1D6E3
102
{ACAD_REACTORS
330
D
102
}
330
D
100
AcDbGroup
300

 70
     1
 71
     1
  0
GROUP
  5
1D677
102
{ACAD_REACTORS
330
D
102
}
330
D
100
AcDbGroup
300

 70
     1
 71
     1
  0
GROUP
  5
81E6
102
{ACAD_REACTORS
330
D
102
}
330
D
100
AcDbGroup
300

 70
     1
 71
     1
  0
GROUP
  5
1D614
102
{ACAD_REACTORS
330
D
102
}
330
D
100
AcDbGroup
300

 70
     1
 71
     1
  0
GROUP
  5
1D640
102
{ACAD_REACTORS
330
D
102
}
330
D
100
AcDbGroup
300

 70
     1
 71
     1
  0
GROUP
  5
1D6C8
102
{ACAD_REACTORS
330
D
102
}
330
D
100
AcDbGroup
300

 70
     1
 71
     1
  0
GROUP
  5
8062
102
{ACAD_REACTORS
330
D
102
}
330
D
100
AcDbGroup
300

 70
     1
 71
     1
  0
GROUP
  5
1D6E4
102
{ACAD_REACTORS
330
D
102
}
330
D
100
AcDbGroup
300

 70
     1
 71
     1
  0
GROUP
  5
15AD1
102
{ACAD_REACTORS
330
D
102
}
330
D
100
AcDbGroup
300

 70
     1
 71
     1
  0
GROUP
  5
1D64B
102
{ACAD_REACTORS
330
D
102
}
330
D
100
AcDbGroup
300

 70
     3
 71
     1
  0
GROUP
  5
1D6E5
102
{ACAD_REACTORS
330
D
102
}
330
D
100
AcDbGroup
300

 70
     1
 71
     1
  0
GROUP
  5
1D6E6
102
{ACAD_REACTORS
330
D
102
}
330
D
100
AcDbGroup
300

 70
     1
 71
     1
  0
GROUP
  5
1D6E7
102
{ACAD_REACTORS
330
D
102
}
330
D
100
AcDbGroup
300

 70
     1
 71
     1
  0
GROUP
  5
1D61C
102
{ACAD_REACTORS
330
D
102
}
330
D
100
AcDbGroup
300

 70
     1
 71
     1
  0
GROUP
  5
1D6E8
102
{ACAD_REACTORS
330
D
102
}
330
D
100
AcDbGroup
300

 70
     3
 71
     1
  0
GROUP
  5
4980
102
{ACAD_REACTORS
330
D
102
}
330
D
100
AcDbGroup
300

 70
     1
 71
     1
  0
GROUP
  5
15AD7
102
{ACAD_REACTORS
330
D
102
}
330
D
100
AcDbGroup
300

 70
     1
 71
     1
  0
GROUP
  5
114F
102
{ACAD_REACTORS
330
D
102
}
330
D
100
AcDbGroup
300

 70
     1
 71
     1
  0
GROUP
  5
1D678
102
{ACAD_REACTORS
330
D
102
}
330
D
100
AcDbGroup
300

 70
     1
 71
     1
  0
GROUP
  5
1D6C9
102
{ACAD_REACTORS
330
D
102
}
330
D
100
AcDbGroup
300

 70
     1
 71
     1
  0
GROUP
  5
10BF
102
{ACAD_REACTORS
330
D
102
}
330
D
100
AcDbGroup
300

 70
     1
 71
     1
  0
GROUP
  5
1D6A9
102
{ACAD_REACTORS
330
D
102
}
330
D
100
AcDbGroup
300

 70
     1
 71
     1
  0
GROUP
  5
8809
102
{ACAD_REACTORS
330
D
102
}
330
D
100
AcDbGroup
300

 70
     1
 71
     1
  0
GROUP
  5
15AD0
102
{ACAD_REACTORS
330
D
102
}
330
D
100
AcDbGroup
300

 70
     1
 71
     1
  0
GROUP
  5
10F5
102
{ACAD_REACTORS
330
D
102
}
330
D
100
AcDbGroup
300

 70
     1
 71
     1
  0
GROUP
  5
6F77
102
{ACAD_REACTORS
330
D
102
}
330
D
100
AcDbGroup
300

 70
     1
 71
     1
  0
GROUP
  5
1D6E9
102
{ACAD_REACTORS
330
D
102
}
330
D
100
AcDbGroup
300

 70
     1
 71
     1
  0
GROUP
  5
B985
102
{ACAD_REACTORS
330
D
102
}
330
D
100
AcDbGroup
300

 70
     1
 71
     1
  0
GROUP
  5
1D615
102
{ACAD_REACTORS
330
D
102
}
330
D
100
AcDbGroup
300

 70
     1
 71
     1
  0
GROUP
  5
818A
102
{ACAD_REACTORS
330
D
102
}
330
D
100
AcDbGroup
300

 70
     1
 71
     1
  0
GROUP
  5
B6F4
102
{ACAD_REACTORS
330
D
102
}
330
D
100
AcDbGroup
300

 70
     1
 71
     1
  0
GROUP
  5
7C2A
102
{ACAD_REACTORS
330
D
102
}
330
D
100
AcDbGroup
300

 70
     1
 71
     1
  0
GROUP
  5
1D6EA
102
{ACAD_REACTORS
330
D
102
}
330
D
100
AcDbGroup
300

 70
     1
 71
     1
  0
GROUP
  5
5129
102
{ACAD_REACTORS
330
D
102
}
330
D
100
AcDbGroup
300

 70
     1
 71
     1
  0
GROUP
  5
1D649
102
{ACAD_REACTORS
330
D
102
}
330
D
100
AcDbGroup
300

 70
     1
 71
     1
  0
GROUP
  5
2A28
102
{ACAD_REACTORS
330
D
102
}
330
D
100
AcDbGroup
300

 70
     1
 71
     1
  0
GROUP
  5
8072
102
{ACAD_REACTORS
330
D
102
}
330
D
100
AcDbGroup
300

 70
     1
 71
     1
  0
GROUP
  5
BE9B
102
{ACAD_REACTORS
330
D
102
}
330
D
100
AcDbGroup
300

 70
     1
 71
     1
  0
GROUP
  5
806F
102
{ACAD_REACTORS
330
D
102
}
330
D
100
AcDbGroup
300

 70
     1
 71
     1
  0
GROUP
  5
1D63D
102
{ACAD_REACTORS
330
D
102
}
330
D
100
AcDbGroup
300

 70
     1
 71
     1
  0
GROUP
  5
5E62
102
{ACAD_REACTORS
330
D
102
}
330
D
100
AcDbGroup
300

 70
     1
 71
     1
  0
GROUP
  5
1D6ED
102
{ACAD_REACTORS
330
D
102
}
330
D
100
AcDbGroup
300

 70
     1
 71
     1
  0
GROUP
  5
5E34
102
{ACAD_REACTORS
330
D
102
}
330
D
100
AcDbGroup
300

 70
     1
 71
     1
  0
GROUP
  5
65A8
102
{ACAD_REACTORS
330
D
102
}
330
D
100
AcDbGroup
300

 70
     1
 71
     1
  0
GROUP
  5
1D5DC
102
{ACAD_REACTORS
330
D
102
}
330
D
100
AcDbGroup
300

 70
     1
 71
     1
  0
GROUP
  5
10EC
102
{ACAD_REACTORS
330
D
102
}
330
D
100
AcDbGroup
300

 70
     1
 71
     1
  0
GROUP
  5
B6E8
102
{ACAD_REACTORS
330
D
102
}
330
D
100
AcDbGroup
300

 70
     1
 71
     1
  0
GROUP
  5
8222
102
{ACAD_REACTORS
330
D
102
}
330
D
100
AcDbGroup
300

 70
     1
 71
     1
  0
GROUP
  5
821D
102
{ACAD_REACTORS
330
D
102
}
330
D
100
AcDbGroup
300

 70
     1
 71
     1
  0
GROUP
  5
33A2
102
{ACAD_REACTORS
330
D
102
}
330
D
100
AcDbGroup
300

 70
     1
 71
     1
  0
GROUP
  5
B97C
102
{ACAD_REACTORS
330
D
102
}
330
D
100
AcDbGroup
300

 70
     1
 71
     1
  0
GROUP
  5
1D6A5
102
{ACAD_REACTORS
330
D
102
}
330
D
100
AcDbGroup
300

 70
     1
 71
     1
  0
GROUP
  5
1D64C
102
{ACAD_REACTORS
330
D
102
}
330
D
100
AcDbGroup
300

 70
     1
 71
     1
  0
GROUP
  5
1D673
102
{ACAD_REACTORS
330
D
102
}
330
D
100
AcDbGroup
300

 70
     1
 71
     1
  0
GROUP
  5
1D6EE
102
{ACAD_REACTORS
330
D
102
}
330
D
100
AcDbGroup
300

 70
     1
 71
     1
  0
GROUP
  5
8218
102
{ACAD_REACTORS
330
D
102
}
330
D
100
AcDbGroup
300

 70
     1
 71
     1
  0
GROUP
  5
3522
102
{ACAD_REACTORS
330
D
102
}
330
D
100
AcDbGroup
300

 70
     1
 71
     1
  0
GROUP
  5
5E04
102
{ACAD_REACTORS
330
D
102
}
330
D
100
AcDbGroup
300

 70
     1
 71
     1
  0
GROUP
  5
1D67D
102
{ACAD_REACTORS
330
D
102
}
330
D
100
AcDbGroup
300

 70
     1
 71
     1
  0
GROUP
  5
B6F0
102
{ACAD_REACTORS
330
D
102
}
330
D
100
AcDbGroup
300

 70
     1
 71
     1
  0
GROUP
  5
A637
102
{ACAD_REACTORS
330
D
102
}
330
D
100
AcDbGroup
300

 70
     1
 71
     1
  0
GROUP
  5
A383
102
{ACAD_REACTORS
330
D
102
}
330
D
100
AcDbGroup
300

 70
     1
 71
     1
  0
GROUP
  5
15217
102
{ACAD_REACTORS
330
D
102
}
330
D
100
AcDbGroup
300

 70
     1
 71
     1
340
15210
340
15211
340
15212
340
15213
340
15214
340
15215
340
15216
  0
GROUP
  5
4F1D
102
{ACAD_REACTORS
330
D
102
}
330
D
100
AcDbGroup
300

 70
     1
 71
     1
  0
GROUP
  5
A387
102
{ACAD_REACTORS
330
D
102
}
330
D
100
AcDbGroup
300

 70
     1
 71
     1
  0
GROUP
  5
A37F
102
{ACAD_REACTORS
330
D
102
}
330
D
100
AcDbGroup
300

 70
     1
 71
     1
  0
GROUP
  5
1D6A6
102
{ACAD_REACTORS
330
D
102
}
330
D
100
AcDbGroup
300

 70
     1
 71
     1
  0
GROUP
  5
1D6EF
102
{ACAD_REACTORS
330
D
102
}
330
D
100
AcDbGroup
300

 70
     1
 71
     1
  0
GROUP
  5
178D7
102
{ACAD_REACTORS
330
D
102
}
330
D
100
AcDbGroup
300

 70
     1
 71
     1
  0
GROUP
  5
1D6D2
102
{ACAD_REACTORS
330
D
102
}
330
D
100
AcDbGroup
300

 70
     1
 71
     1
  0
GROUP
  5
B6FC
102
{ACAD_REACTORS
330
D
102
}
330
D
100
AcDbGroup
300

 70
     1
 71
     1
  0
GROUP
  5
4AB1
102
{ACAD_REACTORS
330
D
102
}
330
D
100
AcDbGroup
300

 70
     1
 71
     1
  0
GROUP
  5
1D5DD
102
{ACAD_REACTORS
330
D
102
}
330
D
100
AcDbGroup
300

 70
     1
 71
     1
  0
GROUP
  5
6221
102
{ACAD_REACTORS
330
D
102
}
330
D
100
AcDbGroup
300

 70
     1
 71
     1
  0
GROUP
  5
49C1
102
{ACAD_REACTORS
330
D
102
}
330
D
100
AcDbGroup
300

 70
     1
 71
     1
  0
GROUP
  5
1D64D
102
{ACAD_REACTORS
330
D
102
}
330
D
100
AcDbGroup
300

 70
     1
 71
     1
  0
GROUP
  5
B6E7
102
{ACAD_REACTORS
330
D
102
}
330
D
100
AcDbGroup
300

 70
     1
 71
     1
  0
GROUP
  5
1D5C6
102
{ACAD_REACTORS
330
D
102
}
330
D
100
AcDbGroup
300

 70
     1
 71
     1
  0
GROUP
  5
4ABC
102
{ACAD_REACTORS
330
D
102
}
330
D
100
AcDbGroup
300

 70
     1
 71
     1
  0
GROUP
  5
5E1D
102
{ACAD_REACTORS
330
D
102
}
330
D
100
AcDbGroup
300

 70
     1
 71
     1
  0
GROUP
  5
5DF8
102
{ACAD_REACTORS
330
D
102
}
330
D
100
AcDbGroup
300

 70
     1
 71
     1
  0
GROUP
  5
498F
102
{ACAD_REACTORS
330
D
102
}
330
D
100
AcDbGroup
300

 70
     1
 71
     1
  0
GROUP
  5
4995
102
{ACAD_REACTORS
330
D
102
}
330
D
100
AcDbGroup
300

 70
     1
 71
     1
  0
GROUP
  5
9808
102
{ACAD_REACTORS
330
D
102
}
330
D
100
AcDbGroup
300

 70
     1
 71
     1
  0
GROUP
  5
A3B5
102
{ACAD_REACTORS
330
D
102
}
330
D
100
AcDbGroup
300

 70
     1
 71
     1
  0
GROUP
  5
1D671
102
{ACAD_REACTORS
330
D
102
}
330
D
100
AcDbGroup
300

 70
     1
 71
     1
  0
GROUP
  5
31CE
102
{ACAD_REACTORS
330
D
102
}
330
D
100
AcDbGroup
300

 70
     1
 71
     1
  0
GROUP
  5
8804
102
{ACAD_REACTORS
330
D
102
}
330
D
100
AcDbGroup
300

 70
     1
 71
     1
  0
GROUP
  5
15AD9
102
{ACAD_REACTORS
330
D
102
}
330
D
100
AcDbGroup
300

 70
     1
 71
     1
  0
GROUP
  5
7555
102
{ACAD_REACTORS
330
D
102
}
330
D
100
AcDbGroup
300

 70
     1
 71
     1
  0
GROUP
  5
1D619
102
{ACAD_REACTORS
330
D
102
}
330
D
100
AcDbGroup
300

 70
     1
 71
     1
  0
GROUP
  5
1AD14
102
{ACAD_REACTORS
330
D
102
}
330
D
100
AcDbGroup
300

 70
     1
 71
     1
  0
GROUP
  5
16D1D
102
{ACAD_REACTORS
330
D
102
}
330
D
100
AcDbGroup
300

 70
     1
 71
     1
340
16D1B
340
16D1A
340
16D19
340
16D18
340
16D15
340
16D14
340
16CFF
340
16D13
340
16D12
340
16D0A
340
16D09
340
16D08
340
16CF9
340
16CFE
340
16CFD
340
16CFC
340
16CFB
340
16CFA
340
16D0E
340
16D0B
340
16D04
340
16D03
340
16D07
340
16D06
340
16D05
340
16D0D
340
16D0C
340
16D02
340
16D01
340
16D00
340
16D10
340
16D0F
340
16D16
340
16D17
340
16D11
  0
GROUP
  5
15D8D
102
{ACAD_REACTORS
330
D
102
}
330
D
100
AcDbGroup
300

 70
     1
 71
     1
  0
GROUP
  5
1D5E0
102
{ACAD_REACTORS
330
D
102
}
330
D
100
AcDbGroup
300

 70
     1
 71
     1
  0
GROUP
  5
2C9A
102
{ACAD_REACTORS
330
D
102
}
330
D
100
AcDbGroup
300

 70
     1
 71
     1
  0
GROUP
  5
1D6CE
102
{ACAD_REACTORS
330
D
102
}
330
D
100
AcDbGroup
300

 70
     1
 71
     1
  0
GROUP
  5
1D67E
102
{ACAD_REACTORS
330
D
102
}
330
D
100
AcDbGroup
300

 70
     1
 71
     1
  0
GROUP
  5
1D6A2
102
{ACAD_REACTORS
330
D
102
}
330
D
100
AcDbGroup
300

 70
     3
 71
     1
  0
GROUP
  5
5E6E
102
{ACAD_REACTORS
330
D
102
}
330
D
100
AcDbGroup
300

 70
     1
 71
     1
  0
GROUP
  5
A3C9
102
{ACAD_REACTORS
330
D
102
}
330
D
100
AcDbGroup
300

 70
     1
 71
     1
  0
GROUP
  5
9656
102
{ACAD_REACTORS
330
D
102
}
330
D
100
AcDbGroup
300

 70
     1
 71
     1
  0
GROUP
  5
1D6AB
102
{ACAD_REACTORS
330
D
102
}
330
D
100
AcDbGroup
300

 70
     1
 71
     1
  0
GROUP
  5
178CE
102
{ACAD_REACTORS
330
D
102
}
330
D
100
AcDbGroup
300

 70
     1
 71
     1
  0
GROUP
  5
8051
102
{ACAD_REACTORS
330
D
102
}
330
D
100
AcDbGroup
300

 70
     1
 71
     1
  0
GROUP
  5
49CA
102
{ACAD_REACTORS
330
D
102
}
330
D
100
AcDbGroup
300

 70
     1
 71
     1
  0
GROUP
  5
A3C1
102
{ACAD_REACTORS
330
D
102
}
330
D
100
AcDbGroup
300

 70
     1
 71
     1
  0
GROUP
  5
1D5D3
102
{ACAD_REACTORS
330
D
102
}
330
D
100
AcDbGroup
300

 70
     3
 71
     1
  0
GROUP
  5
8212
102
{ACAD_REACTORS
330
D
102
}
330
D
100
AcDbGroup
300

 70
     1
 71
     1
  0
GROUP
  5
10E3
102
{ACAD_REACTORS
330
D
102
}
330
D
100
AcDbGroup
300

 70
     1
 71
     1
  0
GROUP
  5
1D6CF
102
{ACAD_REACTORS
330
D
102
}
330
D
100
AcDbGroup
300

 70
     1
 71
     1
  0
GROUP
  5
15AD3
102
{ACAD_REACTORS
330
D
102
}
330
D
100
AcDbGroup
300

 70
     1
 71
     1
  0
GROUP
  5
1D5C4
102
{ACAD_REACTORS
330
D
102
}
330
D
100
AcDbGroup
300

 70
     1
 71
     1
  0
GROUP
  5
49DE
102
{ACAD_REACTORS
330
D
102
}
330
D
100
AcDbGroup
300

 70
     1
 71
     1
  0
GROUP
  5
1D61A
102
{ACAD_REACTORS
330
D
102
}
330
D
100
AcDbGroup
300

 70
     1
 71
     1
  0
GROUP
  5
83B2
102
{ACAD_REACTORS
330
D
102
}
330
D
100
AcDbGroup
300

 70
     1
 71
     1
  0
GROUP
  5
7556
102
{ACAD_REACTORS
330
D
102
}
330
D
100
AcDbGroup
300

 70
     1
 71
     1
  0
GROUP
  5
1D67F
102
{ACAD_REACTORS
330
D
102
}
330
D
100
AcDbGroup
300

 70
     1
 71
     1
  0
GROUP
  5
1146
102
{ACAD_REACTORS
330
D
102
}
330
D
100
AcDbGroup
300

 70
     1
 71
     1
  0
GROUP
  5
1D605
102
{ACAD_REACTORS
330
D
102
}
330
D
100
AcDbGroup
300

 70
     1
 71
     1
  0
GROUP
  5
1D5E1
102
{ACAD_REACTORS
330
D
102
}
330
D
100
AcDbGroup
300

 70
     1
 71
     1
  0
GROUP
  5
818B
102
{ACAD_REACTORS
330
D
102
}
330
D
100
AcDbGroup
300

 70
     1
 71
     1
  0
GROUP
  5
10B6
102
{ACAD_REACTORS
330
D
102
}
330
D
100
AcDbGroup
300

 70
     1
 71
     1
  0
GROUP
  5
1B038
102
{ACAD_REACTORS
330
D
102
}
330
D
100
AcDbGroup
300

 70
     1
 71
     1
  0
GROUP
  5
1D5E3
102
{ACAD_REACTORS
330
D
102
}
330
D
100
AcDbGroup
300

 70
     1
 71
     1
  0
GROUP
  5
5E5F
102
{ACAD_REACTORS
330
D
102
}
330
D
100
AcDbGroup
300

 70
     1
 71
     1
  0
GROUP
  5
1D6A0
102
{ACAD_REACTORS
330
D
102
}
330
D
100
AcDbGroup
300

 70
     1
 71
     1
  0
GROUP
  5
8217
102
{ACAD_REACTORS
330
D
102
}
330
D
100
AcDbGroup
300

 70
     1
 71
     1
  0
GROUP
  5
1110
102
{ACAD_REACTORS
330
D
102
}
330
D
100
AcDbGroup
300

 70
     1
 71
     1
  0
GROUP
  5
A633
102
{ACAD_REACTORS
330
D
102
}
330
D
100
AcDbGroup
300

 70
     1
 71
     1
  0
GROUP
  5
4986
102
{ACAD_REACTORS
330
D
102
}
330
D
100
AcDbGroup
300

 70
     1
 71
     1
  0
GROUP
  5
1D651
102
{ACAD_REACTORS
330
D
102
}
330
D
100
AcDbGroup
300

 70
     1
 71
     1
  0
GROUP
  5
1D5C9
102
{ACAD_REACTORS
330
D
102
}
330
D
100
AcDbGroup
300

 70
     1
 71
     1
  0
GROUP
  5
15DAB
102
{ACAD_REACTORS
330
D
102
}
330
D
100
AcDbGroup
300

 70
     1
 71
     1
340
15D9D
340
15D9E
340
15D9F
340
15DA0
340
15DA1
340
15DA2
340
15DA3
340
15DA4
340
15DA5
340
15DA6
340
15DA7
340
15DA8
340
15DA9
340
15DAA
  0
GROUP
  5
1D61D
102
{ACAD_REACTORS
330
D
102
}
330
D
100
AcDbGroup
300

 70
     1
 71
     1
  0
GROUP
  5
8043
102
{ACAD_REACTORS
330
D
102
}
330
D
100
AcDbGroup
300

 70
     1
 71
     1
  0
GROUP
  5
1107
102
{ACAD_REACTORS
330
D
102
}
330
D
100
AcDbGroup
300

 70
     1
 71
     1
  0
GROUP
  5
1D6AC
102
{ACAD_REACTORS
330
D
102
}
330
D
100
AcDbGroup
300

 70
     1
 71
     1
  0
GROUP
  5
2FE8
102
{ACAD_REACTORS
330
D
102
}
330
D
100
AcDbGroup
300

 70
     1
 71
     1
  0
GROUP
  5
964C
102
{ACAD_REACTORS
330
D
102
}
330
D
100
AcDbGroup
300

 70
     1
 71
     1
  0
GROUP
  5
1D5BE
102
{ACAD_REACTORS
330
D
102
}
330
D
100
AcDbGroup
300

 70
     1
 71
     1
  0
GROUP
  5
49E1
102
{ACAD_REACTORS
330
D
102
}
330
D
100
AcDbGroup
300

 70
     1
 71
     1
  0
GROUP
  5
64A1
102
{ACAD_REACTORS
330
D
102
}
330
D
100
AcDbGroup
300

 70
     1
 71
     1
  0
GROUP
  5
10DA
102
{ACAD_REACTORS
330
D
102
}
330
D
100
AcDbGroup
300

 70
     1
 71
     1
  0
GROUP
  5
1080
102
{ACAD_REACTORS
330
D
102
}
330
D
100
AcDbGroup
300

 70
     1
 71
     1
  0
GROUP
  5
8226
102
{ACAD_REACTORS
330
D
102
}
330
D
100
AcDbGroup
300

 70
     1
 71
     1
  0
GROUP
  5
1D611
102
{ACAD_REACTORS
330
D
102
}
330
D
100
AcDbGroup
300

 70
     1
 71
     1
  0
GROUP
  5
1D5BF
102
{ACAD_REACTORS
330
D
102
}
330
D
100
AcDbGroup
300

 70
     1
 71
     1
  0
GROUP
  5
980D
102
{ACAD_REACTORS
330
D
102
}
330
D
100
AcDbGroup
300

 70
     1
 71
     1
  0
GROUP
  5
16041
102
{ACAD_REACTORS
330
D
102
}
330
D
100
AcDbGroup
300

 70
     1
 71
     1
  0
GROUP
  5
A63F
102
{ACAD_REACTORS
330
D
102
}
330
D
100
AcDbGroup
300

 70
     1
 71
     1
  0
GROUP
  5
81E1
102
{ACAD_REACTORS
330
D
102
}
330
D
100
AcDbGroup
300

 70
     1
 71
     1
  0
GROUP
  5
1D652
102
{ACAD_REACTORS
330
D
102
}
330
D
100
AcDbGroup
300

 70
     1
 71
     1
  0
GROUP
  5
15AD2
102
{ACAD_REACTORS
330
D
102
}
330
D
100
AcDbGroup
300

 70
     1
 71
     1
  0
GROUP
  5
1089
102
{ACAD_REACTORS
330
D
102
}
330
D
100
AcDbGroup
300

 70
     1
 71
     1
  0
GROUP
  5
1D6AD
102
{ACAD_REACTORS
330
D
102
}
330
D
100
AcDbGroup
300

 70
     1
 71
     1
  0
GROUP
  5
4A97
102
{ACAD_REACTORS
330
D
102
}
330
D
100
AcDbGroup
300

 70
     1
 71
     1
  0
GROUP
  5
1D63F
102
{ACAD_REACTORS
330
D
102
}
330
D
100
AcDbGroup
300

 70
     1
 71
     1
  0
GROUP
  5
1D61E
102
{ACAD_REACTORS
330
D
102
}
330
D
100
AcDbGroup
300

 70
     1
 71
     1
  0
GROUP
  5
619C
102
{ACAD_REACTORS
330
D
102
}
330
D
100
AcDbGroup
300

 70
     1
 71
     1
  0
GROUP
  5
339B
102
{ACAD_REACTORS
330
D
102
}
330
D
100
AcDbGroup
300

 70
     1
 71
     1
  0
LAYOUT
  5
1E908
102
{ACAD_REACTORS
330
73F
102
}
330
73F
100
AcDbPlotSettings
  1

  2
iR C2550
  4

  6

 40
0.0
 41
0.0
 42
0.0
 43
0.0
 44
0.0
 45
0.0
 46
0.0
 47
0.0
 48
0.0
 49
0.0
140
0.0
141
0.0
142
1.0
143
1.0
 70
  1712
 72
     0
 73
     0
 74
     0
  7

 75
     0
147
1.0
148
0.0
149
0.0
100
AcDbLayout
  1
Model
 70
     1
 71
     0
 10
0.0
 20
0.0
 11
12.0
 21
9.0
 12
0.0
 22
0.0
 32
0.0
 14
0.0
 24
0.0
 34
0.0
 15
0.0
 25
0.0
 35
0.0
146
0.0
 13
0.0
 23
0.0
 33
0.0
 16
1.0
 26
0.0
 36
0.0
 17
0.0
 27
1.0
 37
0.0
 76
     0
330
18
  0
LAYOUT
  5
1E909
102
{ACAD_REACTORS
330
73F
102
}
330
73F
100
AcDbPlotSettings
  1

  2
iR C2550
  4
A4
  6

 40
5.873749732971191
 41
5.873747825622558
 42
5.873748779296875
 43
5.873748779296875
 44
209.9733276367187
 45
296.9259948730469
 46
0.0
 47
0.0
 48
0.0
 49
0.0
140
0.0
141
0.0
142
1.0
143
36.90443706984954
 70
   688
 72
     0
 73
     1
 74
     1
  7

 75
     0
147
0.0270970127008654
148
0.7319936917574296
149
0.1400072155288626
100
AcDbLayout
  1
ﾚｲｱｳﾄ1
 70
     0
 71
     1
 10
-8.56296794808758
 20
-8.539662779527942
 11
422.8498939493465
 21
296.5370087211093
 12
0.0
 22
0.0
 32
0.0
 14
0.0
 24
0.0
 34
0.0
 15
400.0
 25
288.0
 35
0.0
146
0.0
 13
0.0
 23
0.0
 33
0.0
 16
1.0
 26
0.0
 36
0.0
 17
0.0
 27
1.0
 37
0.0
 76
     0
330
15
331
23
  0
MLINESTYLE
  5
1C
102
{ACAD_REACTORS
330
1B
102
}
330
1B
100
AcDbMlineStyle
  2
STANDARD
 70
     0
  3

 62
   256
 51
90.0
 52
90.0
 71
     2
 49
0.5
 62
   256
  6
BYLAYER
 49
-0.5
 62
   256
  6
BYLAYER
  0
ACDBPLACEHOLDER
  5
73E
102
{ACAD_REACTORS
330
73D
102
}
330
73D
  0
DICTIONARYVAR
  5
11AD
102
{ACAD_REACTORS
330
11AC
102
}
330
11AC
100
DictionaryVariables
280
     0
  1
1
  0
DICTIONARYVAR
  5
AD08
102
{ACAD_REACTORS
330
11AC
102
}
330
11AC
100
DictionaryVariables
280
     0
  1
96
  0
ENDSEC
  0
EOF
