  0
SECTION
  2
HEADER
  9
$ACADVER
  1
AC1014
  9
$ACADMAINTVER
 70
     9
  9
$DWGCODEPAGE
  3
ANSI_932
  9
$INSBASE
 10
0.0
 20
0.0
 30
0.0
  9
$EXTMIN
 10
-1649.355522736871
 20
264.8321311964024
 30
0.0
  9
$EXTMAX
 10
260.9805219669847
 20
1245.40181878314
 30
0.0
  9
$LIMMIN
 10
0.0
 20
0.0
  9
$LIMMAX
 10
420.0
 20
297.0
  9
$ORTHOMODE
 70
     0
  9
$REGENMODE
 70
     1
  9
$FILLMODE
 70
     1
  9
$QTEXTMODE
 70
     0
  9
$MIRRTEXT
 70
     0
  9
$DRAGMODE
 70
     2
  9
$LTSCALE
 40
1.0
  9
$OSMODE
 70
    37
  9
$ATTMODE
 70
     1
  9
$TEXTSIZE
 40
2.5
  9
$TRACEWID
 40
1.0
  9
$TEXTSTYLE
  7
STANDARD
  9
$CLAYER
  8
寸法
  9
$CELTYPE
  6
BYLAYER
  9
$CECOLOR
 62
   256
  9
$CELTSCALE
 40
5.0
  9
$DELOBJ
 70
     1
  9
$DISPSILH
 70
     0
  9
$DIMSCALE
 40
5.0
  9
$DIMASZ
 40
2.5
  9
$DIMEXO
 40
0.8
  9
$DIMDLI
 40
3.75
  9
$DIMRND
 40
0.0
  9
$DIMDLE
 40
0.0
  9
$DIMEXE
 40
1.0
  9
$DIMTP
 40
0.026
  9
$DIMTM
 40
0.0
  9
$DIMTXT
 40
3.0
  9
$DIMCEN
 40
2.5
  9
$DIMTSZ
 40
0.0
  9
$DIMTOL
 70
     0
  9
$DIMLIM
 70
     0
  9
$DIMTIH
 70
     0
  9
$DIMTOH
 70
     0
  9
$DIMSE1
 70
     0
  9
$DIMSE2
 70
     0
  9
$DIMTAD
 70
     1
  9
$DIMZIN
 70
     8
  9
$DIMBLK
  1
OPEN30
  9
$DIMASO
 70
     1
  9
$DIMSHO
 70
     1
  9
$DIMPOST
  1

  9
$DIMAPOST
  1

  9
$DIMALT
 70
     0
  9
$DIMALTD
 70
     3
  9
$DIMALTF
 40
0.03937007874016
  9
$DIMLFAC
 40
1.0
  9
$DIMTOFL
 70
     1
  9
$DIMTVP
 40
0.0
  9
$DIMTIX
 70
     0
  9
$DIMSOXD
 70
     0
  9
$DIMSAH
 70
     0
  9
$DIMBLK1
  1

  9
$DIMBLK2
  1

  9
$DIMSTYLE
  2
ISO-25
  9
$DIMCLRD
 70
     4
  9
$DIMCLRE
 70
     4
  9
$DIMCLRT
 70
     0
  9
$DIMTFAC
 40
1.0
  9
$DIMGAP
 40
0.5
  9
$DIMJUST
 70
     0
  9
$DIMSD1
 70
     0
  9
$DIMSD2
 70
     0
  9
$DIMTOLJ
 70
     0
  9
$DIMTZIN
 70
     8
  9
$DIMALTZ
 70
     0
  9
$DIMALTTZ
 70
     0
  9
$DIMFIT
 70
     5
  9
$DIMUPT
 70
     0
  9
$DIMUNIT
 70
     2
  9
$DIMDEC
 70
     2
  9
$DIMTDEC
 70
     2
  9
$DIMALTU
 70
     2
  9
$DIMALTTD
 70
     3
  9
$DIMTXSTY
  7
STANDARD
  9
$DIMAUNIT
 70
     0
  9
$LUNITS
 70
     2
  9
$LUPREC
 70
     4
  9
$SKETCHINC
 40
1.0
  9
$FILLETRAD
 40
0.0
  9
$AUNITS
 70
     0
  9
$AUPREC
 70
     0
  9
$MENU
  1
.
  9
$ELEVATION
 40
0.0
  9
$PELEVATION
 40
0.0
  9
$THICKNESS
 40
0.0
  9
$LIMCHECK
 70
     0
  9
$BLIPMODE
 70
     0
  9
$CHAMFERA
 40
5.0
  9
$CHAMFERB
 40
5.0
  9
$CHAMFERC
 40
20.0
  9
$CHAMFERD
 40
0.0
  9
$SKPOLY
 70
     0
  9
$TDCREATE
 40
2452779.409065161
  9
$TDUPDATE
 40
2455579.559113958
  9
$TDINDWG
 40
5.3100060069
  9
$TDUSRTIMER
 40
5.3100052778
  9
$USRTIMER
 70
     1
  9
$ANGBASE
 50
0.0
  9
$ANGDIR
 70
     0
  9
$PDMODE
 70
     0
  9
$PDSIZE
 40
0.0
  9
$PLINEWID
 40
0.0
  9
$COORDS
 70
     0
  9
$SPLFRAME
 70
     0
  9
$SPLINETYPE
 70
     6
  9
$SPLINESEGS
 70
     8
  9
$ATTDIA
 70
     0
  9
$ATTREQ
 70
     1
  9
$HANDLING
 70
-16383
  9
$HANDSEED
  5
1BD25
  9
$SURFTAB1
 70
     6
  9
$SURFTAB2
 70
     6
  9
$SURFTYPE
 70
     6
  9
$SURFU
 70
     6
  9
$SURFV
 70
     6
  9
$UCSNAME
  2

  9
$UCSORG
 10
0.0
 20
0.0
 30
0.0
  9
$UCSXDIR
 10
1.0
 20
0.0
 30
0.0
  9
$UCSYDIR
 10
0.0
 20
1.0
 30
0.0
  9
$PUCSNAME
  2

  9
$PUCSORG
 10
0.0
 20
0.0
 30
0.0
  9
$PUCSXDIR
 10
1.0
 20
0.0
 30
0.0
  9
$PUCSYDIR
 10
0.0
 20
1.0
 30
0.0
  9
$USERI1
 70
     0
  9
$USERI2
 70
     0
  9
$USERI3
 70
     0
  9
$USERI4
 70
     0
  9
$USERI5
 70
     0
  9
$USERR1
 40
88.0
  9
$USERR2
 40
0.0
  9
$USERR3
 40
0.0
  9
$USERR4
 40
0.0
  9
$USERR5
 40
0.0
  9
$WORLDVIEW
 70
     1
  9
$SHADEDGE
 70
     3
  9
$SHADEDIF
 70
    70
  9
$TILEMODE
 70
     0
  9
$MAXACTVP
 70
    64
  9
$PINSBASE
 10
0.0
 20
0.0
 30
0.0
  9
$PLIMCHECK
 70
     0
  9
$PEXTMIN
 10
0.0
 20
0.0
 30
0.0
  9
$PEXTMAX
 10
400.0
 20
288.0
 30
0.0
  9
$PLIMMIN
 10
-11.92033242131458
 20
-5.851218140759117
  9
$PLIMMAX
 10
411.9458484424616
 20
293.8461026155333
  9
$UNITMODE
 70
     0
  9
$VISRETAIN
 70
     1
  9
$PLINEGEN
 70
     0
  9
$PSLTSCALE
 70
     0
  9
$TREEDEPTH
 70
  3020
  9
$PICKSTYLE
 70
     0
  9
$CMLSTYLE
  2
STANDARD
  9
$CMLJUST
 70
     0
  9
$CMLSCALE
 40
20.0
  9
$PROXYGRAPHICS
 70
     1
  9
$MEASUREMENT
 70
     1
  0
ENDSEC
  0
SECTION
  2
CLASSES
  0
CLASS
  1
ACDBDICTIONARYWDFLT
  2
AcDbDictionaryWithDefault
  3
AutoCAD 2000
 90
        0
280
     0
281
     0
  0
CLASS
  1
ACDBPLACEHOLDER
  2
AcDbPlaceHolder
  3
AutoCAD 2000
 90
        0
280
     0
281
     0
  0
CLASS
  1
LAYOUT
  2
AcDbLayout
  3
AutoCAD 2000
 90
        0
280
     0
281
     0
  0
CLASS
  1
DICTIONARYVAR
  2
AcDbDictionaryVar
  3
AutoCAD 2000
 90
        0
280
     0
281
     0
  0
CLASS
  1
LONG_TRANSACTION
  2
AcDbLongTransaction
  3
AutoCAD 2000
 90
        0
280
     0
281
     0
  0
CLASS
  1
LWPOLYLINE
  2
AcDbPolyline
  3
AutoCAD 2000
 90
        0
280
     0
281
     1
  0
CLASS
  1
HATCH
  2
AcDbHatch
  3
AutoCAD 2000
 90
        0
280
     0
281
     1
  0
CLASS
  1
XRECORD
  2
AcDbXrecord
  3
AutoCAD 2000
 90
        0
280
     0
281
     0
  0
ENDSEC
  0
SECTION
  2
TABLES
  0
TABLE
  2
VPORT
  5
8
330
0
100
AcDbSymbolTable
 70
     2
  0
VPORT
  5
1BCDA
330
8
100
AcDbSymbolTableRecord
100
AcDbViewportTableRecord
  2
*ACTIVE
 70
     0
 10
0.0
 20
0.0
 11
1.0
 21
1.0
 12
-694.1101925373445
 22
755.1806806659442
 13
1867.375483990628
 23
944.572700858702
 14
10.0
 24
10.0
 15
10.0
 25
10.0
 16
0.0
 26
0.0
 36
1.0
 17
0.0
 27
0.0
 37
0.0
 40
1256.726667562615
 41
1.527918781725888
 42
50.0
 43
0.0
 44
0.0
 50
0.0
 51
0.0
 71
     0
 72
   100
 73
     1
 74
     0
 75
     0
 76
     0
 77
     0
 78
     0
  0
ENDTAB
  0
TABLE
  2
LTYPE
  5
5
330
0
100
AcDbSymbolTable
 70
     4
  0
LTYPE
  5
14
330
5
100
AcDbSymbolTableRecord
100
AcDbLinetypeTableRecord
  2
BYBLOCK
 70
     0
  3

 72
    65
 73
     0
 40
0.0
  0
LTYPE
  5
15
330
5
100
AcDbSymbolTableRecord
100
AcDbLinetypeTableRecord
  2
BYLAYER
 70
     0
  3

 72
    65
 73
     0
 40
0.0
  0
LTYPE
  5
16
330
5
100
AcDbSymbolTableRecord
100
AcDbLinetypeTableRecord
  2
CONTINUOUS
 70
     0
  3
Solid line
 72
    65
 73
     0
 40
0.0
  0
LTYPE
  5
158
330
5
100
AcDbSymbolTableRecord
100
AcDbLinetypeTableRecord
  2
HIDDEN
 70
     0
  3
Hidden __ __ __ __ __ __ __ __ __ __ __ __ __ _
 72
    65
 73
     2
 40
9.524999999999996
 49
6.349999999999997
 74
     0
 49
-3.174999999999998
 74
     0
  0
LTYPE
  5
159
330
5
100
AcDbSymbolTableRecord
100
AcDbLinetypeTableRecord
  2
CENTER
 70
     0
  3
Center ____ _ ____ _ ____ _ ____ _ ____ _ ____
 72
    65
 73
     4
 40
50.8
 49
31.75
 74
     0
 49
-6.349999999999997
 74
     0
 49
6.349999999999997
 74
     0
 49
-6.349999999999997
 74
     0
  0
LTYPE
  5
15A
330
5
100
AcDbSymbolTableRecord
100
AcDbLinetypeTableRecord
  2
PHANTOM
 70
     0
  3
Phantom ______  __  __  ______  __  __  ______
 72
    65
 73
     6
 40
63.5
 49
31.75
 74
     0
 49
-6.349999999999997
 74
     0
 49
6.349999999999997
 74
     0
 49
-6.349999999999997
 74
     0
 49
6.349999999999997
 74
     0
 49
-6.349999999999997
 74
     0
  0
ENDTAB
  0
TABLE
  2
LAYER
  5
2
102
{ACAD_XDICTIONARY
360
1AEBC
102
}
330
0
100
AcDbSymbolTable
 70
    15
  0
LAYER
  5
10
330
2
100
AcDbSymbolTableRecord
100
AcDbLayerTableRecord
  2
0
 70
     0
 62
     7
  6
CONTINUOUS
  0
LAYER
  5
38
330
2
100
AcDbSymbolTableRecord
100
AcDbLayerTableRecord
  2
M_VIEW
 70
     0
 62
    -1
  6
CONTINUOUS
  0
LAYER
  5
3A
330
2
100
AcDbSymbolTableRecord
100
AcDbLayerTableRecord
  2
WAKUMOJI
 70
     0
 62
     7
  6
CONTINUOUS
  0
LAYER
  5
15B
330
2
100
AcDbSymbolTableRecord
100
AcDbLayerTableRecord
  2
外形線
 70
     0
 62
     7
  6
CONTINUOUS
  0
LAYER
  5
15C
330
2
100
AcDbSymbolTableRecord
100
AcDbLayerTableRecord
  2
細線
 70
     0
 62
     7
  6
CONTINUOUS
  0
LAYER
  5
15D
330
2
100
AcDbSymbolTableRecord
100
AcDbLayerTableRecord
  2
破線
 70
     0
 62
     7
  6
HIDDEN
  0
LAYER
  5
15E
330
2
100
AcDbSymbolTableRecord
100
AcDbLayerTableRecord
  2
中心線
 70
     0
 62
     7
  6
CENTER
  0
LAYER
  5
15F
330
2
100
AcDbSymbolTableRecord
100
AcDbLayerTableRecord
  2
想像線
 70
     0
 62
     7
  6
PHANTOM
  0
LAYER
  5
161
330
2
100
AcDbSymbolTableRecord
100
AcDbLayerTableRecord
  2
DEFPOINTS
 70
     0
 62
    -7
  6
CONTINUOUS
  0
LAYER
  5
3D0
330
2
100
AcDbSymbolTableRecord
100
AcDbLayerTableRecord
  2
実線
 70
     0
 62
     7
  6
CONTINUOUS
  0
LAYER
  5
3DB
330
2
100
AcDbSymbolTableRecord
100
AcDbLayerTableRecord
  2
ｾﾝﾀ_
 70
     0
 62
     7
  6
CENTER
  0
LAYER
  5
2150
330
2
100
AcDbSymbolTableRecord
100
AcDbLayerTableRecord
  2
寸法
 70
     0
 62
     7
  6
CONTINUOUS
  0
LAYER
  5
251F
330
2
100
AcDbSymbolTableRecord
100
AcDbLayerTableRecord
  2
文字
 70
     0
 62
     7
  6
CONTINUOUS
  0
LAYER
  5
1899B
330
2
100
AcDbSymbolTableRecord
100
AcDbLayerTableRecord
  2
HIDDEN
 70
     0
 62
     7
  6
HIDDEN
  0
LAYER
  5
1B189
330
2
100
AcDbSymbolTableRecord
100
AcDbLayerTableRecord
  2
DIMENSION
 70
     0
 62
     7
  6
CONTINUOUS
  0
ENDTAB
  0
TABLE
  2
STYLE
  5
3
330
0
100
AcDbSymbolTable
 70
     4
  0
STYLE
  5
11
330
3
100
AcDbSymbolTableRecord
100
AcDbTextStyleTableRecord
  2
STANDARD
 70
     0
 40
0.0
 41
0.8
 50
0.0
 71
     0
 42
2.5
  3
simplex.shx
  4
bigfont.shx
  0
STYLE
  5
3DD
330
3
100
AcDbSymbolTableRecord
100
AcDbTextStyleTableRecord
  2
まこ
 70
     0
 40
0.0
 41
1.0
 50
0.0
 71
     0
 42
2.5
  3
simplex.shx
  4
bigfont.shx
  0
STYLE
  5
4967
330
3
100
AcDbSymbolTableRecord
100
AcDbTextStyleTableRecord
  2
ｽﾀｲﾙ1
 70
     0
 40
0.0
 41
0.8
 50
0.0
 71
     0
 42
2.5
  3
simplex.shx
  4
extfont.shx
  0
STYLE
  5
18103
330
3
100
AcDbSymbolTableRecord
100
AcDbTextStyleTableRecord
  2
ｽﾀｲﾙ3
 70
     0
 40
10.0
 41
1.0
 50
0.0
 71
     0
 42
10.0
  3
isocp.shx
  4
extfont.shx
  0
ENDTAB
  0
TABLE
  2
VIEW
  5
6
330
0
100
AcDbSymbolTable
 70
     0
  0
ENDTAB
  0
TABLE
  2
UCS
  5
7
330
0
100
AcDbSymbolTable
 70
     0
  0
ENDTAB
  0
TABLE
  2
APPID
  5
9
330
0
100
AcDbSymbolTable
 70
     1
  0
APPID
  5
12
330
9
100
AcDbSymbolTableRecord
100
AcDbRegAppTableRecord
  2
ACAD
 70
     0
  0
ENDTAB
  0
TABLE
  2
DIMSTYLE
  5
A
330
0
100
AcDbSymbolTable
 70
     3
  0
DIMSTYLE
105
27
102
{ACAD_REACTORS
330
1AD1E
102
}
330
A
100
AcDbSymbolTableRecord
100
AcDbDimStyleTableRecord
  2
ISO-25
 70
     0
  3

  4

  5
OPEN30
  6

  7

 40
5.0
 41
2.5
 42
0.8
 43
3.75
 44
1.0
 45
0.0
 46
0.0
 47
0.0
 48
0.0
140
3.0
141
2.5
142
0.0
143
0.03937007874016
144
1.0
145
0.0
146
1.0
147
0.5
 71
     0
 72
     0
 73
     0
 74
     0
 75
     0
 76
     0
 77
     1
 78
     8
170
     0
171
     3
172
     1
173
     0
174
     0
175
     0
176
     4
177
     4
178
     0
270
     2
271
     2
272
     2
273
     2
274
     3
340
11
275
     0
280
     0
281
     0
282
     0
283
     0
284
     8
285
     0
286
     0
287
     5
288
     0
  0
DIMSTYLE
105
3DE
330
A
100
AcDbSymbolTableRecord
100
AcDbDimStyleTableRecord
  2
STANDARD
 70
     0
  3

  4

  5
OPEN30
  6

  7

 40
3.0
 41
2.5
 42
0.5
 43
0.38
 44
1.0
 45
0.0
 46
3.0
 47
0.0
 48
0.0
140
3.2
141
0.09
142
0.0
143
25.4
144
1.0
145
0.5
146
1.0
147
0.5
 71
     0
 72
     0
 73
     0
 74
     0
 75
     0
 76
     0
 77
     1
 78
     8
170
     0
171
     2
172
     1
173
     0
174
     0
175
     0
176
     4
177
     4
178
     0
270
     2
271
     2
272
     2
273
     2
274
     2
340
11
275
     0
280
     0
281
     0
282
     0
283
     1
284
     0
285
     0
286
     0
287
     5
288
     0
  0
DIMSTYLE
105
180A0
102
{ACAD_REACTORS
330
9CB7
330
9CFE
102
}
330
A
100
AcDbSymbolTableRecord
100
AcDbDimStyleTableRecord
  2
STD_M_
 70
     0
  3

  4

  5
OPEN30
  6
OPEN30
  7
OPEN
 40
3.0
 41
2.5
 42
1.0
 43
6.5
 44
1.5
 45
0.005
 46
0.0
 47
0.0
 48
0.0
140
3.5
141
2.5
142
0.0
143
0.0394
144
1.0
145
0.0
146
1.0
147
0.75
 71
     0
 72
     0
 73
     0
 74
     0
 75
     0
 76
     0
 77
     1
 78
     9
170
     0
171
     4
172
     1
173
     0
174
     0
175
     0
176
     3
177
     3
178
     2
270
     2
271
     2
272
     2
273
     8
274
     4
340
11
275
     0
280
     0
281
     0
282
     0
283
     1
284
     9
285
     0
286
     0
287
     5
288
     0
  0
ENDTAB
  0
TABLE
  2
BLOCK_RECORD
  5
1
330
0
100
AcDbSymbolTable
 70
    38
  0
BLOCK_RECORD
  5
1F
102
{ACAD_XDICTIONARY
360
1BD21
102
}
330
1
100
AcDbSymbolTableRecord
100
AcDbBlockTableRecord
  2
*MODEL_SPACE
  0
BLOCK_RECORD
  5
17E82
102
{ACAD_XDICTIONARY
360
1BD23
102
}
330
1
100
AcDbSymbolTableRecord
100
AcDbBlockTableRecord
  2
*PAPER_SPACE
  0
BLOCK_RECORD
  5
31
330
1
100
AcDbSymbolTableRecord
100
AcDbBlockTableRecord
  2
_OPEN30
  0
BLOCK_RECORD
  5
21DD
330
1
100
AcDbSymbolTableRecord
100
AcDbBlockTableRecord
  2
*D1
  0
BLOCK_RECORD
  5
2505
330
1
100
AcDbSymbolTableRecord
100
AcDbBlockTableRecord
  2
_DATUMFILLED
  0
BLOCK_RECORD
  5
28A8
330
1
100
AcDbSymbolTableRecord
100
AcDbBlockTableRecord
  2
*D3
  0
BLOCK_RECORD
  5
2C6C
330
1
100
AcDbSymbolTableRecord
100
AcDbBlockTableRecord
  2
_DOTSMALL
  0
BLOCK_RECORD
  5
9EA5
330
1
100
AcDbSymbolTableRecord
100
AcDbBlockTableRecord
  2
*D5
  0
BLOCK_RECORD
  5
9EB1
330
1
100
AcDbSymbolTableRecord
100
AcDbBlockTableRecord
  2
*D6
  0
BLOCK_RECORD
  5
9EBD
330
1
100
AcDbSymbolTableRecord
100
AcDbBlockTableRecord
  2
*D7
  0
BLOCK_RECORD
  5
9EC9
330
1
100
AcDbSymbolTableRecord
100
AcDbBlockTableRecord
  2
*D8
  0
BLOCK_RECORD
  5
9ED5
330
1
100
AcDbSymbolTableRecord
100
AcDbBlockTableRecord
  2
*D9
  0
BLOCK_RECORD
  5
9EE1
330
1
100
AcDbSymbolTableRecord
100
AcDbBlockTableRecord
  2
*D10
  0
BLOCK_RECORD
  5
9EED
330
1
100
AcDbSymbolTableRecord
100
AcDbBlockTableRecord
  2
*D11
  0
BLOCK_RECORD
  5
9EFB
330
1
100
AcDbSymbolTableRecord
100
AcDbBlockTableRecord
  2
*D12
  0
BLOCK_RECORD
  5
9F07
330
1
100
AcDbSymbolTableRecord
100
AcDbBlockTableRecord
  2
*D13
  0
BLOCK_RECORD
  5
9F13
330
1
100
AcDbSymbolTableRecord
100
AcDbBlockTableRecord
  2
*D14
  0
BLOCK_RECORD
  5
9F21
330
1
100
AcDbSymbolTableRecord
100
AcDbBlockTableRecord
  2
*D15
  0
BLOCK_RECORD
  5
9F2F
330
1
100
AcDbSymbolTableRecord
100
AcDbBlockTableRecord
  2
*D16
  0
BLOCK_RECORD
  5
9F3D
330
1
100
AcDbSymbolTableRecord
100
AcDbBlockTableRecord
  2
*D17
  0
BLOCK_RECORD
  5
9F4B
330
1
100
AcDbSymbolTableRecord
100
AcDbBlockTableRecord
  2
*D18
  0
BLOCK_RECORD
  5
9F58
330
1
100
AcDbSymbolTableRecord
100
AcDbBlockTableRecord
  2
*D19
  0
BLOCK_RECORD
  5
9F64
330
1
100
AcDbSymbolTableRecord
100
AcDbBlockTableRecord
  2
*D20
  0
BLOCK_RECORD
  5
148CE
330
1
100
AcDbSymbolTableRecord
100
AcDbBlockTableRecord
  2
_OPEN
  0
BLOCK_RECORD
  5
186C9
330
1
100
AcDbSymbolTableRecord
100
AcDbBlockTableRecord
  2
*D22
  0
BLOCK_RECORD
  5
186DF
330
1
100
AcDbSymbolTableRecord
100
AcDbBlockTableRecord
  2
*D23
  0
BLOCK_RECORD
  5
188EC
330
1
100
AcDbSymbolTableRecord
100
AcDbBlockTableRecord
  2
*D24
  0
BLOCK_RECORD
  5
188F4
330
1
100
AcDbSymbolTableRecord
100
AcDbBlockTableRecord
  2
*D25
  0
BLOCK_RECORD
  5
18931
330
1
100
AcDbSymbolTableRecord
100
AcDbBlockTableRecord
  2
*D26
  0
BLOCK_RECORD
  5
18DA4
330
1
100
AcDbSymbolTableRecord
100
AcDbBlockTableRecord
  2
*D27
  0
BLOCK_RECORD
  5
18DB0
330
1
100
AcDbSymbolTableRecord
100
AcDbBlockTableRecord
  2
*D28
  0
BLOCK_RECORD
  5
18DBC
330
1
100
AcDbSymbolTableRecord
100
AcDbBlockTableRecord
  2
*D29
  0
BLOCK_RECORD
  5
18DCA
330
1
100
AcDbSymbolTableRecord
100
AcDbBlockTableRecord
  2
*D30
  0
BLOCK_RECORD
  5
1ABB5
330
1
100
AcDbSymbolTableRecord
100
AcDbBlockTableRecord
  2
*D31
  0
BLOCK_RECORD
  5
1AC84
330
1
100
AcDbSymbolTableRecord
100
AcDbBlockTableRecord
  2
*D32
  0
BLOCK_RECORD
  5
1AF31
330
1
100
AcDbSymbolTableRecord
100
AcDbBlockTableRecord
  2
*D33
  0
BLOCK_RECORD
  5
1AF3F
330
1
100
AcDbSymbolTableRecord
100
AcDbBlockTableRecord
  2
*D34
  0
BLOCK_RECORD
  5
1AF4D
330
1
100
AcDbSymbolTableRecord
100
AcDbBlockTableRecord
  2
*D35
  0
BLOCK_RECORD
  5
1B021
330
1
100
AcDbSymbolTableRecord
100
AcDbBlockTableRecord
  2
*D36
  0
ENDTAB
  0
ENDSEC
  0
SECTION
  2
BLOCKS
  0
BLOCK
  5
20
330
1F
100
AcDbEntity
  8
0
100
AcDbBlockBegin
  2
*MODEL_SPACE
 70
     0
 10
0.0
 20
0.0
 30
0.0
  3
*MODEL_SPACE
  1

  0
ENDBLK
  5
21
330
1F
100
AcDbEntity
  8
0
100
AcDbBlockEnd
  0
BLOCK
  5
17FDE
330
17E82
100
AcDbEntity
 67
     1
  8
0
100
AcDbBlockBegin
  2
*PAPER_SPACE
 70
     0
 10
0.0
 20
0.0
 30
0.0
  3
*PAPER_SPACE
  1

  0
ENDBLK
  5
17FDF
330
17E82
100
AcDbEntity
 67
     1
  8
0
100
AcDbBlockEnd
  0
BLOCK
  5
35
330
31
100
AcDbEntity
  8
0
100
AcDbBlockBegin
  2
_OPEN30
 70
     0
 10
0.0
 20
0.0
 30
0.0
  3
_OPEN30
  1

  0
LINE
  5
32
330
31
100
AcDbEntity
  8
0
  6
BYBLOCK
 62
     0
100
AcDbLine
 10
-1.0
 20
0.26794919
 30
0.0
 11
0.0
 21
0.0
 31
0.0
  0
LINE
  5
33
330
31
100
AcDbEntity
  8
0
  6
BYBLOCK
 62
     0
100
AcDbLine
 10
0.0
 20
0.0
 30
0.0
 11
-1.0
 21
-0.26794919
 31
0.0
  0
LINE
  5
34
330
31
100
AcDbEntity
  8
0
  6
BYBLOCK
 62
     0
100
AcDbLine
 10
0.0
 20
0.0
 30
0.0
 11
-1.0
 21
0.0
 31
0.0
  0
ENDBLK
  5
36
330
31
100
AcDbEntity
  8
0
100
AcDbBlockEnd
  0
BLOCK
  5
21E4
330
21DD
100
AcDbEntity
  8
0
100
AcDbBlockBegin
  2
*D1
 70
     1
 10
0.0
 20
0.0
 30
0.0
  3
*D1
  1

  0
LINE
  5
D12A
330
21DD
100
AcDbEntity
  8
寸法
 62
     4
100
AcDbLine
 10
-1154.218326155102
 20
686.5642744943178
 30
0.0
 11
-1492.679506835585
 21
848.0233379512045
 31
0.0
  0
MTEXT
  5
D12B
330
21DD
100
AcDbEntity
  8
寸法
 62
     0
100
AcDbMText
 10
-1223.720326232411
 20
732.6058608110875
 30
0.0
 40
15.0
 41
0.0
 71
     5
 72
     1
  1
\U+2205400{\H12.000000;±0.5}
 11
0.9025631484812823
 21
-0.4305575025516971
 31
0.0
1001
ACAD
1000
MTEXTBEGIN
1070
    73
1070
     1
1070
    44
1040
1.0
1070
    74
1070
     0
1000
MTEXTEND
  0
INSERT
  5
D12C
330
21DD
100
AcDbEntity
  8
寸法
 62
     4
100
AcDbBlockReference
  2
_OPEN30
 10
-1142.936286799087
 20
681.1823057124215
 30
0.0
 41
12.5
 42
12.5
 43
12.5
 50
334.4970541444756
  0
INSERT
  5
D12D
330
21DD
100
AcDbEntity
  8
寸法
 62
     4
100
AcDbBlockReference
  2
_OPEN30
 10
-1503.961546191602
 20
853.4053067331006
 30
0.0
 41
12.5
 42
12.5
 43
12.5
 50
154.4970541444755
  0
POINT
  5
D12E
330
21DD
100
AcDbEntity
  8
DEFPOINTS
 62
     0
100
AcDbPoint
 10
-1503.961546191602
 20
853.4053067331006
 30
0.0
  0
POINT
  5
D12F
330
21DD
100
AcDbEntity
  8
DEFPOINTS
 62
     0
100
AcDbPoint
 10
-1142.936286799087
 20
681.1823057124215
 30
0.0
  0
ENDBLK
  5
21E5
330
21DD
100
AcDbEntity
  8
0
100
AcDbBlockEnd
  0
BLOCK
  5
2507
330
2505
100
AcDbEntity
  8
0
 62
     0
100
AcDbBlockBegin
  2
_DATUMFILLED
 70
     0
 10
0.0
 20
0.0
 30
0.0
  3
_DATUMFILLED
  1

  0
SOLID
  5
2506
330
2505
100
AcDbEntity
  8
0
  6
BYBLOCK
 62
     0
100
AcDbTrace
 10
0.0
 20
0.5773502700000001
 30
0.0
 11
-1.0
 21
0.0
 31
0.0
 12
0.0
 22
-0.5773502700000001
 32
0.0
 13
0.0
 23
-0.5773502700000001
 33
0.0
  0
ENDBLK
  5
2508
330
2505
100
AcDbEntity
  8
0
 62
     0
100
AcDbBlockEnd
  0
BLOCK
  5
28AF
330
28A8
100
AcDbEntity
  8
0
100
AcDbBlockBegin
  2
*D3
 70
     1
 10
0.0
 20
0.0
 30
0.0
  3
*D3
  1

  0
LINE
  5
19884
330
28A8
100
AcDbEntity
  8
寸法
 62
     4
 48
5.0
100
AcDbLine
 10
-287.7313901332011
 20
607.2669823710357
 30
0.0
 11
165.6896753144789
 21
927.3206300744984
 31
0.0
  0
MTEXT
  5
19885
330
28A8
100
AcDbEntity
  8
寸法
 62
     0
 48
5.0
100
AcDbMText
 10
87.30096715316681
 20
890.1348386126411
 30
0.0
 40
15.0
 41
0.0
 71
     5
 72
     1
  1
\U+2205580{\H12.000000;±0.5}
 11
0.8169748926985207
 21
0.5766732391053364
 31
0.0
1001
ACAD
1000
MTEXTBEGIN
1070
    73
1070
     1
1070
    44
1040
1.0
1070
    74
1070
     0
1000
MTEXTEND
  0
INSERT
  5
19886
330
28A8
100
AcDbEntity
  8
寸法
 62
     4
 48
5.0
100
AcDbBlockReference
  2
_OPEN30
 10
-297.9435762919326
 20
600.0585668822192
 30
0.0
 41
12.5
 42
12.5
 43
12.5
 50
215.2168945598361
  0
INSERT
  5
19887
330
28A8
100
AcDbEntity
  8
寸法
 62
     4
 48
5.0
100
AcDbBlockReference
  2
_OPEN30
 10
175.9018614732104
 20
934.5290455633152
 30
0.0
 41
12.5
 42
12.5
 43
12.5
 50
35.21689455983611
  0
POINT
  5
19888
330
28A8
100
AcDbEntity
  8
DEFPOINTS
 62
     0
 48
5.0
100
AcDbPoint
 10
175.9018614732104
 20
934.5290455633152
 30
0.0
  0
POINT
  5
19889
330
28A8
100
AcDbEntity
  8
DEFPOINTS
 62
     0
 48
5.0
100
AcDbPoint
 10
-297.9435762919326
 20
600.0585668822192
 30
0.0
  0
ENDBLK
  5
28B0
330
28A8
100
AcDbEntity
  8
0
100
AcDbBlockEnd
  0
BLOCK
  5
2C6E
330
2C6C
100
AcDbEntity
  8
0
100
AcDbBlockBegin
  2
_DOTSMALL
 70
     0
 10
0.0
 20
0.0
 30
0.0
  3
_DOTSMALL
  1

  0
LWPOLYLINE
  5
2C6D
330
2C6C
100
AcDbEntity
  8
0
  6
BYBLOCK
 62
     0
100
AcDbPolyline
 90
        2
 70
     1
 43
0.5
 10
-0.0625
 20
0.0
 42
1.0
 10
0.0625
 20
0.0
 42
1.0
  0
ENDBLK
  5
2C6F
330
2C6C
100
AcDbEntity
  8
0
100
AcDbBlockEnd
  0
BLOCK
  5
9EAF
330
9EA5
100
AcDbEntity
  8
0
100
AcDbBlockBegin
  2
*D5
 70
     1
 10
0.0
 20
0.0
 30
0.0
  3
*D5
  1

  0
LINE
  5
1ACFA
330
9EA5
100
AcDbEntity
  8
寸法
 62
     4
 48
5.0
100
AcDbLine
 10
-800.0313583906605
 20
917.2938062227611
 30
0.0
 11
-858.2900576628723
 21
917.2938062227611
 31
0.0
  0
LINE
  5
1ACFB
330
9EA5
100
AcDbEntity
  8
寸法
 62
     4
 48
5.0
100
AcDbLine
 10
-800.0313583906605
 20
617.2938062227611
 30
0.0
 11
-858.2900576628723
 21
617.2938062227611
 31
0.0
  0
LINE
  5
1ACFC
330
9EA5
100
AcDbEntity
  8
寸法
 62
     4
 48
5.0
100
AcDbLine
 10
-853.2900576628721
 20
904.7938062227611
 30
0.0
 11
-853.2900576628723
 21
629.7938062227611
 31
0.0
  0
INSERT
  5
1ACFD
330
9EA5
100
AcDbEntity
  8
寸法
 62
     4
 48
5.0
100
AcDbBlockReference
  2
_OPEN30
 10
-853.2900576628721
 20
917.2938062227611
 30
0.0
 41
12.5
 42
12.5
 43
12.5
 50
90.0
  0
INSERT
  5
1ACFE
330
9EA5
100
AcDbEntity
  8
寸法
 62
     4
 48
5.0
100
AcDbBlockReference
  2
_OPEN30
 10
-853.2900576628723
 20
617.2938062227611
 30
0.0
 41
12.5
 42
12.5
 43
12.5
 50
270.0
  0
MTEXT
  5
1ACFF
330
9EA5
100
AcDbEntity
  8
寸法
 62
     0
 48
5.0
100
AcDbMText
 10
-863.2900576628722
 20
767.2938062227609
 30
0.0
 40
15.0
 41
0.0
 71
     5
 72
     1
  1
%%c300（ニゲ深4）
 11
0.0000000000000001
 21
1.0
 31
0.0
1001
ACAD
1000
MTEXTBEGIN
1070
    73
1070
     1
1070
    44
1040
1.0
1070
    74
1070
     0
1000
MTEXTEND
  0
POINT
  5
1AD00
330
9EA5
100
AcDbEntity
  8
DEFPOINTS
 62
     0
 48
5.0
100
AcDbPoint
 10
-796.0313583906605
 20
917.2938062227611
 30
0.0
  0
POINT
  5
1AD01
330
9EA5
100
AcDbEntity
  8
DEFPOINTS
 62
     0
 48
5.0
100
AcDbPoint
 10
-796.0313583906605
 20
617.2938062227611
 30
0.0
  0
POINT
  5
1AD02
330
9EA5
100
AcDbEntity
  8
DEFPOINTS
 62
     0
 48
5.0
100
AcDbPoint
 10
-853.2900576628723
 20
617.2938062227611
 30
0.0
  0
ENDBLK
  5
9EB0
330
9EA5
100
AcDbEntity
  8
0
100
AcDbBlockEnd
  0
BLOCK
  5
9EBB
330
9EB1
100
AcDbEntity
  8
0
100
AcDbBlockBegin
  2
*D6
 70
     1
 10
0.0
 20
0.0
 30
0.0
  3
*D6
  1

  0
LINE
  5
1A8FA
330
9EB1
100
AcDbEntity
  8
寸法
 62
     4
 48
5.0
100
AcDbLine
 10
-796.0313583906605
 20
771.293806222761
 30
0.0
 11
-796.0313583906605
 21
917.2052790600163
 31
0.0
  0
LINE
  5
1A8FB
330
9EB1
100
AcDbEntity
  8
寸法
 62
     4
 48
5.0
100
AcDbLine
 10
-621.0313583906606
 20
824.4938062227614
 30
0.0
 11
-621.0313583906606
 21
917.2052790600163
 31
0.0
  0
LINE
  5
1A8FC
330
9EB1
100
AcDbEntity
  8
寸法
 62
     4
 48
5.0
100
AcDbLine
 10
-783.5313583906605
 20
912.2052790600163
 30
0.0
 11
-633.5313583906606
 21
912.2052790600163
 31
0.0
  0
INSERT
  5
1A8FD
330
9EB1
100
AcDbEntity
  8
寸法
 62
     4
 48
5.0
100
AcDbBlockReference
  2
_OPEN30
 10
-796.0313583906605
 20
912.2052790600163
 30
0.0
 41
12.5
 42
12.5
 43
12.5
 50
180.0
  0
INSERT
  5
1A8FE
330
9EB1
100
AcDbEntity
  8
寸法
 62
     4
 48
5.0
100
AcDbBlockReference
  2
_OPEN30
 10
-621.0313583906606
 20
912.2052790600163
 30
0.0
 41
12.5
 42
12.5
 43
12.5
  0
MTEXT
  5
1A8FF
330
9EB1
100
AcDbEntity
  8
寸法
 62
     0
 48
5.0
100
AcDbMText
 10
-702.7509689799371
 20
922.2052790600162
 30
0.0
 40
15.0
 41
0.0
 71
     5
 72
     1
  1
175
1001
ACAD
1000
MTEXTBEGIN
1070
    73
1070
     1
1070
    44
1040
1.0
1070
    74
1070
     0
1000
MTEXTEND
  0
POINT
  5
1A900
330
9EB1
100
AcDbEntity
  8
DEFPOINTS
 62
     0
 48
5.0
100
AcDbPoint
 10
-796.0313583906605
 20
767.2938062227609
 30
0.0
  0
POINT
  5
1A901
330
9EB1
100
AcDbEntity
  8
DEFPOINTS
 62
     0
 48
5.0
100
AcDbPoint
 10
-621.0313583906606
 20
820.4938062227611
 30
0.0
  0
POINT
  5
1A902
330
9EB1
100
AcDbEntity
  8
DEFPOINTS
 62
     0
 48
5.0
100
AcDbPoint
 10
-621.0313583906606
 20
912.2052790600163
 30
0.0
  0
ENDBLK
  5
9EBC
330
9EB1
100
AcDbEntity
  8
0
100
AcDbBlockEnd
  0
BLOCK
  5
9EC7
330
9EBD
100
AcDbEntity
  8
0
100
AcDbBlockBegin
  2
*D7
 70
     1
 10
0.0
 20
0.0
 30
0.0
  3
*D7
  1

  0
LINE
  5
D158
330
9EBD
100
AcDbEntity
  8
寸法
 62
     4
100
AcDbLine
 10
-788.0313583906609
 20
452.293806222761
 30
0.0
 11
-945.5728438462092
 21
452.2938062227611
 31
0.0
  0
LINE
  5
D159
330
9EBD
100
AcDbEntity
  8
寸法
 62
     4
100
AcDbLine
 10
-788.0313583906609
 20
1082.29380622276
 30
0.0
 11
-945.5728438462088
 21
1082.29380622276
 31
0.0
  0
LINE
  5
D15A
330
9EBD
100
AcDbEntity
  8
寸法
 62
     4
100
AcDbLine
 10
-940.5728438462093
 20
464.7938062227611
 30
0.0
 11
-940.5728438462087
 21
1069.79380622276
 31
0.0
  0
INSERT
  5
D15B
330
9EBD
100
AcDbEntity
  8
寸法
 62
     4
100
AcDbBlockReference
  2
_OPEN30
 10
-940.5728438462093
 20
452.2938062227611
 30
0.0
 41
12.5
 42
12.5
 43
12.5
 50
270.0
  0
INSERT
  5
D15C
330
9EBD
100
AcDbEntity
  8
寸法
 62
     4
100
AcDbBlockReference
  2
_OPEN30
 10
-940.5728438462087
 20
1082.29380622276
 30
0.0
 41
12.5
 42
12.5
 43
12.5
 50
90.0
  0
MTEXT
  5
D15D
330
9EBD
100
AcDbEntity
  8
寸法
 62
     0
100
AcDbMText
 10
-950.5728438462092
 20
767.2938062227609
 30
0.0
 40
15.0
 41
0.0
 71
     5
 72
     1
  1
%%c630{\H12.000000;±2}
 11
0.0000000000000001
 21
1.0
 31
0.0
1001
ACAD
1000
MTEXTBEGIN
1070
    73
1070
     1
1070
    44
1040
1.0
1070
    74
1070
     0
1000
MTEXTEND
  0
POINT
  5
D15E
330
9EBD
100
AcDbEntity
  8
DEFPOINTS
 62
     0
100
AcDbPoint
 10
-784.0313583906609
 20
452.293806222761
 30
0.0
  0
POINT
  5
D15F
330
9EBD
100
AcDbEntity
  8
DEFPOINTS
 62
     0
100
AcDbPoint
 10
-784.0313583906609
 20
1082.29380622276
 30
0.0
  0
POINT
  5
D160
330
9EBD
100
AcDbEntity
  8
DEFPOINTS
 62
     0
100
AcDbPoint
 10
-940.5728438462087
 20
1082.29380622276
 30
0.0
  0
ENDBLK
  5
9EC8
330
9EBD
100
AcDbEntity
  8
0
100
AcDbBlockEnd
  0
BLOCK
  5
9ED3
330
9EC9
100
AcDbEntity
  8
0
100
AcDbBlockBegin
  2
*D8
 70
     1
 10
0.0
 20
0.0
 30
0.0
  3
*D8
  1

  0
LINE
  5
D1A9
330
9EC9
100
AcDbEntity
  8
寸法
 62
     4
100
AcDbLine
 10
-799.5313583906604
 20
992.2938062227602
 30
0.0
 11
-886.7799817574892
 21
992.2938062227602
 31
0.0
  0
LINE
  5
D1AA
330
9EC9
100
AcDbEntity
  8
寸法
 62
     4
100
AcDbLine
 10
-799.5313583906604
 20
542.2938062227622
 30
0.0
 11
-886.7799817574892
 21
542.2938062227622
 31
0.0
  0
LINE
  5
D1AB
330
9EC9
100
AcDbEntity
  8
寸法
 62
     4
100
AcDbLine
 10
-881.7799817574892
 20
979.7938062227602
 30
0.0
 11
-881.7799817574892
 21
554.7938062227622
 31
0.0
  0
INSERT
  5
D1AC
330
9EC9
100
AcDbEntity
  8
寸法
 62
     4
100
AcDbBlockReference
  2
_OPEN30
 10
-881.7799817574892
 20
992.2938062227602
 30
0.0
 41
12.5
 42
12.5
 43
12.5
 50
90.0
  0
INSERT
  5
D1AD
330
9EC9
100
AcDbEntity
  8
寸法
 62
     4
100
AcDbBlockReference
  2
_OPEN30
 10
-881.7799817574892
 20
542.2938062227622
 30
0.0
 41
12.5
 42
12.5
 43
12.5
 50
270.0
  0
MTEXT
  5
D1AE
330
9EC9
100
AcDbEntity
  8
寸法
 62
     0
100
AcDbMText
 10
-894.7799817574892
 20
767.2938062227609
 30
0.0
 40
15.0
 41
0.0
 71
     5
 72
     1
  1
%%c450{\H9.000000;\S 0^ -0.063;}h7（インロー）
 11
0.0000000000000001
 21
1.0
 31
0.0
1001
ACAD
1000
MTEXTBEGIN
1070
    73
1070
     1
1070
    44
1040
1.0
1070
    74
1070
     0
1000
MTEXTEND
  0
POINT
  5
D1AF
330
9EC9
100
AcDbEntity
  8
DEFPOINTS
 62
     0
100
AcDbPoint
 10
-795.5313583906604
 20
992.2938062227602
 30
0.0
  0
POINT
  5
D1B0
330
9EC9
100
AcDbEntity
  8
DEFPOINTS
 62
     0
100
AcDbPoint
 10
-795.5313583906604
 20
542.2938062227622
 30
0.0
  0
POINT
  5
D1B1
330
9EC9
100
AcDbEntity
  8
DEFPOINTS
 62
     0
100
AcDbPoint
 10
-881.7799817574892
 20
542.2938062227622
 30
0.0
  0
ENDBLK
  5
9ED4
330
9EC9
100
AcDbEntity
  8
0
100
AcDbBlockEnd
  0
BLOCK
  5
9EDF
330
9ED5
100
AcDbEntity
  8
0
100
AcDbBlockBegin
  2
*D9
 70
     1
 10
0.0
 20
0.0
 30
0.0
  3
*D9
  1

  0
LINE
  5
D1A0
330
9ED5
100
AcDbEntity
  8
寸法
 62
     4
100
AcDbLine
 10
-795.5313583906606
 20
1017.29380622276
 30
0.0
 11
-914.3948098338013
 21
1017.29380622276
 31
0.0
  0
LINE
  5
D1A1
330
9ED5
100
AcDbEntity
  8
寸法
 62
     4
100
AcDbLine
 10
-795.5313583906606
 20
517.2938062227625
 30
0.0
 11
-914.3948098338013
 21
517.2938062227625
 31
0.0
  0
LINE
  5
D1A2
330
9ED5
100
AcDbEntity
  8
寸法
 62
     4
100
AcDbLine
 10
-909.394809833801
 20
1004.79380622276
 30
0.0
 11
-909.3948098338012
 21
529.7938062227625
 31
0.0
  0
INSERT
  5
D1A3
330
9ED5
100
AcDbEntity
  8
寸法
 62
     4
100
AcDbBlockReference
  2
_OPEN30
 10
-909.394809833801
 20
1017.29380622276
 30
0.0
 41
12.5
 42
12.5
 43
12.5
 50
90.0
  0
INSERT
  5
D1A4
330
9ED5
100
AcDbEntity
  8
寸法
 62
     4
100
AcDbBlockReference
  2
_OPEN30
 10
-909.3948098338012
 20
517.2938062227625
 30
0.0
 41
12.5
 42
12.5
 43
12.5
 50
270.0
  0
MTEXT
  5
D1A5
330
9ED5
100
AcDbEntity
  8
寸法
 62
     0
100
AcDbMText
 10
-919.3948098338012
 20
767.2938062227609
 30
0.0
 40
15.0
 41
0.0
 71
     5
 72
     1
  1
%%c500（回転部）
 11
0.0000000000000001
 21
1.0
 31
0.0
1001
ACAD
1000
MTEXTBEGIN
1070
    73
1070
     1
1070
    44
1040
1.0
1070
    74
1070
     0
1000
MTEXTEND
  0
POINT
  5
D1A6
330
9ED5
100
AcDbEntity
  8
DEFPOINTS
 62
     0
100
AcDbPoint
 10
-791.5313583906605
 20
1017.29380622276
 30
0.0
  0
POINT
  5
D1A7
330
9ED5
100
AcDbEntity
  8
DEFPOINTS
 62
     0
100
AcDbPoint
 10
-791.5313583906605
 20
517.2938062227625
 30
0.0
  0
POINT
  5
D1A8
330
9ED5
100
AcDbEntity
  8
DEFPOINTS
 62
     0
100
AcDbPoint
 10
-909.3948098338012
 20
517.2938062227625
 30
0.0
  0
ENDBLK
  5
9EE0
330
9ED5
100
AcDbEntity
  8
0
100
AcDbBlockEnd
  0
BLOCK
  5
9EEB
330
9EE1
100
AcDbEntity
  8
0
100
AcDbBlockBegin
  2
*D10
 70
     1
 10
0.0
 20
0.0
 30
0.0
  3
*D10
  1

  0
LINE
  5
D217
330
9EE1
100
AcDbEntity
  8
寸法
 62
     4
100
AcDbLine
 10
-613.0313583906609
 20
627.2938062227612
 30
0.0
 11
-521.7474703263341
 21
627.2938062227612
 31
0.0
  0
LINE
  5
D218
330
9EE1
100
AcDbEntity
  8
寸法
 62
     4
100
AcDbLine
 10
-613.0313583906609
 20
907.2938062227612
 30
0.0
 11
-521.747470326334
 21
907.2938062227612
 31
0.0
  0
LINE
  5
D219
330
9EE1
100
AcDbEntity
  8
寸法
 62
     4
100
AcDbLine
 10
-526.7474703263339
 20
639.7938062227612
 30
0.0
 11
-526.7474703263339
 21
894.7938062227612
 31
0.0
  0
INSERT
  5
D21A
330
9EE1
100
AcDbEntity
  8
寸法
 62
     4
100
AcDbBlockReference
  2
_OPEN30
 10
-526.7474703263339
 20
627.2938062227612
 30
0.0
 41
12.5
 42
12.5
 43
12.5
 50
270.0
  0
INSERT
  5
D21B
330
9EE1
100
AcDbEntity
  8
寸法
 62
     4
100
AcDbBlockReference
  2
_OPEN30
 10
-526.7474703263339
 20
907.2938062227612
 30
0.0
 41
12.5
 42
12.5
 43
12.5
 50
90.0
  0
MTEXT
  5
D21C
330
9EE1
100
AcDbEntity
  8
寸法
 62
     0
100
AcDbMText
 10
-539.7474703263339
 20
767.2938062227609
 30
0.0
 40
15.0
 41
0.0
 71
     5
 72
     1
  1
%%c280{\H9.000000;\S 0^ -0.052;}h7（インロー）
 11
0.0000000000000001
 21
1.0
 31
0.0
1001
ACAD
1000
MTEXTBEGIN
1070
    73
1070
     1
1070
    44
1040
1.0
1070
    74
1070
     0
1000
MTEXTEND
  0
POINT
  5
D21D
330
9EE1
100
AcDbEntity
  8
DEFPOINTS
 62
     0
100
AcDbPoint
 10
-617.0313583906609
 20
627.2938062227612
 30
0.0
  0
POINT
  5
D21E
330
9EE1
100
AcDbEntity
  8
DEFPOINTS
 62
     0
100
AcDbPoint
 10
-617.0313583906609
 20
907.2938062227612
 30
0.0
  0
POINT
  5
D21F
330
9EE1
100
AcDbEntity
  8
DEFPOINTS
 62
     0
100
AcDbPoint
 10
-526.7474703263339
 20
907.2938062227612
 30
0.0
  0
ENDBLK
  5
9EEC
330
9EE1
100
AcDbEntity
  8
0
100
AcDbBlockEnd
  0
BLOCK
  5
9EF9
330
9EED
100
AcDbEntity
  8
0
100
AcDbBlockBegin
  2
*D11
 70
     1
 10
0.0
 20
0.0
 30
0.0
  3
*D11
  1

  0
LINE
  5
198CE
330
9EED
100
AcDbEntity
  8
寸法
 62
     4
 48
5.0
100
AcDbLine
 10
-621.0313583906607
 20
448.2938062227614
 30
0.0
 11
-621.0313583906607
 21
288.5444896656171
 31
0.0
  0
LINE
  5
198CF
330
9EED
100
AcDbEntity
  8
寸法
 62
     4
 48
5.0
100
AcDbLine
 10
-617.0313583906609
 20
623.2938062227612
 30
0.0
 11
-617.0313583906609
 21
288.5444896656171
 31
0.0
  0
LINE
  5
198D0
330
9EED
100
AcDbEntity
  8
寸法
 62
     4
 48
5.0
100
AcDbLine
 10
-633.5313583906607
 20
293.5444896656171
 30
0.0
 11
-646.0313583906607
 21
293.5444896656171
 31
0.0
  0
LINE
  5
198D1
330
9EED
100
AcDbEntity
  8
寸法
 62
     4
 48
5.0
100
AcDbLine
 10
-604.5313583906609
 20
293.5444896656171
 30
0.0
 11
-592.0313583906609
 21
293.5444896656171
 31
0.0
  0
MTEXT
  5
198D2
330
9EED
100
AcDbEntity
  8
寸法
 62
     0
 48
5.0
100
AcDbMText
 10
-596.34026385781
 20
303.2811771239236
 30
0.0
 40
15.0
 41
0.0
 71
     5
 72
     1
  1
4
1001
ACAD
1000
MTEXTBEGIN
1070
    73
1070
     1
1070
    44
1040
1.0
1070
    74
1070
     0
1000
MTEXTEND
  0
LINE
  5
198D3
330
9EED
100
AcDbEntity
  8
寸法
 62
     4
 48
5.0
100
AcDbLine
 10
-621.0313583906607
 20
293.5444896656171
 30
0.0
 11
-617.0313583906609
 21
293.5444896656171
 31
0.0
  0
INSERT
  5
198D4
330
9EED
100
AcDbEntity
  8
寸法
 62
     4
 48
5.0
100
AcDbBlockReference
  2
_OPEN30
 10
-621.0313583906607
 20
293.5444896656171
 30
0.0
 41
12.5
 42
12.5
 43
12.5
  0
INSERT
  5
198D5
330
9EED
100
AcDbEntity
  8
寸法
 62
     4
 48
5.0
100
AcDbBlockReference
  2
_OPEN30
 10
-617.0313583906609
 20
293.5444896656171
 30
0.0
 41
12.5
 42
12.5
 43
12.5
 50
180.0
  0
POINT
  5
198D6
330
9EED
100
AcDbEntity
  8
DEFPOINTS
 62
     0
 48
5.0
100
AcDbPoint
 10
-621.0313583906607
 20
452.2938062227614
 30
0.0
  0
POINT
  5
198D7
330
9EED
100
AcDbEntity
  8
DEFPOINTS
 62
     0
 48
5.0
100
AcDbPoint
 10
-617.0313583906609
 20
627.2938062227612
 30
0.0
  0
POINT
  5
198D8
330
9EED
100
AcDbEntity
  8
DEFPOINTS
 62
     0
 48
5.0
100
AcDbPoint
 10
-617.0313583906609
 20
293.5444896656171
 30
0.0
  0
ENDBLK
  5
9EFA
330
9EED
100
AcDbEntity
  8
0
100
AcDbBlockEnd
  0
BLOCK
  5
9F05
330
9EFB
100
AcDbEntity
  8
0
100
AcDbBlockBegin
  2
*D12
 70
     1
 10
0.0
 20
0.0
 30
0.0
  3
*D12
  1

  0
LINE
  5
198BA
330
9EFB
100
AcDbEntity
  8
寸法
 62
     4
 48
5.0
100
AcDbLine
 10
-796.0313583906605
 20
538.7938062227622
 30
0.0
 11
-796.0313583906605
 21
242.8149101898557
 31
0.0
  0
LINE
  5
198BB
330
9EFB
100
AcDbEntity
  8
寸法
 62
     4
 48
5.0
100
AcDbLine
 10
-617.0313583906609
 20
623.2938062227612
 30
0.0
 11
-617.0313583906609
 21
242.8149101898557
 31
0.0
  0
LINE
  5
198BC
330
9EFB
100
AcDbEntity
  8
寸法
 62
     4
 48
5.0
100
AcDbLine
 10
-783.5313583906605
 20
247.8149101898555
 30
0.0
 11
-629.5313583906609
 21
247.8149101898555
 31
0.0
  0
INSERT
  5
198BD
330
9EFB
100
AcDbEntity
  8
寸法
 62
     4
 48
5.0
100
AcDbBlockReference
  2
_OPEN30
 10
-796.0313583906605
 20
247.8149101898555
 30
0.0
 41
12.5
 42
12.5
 43
12.5
 50
180.0
  0
INSERT
  5
198BE
330
9EFB
100
AcDbEntity
  8
寸法
 62
     4
 48
5.0
100
AcDbBlockReference
  2
_OPEN30
 10
-617.0313583906609
 20
247.8149101898555
 30
0.0
 41
12.5
 42
12.5
 43
12.5
  0
MTEXT
  5
198BF
330
9EFB
100
AcDbEntity
  8
寸法
 62
     0
 48
5.0
100
AcDbMText
 10
-706.5313583906607
 20
261.7434816184271
 30
0.0
 40
15.0
 41
0.0
 71
     5
 72
     1
  1
(179)
1001
ACAD
1000
MTEXTBEGIN
1070
    73
1070
     1
1070
    44
1040
1.0
1070
    74
1070
     0
1000
MTEXTEND
  0
POINT
  5
198C0
330
9EFB
100
AcDbEntity
  8
DEFPOINTS
 62
     0
 48
5.0
100
AcDbPoint
 10
-796.0313583906605
 20
542.7938062227622
 30
0.0
  0
POINT
  5
198C1
330
9EFB
100
AcDbEntity
  8
DEFPOINTS
 62
     0
 48
5.0
100
AcDbPoint
 10
-617.0313583906609
 20
627.2938062227612
 30
0.0
  0
POINT
  5
198C2
330
9EFB
100
AcDbEntity
  8
DEFPOINTS
 62
     0
 48
5.0
100
AcDbPoint
 10
-617.0313583906609
 20
247.8149101898555
 30
0.0
  0
ENDBLK
  5
9F06
330
9EFB
100
AcDbEntity
  8
0
100
AcDbBlockEnd
  0
BLOCK
  5
9F11
330
9F07
100
AcDbEntity
  8
0
100
AcDbBlockBegin
  2
*D13
 70
     1
 10
0.0
 20
0.0
 30
0.0
  3
*D13
  1

  0
LINE
  5
1ACC8
330
9F07
100
AcDbEntity
  8
寸法
 62
     4
 48
5.0
100
AcDbLine
 10
-796.0313583906605
 20
538.7938062227622
 30
0.0
 11
-796.0313583906605
 21
288.5444896656171
 31
0.0
  0
LINE
  5
1ACC9
330
9F07
100
AcDbEntity
  8
寸法
 62
     4
 48
5.0
100
AcDbLine
 10
-621.0313583906607
 20
448.2938062227614
 30
0.0
 11
-621.0313583906607
 21
288.5444896656171
 31
0.0
  0
LINE
  5
1ACCA
330
9F07
100
AcDbEntity
  8
寸法
 62
     4
 48
5.0
100
AcDbLine
 10
-783.5313583906605
 20
293.5444896656171
 30
0.0
 11
-633.5313583906607
 21
293.5444896656171
 31
0.0
  0
INSERT
  5
1ACCB
330
9F07
100
AcDbEntity
  8
寸法
 62
     4
 48
5.0
100
AcDbBlockReference
  2
_OPEN30
 10
-796.0313583906605
 20
293.5444896656171
 30
0.0
 41
12.5
 42
12.5
 43
12.5
 50
180.0
  0
INSERT
  5
1ACCC
330
9F07
100
AcDbEntity
  8
寸法
 62
     4
 48
5.0
100
AcDbBlockReference
  2
_OPEN30
 10
-621.0313583906607
 20
293.5444896656171
 30
0.0
 41
12.5
 42
12.5
 43
12.5
  0
MTEXT
  5
1ACCD
330
9F07
100
AcDbEntity
  8
寸法
 62
     0
 48
5.0
100
AcDbMText
 10
-708.5313583906605
 20
303.5444896656171
 30
0.0
 40
15.0
 41
0.0
 71
     5
 72
     1
  1
175{\H12.000000;±0.2}
1001
ACAD
1000
MTEXTBEGIN
1070
    73
1070
     1
1070
    44
1040
1.0
1070
    74
1070
     0
1000
MTEXTEND
  0
POINT
  5
1ACCE
330
9F07
100
AcDbEntity
  8
DEFPOINTS
 62
     0
 48
5.0
100
AcDbPoint
 10
-796.0313583906605
 20
542.7938062227622
 30
0.0
  0
POINT
  5
1ACCF
330
9F07
100
AcDbEntity
  8
DEFPOINTS
 62
     0
 48
5.0
100
AcDbPoint
 10
-621.0313583906607
 20
452.2938062227614
 30
0.0
  0
POINT
  5
1ACD0
330
9F07
100
AcDbEntity
  8
DEFPOINTS
 62
     0
 48
5.0
100
AcDbPoint
 10
-621.0313583906607
 20
293.5444896656171
 30
0.0
  0
ENDBLK
  5
9F12
330
9F07
100
AcDbEntity
  8
0
100
AcDbBlockEnd
  0
BLOCK
  5
9F1F
330
9F13
100
AcDbEntity
  8
0
100
AcDbBlockBegin
  2
*D14
 70
     1
 10
0.0
 20
0.0
 30
0.0
  3
*D14
  1

  0
LINE
  5
198C3
330
9F13
100
AcDbEntity
  8
寸法
 62
     4
 48
5.0
100
AcDbLine
 10
-788.0313583906609
 20
450.2938062227611
 30
0.0
 11
-788.0313583906609
 21
329.0845980142585
 31
0.0
  0
LINE
  5
198C4
330
9F13
100
AcDbEntity
  8
寸法
 62
     4
 48
5.0
100
AcDbLine
 10
-796.0313583906605
 20
538.7938062227622
 30
0.0
 11
-796.0313583906605
 21
329.0845980142585
 31
0.0
  0
LINE
  5
198C5
330
9F13
100
AcDbEntity
  8
寸法
 62
     4
 48
5.0
100
AcDbLine
 10
-775.5313583906609
 20
334.0845980142585
 30
0.0
 11
-763.0313583906609
 21
334.0845980142585
 31
0.0
  0
LINE
  5
198C6
330
9F13
100
AcDbEntity
  8
寸法
 62
     4
 48
5.0
100
AcDbLine
 10
-808.5313583906604
 20
334.0845980142585
 30
0.0
 11
-821.0313583906604
 21
334.0845980142585
 31
0.0
  0
MTEXT
  5
198C7
330
9F13
100
AcDbEntity
  8
寸法
 62
     0
 48
5.0
100
AcDbMText
 10
-816.7933271664534
 20
344.6768434249142
 30
0.0
 40
15.0
 41
0.0
 71
     5
 72
     1
  1
8
1001
ACAD
1000
MTEXTBEGIN
1070
    73
1070
     1
1070
    44
1040
1.0
1070
    74
1070
     0
1000
MTEXTEND
  0
LINE
  5
198C8
330
9F13
100
AcDbEntity
  8
寸法
 62
     4
 48
5.0
100
AcDbLine
 10
-788.0313583906609
 20
334.0845980142585
 30
0.0
 11
-796.0313583906605
 21
334.0845980142585
 31
0.0
  0
INSERT
  5
198C9
330
9F13
100
AcDbEntity
  8
寸法
 62
     4
 48
5.0
100
AcDbBlockReference
  2
_OPEN30
 10
-788.0313583906609
 20
334.0845980142585
 30
0.0
 41
12.5
 42
12.5
 43
12.5
 50
180.0
  0
INSERT
  5
198CA
330
9F13
100
AcDbEntity
  8
寸法
 62
     4
 48
5.0
100
AcDbBlockReference
  2
_OPEN30
 10
-796.0313583906605
 20
334.0845980142585
 30
0.0
 41
12.5
 42
12.5
 43
12.5
  0
POINT
  5
198CB
330
9F13
100
AcDbEntity
  8
DEFPOINTS
 62
     0
 48
5.0
100
AcDbPoint
 10
-788.0313583906609
 20
454.2938062227611
 30
0.0
  0
POINT
  5
198CC
330
9F13
100
AcDbEntity
  8
DEFPOINTS
 62
     0
 48
5.0
100
AcDbPoint
 10
-796.0313583906605
 20
542.7938062227622
 30
0.0
  0
POINT
  5
198CD
330
9F13
100
AcDbEntity
  8
DEFPOINTS
 62
     0
 48
5.0
100
AcDbPoint
 10
-796.0313583906605
 20
334.0845980142585
 30
0.0
  0
ENDBLK
  5
9F20
330
9F13
100
AcDbEntity
  8
0
100
AcDbBlockEnd
  0
BLOCK
  5
9F2D
330
9F21
100
AcDbEntity
  8
0
100
AcDbBlockBegin
  2
*D15
 70
     1
 10
0.0
 20
0.0
 30
0.0
  3
*D15
  1

  0
LINE
  5
1AF84
330
9F21
100
AcDbEntity
  8
寸法
 62
     4
 48
5.0
100
AcDbLine
 10
-1016.885382540106
 20
271.4673617564002
 30
0.0
 11
-1016.885382540106
 21
183.2003495237841
 31
0.0
  0
LINE
  5
1AF85
330
9F21
100
AcDbEntity
  8
寸法
 62
     4
 48
5.0
100
AcDbLine
 10
-1026.885382540106
 20
272.7173617564019
 30
0.0
 11
-1026.885382540106
 21
183.2003495237841
 31
0.0
  0
LINE
  5
1AF86
330
9F21
100
AcDbEntity
  8
寸法
 62
     4
 48
5.0
100
AcDbLine
 10
-1004.385382540106
 20
188.2003495237841
 30
0.0
 11
-991.8853825401061
 21
188.2003495237841
 31
0.0
  0
LINE
  5
1AF87
330
9F21
100
AcDbEntity
  8
寸法
 62
     4
 48
5.0
100
AcDbLine
 10
-1026.885382540106
 20
188.2003495237841
 30
0.0
 11
-1039.385382540106
 21
188.2003495237841
 31
0.0
  0
MTEXT
  5
1AF88
330
9F21
100
AcDbEntity
  8
寸法
 62
     0
 48
5.0
100
AcDbMText
 10
-992.9791392027588
 20
200.4056835873721
 30
0.0
 40
15.0
 41
0.0
 71
     5
 72
     1
  1
4
1001
ACAD
1000
MTEXTBEGIN
1070
    73
1070
     1
1070
    44
1040
1.0
1070
    74
1070
     0
1000
MTEXTEND
  0
LINE
  5
1AF89
330
9F21
100
AcDbEntity
  8
寸法
 62
     4
 48
5.0
100
AcDbLine
 10
-1016.885382540106
 20
188.2003495237841
 30
0.0
 11
-1026.885382540106
 21
188.2003495237841
 31
0.0
  0
INSERT
  5
1AF8A
330
9F21
100
AcDbEntity
  8
寸法
 62
     4
 48
5.0
100
AcDbBlockReference
  2
_OPEN30
 10
-1016.885382540106
 20
188.2003495237841
 30
0.0
 41
12.5
 42
12.5
 43
12.5
 50
180.0
  0
INSERT
  5
1AF8B
330
9F21
100
AcDbEntity
  8
寸法
 62
     4
 48
5.0
100
AcDbBlockReference
  2
_DOTSMALL
 10
-1026.885382540106
 20
188.2003495237841
 30
0.0
 41
12.5
 42
12.5
 43
12.5
  0
POINT
  5
1AF8C
330
9F21
100
AcDbEntity
  8
DEFPOINTS
 62
     0
 48
5.0
100
AcDbPoint
 10
-1016.885382540106
 20
275.4673617564001
 30
0.0
  0
POINT
  5
1AF8D
330
9F21
100
AcDbEntity
  8
DEFPOINTS
 62
     0
 48
5.0
100
AcDbPoint
 10
-1026.885382540106
 20
276.7173617564018
 30
0.0
  0
POINT
  5
1AF8E
330
9F21
100
AcDbEntity
  8
DEFPOINTS
 62
     0
 48
5.0
100
AcDbPoint
 10
-1026.885382540106
 20
188.2003495237841
 30
0.0
  0
ENDBLK
  5
9F2E
330
9F21
100
AcDbEntity
  8
0
100
AcDbBlockEnd
  0
BLOCK
  5
9F3B
330
9F2F
100
AcDbEntity
  8
0
100
AcDbBlockBegin
  2
*D16
 70
     1
 10
0.0
 20
0.0
 30
0.0
  3
*D16
  1

  0
LINE
  5
1AF9A
330
9F2F
100
AcDbEntity
  8
寸法
 62
     4
 48
5.0
100
AcDbLine
 10
-1026.885382540106
 20
272.7173617564019
 30
0.0
 11
-1026.885382540106
 21
183.2003495237841
 31
0.0
  0
LINE
  5
1AF9B
330
9F2F
100
AcDbEntity
  8
寸法
 62
     4
 48
5.0
100
AcDbLine
 10
-1036.885382540106
 20
335.2173617564008
 30
0.0
 11
-1036.885382540106
 21
183.2003495237841
 31
0.0
  0
LINE
  5
1AF9C
330
9F2F
100
AcDbEntity
  8
寸法
 62
     4
 48
5.0
100
AcDbLine
 10
-1026.885382540106
 20
188.2003495237841
 30
0.0
 11
-1014.385382540106
 21
188.2003495237841
 31
0.0
  0
LINE
  5
1AF9D
330
9F2F
100
AcDbEntity
  8
寸法
 62
     4
 48
5.0
100
AcDbLine
 10
-1049.385382540106
 20
188.2003495237841
 30
0.0
 11
-1061.885382540106
 21
188.2003495237841
 31
0.0
  0
MTEXT
  5
1AF9E
330
9F2F
100
AcDbEntity
  8
寸法
 62
     0
 48
5.0
100
AcDbMText
 10
-1054.920625403948
 20
199.1430807321767
 30
0.0
 40
15.0
 41
0.0
 71
     5
 72
     1
  1
4
1001
ACAD
1000
MTEXTBEGIN
1070
    73
1070
     1
1070
    44
1040
1.0
1070
    74
1070
     0
1000
MTEXTEND
  0
LINE
  5
1AF9F
330
9F2F
100
AcDbEntity
  8
寸法
 62
     4
 48
5.0
100
AcDbLine
 10
-1026.885382540106
 20
188.2003495237841
 30
0.0
 11
-1036.885382540106
 21
188.2003495237841
 31
0.0
  0
INSERT
  5
1AFA0
330
9F2F
100
AcDbEntity
  8
寸法
 62
     4
 48
5.0
100
AcDbBlockReference
  2
_DOTSMALL
 10
-1026.885382540106
 20
188.2003495237841
 30
0.0
 41
12.5
 42
12.5
 43
12.5
 50
180.0
  0
INSERT
  5
1AFA1
330
9F2F
100
AcDbEntity
  8
寸法
 62
     4
 48
5.0
100
AcDbBlockReference
  2
_OPEN30
 10
-1036.885382540106
 20
188.2003495237841
 30
0.0
 41
12.5
 42
12.5
 43
12.5
  0
POINT
  5
1AFA2
330
9F2F
100
AcDbEntity
  8
DEFPOINTS
 62
     0
 48
5.0
100
AcDbPoint
 10
-1026.885382540106
 20
276.7173617564018
 30
0.0
  0
POINT
  5
1AFA3
330
9F2F
100
AcDbEntity
  8
DEFPOINTS
 62
     0
 48
5.0
100
AcDbPoint
 10
-1036.885382540106
 20
339.2173617564008
 30
0.0
  0
POINT
  5
1AFA4
330
9F2F
100
AcDbEntity
  8
DEFPOINTS
 62
     0
 48
5.0
100
AcDbPoint
 10
-1036.885382540106
 20
188.2003495237841
 30
0.0
  0
ENDBLK
  5
9F3C
330
9F2F
100
AcDbEntity
  8
0
100
AcDbBlockEnd
  0
BLOCK
  5
9F49
330
9F3D
100
AcDbEntity
  8
0
100
AcDbBlockBegin
  2
*D17
 70
     1
 10
0.0
 20
0.0
 30
0.0
  3
*D17
  1

  0
LINE
  5
1AF8F
330
9F3D
100
AcDbEntity
  8
寸法
 62
     4
 48
5.0
100
AcDbLine
 10
-1026.885382540106
 20
272.7173617564019
 30
0.0
 11
-1026.885382540106
 21
56.86428827970622
 31
0.0
  0
LINE
  5
1AF90
330
9F3D
100
AcDbEntity
  8
寸法
 62
     4
 48
5.0
100
AcDbLine
 10
-1023.135382540106
 20
128.9673617563979
 30
0.0
 11
-1023.135382540106
 21
56.86428827970622
 31
0.0
  0
LINE
  5
1AF91
330
9F3D
100
AcDbEntity
  8
寸法
 62
     4
 48
5.0
100
AcDbLine
 10
-1039.385382540106
 20
61.86428827970622
 30
0.0
 11
-1051.885382540106
 21
61.86428827970622
 31
0.0
  0
LINE
  5
1AF92
330
9F3D
100
AcDbEntity
  8
寸法
 62
     4
 48
5.0
100
AcDbLine
 10
-1010.635382540106
 20
61.86428827970622
 30
0.0
 11
-998.1353825401063
 21
61.86428827970622
 31
0.0
  0
MTEXT
  5
1AF93
330
9F3D
100
AcDbEntity
  8
寸法
 62
     0
 48
5.0
100
AcDbMText
 10
-988.942811878608
 20
77.39676068769631
 30
0.0
 40
15.0
 41
0.0
 71
     5
 72
     1
  1
(1.5)
1001
ACAD
1000
MTEXTBEGIN
1070
    73
1070
     1
1070
    44
1040
1.0
1070
    74
1070
     0
1000
MTEXTEND
  0
LINE
  5
1AF94
330
9F3D
100
AcDbEntity
  8
寸法
 62
     4
 48
5.0
100
AcDbLine
 10
-1026.885382540106
 20
61.86428827970622
 30
0.0
 11
-1023.135382540106
 21
61.86428827970622
 31
0.0
  0
INSERT
  5
1AF95
330
9F3D
100
AcDbEntity
  8
寸法
 62
     4
 48
5.0
100
AcDbBlockReference
  2
_OPEN30
 10
-1026.885382540106
 20
61.86428827970622
 30
0.0
 41
12.5
 42
12.5
 43
12.5
  0
INSERT
  5
1AF96
330
9F3D
100
AcDbEntity
  8
寸法
 62
     4
 48
5.0
100
AcDbBlockReference
  2
_OPEN30
 10
-1023.135382540106
 20
61.86428827970622
 30
0.0
 41
12.5
 42
12.5
 43
12.5
 50
180.0
  0
POINT
  5
1AF97
330
9F3D
100
AcDbEntity
  8
DEFPOINTS
 62
     0
 48
5.0
100
AcDbPoint
 10
-1026.885382540106
 20
276.7173617564018
 30
0.0
  0
POINT
  5
1AF98
330
9F3D
100
AcDbEntity
  8
DEFPOINTS
 62
     0
 48
5.0
100
AcDbPoint
 10
-1023.135382540106
 20
132.9673617563979
 30
0.0
  0
POINT
  5
1AF99
330
9F3D
100
AcDbEntity
  8
DEFPOINTS
 62
     0
 48
5.0
100
AcDbPoint
 10
-1023.135382540106
 20
61.86428827970622
 30
0.0
  0
ENDBLK
  5
9F4A
330
9F3D
100
AcDbEntity
  8
0
100
AcDbBlockEnd
  0
BLOCK
  5
9F56
330
9F4B
100
AcDbEntity
  8
0
100
AcDbBlockBegin
  2
*D18
 70
     1
 10
0.0
 20
0.0
 30
0.0
  3
*D18
  1

  0
LINE
  5
D20D
330
9F4B
100
AcDbEntity
  8
寸法
 62
     4
100
AcDbLine
 10
-617.0313583906606
 20
820.4938062227611
 30
0.0
 11
-570.0115589792527
 21
820.4938062227611
 31
0.0
  0
LINE
  5
D20E
330
9F4B
100
AcDbEntity
  8
寸法
 62
     4
100
AcDbLine
 10
-617.0313583906606
 20
714.0938062227612
 30
0.0
 11
-570.0115589792527
 21
714.0938062227612
 31
0.0
  0
LINE
  5
D20F
330
9F4B
100
AcDbEntity
  8
寸法
 62
     4
100
AcDbLine
 10
-575.0115589792527
 20
807.9938062227611
 30
0.0
 11
-575.0115589792527
 21
801.8509490799042
 31
0.0
  0
LINE
  5
D210
330
9F4B
100
AcDbEntity
  8
寸法
 62
     4
100
AcDbLine
 10
-575.0115589792527
 20
726.5938062227612
 30
0.0
 11
-575.0115589792527
 21
732.7366633656184
 31
0.0
  0
MTEXT
  5
D211
330
9F4B
100
AcDbEntity
  8
寸法
 62
     0
100
AcDbMText
 10
-575.0115589792527
 20
767.2938062227609
 30
0.0
 40
15.0
 41
0.0
 71
     5
 72
     1
  1
%%c106.4\P（回転部）
 11
0.0000000000000001
 21
1.0
 31
0.0
1001
ACAD
1000
MTEXTBEGIN
1070
    73
1070
     1
1070
    44
1040
1.0
1070
    74
1070
     0
1000
MTEXTEND
  0
INSERT
  5
D212
330
9F4B
100
AcDbEntity
  8
寸法
 62
     4
100
AcDbBlockReference
  2
_OPEN30
 10
-575.0115589792527
 20
820.4938062227611
 30
0.0
 41
12.5
 42
12.5
 43
12.5
 50
90.0
  0
INSERT
  5
D213
330
9F4B
100
AcDbEntity
  8
寸法
 62
     4
100
AcDbBlockReference
  2
_OPEN30
 10
-575.0115589792527
 20
714.0938062227612
 30
0.0
 41
12.5
 42
12.5
 43
12.5
 50
270.0
  0
POINT
  5
D214
330
9F4B
100
AcDbEntity
  8
DEFPOINTS
 62
     0
100
AcDbPoint
 10
-621.0313583906606
 20
820.4938062227611
 30
0.0
  0
POINT
  5
D215
330
9F4B
100
AcDbEntity
  8
DEFPOINTS
 62
     0
100
AcDbPoint
 10
-621.0313583906606
 20
714.0938062227612
 30
0.0
  0
POINT
  5
D216
330
9F4B
100
AcDbEntity
  8
DEFPOINTS
 62
     0
100
AcDbPoint
 10
-575.0115589792527
 20
714.0938062227612
 30
0.0
  0
ENDBLK
  5
9F57
330
9F4B
100
AcDbEntity
  8
0
100
AcDbBlockEnd
  0
BLOCK
  5
9F62
330
9F58
100
AcDbEntity
  8
0
100
AcDbBlockBegin
  2
*D19
 70
     1
 10
0.0
 20
0.0
 30
0.0
  3
*D19
  1

  0
LINE
  5
198B1
330
9F58
100
AcDbEntity
  8
寸法
 62
     4
 48
5.0
100
AcDbLine
 10
-621.0313583906607
 20
448.2938062227614
 30
0.0
 11
-621.0313583906607
 21
329.0845980142585
 31
0.0
  0
LINE
  5
198B2
330
9F58
100
AcDbEntity
  8
寸法
 62
     4
 48
5.0
100
AcDbLine
 10
-788.0313583906609
 20
450.2938062227611
 30
0.0
 11
-788.0313583906609
 21
329.0845980142585
 31
0.0
  0
LINE
  5
198B3
330
9F58
100
AcDbEntity
  8
寸法
 62
     4
 48
5.0
100
AcDbLine
 10
-633.5313583906607
 20
334.0845980142585
 30
0.0
 11
-775.5313583906609
 21
334.0845980142585
 31
0.0
  0
INSERT
  5
198B4
330
9F58
100
AcDbEntity
  8
寸法
 62
     4
 48
5.0
100
AcDbBlockReference
  2
_OPEN30
 10
-621.0313583906607
 20
334.0845980142585
 30
0.0
 41
12.5
 42
12.5
 43
12.5
  0
INSERT
  5
198B5
330
9F58
100
AcDbEntity
  8
寸法
 62
     4
 48
5.0
100
AcDbBlockReference
  2
_OPEN30
 10
-788.0313583906609
 20
334.0845980142585
 30
0.0
 41
12.5
 42
12.5
 43
12.5
 50
180.0
  0
MTEXT
  5
198B6
330
9F58
100
AcDbEntity
  8
寸法
 62
     0
 48
5.0
100
AcDbMText
 10
-704.5313583906609
 20
344.0845980142585
 30
0.0
 40
15.0
 41
0.0
 71
     5
 72
     1
  1
167
1001
ACAD
1000
MTEXTBEGIN
1070
    73
1070
     1
1070
    44
1040
1.0
1070
    74
1070
     0
1000
MTEXTEND
  0
POINT
  5
198B7
330
9F58
100
AcDbEntity
  8
DEFPOINTS
 62
     0
 48
5.0
100
AcDbPoint
 10
-621.0313583906607
 20
452.2938062227614
 30
0.0
  0
POINT
  5
198B8
330
9F58
100
AcDbEntity
  8
DEFPOINTS
 62
     0
 48
5.0
100
AcDbPoint
 10
-788.0313583906609
 20
454.2938062227611
 30
0.0
  0
POINT
  5
198B9
330
9F58
100
AcDbEntity
  8
DEFPOINTS
 62
     0
 48
5.0
100
AcDbPoint
 10
-788.0313583906609
 20
334.0845980142585
 30
0.0
  0
ENDBLK
  5
9F63
330
9F58
100
AcDbEntity
  8
0
100
AcDbBlockEnd
  0
BLOCK
  5
9F6F
330
9F64
100
AcDbEntity
  8
0
100
AcDbBlockBegin
  2
*D20
 70
     1
 10
0.0
 20
0.0
 30
0.0
  3
*D20
  1

  0
LINE
  5
D18D
330
9F64
100
AcDbEntity
  8
寸法
 62
     4
100
AcDbLine
 10
-796.0313583906589
 20
717.2938062227609
 30
0.0
 11
-832.4411239250482
 21
717.2938062227609
 31
0.0
  0
LINE
  5
D18E
330
9F64
100
AcDbEntity
  8
寸法
 62
     4
100
AcDbLine
 10
-796.0313583906589
 20
817.2938062227611
 30
0.0
 11
-832.4411239250482
 21
817.2938062227611
 31
0.0
  0
LINE
  5
D18F
330
9F64
100
AcDbEntity
  8
寸法
 62
     4
100
AcDbLine
 10
-827.4411239250483
 20
729.7938062227609
 30
0.0
 11
-827.4411239250483
 21
732.7366633656187
 31
0.0
  0
LINE
  5
D190
330
9F64
100
AcDbEntity
  8
寸法
 62
     4
100
AcDbLine
 10
-827.4411239250483
 20
804.7938062227611
 30
0.0
 11
-827.4411239250483
 21
801.8509490799042
 31
0.0
  0
MTEXT
  5
D191
330
9F64
100
AcDbEntity
  8
寸法
 62
     0
100
AcDbMText
 10
-827.4411239250483
 20
767.2938062227609
 30
0.0
 40
15.0
 41
0.0
 71
     5
 72
     1
  1
%%c100\P（中空径）
 11
0.0000000000000001
 21
1.0
 31
0.0
1001
ACAD
1000
MTEXTBEGIN
1070
    73
1070
     1
1070
    44
1040
1.0
1070
    74
1070
     0
1000
MTEXTEND
  0
INSERT
  5
D192
330
9F64
100
AcDbEntity
  8
寸法
 62
     4
100
AcDbBlockReference
  2
_OPEN30
 10
-827.4411239250483
 20
717.2938062227609
 30
0.0
 41
12.5
 42
12.5
 43
12.5
 50
270.0
  0
INSERT
  5
D193
330
9F64
100
AcDbEntity
  8
寸法
 62
     4
100
AcDbBlockReference
  2
_OPEN30
 10
-827.4411239250483
 20
817.2938062227611
 30
0.0
 41
12.5
 42
12.5
 43
12.5
 50
90.0
  0
POINT
  5
D194
330
9F64
100
AcDbEntity
  8
DEFPOINTS
 62
     0
100
AcDbPoint
 10
-792.0313583906589
 20
717.2938062227609
 30
0.0
  0
POINT
  5
D195
330
9F64
100
AcDbEntity
  8
DEFPOINTS
 62
     0
100
AcDbPoint
 10
-792.0313583906589
 20
817.2938062227611
 30
0.0
  0
POINT
  5
D196
330
9F64
100
AcDbEntity
  8
DEFPOINTS
 62
     0
100
AcDbPoint
 10
-827.4411239250483
 20
817.2938062227611
 30
0.0
  0
ENDBLK
  5
9F70
330
9F64
100
AcDbEntity
  8
0
100
AcDbBlockEnd
  0
BLOCK
  5
148D2
330
148CE
100
AcDbEntity
  8
0
100
AcDbBlockBegin
  2
_OPEN
 70
     0
 10
0.0
 20
0.0
 30
0.0
  3
_OPEN
  1

  0
LINE
  5
148CF
330
148CE
100
AcDbEntity
  8
0
  6
BYBLOCK
 62
     0
100
AcDbLine
 10
-1.0
 20
0.1666666666666666
 30
0.0
 11
0.0
 21
0.0
 31
0.0
  0
LINE
  5
148D0
330
148CE
100
AcDbEntity
  8
0
  6
BYBLOCK
 62
     0
100
AcDbLine
 10
0.0
 20
0.0
 30
0.0
 11
-1.0
 21
-0.1666666666666666
 31
0.0
  0
LINE
  5
148D1
330
148CE
100
AcDbEntity
  8
0
  6
BYBLOCK
 62
     0
100
AcDbLine
 10
0.0
 20
0.0
 30
0.0
 11
-1.0
 21
0.0
 31
0.0
  0
ENDBLK
  5
148D3
330
148CE
100
AcDbEntity
  8
0
100
AcDbBlockEnd
  0
BLOCK
  5
186D3
330
186C9
100
AcDbEntity
  8
0
 48
5.0
100
AcDbBlockBegin
  2
*D22
 70
     1
 10
0.0
 20
0.0
 30
0.0
  3
*D22
  1

  0
LINE
  5
18EF5
330
186C9
100
AcDbEntity
  8
寸法
 62
     4
 48
5.0
100
AcDbLine
 10
-851.031358390661
 20
1096.793806222762
 30
0.0
 11
-851.031358390661
 21
1175.989184295965
 31
0.0
  0
LINE
  5
18EF6
330
186C9
100
AcDbEntity
  8
寸法
 62
     4
 48
5.0
100
AcDbLine
 10
-621.0313583906609
 20
1086.293806222758
 30
0.0
 11
-621.0313583906609
 21
1175.989184295965
 31
0.0
  0
LINE
  5
18EF7
330
186C9
100
AcDbEntity
  8
寸法
 62
     4
 48
5.0
100
AcDbLine
 10
-838.531358390661
 20
1170.989184295966
 30
0.0
 11
-633.5313583906609
 21
1170.989184295966
 31
0.0
  0
INSERT
  5
18EF8
330
186C9
100
AcDbEntity
  8
寸法
 62
     4
 48
5.0
100
AcDbBlockReference
  2
_OPEN30
 10
-851.031358390661
 20
1170.989184295966
 30
0.0
 41
12.5
 42
12.5
 43
12.5
 50
180.0
  0
INSERT
  5
18EF9
330
186C9
100
AcDbEntity
  8
寸法
 62
     4
 48
5.0
100
AcDbBlockReference
  2
_OPEN30
 10
-621.0313583906609
 20
1170.989184295966
 30
0.0
 41
12.5
 42
12.5
 43
12.5
  0
MTEXT
  5
18EFA
330
186C9
100
AcDbEntity
  8
寸法
 62
     0
 48
5.0
100
AcDbMText
 10
-736.0313583906607
 20
1184.917755724537
 30
0.0
 40
15.0
 41
0.0
 71
     5
 72
     1
  1
(230)
1001
ACAD
1000
MTEXTBEGIN
1070
    73
1070
     1
1070
    44
1040
1.0
1070
    74
1070
     0
1000
MTEXTEND
  0
POINT
  5
18EFB
330
186C9
100
AcDbEntity
  8
DEFPOINTS
 62
     0
 48
5.0
100
AcDbPoint
 10
-851.031358390661
 20
1092.793806222762
 30
0.0
  0
POINT
  5
18EFC
330
186C9
100
AcDbEntity
  8
DEFPOINTS
 62
     0
 48
5.0
100
AcDbPoint
 10
-621.0313583906609
 20
1082.29380622276
 30
0.0
  0
POINT
  5
18EFD
330
186C9
100
AcDbEntity
  8
DEFPOINTS
 62
     0
 48
5.0
100
AcDbPoint
 10
-621.0313583906609
 20
1170.989184295966
 30
0.0
  0
ENDBLK
  5
186D4
330
186C9
100
AcDbEntity
  8
0
 48
5.0
100
AcDbBlockEnd
  0
BLOCK
  5
186EB
330
186DF
100
AcDbEntity
  8
0
 48
5.0
100
AcDbBlockBegin
  2
*D23
 70
     1
 10
0.0
 20
0.0
 30
0.0
  3
*D23
  1

  0
LINE
  5
18701
330
186DF
100
AcDbEntity
  8
寸法
 62
     4
 48
5.0
100
AcDbLine
 10
-756.5313583906609
 20
1110.293806222758
 30
0.0
 11
-697.5029488481241
 21
1110.293806222758
 31
0.0
  0
LINE
  5
18702
330
186DF
100
AcDbEntity
  8
寸法
 62
     4
 48
5.0
100
AcDbLine
 10
-742.0313583906605
 20
1082.29380622276
 30
0.0
 11
-697.5029488481241
 21
1082.29380622276
 31
0.0
  0
LINE
  5
18703
330
186DF
100
AcDbEntity
  8
寸法
 62
     4
 48
5.0
100
AcDbLine
 10
-702.5029488481241
 20
1122.79380622276
 30
0.0
 11
-702.5029488481241
 21
1135.293806222759
 31
0.0
  0
LINE
  5
18704
330
186DF
100
AcDbEntity
  8
寸法
 62
     4
 48
5.0
100
AcDbLine
 10
-702.5029488481241
 20
1069.79380622276
 30
0.0
 11
-702.5029488481241
 21
1057.293806222759
 31
0.0
  0
MTEXT
  5
18705
330
186DF
100
AcDbEntity
  8
寸法
 62
     0
 48
5.0
100
AcDbMText
 10
-717.1853278408342
 20
1130.922795434672
 30
0.0
 40
15.0
 41
0.0
 71
     5
 72
     1
  1
(28)
 11
0.0000000000000001
 21
1.0
 31
0.0
1001
ACAD
1000
MTEXTBEGIN
1070
    73
1070
     1
1070
    44
1040
1.0
1070
    74
1070
     0
1000
MTEXTEND
  0
LINE
  5
18706
330
186DF
100
AcDbEntity
  8
寸法
 62
     4
 48
5.0
100
AcDbLine
 10
-702.5029488481241
 20
1110.293806222758
 30
0.0
 11
-702.5029488481241
 21
1082.29380622276
 31
0.0
  0
INSERT
  5
18707
330
186DF
100
AcDbEntity
  8
寸法
 62
     4
 48
5.0
100
AcDbBlockReference
  2
_OPEN30
 10
-702.5029488481241
 20
1110.293806222758
 30
0.0
 41
12.5
 42
12.5
 43
12.5
 50
270.0
  0
INSERT
  5
18708
330
186DF
100
AcDbEntity
  8
寸法
 62
     4
 48
5.0
100
AcDbBlockReference
  2
_OPEN30
 10
-702.5029488481241
 20
1082.29380622276
 30
0.0
 41
12.5
 42
12.5
 43
12.5
 50
90.0
  0
POINT
  5
18709
330
186DF
100
AcDbEntity
  8
DEFPOINTS
 62
     0
 48
5.0
100
AcDbPoint
 10
-760.5313583906609
 20
1110.293806222758
 30
0.0
  0
POINT
  5
1870A
330
186DF
100
AcDbEntity
  8
DEFPOINTS
 62
     0
 48
5.0
100
AcDbPoint
 10
-746.0313583906605
 20
1082.29380622276
 30
0.0
  0
POINT
  5
1870B
330
186DF
100
AcDbEntity
  8
DEFPOINTS
 62
     0
 48
5.0
100
AcDbPoint
 10
-702.5029488481241
 20
1082.29380622276
 30
0.0
  0
ENDBLK
  5
186EC
330
186DF
100
AcDbEntity
  8
0
 48
5.0
100
AcDbBlockEnd
  0
BLOCK
  5
188F2
330
188EC
100
AcDbEntity
  8
0
 48
5.0
100
AcDbBlockBegin
  2
*D24
 70
     1
 10
0.0
 20
0.0
 30
0.0
  3
*D24
  1

  0
LINE
  5
18962
330
188EC
100
AcDbEntity
  8
寸法
 62
     4
 48
5.0
100
AcDbLine
 10
-61.02085740936053
 20
767.2938062227665
 30
0.0
 11
-1.180159982489042
 21
718.0460557008831
 31
0.0
  0
MTEXT
  5
18963
330
188EC
100
AcDbEntity
  8
寸法
 62
     0
 48
5.0
100
AcDbMText
 10
-20.12208251101486
 20
747.3587964110268
 30
0.0
 40
15.0
 41
0.0
 71
     5
 72
     1
  1
R90
 11
0.7721380313144687
 21
-0.6354548454436527
 31
0.0
1001
ACAD
1000
MTEXTBEGIN
1070
    73
1070
     1
1070
    44
1040
1.0
1070
    74
1070
     0
1000
MTEXTEND
  0
INSERT
  5
18964
330
188EC
100
AcDbEntity
  8
寸法
 62
     4
 48
5.0
100
AcDbBlockReference
  2
_OPEN30
 10
8.471565408941785
 20
710.1028701328375
 30
0.0
 41
12.5
 42
12.5
 43
12.5
 50
320.5462723280999
  0
POINT
  5
18965
330
188EC
100
AcDbEntity
  8
DEFPOINTS
 62
     0
 48
5.0
100
AcDbPoint
 10
8.471565408941785
 20
710.1028701328375
 30
0.0
  0
POINT
  5
18966
330
188EC
100
AcDbEntity
  8
DEFPOINTS
 62
     0
 48
5.0
100
AcDbPoint
 10
-61.02085740936053
 20
767.2938062227665
 30
0.0
  0
ENDBLK
  5
188F3
330
188EC
100
AcDbEntity
  8
0
 48
5.0
100
AcDbBlockEnd
  0
BLOCK
  5
188FA
330
188F4
100
AcDbEntity
  8
0
 48
5.0
100
AcDbBlockBegin
  2
*D25
 70
     1
 10
0.0
 20
0.0
 30
0.0
  3
*D25
  1

  0
LINE
  5
18967
330
188F4
100
AcDbEntity
  8
寸法
 62
     4
 48
5.0
100
AcDbLine
 10
-61.02085740936132
 20
767.2938062227656
 30
0.0
 11
-109.9892944262885
 21
819.393155317733
 31
0.0
  0
MTEXT
  5
18968
330
188F4
100
AcDbEntity
  8
寸法
 62
     0
 48
5.0
100
AcDbMText
 10
-82.86576610361287
 20
805.3734689122093
 30
0.0
 40
15.0
 41
0.0
 71
     5
 72
     1
  1
R84
 11
0.6848732449919854
 21
-0.7286622251044363
 31
0.0
1001
ACAD
1000
MTEXTBEGIN
1070
    73
1070
     1
1070
    44
1040
1.0
1070
    74
1070
     0
1000
MTEXTEND
  0
INSERT
  5
18969
330
188F4
100
AcDbEntity
  8
寸法
 62
     4
 48
5.0
100
AcDbBlockReference
  2
_OPEN30
 10
-118.5502099886884
 20
828.5014331315386
 30
0.0
 41
12.5
 42
12.5
 43
12.5
 50
133.2256394017963
  0
POINT
  5
1896A
330
188F4
100
AcDbEntity
  8
DEFPOINTS
 62
     0
 48
5.0
100
AcDbPoint
 10
-118.5502099886884
 20
828.5014331315386
 30
0.0
  0
POINT
  5
1896B
330
188F4
100
AcDbEntity
  8
DEFPOINTS
 62
     0
 48
5.0
100
AcDbPoint
 10
-61.02085740936132
 20
767.2938062227656
 30
0.0
  0
ENDBLK
  5
188FB
330
188F4
100
AcDbEntity
  8
0
 48
5.0
100
AcDbBlockEnd
  0
BLOCK
  5
1893C
330
18931
100
AcDbEntity
  8
0
 48
5.0
100
AcDbBlockBegin
  2
*D26
 70
     1
 10
0.0
 20
0.0
 30
0.0
  3
*D26
  1

  0
LINE
  5
19909
330
18931
100
AcDbEntity
  8
寸法
 62
     4
 48
5.0
100
AcDbLine
 10
-7.353623100897268
 20
674.3394296988038
 30
0.0
 11
34.76288313158756
 21
601.3915010668489
 31
0.0
  0
ARC
  5
1990A
330
18931
100
AcDbEntity
  8
寸法
 62
     4
 48
5.0
100
AcDbCircle
 10
-61.02085740936079
 20
767.2938062227658
 30
0.0
 40
186.5674810818958
100
AcDbArc
 50
273.8395290847376
 51
296.1604709152623
  0
INSERT
  5
1990B
330
18931
100
AcDbEntity
  8
寸法
 62
     4
 48
5.0
100
AcDbBlockReference
  2
_OPEN30
 10
-61.02085740936086
 20
580.7263251408698
 30
0.0
 41
12.5
 42
12.5
 43
12.5
 50
181.9197645423688
  0
INSERT
  5
1990C
330
18931
100
AcDbEntity
  8
寸法
 62
     4
 48
5.0
100
AcDbBlockReference
  2
_OPEN30
 10
32.26288313158756
 20
605.7216280857712
 30
0.0
 41
12.5
 42
12.5
 43
12.5
 50
28.08023545763125
  0
MTEXT
  5
1990D
330
18931
100
AcDbEntity
  8
寸法
 62
     0
 48
5.0
100
AcDbMText
 10
-15.32183055958681
 20
596.7427161629561
 30
0.0
 40
15.0
 41
0.0
 71
     5
 72
     1
  1
30°
 11
0.9659258262890679
 21
0.2588190451025222
 31
0.0
1001
ACAD
1000
MTEXTBEGIN
1070
    73
1070
     1
1070
    44
1040
1.0
1070
    74
1070
     0
1000
MTEXTEND
  0
POINT
  5
1990E
330
18931
100
AcDbEntity
  8
DEFPOINTS
 62
     0
 48
5.0
100
AcDbPoint
 10
-28.62375430757994
 20
583.5607043933562
 30
0.0
  0
POINT
  5
1990F
330
18931
100
AcDbEntity
  8
DEFPOINTS
 62
     0
 48
5.0
100
AcDbPoint
 10
-61.02085740936082
 20
445.2924268464226
 30
0.0
  0
POINT
  5
19910
330
18931
100
AcDbEntity
  8
DEFPOINTS
 62
     0
 48
5.0
100
AcDbPoint
 10
-22.13624711278251
 20
699.9436855565767
 30
0.0
  0
POINT
  5
19911
330
18931
100
AcDbEntity
  8
DEFPOINTS
 62
     0
 48
5.0
100
AcDbPoint
 10
-9.353623100897266
 20
677.8035313139416
 30
0.0
  0
POINT
  5
19912
330
18931
100
AcDbEntity
  8
DEFPOINTS
 62
     0
 48
5.0
100
AcDbPoint
 10
-61.02085740936079
 20
1089.295185599109
 30
0.0
  0
ENDBLK
  5
1893D
330
18931
100
AcDbEntity
  8
0
 48
5.0
100
AcDbBlockEnd
  0
BLOCK
  5
18DAE
330
18DA4
100
AcDbEntity
  8
0
 48
5.0
100
AcDbBlockBegin
  2
*D27
 70
     1
 10
0.0
 20
0.0
 30
0.0
  3
*D27
  1

  0
LINE
  5
18E05
330
18DA4
100
AcDbEntity
  8
寸法
 62
     4
 48
5.0
100
AcDbLine
 10
-617.0313583906609
 20
911.2938062227611
 30
0.0
 11
-617.0313583906609
 21
969.7656785385774
 31
0.0
  0
LINE
  5
18E06
330
18DA4
100
AcDbEntity
  8
寸法
 62
     4
 48
5.0
100
AcDbLine
 10
-577.0313583906617
 20
869.2938062227611
 30
0.0
 11
-577.0313583906617
 21
969.7656785385774
 31
0.0
  0
LINE
  5
18E07
330
18DA4
100
AcDbEntity
  8
寸法
 62
     4
 48
5.0
100
AcDbLine
 10
-604.5313583906609
 20
964.7656785385775
 30
0.0
 11
-589.5313583906617
 21
964.7656785385775
 31
0.0
  0
INSERT
  5
18E08
330
18DA4
100
AcDbEntity
  8
寸法
 62
     4
 48
5.0
100
AcDbBlockReference
  2
_OPEN30
 10
-617.0313583906609
 20
964.7656785385775
 30
0.0
 41
12.5
 42
12.5
 43
12.5
 50
180.0
  0
INSERT
  5
18E09
330
18DA4
100
AcDbEntity
  8
寸法
 62
     4
 48
5.0
100
AcDbBlockReference
  2
_OPEN30
 10
-577.0313583906617
 20
964.7656785385775
 30
0.0
 41
12.5
 42
12.5
 43
12.5
  0
MTEXT
  5
18E0A
330
18DA4
100
AcDbEntity
  8
寸法
 62
     0
 48
5.0
100
AcDbMText
 10
-597.0313583906612
 20
978.6942499671487
 30
0.0
 40
15.0
 41
0.0
 71
     5
 72
     1
  1
(45)
1001
ACAD
1000
MTEXTBEGIN
1070
    73
1070
     1
1070
    44
1040
1.0
1070
    74
1070
     0
1000
MTEXTEND
  0
POINT
  5
18E0B
330
18DA4
100
AcDbEntity
  8
DEFPOINTS
 62
     0
 48
5.0
100
AcDbPoint
 10
-617.0313583906609
 20
907.2938062227612
 30
0.0
  0
POINT
  5
18E0C
330
18DA4
100
AcDbEntity
  8
DEFPOINTS
 62
     0
 48
5.0
100
AcDbPoint
 10
-577.0313583906617
 20
865.2938062227612
 30
0.0
  0
POINT
  5
18E0D
330
18DA4
100
AcDbEntity
  8
DEFPOINTS
 62
     0
 48
5.0
100
AcDbPoint
 10
-577.0313583906617
 20
964.7656785385775
 30
0.0
  0
ENDBLK
  5
18DAF
330
18DA4
100
AcDbEntity
  8
0
 48
5.0
100
AcDbBlockEnd
  0
BLOCK
  5
18DBA
330
18DB0
100
AcDbEntity
  8
0
 48
5.0
100
AcDbBlockBegin
  2
*D28
 70
     1
 10
0.0
 20
0.0
 30
0.0
  3
*D28
  1

  0
LINE
  5
18DF6
330
18DB0
100
AcDbEntity
  8
寸法
 62
     4
 48
5.0
100
AcDbLine
 10
-617.0313583906609
 20
623.2938062227612
 30
0.0
 11
-617.0313583906609
 21
575.969130810608
 31
0.0
  0
LINE
  5
18DF7
330
18DB0
100
AcDbEntity
  8
寸法
 62
     4
 48
5.0
100
AcDbLine
 10
-547.2989174457755
 20
680.2938062227614
 30
0.0
 11
-547.2989174457755
 21
575.969130810608
 31
0.0
  0
LINE
  5
18DF8
330
18DB0
100
AcDbEntity
  8
寸法
 62
     4
 48
5.0
100
AcDbLine
 10
-604.5313583906609
 20
580.969130810608
 30
0.0
 11
-559.7989174457755
 21
580.969130810608
 31
0.0
  0
INSERT
  5
18DF9
330
18DB0
100
AcDbEntity
  8
寸法
 62
     4
 48
5.0
100
AcDbBlockReference
  2
_OPEN30
 10
-617.0313583906609
 20
580.969130810608
 30
0.0
 41
12.5
 42
12.5
 43
12.5
 50
180.0
  0
INSERT
  5
18DFA
330
18DB0
100
AcDbEntity
  8
寸法
 62
     4
 48
5.0
100
AcDbBlockReference
  2
_OPEN30
 10
-547.2989174457755
 20
580.969130810608
 30
0.0
 41
12.5
 42
12.5
 43
12.5
  0
MTEXT
  5
18DFB
330
18DB0
100
AcDbEntity
  8
寸法
 62
     0
 48
5.0
100
AcDbMText
 10
-582.1651379182181
 20
594.8977022391792
 30
0.0
 40
15.0
 41
0.0
 71
     5
 72
     1
  1
(70)
1001
ACAD
1000
MTEXTBEGIN
1070
    73
1070
     1
1070
    44
1040
1.0
1070
    74
1070
     0
1000
MTEXTEND
  0
POINT
  5
18DFC
330
18DB0
100
AcDbEntity
  8
DEFPOINTS
 62
     0
 48
5.0
100
AcDbPoint
 10
-617.0313583906609
 20
627.2938062227612
 30
0.0
  0
POINT
  5
18DFD
330
18DB0
100
AcDbEntity
  8
DEFPOINTS
 62
     0
 48
5.0
100
AcDbPoint
 10
-547.2989174457755
 20
684.2938062227614
 30
0.0
  0
POINT
  5
18DFE
330
18DB0
100
AcDbEntity
  8
DEFPOINTS
 62
     0
 48
5.0
100
AcDbPoint
 10
-547.2989174457755
 20
580.969130810608
 30
0.0
  0
ENDBLK
  5
18DBB
330
18DB0
100
AcDbEntity
  8
0
 48
5.0
100
AcDbBlockEnd
  0
BLOCK
  5
18DC8
330
18DBC
100
AcDbEntity
  8
0
 48
5.0
100
AcDbBlockBegin
  2
*D29
 70
     1
 10
0.0
 20
0.0
 30
0.0
  3
*D29
  1

  0
LINE
  5
18E0E
330
18DBC
100
AcDbEntity
  8
寸法
 62
     4
 48
5.0
100
AcDbLine
 10
-472.8354781201944
 20
1042.04544217225
 30
0.0
 11
-472.8354781201944
 21
1057.806056646347
 31
0.0
  0
LINE
  5
18E0F
330
18DBC
100
AcDbEntity
  8
寸法
 62
     4
 48
5.0
100
AcDbLine
 10
-459.835478120194
 20
1042.045449753639
 30
0.0
 11
-459.835478120194
 21
1057.806056646347
 31
0.0
  0
LINE
  5
18E10
330
18DBC
100
AcDbEntity
  8
寸法
 62
     4
 48
5.0
100
AcDbLine
 10
-485.3354781201944
 20
1052.806056646347
 30
0.0
 11
-497.8354781201944
 21
1052.806056646347
 31
0.0
  0
LINE
  5
18E11
330
18DBC
100
AcDbEntity
  8
寸法
 62
     4
 48
5.0
100
AcDbLine
 10
-447.335478120194
 20
1052.806056646347
 30
0.0
 11
-434.835478120194
 21
1052.806056646347
 31
0.0
  0
MTEXT
  5
18E12
330
18DBC
100
AcDbEntity
  8
寸法
 62
     0
 48
5.0
100
AcDbMText
 10
-430.6804839434877
 20
1065.033124572545
 30
0.0
 40
15.0
 41
0.0
 71
     5
 72
     1
  1
(%%c20)
1001
ACAD
1000
MTEXTBEGIN
1070
    73
1070
     1
1070
    44
1040
1.0
1070
    74
1070
     0
1000
MTEXTEND
  0
LINE
  5
18E13
330
18DBC
100
AcDbEntity
  8
寸法
 62
     4
 48
5.0
100
AcDbLine
 10
-472.8354781201944
 20
1052.806056646347
 30
0.0
 11
-459.835478120194
 21
1052.806056646347
 31
0.0
  0
INSERT
  5
18E14
330
18DBC
100
AcDbEntity
  8
寸法
 62
     4
 48
5.0
100
AcDbBlockReference
  2
_OPEN30
 10
-472.8354781201944
 20
1052.806056646347
 30
0.0
 41
12.5
 42
12.5
 43
12.5
  0
INSERT
  5
18E15
330
18DBC
100
AcDbEntity
  8
寸法
 62
     4
 48
5.0
100
AcDbBlockReference
  2
_OPEN30
 10
-459.835478120194
 20
1052.806056646347
 30
0.0
 41
12.5
 42
12.5
 43
12.5
 50
180.0
  0
POINT
  5
18E16
330
18DBC
100
AcDbEntity
  8
DEFPOINTS
 62
     0
 48
5.0
100
AcDbPoint
 10
-472.8354781201944
 20
1038.04544217225
 30
0.0
  0
POINT
  5
18E17
330
18DBC
100
AcDbEntity
  8
DEFPOINTS
 62
     0
 48
5.0
100
AcDbPoint
 10
-459.835478120194
 20
1038.045449753639
 30
0.0
  0
POINT
  5
18E18
330
18DBC
100
AcDbEntity
  8
DEFPOINTS
 62
     0
 48
5.0
100
AcDbPoint
 10
-459.835478120194
 20
1052.806056646347
 30
0.0
  0
ENDBLK
  5
18DC9
330
18DBC
100
AcDbEntity
  8
0
 48
5.0
100
AcDbBlockEnd
  0
BLOCK
  5
18DD1
330
18DCA
100
AcDbEntity
  8
0
 48
5.0
100
AcDbBlockBegin
  2
*D30
 70
     1
 10
0.0
 20
0.0
 30
0.0
  3
*D30
  1

  0
LINE
  5
18DFF
330
18DCA
100
AcDbEntity
  8
寸法
 62
     4
 48
5.0
100
AcDbLine
 10
-398.5475669627866
 20
784.3260336317247
 30
0.0
 11
-466.1571549154962
 21
851.3685859470006
 31
0.0
  0
MTEXT
  5
18E00
330
18DCA
100
AcDbEntity
  8
寸法
 62
     0
 48
5.0
100
AcDbMText
 10
-420.8731439323892
 20
820.547324032268
 30
0.0
 40
15.0
 41
0.0
 71
     5
 72
     1
  1
R100mini
 11
0.7100781930517135
 21
-0.7041228300178979
 31
0.0
1001
ACAD
1000
MTEXTBEGIN
1070
    73
1070
     1
1070
    44
1040
1.0
1070
    74
1070
     0
1000
MTEXTEND
  0
LINE
  5
18E01
330
18DCA
100
AcDbEntity
  8
寸法
 62
     4
 48
5.0
100
AcDbLine
 10
-496.3354781201942
 20
881.2938062227615
 30
0.0
 11
-475.0331323286426
 21
860.1701213222243
 31
0.0
  0
INSERT
  5
18E02
330
18DCA
100
AcDbEntity
  8
寸法
 62
     4
 48
5.0
100
AcDbBlockReference
  2
_OPEN30
 10
-475.0331323286426
 20
860.1701213222243
 30
0.0
 41
12.5
 42
12.5
 43
12.5
 50
135.241277685966
  0
POINT
  5
18E03
330
18DCA
100
AcDbEntity
  8
DEFPOINTS
 62
     0
 48
5.0
100
AcDbPoint
 10
-475.0331323286426
 20
860.1701213222243
 30
0.0
  0
POINT
  5
18E04
330
18DCA
100
AcDbEntity
  8
DEFPOINTS
 62
     0
 48
5.0
100
AcDbPoint
 10
-496.3354781201942
 20
881.2938062227615
 30
0.0
  0
ENDBLK
  5
18DD2
330
18DCA
100
AcDbEntity
  8
0
 48
5.0
100
AcDbBlockEnd
  0
BLOCK
  5
1ABBD
330
1ABB5
100
AcDbEntity
  8
0
 48
5.0
100
AcDbBlockBegin
  2
*D31
 70
     1
 10
0.0
 20
0.0
 30
0.0
  3
*D31
  1

  0
LINE
  5
1AF7D
330
1ABB5
100
AcDbEntity
  8
寸法
 62
     4
 48
5.0
100
AcDbLine
 10
-1039.635382540106
 20
337.9673617564008
 30
0.0
 11
-1069.015701587328
 21
337.9673617564008
 31
0.0
  0
LINE
  5
1AF7E
330
1ABB5
100
AcDbEntity
  8
寸法
 62
     4
 48
5.0
100
AcDbLine
 10
-1064.015701587329
 20
350.4673617564008
 30
0.0
 11
-1064.015701587329
 21
420.6575689227062
 31
0.0
  0
MTEXT
  5
1AF7F
330
1ABB5
100
AcDbEntity
  8
寸法
 62
     0
 48
5.0
100
AcDbMText
 10
-1078.716947836159
 20
404.4455759281271
 30
0.0
 40
15.0
 41
0.0
 71
     5
 72
     1
  1
(%%c450h7)
 11
0.0000000000000001
 21
1.0
 31
0.0
1001
ACAD
1000
MTEXTBEGIN
1070
    73
1070
     1
1070
    44
1040
1.0
1070
    74
1070
     0
1000
MTEXTEND
  0
INSERT
  5
1AF80
330
1ABB5
100
AcDbEntity
  8
寸法
 62
     4
 48
5.0
100
AcDbBlockReference
  2
_OPEN30
 10
-1064.015701587329
 20
337.9673617564008
 30
0.0
 41
12.5
 42
12.5
 43
12.5
 50
270.0
  0
POINT
  5
1AF81
330
1ABB5
100
AcDbEntity
  8
DEFPOINTS
 62
     0
 48
5.0
100
AcDbPoint
 10
-1035.635382540106
 20
337.9673617564008
 30
0.0
  0
POINT
  5
1AF82
330
1ABB5
100
AcDbEntity
  8
DEFPOINTS
 62
     0
 48
5.0
100
AcDbPoint
 10
-1016.257423827057
 20
503.3477760890114
 30
0.0
  0
POINT
  5
1AF83
330
1ABB5
100
AcDbEntity
  8
DEFPOINTS
 62
     0
 48
5.0
100
AcDbPoint
 10
-1064.015701587329
 20
503.3477760890114
 30
0.0
  0
ENDBLK
  5
1ABBE
330
1ABB5
100
AcDbEntity
  8
0
 48
5.0
100
AcDbBlockEnd
  0
BLOCK
  5
1AC90
330
1AC84
100
AcDbEntity
  8
0
 48
5.0
100
AcDbBlockBegin
  2
*D32
 70
     1
 10
0.0
 20
0.0
 30
0.0
  3
*D32
  1

  0
LINE
  5
1AFA5
330
1AC84
100
AcDbEntity
  8
寸法
 62
     4
 48
5.0
100
AcDbLine
 10
-1036.885382540106
 20
335.2173617564008
 30
0.0
 11
-1036.885382540106
 21
217.9719634368133
 31
0.0
  0
LINE
  5
1AFA6
330
1AC84
100
AcDbEntity
  8
寸法
 62
     4
 48
5.0
100
AcDbLine
 10
-1028.135382540106
 20
333.4673617564007
 30
0.0
 11
-1028.135382540106
 21
217.9719634368133
 31
0.0
  0
LINE
  5
1AFA7
330
1AC84
100
AcDbEntity
  8
寸法
 62
     4
 48
5.0
100
AcDbLine
 10
-1049.385382540106
 20
222.9719634368133
 30
0.0
 11
-1061.885382540106
 21
222.9719634368133
 31
0.0
  0
LINE
  5
1AFA8
330
1AC84
100
AcDbEntity
  8
寸法
 62
     4
 48
5.0
100
AcDbLine
 10
-1015.635382540106
 20
222.9719634368133
 30
0.0
 11
-1003.135382540106
 21
222.9719634368133
 31
0.0
  0
MTEXT
  5
1AFA9
330
1AC84
100
AcDbEntity
  8
寸法
 62
     0
 48
5.0
100
AcDbMText
 10
-1058.415125817498
 20
235.1081326668745
 30
0.0
 40
15.0
 41
0.0
 71
     5
 72
     1
  1
3.5
1001
ACAD
1000
MTEXTBEGIN
1070
    73
1070
     1
1070
    44
1040
1.0
1070
    74
1070
     0
1000
MTEXTEND
  0
LINE
  5
1AFAA
330
1AC84
100
AcDbEntity
  8
寸法
 62
     4
 48
5.0
100
AcDbLine
 10
-1036.885382540106
 20
222.9719634368133
 30
0.0
 11
-1028.135382540106
 21
222.9719634368133
 31
0.0
  0
INSERT
  5
1AFAB
330
1AC84
100
AcDbEntity
  8
寸法
 62
     4
 48
5.0
100
AcDbBlockReference
  2
_OPEN30
 10
-1036.885382540106
 20
222.9719634368133
 30
0.0
 41
12.5
 42
12.5
 43
12.5
  0
INSERT
  5
1AFAC
330
1AC84
100
AcDbEntity
  8
寸法
 62
     4
 48
5.0
100
AcDbBlockReference
  2
_OPEN30
 10
-1028.135382540106
 20
222.9719634368133
 30
0.0
 41
12.5
 42
12.5
 43
12.5
 50
180.0
  0
POINT
  5
1AFAD
330
1AC84
100
AcDbEntity
  8
DEFPOINTS
 62
     0
 48
5.0
100
AcDbPoint
 10
-1036.885382540106
 20
339.2173617564008
 30
0.0
  0
POINT
  5
1AFAE
330
1AC84
100
AcDbEntity
  8
DEFPOINTS
 62
     0
 48
5.0
100
AcDbPoint
 10
-1028.135382540106
 20
337.4673617564007
 30
0.0
  0
POINT
  5
1AFAF
330
1AC84
100
AcDbEntity
  8
DEFPOINTS
 62
     0
 48
5.0
100
AcDbPoint
 10
-1028.135382540106
 20
222.9719634368133
 30
0.0
  0
ENDBLK
  5
1AC91
330
1AC84
100
AcDbEntity
  8
0
 48
5.0
100
AcDbBlockEnd
  0
BLOCK
  5
1AF3D
330
1AF31
100
AcDbEntity
  8
0
 48
5.0
100
AcDbBlockBegin
  2
*D33
 70
     1
 10
0.0
 20
0.0
 30
0.0
  3
*D33
  1

  0
LINE
  5
1AF5B
330
1AF31
100
AcDbEntity
  8
寸法
 62
     4
 48
5.0
100
AcDbLine
 10
-1270.583350263246
 20
128.6119421580953
 30
0.0
 11
-1214.661992150452
 21
128.6119421580953
 31
0.0
  0
LINE
  5
1AF5C
330
1AF31
100
AcDbEntity
  8
寸法
 62
     4
 48
5.0
100
AcDbLine
 10
-1271.183350263246
 20
118.6119421580954
 30
0.0
 11
-1214.661992150452
 21
118.6119421580954
 31
0.0
  0
LINE
  5
1AF5D
330
1AF31
100
AcDbEntity
  8
寸法
 62
     4
 48
5.0
100
AcDbLine
 10
-1219.661992150452
 20
141.1119421580953
 30
0.0
 11
-1219.661992150452
 21
153.6119421580953
 31
0.0
  0
LINE
  5
1AF5E
330
1AF31
100
AcDbEntity
  8
寸法
 62
     4
 48
5.0
100
AcDbLine
 10
-1219.661992150452
 20
106.1119421580954
 30
0.0
 11
-1219.661992150452
 21
93.6119421580954
 31
0.0
  0
LINE
  5
1AF5F
330
1AF31
100
AcDbEntity
  8
寸法
 62
     4
 48
5.0
100
AcDbLine
 10
-1219.661992150452
 20
128.6119421580953
 30
0.0
 11
-1219.661992150452
 21
118.6119421580954
 31
0.0
  0
INSERT
  5
1AF60
330
1AF31
100
AcDbEntity
  8
寸法
 62
     4
 48
5.0
100
AcDbBlockReference
  2
_OPEN30
 10
-1219.661992150452
 20
128.6119421580953
 30
0.0
 41
12.5
 42
12.5
 43
12.5
 50
270.0
  0
INSERT
  5
1AF61
330
1AF31
100
AcDbEntity
  8
寸法
 62
     4
 48
5.0
100
AcDbBlockReference
  2
_OPEN30
 10
-1219.661992150452
 20
118.6119421580954
 30
0.0
 41
12.5
 42
12.5
 43
12.5
 50
90.0
  0
MTEXT
  5
1AF62
330
1AF31
100
AcDbEntity
  8
寸法
 62
     0
 48
5.0
100
AcDbMText
 10
-1229.661992150452
 20
123.6119421580952
 30
0.0
 40
15.0
 41
0.0
 71
     5
 72
     1
  1
5
 11
0.0000000000000001
 21
1.0
 31
0.0
1001
ACAD
1000
MTEXTBEGIN
1070
    73
1070
     1
1070
    44
1040
1.0
1070
    74
1070
     0
1000
MTEXTEND
  0
POINT
  5
1AF63
330
1AF31
100
AcDbEntity
  8
DEFPOINTS
 62
     0
 48
5.0
100
AcDbPoint
 10
-1274.583350263246
 20
128.6119421580953
 30
0.0
  0
POINT
  5
1AF64
330
1AF31
100
AcDbEntity
  8
DEFPOINTS
 62
     0
 48
5.0
100
AcDbPoint
 10
-1275.183350263246
 20
118.6119421580954
 30
0.0
  0
POINT
  5
1AF65
330
1AF31
100
AcDbEntity
  8
DEFPOINTS
 62
     0
 48
5.0
100
AcDbPoint
 10
-1219.661992150452
 20
118.6119421580954
 30
0.0
  0
ENDBLK
  5
1AF3E
330
1AF31
100
AcDbEntity
  8
0
 48
5.0
100
AcDbBlockEnd
  0
BLOCK
  5
1AF4B
330
1AF3F
100
AcDbEntity
  8
0
 48
5.0
100
AcDbBlockBegin
  2
*D34
 70
     1
 10
0.0
 20
0.0
 30
0.0
  3
*D34
  1

  0
LINE
  5
1AF66
330
1AF3F
100
AcDbEntity
  8
寸法
 62
     4
 48
5.0
100
AcDbLine
 10
-1274.583350263246
 20
97.21194215809532
 30
0.0
 11
-1274.583350263246
 21
51.4231458725476
 31
0.0
  0
LINE
  5
1AF67
330
1AF3F
100
AcDbEntity
  8
寸法
 62
     4
 48
5.0
100
AcDbLine
 10
-1264.583350263246
 20
88.94315050895443
 30
0.0
 11
-1264.583350263246
 21
51.4231458725476
 31
0.0
  0
LINE
  5
1AF68
330
1AF3F
100
AcDbEntity
  8
寸法
 62
     4
 48
5.0
100
AcDbLine
 10
-1287.083350263246
 20
56.4231458725476
 30
0.0
 11
-1299.583350263247
 21
56.4231458725476
 31
0.0
  0
LINE
  5
1AF69
330
1AF3F
100
AcDbEntity
  8
寸法
 62
     4
 48
5.0
100
AcDbLine
 10
-1252.083350263246
 20
56.4231458725476
 30
0.0
 11
-1239.583350263246
 21
56.4231458725476
 31
0.0
  0
LINE
  5
1AF6A
330
1AF3F
100
AcDbEntity
  8
寸法
 62
     4
 48
5.0
100
AcDbLine
 10
-1274.583350263246
 20
56.4231458725476
 30
0.0
 11
-1264.583350263246
 21
56.4231458725476
 31
0.0
  0
INSERT
  5
1AF6B
330
1AF3F
100
AcDbEntity
  8
寸法
 62
     4
 48
5.0
100
AcDbBlockReference
  2
_OPEN30
 10
-1274.583350263246
 20
56.4231458725476
 30
0.0
 41
12.5
 42
12.5
 43
12.5
  0
INSERT
  5
1AF6C
330
1AF3F
100
AcDbEntity
  8
寸法
 62
     4
 48
5.0
100
AcDbBlockReference
  2
_OPEN30
 10
-1264.583350263246
 20
56.4231458725476
 30
0.0
 41
12.5
 42
12.5
 43
12.5
 50
180.0
  0
MTEXT
  5
1AF6D
330
1AF3F
100
AcDbEntity
  8
寸法
 62
     0
 48
5.0
100
AcDbMText
 10
-1269.583350263246
 20
66.42314587254759
 30
0.0
 40
15.0
 41
0.0
 71
     5
 72
     1
  1
5
1001
ACAD
1000
MTEXTBEGIN
1070
    73
1070
     1
1070
    44
1040
1.0
1070
    74
1070
     0
1000
MTEXTEND
  0
POINT
  5
1AF6E
330
1AF3F
100
AcDbEntity
  8
DEFPOINTS
 62
     0
 48
5.0
100
AcDbPoint
 10
-1274.583350263246
 20
101.2119421580953
 30
0.0
  0
POINT
  5
1AF6F
330
1AF3F
100
AcDbEntity
  8
DEFPOINTS
 62
     0
 48
5.0
100
AcDbPoint
 10
-1264.583350263246
 20
92.94315050895443
 30
0.0
  0
POINT
  5
1AF70
330
1AF3F
100
AcDbEntity
  8
DEFPOINTS
 62
     0
 48
5.0
100
AcDbPoint
 10
-1264.583350263246
 20
56.4231458725476
 30
0.0
  0
ENDBLK
  5
1AF4C
330
1AF3F
100
AcDbEntity
  8
0
 48
5.0
100
AcDbBlockEnd
  0
BLOCK
  5
1AF59
330
1AF4D
100
AcDbEntity
  8
0
 48
5.0
100
AcDbBlockBegin
  2
*D35
 70
     1
 10
0.0
 20
0.0
 30
0.0
  3
*D35
  1

  0
LINE
  5
1AF71
330
1AF4D
100
AcDbEntity
  8
寸法
 62
     4
 48
5.0
100
AcDbLine
 10
-1271.183350263246
 20
208.6119421580953
 30
0.0
 11
-1214.061992150452
 21
208.6119421580953
 31
0.0
  0
LINE
  5
1AF72
330
1AF4D
100
AcDbEntity
  8
寸法
 62
     4
 48
5.0
100
AcDbLine
 10
-1271.183350263246
 20
198.6119421580963
 30
0.0
 11
-1214.061992150452
 21
198.6119421580962
 31
0.0
  0
LINE
  5
1AF73
330
1AF4D
100
AcDbEntity
  8
寸法
 62
     4
 48
5.0
100
AcDbLine
 10
-1219.061992150452
 20
221.1119421580953
 30
0.0
 11
-1219.061992150452
 21
233.6119421580953
 31
0.0
  0
LINE
  5
1AF74
330
1AF4D
100
AcDbEntity
  8
寸法
 62
     4
 48
5.0
100
AcDbLine
 10
-1219.061992150452
 20
186.1119421580963
 30
0.0
 11
-1219.061992150452
 21
173.6119421580963
 31
0.0
  0
LINE
  5
1AF75
330
1AF4D
100
AcDbEntity
  8
寸法
 62
     4
 48
5.0
100
AcDbLine
 10
-1219.061992150452
 20
208.6119421580953
 30
0.0
 11
-1219.061992150452
 21
198.6119421580963
 31
0.0
  0
INSERT
  5
1AF76
330
1AF4D
100
AcDbEntity
  8
寸法
 62
     4
 48
5.0
100
AcDbBlockReference
  2
_OPEN30
 10
-1219.061992150452
 20
208.6119421580953
 30
0.0
 41
12.5
 42
12.5
 43
12.5
 50
270.0
  0
INSERT
  5
1AF77
330
1AF4D
100
AcDbEntity
  8
寸法
 62
     4
 48
5.0
100
AcDbBlockReference
  2
_OPEN30
 10
-1219.061992150452
 20
198.6119421580963
 30
0.0
 41
12.5
 42
12.5
 43
12.5
 50
90.0
  0
MTEXT
  5
1AF78
330
1AF4D
100
AcDbEntity
  8
寸法
 62
     0
 48
5.0
100
AcDbMText
 10
-1229.061992150452
 20
203.6119421580955
 30
0.0
 40
15.0
 41
0.0
 71
     5
 72
     1
  1
5
 11
0.0000000000000001
 21
1.0
 31
0.0
1001
ACAD
1000
MTEXTBEGIN
1070
    73
1070
     1
1070
    44
1040
1.0
1070
    74
1070
     0
1000
MTEXTEND
  0
POINT
  5
1AF79
330
1AF4D
100
AcDbEntity
  8
DEFPOINTS
 62
     0
 48
5.0
100
AcDbPoint
 10
-1275.183350263246
 20
208.6119421580953
 30
0.0
  0
POINT
  5
1AF7A
330
1AF4D
100
AcDbEntity
  8
DEFPOINTS
 62
     0
 48
5.0
100
AcDbPoint
 10
-1275.183350263246
 20
198.6119421580963
 30
0.0
  0
POINT
  5
1AF7B
330
1AF4D
100
AcDbEntity
  8
DEFPOINTS
 62
     0
 48
5.0
100
AcDbPoint
 10
-1219.061992150452
 20
198.6119421580963
 30
0.0
  0
ENDBLK
  5
1AF5A
330
1AF4D
100
AcDbEntity
  8
0
 48
5.0
100
AcDbBlockEnd
  0
BLOCK
  5
1B02B
330
1B021
100
AcDbEntity
  8
0
 48
5.0
100
AcDbBlockBegin
  2
*D36
 70
     1
 10
0.0
 20
0.0
 30
0.0
  3
*D36
  1

  0
ARC
  5
1B02D
330
1B021
100
AcDbEntity
  8
WAKUMOJI
  6
CONTINUOUS
 62
     4
 48
5.0
100
AcDbCircle
 10
-1323.448916495358
 20
767.2938062227489
 30
0.0
 40
271.9539627458995
100
AcDbArc
 50
81.38375571611458
 51
98.61624428388388
  0
INSERT
  5
1B02E
330
1B021
100
AcDbEntity
  8
WAKUMOJI
  6
CONTINUOUS
 62
     4
 48
5.0
100
AcDbBlockReference
  2
_OPEN30
 10
-1270.393330329697
 20
1034.022249831255
 30
0.0
 41
12.5
 42
12.5
 43
12.5
 50
350.0668778580571
  0
INSERT
  5
1B02F
330
1B021
100
AcDbEntity
  8
WAKUMOJI
  6
CONTINUOUS
 62
     4
 48
5.0
100
AcDbBlockReference
  2
_OPEN30
 10
-1376.504502661011
 20
1034.022249831257
 30
0.0
 41
12.5
 42
12.5
 43
12.5
 50
189.9331221419411
  0
MTEXT
  5
1B030
330
1B021
100
AcDbEntity
  8
WAKUMOJI
  6
CONTINUOUS
 62
     0
 48
5.0
100
AcDbMText
 10
-1323.448916495354
 20
1049.247768968647
 30
0.0
 40
15.0
 41
0.0
 71
     5
 72
     1
  1
回転方向
1001
ACAD
1000
MTEXTBEGIN
1070
    73
1070
     1
1070
    44
1040
1.0
1070
    74
1070
     0
1000
MTEXTEND
  0
POINT
  5
1B031
330
1B021
100
AcDbEntity
  8
DEFPOINTS
  6
CONTINUOUS
 62
     0
 48
5.0
100
AcDbPoint
 10
-1305.662276325235
 20
1038.665494658842
 30
0.0
  0
POINT
  5
1B032
330
1B021
100
AcDbEntity
  8
DEFPOINTS
  6
CONTINUOUS
 62
     0
 48
5.0
100
AcDbPoint
 10
-1278.919640488838
 20
991.1575940460934
 30
0.0
  0
POINT
  5
1B033
330
1B021
100
AcDbEntity
  8
DEFPOINTS
  6
CONTINUOUS
 62
     0
 48
5.0
100
AcDbPoint
 10
-1367.978192501871
 20
991.1575940460902
 30
0.0
  0
POINT
  5
1B034
330
1B021
100
AcDbEntity
  8
DEFPOINTS
  6
CONTINUOUS
 62
     0
 48
5.0
100
AcDbPoint
 10
-1371.587543446497
 20
1009.303026590961
 30
0.0
  0
POINT
  5
1B035
330
1B021
100
AcDbEntity
  8
DEFPOINTS
  6
CONTINUOUS
 62
     0
 48
5.0
100
AcDbPoint
 10
-1275.310289544208
 20
1009.303026590963
 30
0.0
  0
ENDBLK
  5
1B02C
330
1B021
100
AcDbEntity
  8
0
 48
5.0
100
AcDbBlockEnd
  0
ENDSEC
  0
SECTION
  2
ENTITIES
  0
LINE
  5
1B734
330
1F
100
AcDbEntity
  8
外形線
100
AcDbLine
 10
-611.0313583906595
 20
873.9517009596035
 30
0.0
 11
-617.031358390659
 21
873.9517009596035
 31
0.0
  0
LINE
  5
1B735
330
1F
100
AcDbEntity
  8
外形線
100
AcDbLine
 10
-617.031358390659
 20
860.9442048624968
 30
0.0
 11
-611.0313583906595
 21
860.9442048624968
 31
0.0
  0
LINE
  5
1B736
330
1F
100
AcDbEntity
  8
外形線
100
AcDbLine
 10
-617.031358390659
 20
864.2221276804745
 30
0.0
 11
-611.0313583906595
 21
864.2221276804745
 31
0.0
  0
LINE
  5
1B737
330
1F
100
AcDbEntity
  8
外形線
100
AcDbLine
 10
-617.031358390659
 20
841.6434075830263
 30
0.0
 11
-611.0313583906595
 21
841.6434075830263
 31
0.0
  0
LINE
  5
1B738
330
1F
100
AcDbEntity
  8
中心線
100
AcDbLine
 10
-496.3354781201924
 20
851.2938062227611
 30
0.0
 11
-626.3294176797996
 21
851.2938062227611
 31
0.0
  0
LINE
  5
1B739
330
1F
100
AcDbEntity
  8
外形線
100
AcDbLine
 10
-617.031358390659
 20
838.3654847650483
 30
0.0
 11
-611.0313583906595
 21
838.3654847650483
 31
0.0
  0
LINE
  5
1B73A
330
1F
100
AcDbEntity
  8
外形線
100
AcDbLine
 10
-611.0313583906595
 20
828.6359114859198
 30
0.0
 11
-617.031358390659
 21
828.6359114859198
 31
0.0
  0
LINE
  5
1B73B
330
1F
100
AcDbEntity
  8
外形線
100
AcDbLine
 10
-617.0313583906583
 20
706.8115192504136
 30
0.0
 11
-614.6413583906573
 21
706.8115192504136
 31
0.0
  0
LINE
  5
1B73C
330
1F
100
AcDbEntity
  8
外形線
100
AcDbLine
 10
-615.4613583906598
 20
689.9938062227612
 30
0.0
 11
-610.7113583906603
 21
689.9938062227612
 31
0.0
  0
LINE
  5
1B73D
330
1F
100
AcDbEntity
  8
外形線
100
AcDbLine
 10
-615.4613583906598
 20
664.5938062227611
 30
0.0
 11
-610.7113583906595
 21
664.5938062227614
 31
0.0
  0
LINE
  5
1B73E
330
1F
100
AcDbEntity
  8
中心線
100
AcDbLine
 10
-553.6161363758342
 20
689.3515198821602
 30
0.0
 11
-628.2099647447014
 21
689.3515198821595
 31
0.0
  0
LINE
  5
1B73F
330
1F
100
AcDbEntity
  8
中心線
100
AcDbLine
 10
-553.6161363758342
 20
677.2938062227623
 30
0.0
 11
-628.2099647447014
 21
677.2938062227609
 31
0.0
  0
LINE
  5
1B740
330
1F
100
AcDbEntity
  8
中心線
100
AcDbLine
 10
-801.3204246781807
 20
767.2938062227609
 30
0.0
 11
-609.8156784045245
 21
767.2938062227609
 31
0.0
  0
LINE
  5
1B741
330
1F
100
AcDbEntity
  8
外形線
100
AcDbLine
 10
-661.0313583906584
 20
452.2938062227612
 30
0.0
 11
-661.0313583906629
 21
767.2938062227609
 31
0.0
  0
LINE
  5
1B742
330
1F
100
AcDbEntity
  8
外形線
100
AcDbLine
 10
-621.031358390659
 20
452.2938062227614
 30
0.0
 11
-621.0313583906589
 21
767.2938062227609
 31
0.0
  0
LINE
  5
1B743
330
1F
100
AcDbEntity
  8
外形線
100
AcDbLine
 10
-617.031358390659
 20
627.2938062227614
 30
0.0
 11
-617.031358390659
 21
767.2938062227609
 31
0.0
  0
LINE
  5
1B744
330
1F
100
AcDbEntity
  8
中心線
100
AcDbLine
 10
-1323.448916495343
 20
1120.729963816566
 30
0.0
 11
-1323.448916495343
 21
410.4664318918331
 31
0.0
  0
CIRCLE
  5
1B745
330
1F
100
AcDbEntity
  8
外形線
100
AcDbCircle
 10
-1323.448916495343
 20
767.2938062227609
 30
0.0
 40
224.999999999999
  0
LINE
  5
1B746
330
1F
100
AcDbEntity
  8
外形線
100
AcDbLine
 10
-786.0313583906588
 20
454.2938062227611
 30
0.0
 11
-786.0313583906568
 21
767.2938062227609
 31
0.0
  0
LINE
  5
1B747
330
1F
100
AcDbEntity
  8
外形線
100
AcDbLine
 10
-788.031358390659
 20
454.2938062227611
 30
0.0
 11
-788.0313583906568
 21
767.2938062227609
 31
0.0
  0
LINE
  5
1B748
330
1F
100
AcDbEntity
  8
外形線
100
AcDbLine
 10
-792.0313583906587
 20
517.7938062227627
 30
0.0
 11
-792.0313583906565
 21
767.2938062227609
 31
0.0
  0
LINE
  5
1B749
330
1F
100
AcDbEntity
  8
外形線
100
AcDbLine
 10
-796.0313583906587
 20
542.7938062227623
 30
0.0
 11
-796.0313583906587
 21
767.2938062227609
 31
0.0
  0
CIRCLE
  5
1B74A
330
1F
100
AcDbEntity
  8
細線
100
AcDbCircle
 10
-1323.448916495343
 20
767.2938062227609
 30
0.0
 40
313.0000000000001
  0
CIRCLE
  5
1B74B
330
1F
100
AcDbEntity
  8
外形線
100
AcDbCircle
 10
-1323.448916495343
 20
767.2938062227609
 30
0.0
 40
150.0
  0
CIRCLE
  5
1B74C
330
1F
100
AcDbEntity
  8
中心線
100
AcDbCircle
 10
-1323.448916495343
 20
767.2938062227609
 30
0.0
 40
200.0
  0
CIRCLE
  5
1B74D
330
1F
100
AcDbEntity
  8
外形線
100
AcDbCircle
 10
-1323.448916495343
 20
767.2938062227609
 30
0.0
 40
249.9999999999985
  0
CIRCLE
  5
1B74E
330
1F
100
AcDbEntity
  8
外形線
100
AcDbCircle
 10
-1323.448916495343
 20
767.2938062227609
 30
0.0
 40
315.0000000000001
  0
CIRCLE
  5
1B74F
330
1F
100
AcDbEntity
  8
細線
100
AcDbCircle
 10
-1589.318715457166
 20
613.7938062227605
 30
0.0
 40
4.7
  0
ARC
  5
1B750
330
1F
100
AcDbEntity
  8
細線
100
AcDbCircle
 10
-1588.586664649597
 20
616.5258570303291
 30
0.0
 40
1.5
100
AcDbArc
 50
209.9999999999993
 51
299.9999999999965
  0
ARC
  5
1B751
330
1F
100
AcDbEntity
  8
細線
100
AcDbCircle
 10
-1586.586664649596
 20
613.0617554151911
 30
0.0
 40
1.5
100
AcDbArc
 50
119.9999999999965
 51
209.9999999999993
  0
LINE
  5
1B752
330
1F
100
AcDbEntity
  8
細線
100
AcDbLine
 10
-1587.500062109218
 20
614.8438062227604
 30
0.0
 11
-1587.750062109217
 21
615.2768189246527
 31
0.0
  0
LINE
  5
1B753
330
1F
100
AcDbEntity
  8
細線
100
AcDbLine
 10
-1587.750062109217
 20
615.2768189246527
 30
0.0
 11
-1587.836664649597
 21
615.2268189246529
 31
0.0
  0
LINE
  5
1B754
330
1F
100
AcDbEntity
  8
細線
100
AcDbLine
 10
-1587.500062109218
 20
614.8438062227604
 30
0.0
 11
-1587.250062109218
 21
614.4107935208682
 31
0.0
  0
LINE
  5
1B755
330
1F
100
AcDbEntity
  8
細線
100
AcDbLine
 10
-1587.250062109218
 20
614.4107935208682
 30
0.0
 11
-1587.336664649596
 21
614.3607935208684
 31
0.0
  0
ARC
  5
1B756
330
1F
100
AcDbEntity
  8
細線
100
AcDbCircle
 10
-1590.050766264734
 20
611.0617554151914
 30
0.0
 40
1.5
100
AcDbArc
 50
29.99999999999932
 51
119.9999999999965
  0
LINE
  5
1B757
330
1F
100
AcDbEntity
  8
細線
100
AcDbLine
 10
-1590.751728159058
 20
615.2758570303293
 30
0.0
 11
-1590.801728159058
 21
615.3624595707079
 31
0.0
  0
LINE
  5
1B758
330
1F
100
AcDbEntity
  8
細線
100
AcDbLine
 10
-1590.801728159058
 20
615.3624595707079
 30
0.0
 11
-1590.368715457165
 21
615.612459570708
 31
0.0
  0
LINE
  5
1B759
330
1F
100
AcDbEntity
  8
細線
100
AcDbLine
 10
-1589.885702755273
 20
615.7758570303293
 30
0.0
 11
-1589.935702755272
 21
615.8624595707079
 31
0.0
  0
LINE
  5
1B75A
330
1F
100
AcDbEntity
  8
細線
100
AcDbLine
 10
-1589.935702755272
 20
615.8624595707079
 30
0.0
 11
-1590.368715457165
 21
615.612459570708
 31
0.0
  0
ARC
  5
1B75B
330
1F
100
AcDbEntity
  8
細線
100
AcDbCircle
 10
-1592.050766264734
 20
614.525857030329
 30
0.0
 40
1.5
100
AcDbArc
 50
299.9999999999965
 51
29.99999999999932
  0
LINE
  5
1B75C
330
1F
100
AcDbEntity
  8
細線
100
AcDbLine
 10
-1591.137368805113
 20
612.7438062227607
 30
0.0
 11
-1591.387368805113
 21
613.1768189246528
 31
0.0
  0
LINE
  5
1B75D
330
1F
100
AcDbEntity
  8
細線
100
AcDbLine
 10
-1591.387368805113
 20
613.1768189246528
 30
0.0
 11
-1591.300766264734
 21
613.2268189246527
 31
0.0
  0
LINE
  5
1B75E
330
1F
100
AcDbEntity
  8
細線
100
AcDbLine
 10
-1590.887368805113
 20
612.3107935208683
 30
0.0
 11
-1590.800766264734
 21
612.3607935208684
 31
0.0
  0
LINE
  5
1B75F
330
1F
100
AcDbEntity
  8
細線
100
AcDbLine
 10
-1591.137368805113
 20
612.7438062227607
 30
0.0
 11
-1590.887368805113
 21
612.3107935208683
 31
0.0
  0
LINE
  5
1B760
330
1F
100
AcDbEntity
  8
細線
100
AcDbLine
 10
-1587.885702755273
 20
612.3117554151918
 30
0.0
 11
-1587.835702755273
 21
612.2251528748132
 31
0.0
  0
LINE
  5
1B761
330
1F
100
AcDbEntity
  8
細線
100
AcDbLine
 10
-1588.701728159058
 20
611.7251528748132
 30
0.0
 11
-1588.268715457165
 21
611.9751528748132
 31
0.0
  0
LINE
  5
1B762
330
1F
100
AcDbEntity
  8
細線
100
AcDbLine
 10
-1587.835702755273
 20
612.2251528748132
 30
0.0
 11
-1588.268715457165
 21
611.9751528748132
 31
0.0
  0
LINE
  5
1B763
330
1F
100
AcDbEntity
  8
細線
100
AcDbLine
 10
-1588.751728159058
 20
611.8117554151914
 30
0.0
 11
-1588.701728159058
 21
611.7251528748132
 31
0.0
  0
LINE
  5
1B764
330
1F
100
AcDbEntity
  8
想像線
 48
0.5
100
AcDbLine
 10
-1285.948916495344
 20
453.7938062227609
 30
0.0
 11
-1285.948916495344
 21
441.793806222761
 31
0.0
  0
LINE
  5
1B765
330
1F
100
AcDbEntity
  8
中心線
100
AcDbLine
 10
-1303.448916495344
 20
421.4405708047185
 30
0.0
 11
-1303.448916495344
 21
459.4733720798077
 31
0.0
  0
LINE
  5
1B766
330
1F
100
AcDbEntity
  8
想像線
 48
0.5
100
AcDbLine
 10
-1360.948916495344
 20
441.793806222761
 30
0.0
 11
-1360.948916495344
 21
453.7938062227609
 31
0.0
  0
LINE
  5
1B767
330
1F
100
AcDbEntity
  8
中心線
100
AcDbLine
 10
-1343.448916495344
 20
421.4405708047185
 30
0.0
 11
-1343.448916495344
 21
459.4733720798077
 31
0.0
  0
LINE
  5
1B768
330
1F
100
AcDbEntity
  8
想像線
 48
0.5
100
AcDbLine
 10
-1355.448916495344
 20
439.2938062227609
 30
0.0
 11
-1331.448916495344
 21
439.2938062227609
 31
0.0
  0
LINE
  5
1B769
330
1F
100
AcDbEntity
  8
想像線
 48
0.5
100
AcDbLine
 10
-1354.198916495344
 20
436.2938062227609
 30
0.0
 11
-1332.698916495344
 21
436.2938062227613
 31
0.0
  0
LINE
  5
1B76A
330
1F
100
AcDbEntity
  8
想像線
 48
0.5
100
AcDbLine
 10
-1335.448916495344
 20
424.2938062227612
 30
0.0
 11
-1351.448916495342
 21
424.2938062227612
 31
0.0
  0
LINE
  5
1B76B
330
1F
100
AcDbEntity
  8
想像線
 48
0.5
100
AcDbLine
 10
-1285.948916495344
 20
441.793806222761
 30
0.0
 11
-1360.948916495344
 21
441.793806222761
 31
0.0
  0
LINE
  5
1B76C
330
1F
100
AcDbEntity
  8
想像線
 48
0.5
100
AcDbLine
 10
-1352.448916495344
 20
425.2938062227611
 30
0.0
 11
-1351.448916495342
 21
424.2938062227612
 31
0.0
  0
LINE
  5
1B76D
330
1F
100
AcDbEntity
  8
想像線
 48
0.5
100
AcDbLine
 10
-1354.198916495344
 20
436.2938062227613
 30
0.0
 11
-1354.198916495344
 21
439.2938062227609
 31
0.0
  0
LINE
  5
1B76E
330
1F
100
AcDbEntity
  8
想像線
 48
0.5
100
AcDbLine
 10
-1355.448916495344
 20
439.2938062227609
 30
0.0
 11
-1355.448916495344
 21
441.793806222761
 31
0.0
  0
LINE
  5
1B76F
330
1F
100
AcDbEntity
  8
想像線
 48
0.5
100
AcDbLine
 10
-1352.448916495344
 20
425.2938062227618
 30
0.0
 11
-1352.448916495344
 21
436.2938062227613
 31
0.0
  0
LINE
  5
1B770
330
1F
100
AcDbEntity
  8
想像線
 48
0.5
100
AcDbLine
 10
-1292.698916495344
 20
436.2938062227609
 30
0.0
 11
-1314.198916495344
 21
436.2938062227613
 31
0.0
  0
LINE
  5
1B771
330
1F
100
AcDbEntity
  8
想像線
 48
0.5
100
AcDbLine
 10
-1291.448916495344
 20
439.2938062227609
 30
0.0
 11
-1315.448916495344
 21
439.2938062227609
 31
0.0
  0
LINE
  5
1B772
330
1F
100
AcDbEntity
  8
想像線
 48
0.5
100
AcDbLine
 10
-1311.448916495344
 20
424.2938062227612
 30
0.0
 11
-1295.448916495344
 21
424.2938062227612
 31
0.0
  0
LINE
  5
1B773
330
1F
100
AcDbEntity
  8
想像線
 48
0.5
100
AcDbLine
 10
-1334.448916495344
 20
425.2938062227611
 30
0.0
 11
-1335.448916495344
 21
424.2938062227612
 31
0.0
  0
LINE
  5
1B774
330
1F
100
AcDbEntity
  8
想像線
 48
0.5
100
AcDbLine
 10
-1331.448916495344
 20
439.2938062227609
 30
0.0
 11
-1331.448916495344
 21
441.793806222761
 31
0.0
  0
LINE
  5
1B775
330
1F
100
AcDbEntity
  8
想像線
 48
0.5
100
AcDbLine
 10
-1332.698916495344
 20
436.2938062227613
 30
0.0
 11
-1332.698916495344
 21
439.2938062227609
 31
0.0
  0
LINE
  5
1B776
330
1F
100
AcDbEntity
  8
想像線
 48
0.5
100
AcDbLine
 10
-1334.448916495344
 20
425.2938062227611
 30
0.0
 11
-1334.448916495344
 21
436.2938062227613
 31
0.0
  0
LINE
  5
1B777
330
1F
100
AcDbEntity
  8
想像線
 48
0.5
100
AcDbLine
 10
-1312.448916495344
 20
425.2938062227611
 30
0.0
 11
-1311.448916495344
 21
424.2938062227612
 31
0.0
  0
LINE
  5
1B778
330
1F
100
AcDbEntity
  8
想像線
 48
0.5
100
AcDbLine
 10
-1314.198916495344
 20
436.2938062227613
 30
0.0
 11
-1314.198916495344
 21
439.2938062227609
 31
0.0
  0
LINE
  5
1B779
330
1F
100
AcDbEntity
  8
想像線
 48
0.5
100
AcDbLine
 10
-1315.448916495344
 20
439.2938062227609
 30
0.0
 11
-1315.448916495344
 21
441.793806222761
 31
0.0
  0
LINE
  5
1B77A
330
1F
100
AcDbEntity
  8
想像線
 48
0.5
100
AcDbLine
 10
-1312.448916495344
 20
425.2938062227611
 30
0.0
 11
-1312.448916495344
 21
436.2938062227613
 31
0.0
  0
LINE
  5
1B77B
330
1F
100
AcDbEntity
  8
想像線
 48
0.5
100
AcDbLine
 10
-1294.448916495344
 20
425.2938062227611
 30
0.0
 11
-1295.448916495344
 21
424.2938062227612
 31
0.0
  0
LINE
  5
1B77C
330
1F
100
AcDbEntity
  8
想像線
 48
0.5
100
AcDbLine
 10
-1292.698916495344
 20
436.2938062227613
 30
0.0
 11
-1292.698916495344
 21
439.2938062227609
 31
0.0
  0
LINE
  5
1B77D
330
1F
100
AcDbEntity
  8
想像線
 48
0.5
100
AcDbLine
 10
-1291.448916495344
 20
439.2938062227609
 30
0.0
 11
-1291.448916495344
 21
441.793806222761
 31
0.0
  0
LINE
  5
1B77E
330
1F
100
AcDbEntity
  8
想像線
 48
0.5
100
AcDbLine
 10
-1294.448916495344
 20
425.2938062227618
 30
0.0
 11
-1294.448916495344
 21
436.2938062227613
 31
0.0
  0
CIRCLE
  5
1B77F
330
1F
100
AcDbEntity
  8
細線
100
AcDbCircle
 10
-1476.948916495341
 20
501.4240072609378
 30
0.0
 40
4.7
  0
ARC
  5
1B780
330
1F
100
AcDbEntity
  8
細線
100
AcDbCircle
 10
-1477.68096730291
 20
504.1560580685066
 30
0.0
 40
1.5
100
AcDbArc
 50
240.0000000000033
 51
330.0000000000006
  0
ARC
  5
1B781
330
1F
100
AcDbEntity
  8
細線
100
AcDbCircle
 10
-1474.216865687772
 20
502.1560580685068
 30
0.0
 40
1.5
100
AcDbArc
 50
150.0000000000006
 51
240.0000000000033
  0
LINE
  5
1B782
330
1F
100
AcDbEntity
  8
細線
100
AcDbLine
 10
-1475.898916495341
 20
503.2426606088851
 30
0.0
 11
-1476.331929197234
 21
503.4926606088848
 31
0.0
  0
LINE
  5
1B783
330
1F
100
AcDbEntity
  8
細線
100
AcDbLine
 10
-1476.331929197234
 20
503.4926606088848
 30
0.0
 11
-1476.381929197235
 21
503.4060580685069
 31
0.0
  0
LINE
  5
1B784
330
1F
100
AcDbEntity
  8
細線
100
AcDbLine
 10
-1475.898916495341
 20
503.2426606088851
 30
0.0
 11
-1475.465903793451
 21
502.9926606088849
 31
0.0
  0
LINE
  5
1B785
330
1F
100
AcDbEntity
  8
細線
100
AcDbLine
 10
-1475.465903793451
 20
502.9926606088849
 30
0.0
 11
-1475.51590379345
 21
502.9060580685069
 31
0.0
  0
LINE
  5
1B786
330
1F
100
AcDbEntity
  8
細線
100
AcDbLine
 10
-1478.93096730291
 20
501.9909945590458
 30
0.0
 11
-1479.01756984329
 21
502.040994559046
 31
0.0
  0
LINE
  5
1B787
330
1F
100
AcDbEntity
  8
細線
100
AcDbLine
 10
-1479.01756984329
 20
502.040994559046
 30
0.0
 11
-1478.76756984329
 21
502.474007260938
 31
0.0
  0
LINE
  5
1B788
330
1F
100
AcDbEntity
  8
細線
100
AcDbLine
 10
-1478.43096730291
 20
502.8570199628298
 30
0.0
 11
-1478.51756984329
 21
502.9070199628303
 31
0.0
  0
LINE
  5
1B789
330
1F
100
AcDbEntity
  8
細線
100
AcDbLine
 10
-1478.51756984329
 20
502.9070199628303
 30
0.0
 11
-1478.76756984329
 21
502.474007260938
 31
0.0
  0
ARC
  5
1B78A
330
1F
100
AcDbEntity
  8
細線
100
AcDbCircle
 10
-1479.68096730291
 20
500.6919564533689
 30
0.0
 40
1.5
100
AcDbArc
 50
330.0000000000006
 51
60.00000000000341
  0
LINE
  5
1B78B
330
1F
100
AcDbEntity
  8
細線
100
AcDbLine
 10
-1478.431929197234
 20
499.8553539129906
 30
0.0
 11
-1478.381929197235
 21
499.941956453369
 31
0.0
  0
LINE
  5
1B78C
330
1F
100
AcDbEntity
  8
細線
100
AcDbLine
 10
-1474.966865687773
 20
500.8570199628299
 30
0.0
 11
-1474.880263147394
 21
500.8070199628299
 31
0.0
  0
LINE
  5
1B78D
330
1F
100
AcDbEntity
  8
細線
100
AcDbLine
 10
-1475.380263147393
 20
499.9409945590456
 30
0.0
 11
-1475.130263147395
 21
500.3740072609376
 31
0.0
  0
LINE
  5
1B78E
330
1F
100
AcDbEntity
  8
細線
100
AcDbLine
 10
-1474.880263147394
 20
500.8070199628299
 30
0.0
 11
-1475.130263147395
 21
500.3740072609376
 31
0.0
  0
LINE
  5
1B78F
330
1F
100
AcDbEntity
  8
細線
100
AcDbLine
 10
-1475.466865687774
 20
499.9909945590458
 30
0.0
 11
-1475.380263147393
 21
499.9409945590456
 31
0.0
  0
LINE
  5
1B790
330
1F
100
AcDbEntity
  8
細線
100
AcDbLine
 10
-1477.56590379345
 20
499.3553539129903
 30
0.0
 11
-1477.51590379345
 21
499.441956453369
 31
0.0
  0
LINE
  5
1B791
330
1F
100
AcDbEntity
  8
細線
100
AcDbLine
 10
-1477.998916495341
 20
499.6053539129905
 30
0.0
 11
-1477.56590379345
 21
499.3553539129903
 31
0.0
  0
ARC
  5
1B792
330
1F
100
AcDbEntity
  8
細線
100
AcDbCircle
 10
-1476.216865687774
 20
498.6919564533692
 30
0.0
 40
1.5
100
AcDbArc
 50
60.00000000000341
 51
150.0000000000006
  0
LINE
  5
1B793
330
1F
100
AcDbEntity
  8
細線
100
AcDbLine
 10
-1477.998916495341
 20
499.6053539129905
 30
0.0
 11
-1478.431929197234
 21
499.8553539129906
 31
0.0
  0
LINE
  5
1B794
330
1F
100
AcDbEntity
  8
外形線
100
AcDbLine
 10
-1520.644103046533
 20
631.0914943652139
 30
0.0
 11
-1524.467928858862
 21
632.9771963458121
 31
0.0
  0
LINE
  5
1B795
330
1F
100
AcDbEntity
  8
外形線
100
AcDbLine
 10
-1521.201796299524
 20
639.6002570540953
 30
0.0
 11
-1524.746775024851
 21
637.2315779979532
 31
0.0
  0
CIRCLE
  5
1B796
330
1F
100
AcDbEntity
  8
外形線
100
AcDbCircle
 10
-1520.922949417192
 20
635.3458758805992
 30
0.0
 40
8.0
  0
LINE
  5
1B797
330
1F
100
AcDbEntity
  8
外形線
100
AcDbLine
 10
-1524.467928142519
 20
632.9771968244569
 30
0.0
 11
-1524.746774922516
 21
637.2315780663308
 31
0.0
  0
LINE
  5
1B798
330
1F
100
AcDbEntity
  8
外形線
100
AcDbLine
 10
-1517.377970691864
 20
637.7145549367416
 30
0.0
 11
-1521.201796401858
 21
639.6002569857174
 31
0.0
  0
LINE
  5
1B799
330
1F
100
AcDbEntity
  8
外形線
100
AcDbLine
 10
-1517.377969975518
 20
637.714555415387
 30
0.0
 11
-1517.099123297859
 21
633.4601741051352
 31
0.0
  0
LINE
  5
1B79A
330
1F
100
AcDbEntity
  8
外形線
100
AcDbLine
 10
-1517.099123809532
 20
633.4601737632453
 30
0.0
 11
-1520.64410253486
 21
631.0914947071033
 31
0.0
  0
LINE
  5
1B79B
330
1F
100
AcDbEntity
  8
外形線
100
AcDbLine
 10
-1453.028167302701
 20
573.3647527425743
 30
0.0
 11
-1451.142465322105
 21
569.5409269302455
 31
0.0
  0
LINE
  5
1B79C
330
1F
100
AcDbEntity
  8
外形線
100
AcDbLine
 10
-1457.282548954845
 20
573.6435989085622
 30
0.0
 11
-1459.651228010985
 21
570.0986201832348
 31
0.0
  0
CIRCLE
  5
1B79D
330
1F
100
AcDbEntity
  8
外形線
100
AcDbCircle
 10
-1455.396846837491
 20
569.8197733009029
 30
0.0
 40
8.0
  0
LINE
  5
1B79E
330
1F
100
AcDbEntity
  8
外形線
100
AcDbLine
 10
-1453.511145062025
 20
565.9959471815703
 30
0.0
 11
-1457.765526372278
 21
566.2747938592327
 31
0.0
  0
LINE
  5
1B79F
330
1F
100
AcDbEntity
  8
外形線
100
AcDbLine
 10
-1457.765525893633
 20
566.2747945755755
 30
0.0
 11
-1459.651227942609
 21
570.0986202855696
 31
0.0
  0
LINE
  5
1B7A0
330
1F
100
AcDbEntity
  8
外形線
100
AcDbLine
 10
-1451.142465663995
 20
569.5409264185713
 30
0.0
 11
-1453.511144720136
 21
565.9959476932441
 31
0.0
  0
LINE
  5
1B7A1
330
1F
100
AcDbEntity
  8
外形線
100
AcDbLine
 10
-1453.028167781348
 20
573.3647520262308
 30
0.0
 11
-1457.282549023222
 21
573.6435988062273
 31
0.0
  0
CIRCLE
  5
1B7A2
330
1F
100
AcDbEntity
  8
細線
100
AcDbCircle
 10
-1464.870272732652
 20
625.8724499854523
 30
0.0
 40
8.0
  0
LINE
  5
1B7A3
330
1F
100
AcDbEntity
  8
中心線
100
AcDbLine
 10
-1456.001358393604
 20
634.7413643244983
 30
0.0
 11
-1473.7391870717
 21
617.0035356464053
 31
0.0
  0
CIRCLE
  5
1B7A4
330
1F
100
AcDbEntity
  8
細線
100
AcDbCircle
 10
-1464.870272732652
 20
625.8724499854516
 30
0.0
 40
8.0
  0
CIRCLE
  5
1B7A5
330
1F
100
AcDbEntity
  8
外形線
100
AcDbCircle
 10
-1464.870272732652
 20
625.8724499854516
 30
0.0
 40
6.400000000000241
  0
CIRCLE
  5
1B7A6
330
1F
100
AcDbEntity
  8
外形線
100
AcDbCircle
 10
-1464.870272732653
 20
625.8724499854516
 30
0.0
 40
6.400000000000241
  0
CIRCLE
  5
1B7A7
330
1F
100
AcDbEntity
  8
外形線
100
AcDbCircle
 10
-1464.870272732653
 20
625.8724499854516
 30
0.0
 40
8.0
  0
LINE
  5
1B7A8
330
1F
100
AcDbEntity
  8
想像線
 48
0.5
100
AcDbLine
 10
-1360.948916495344
 20
453.7938062227609
 30
0.0
 11
-1285.948916495344
 21
453.7938062227609
 31
0.0
  0
CIRCLE
  5
1B7A9
330
1F
100
AcDbEntity
  8
外形線
100
AcDbCircle
 10
-1369.782867974165
 20
534.3573021269937
 30
0.0
 40
8.0
  0
LINE
  5
1B7AA
330
1F
100
AcDbEntity
  8
外形線
100
AcDbLine
 10
-1366.577391795279
 20
531.5461742673115
 30
0.0
 11
-1370.61463761503
 21
530.1757137631153
 31
0.0
  0
LINE
  5
1B7AB
330
1F
100
AcDbEntity
  8
外形線
100
AcDbLine
 10
-1370.614637446952
 20
530.1757146080998
 30
0.0
 11
-1373.820113721883
 21
532.9868419849336
 31
0.0
  0
LINE
  5
1B7AC
330
1F
100
AcDbEntity
  8
外形線
100
AcDbLine
 10
-1368.951098501376
 20
538.5388896458874
 30
0.0
 11
-1372.988344297116
 21
537.1684292624035
 31
0.0
  0
LINE
  5
1B7AD
330
1F
100
AcDbEntity
  8
外形線
100
AcDbLine
 10
-1368.951098333299
 20
538.5388904908722
 30
0.0
 11
-1365.74562208238
 21
535.7277629933256
 31
0.0
  0
LINE
  5
1B7AE
330
1F
100
AcDbEntity
  8
外形線
100
AcDbLine
 10
-1365.745622202435
 20
535.7277623897654
 30
0.0
 11
-1366.577391675223
 21
531.5461748708718
 31
0.0
  0
LINE
  5
1B7AF
330
1F
100
AcDbEntity
  8
外形線
100
AcDbLine
 10
-1372.988344273106
 20
537.1684293831152
 30
0.0
 11
-1373.820113745894
 21
532.9868418642214
 31
0.0
  0
ARC
  5
1B7B0
330
1F
100
AcDbEntity
  8
細線
100
AcDbCircle
 10
-1321.44891649534
 20
462.2938062227611
 30
0.0
 40
1.5
100
AcDbArc
 50
180.0
 51
270.0
  0
CIRCLE
  5
1B7B1
330
1F
100
AcDbEntity
  8
細線
100
AcDbCircle
 10
-1323.448916495342
 20
460.2938062227609
 30
0.0
 40
4.7
  0
ARC
  5
1B7B2
330
1F
100
AcDbEntity
  8
細線
100
AcDbCircle
 10
-1321.44891649534
 20
458.2938062227611
 30
0.0
 40
1.5
100
AcDbArc
 50
90.0
 51
180.0
  0
ARC
  5
1B7B3
330
1F
100
AcDbEntity
  8
細線
100
AcDbCircle
 10
-1325.448916495342
 20
462.2938062227611
 30
0.0
 40
1.5
100
AcDbArc
 50
270.0
 51
0.0
  0
LINE
  5
1B7B4
330
1F
100
AcDbEntity
  8
細線
100
AcDbLine
 10
-1323.448916495342
 20
462.3938062227608
 30
0.0
 11
-1323.948916495341
 21
462.3938062227608
 31
0.0
  0
LINE
  5
1B7B5
330
1F
100
AcDbEntity
  8
細線
100
AcDbLine
 10
-1323.948916495341
 20
462.3938062227608
 30
0.0
 11
-1323.948916495341
 21
462.2938062227611
 31
0.0
  0
LINE
  5
1B7B6
330
1F
100
AcDbEntity
  8
細線
100
AcDbLine
 10
-1323.448916495342
 20
462.3938062227608
 30
0.0
 11
-1322.94891649534
 21
462.3938062227608
 31
0.0
  0
LINE
  5
1B7B7
330
1F
100
AcDbEntity
  8
細線
100
AcDbLine
 10
-1322.94891649534
 20
462.3938062227608
 30
0.0
 11
-1322.94891649534
 21
462.2938062227611
 31
0.0
  0
LINE
  5
1B7B8
330
1F
100
AcDbEntity
  8
細線
100
AcDbLine
 10
-1325.448916495342
 20
459.7938062227611
 30
0.0
 11
-1325.548916495342
 21
459.7938062227611
 31
0.0
  0
LINE
  5
1B7B9
330
1F
100
AcDbEntity
  8
細線
100
AcDbLine
 10
-1325.548916495342
 20
459.7938062227611
 30
0.0
 11
-1325.548916495342
 21
460.2938062227612
 31
0.0
  0
LINE
  5
1B7BA
330
1F
100
AcDbEntity
  8
細線
100
AcDbLine
 10
-1325.448916495342
 20
460.7938062227612
 30
0.0
 11
-1325.548916495342
 21
460.7938062227612
 31
0.0
  0
LINE
  5
1B7BB
330
1F
100
AcDbEntity
  8
細線
100
AcDbLine
 10
-1325.548916495342
 20
460.7938062227612
 30
0.0
 11
-1325.548916495342
 21
460.2938062227612
 31
0.0
  0
ARC
  5
1B7BC
330
1F
100
AcDbEntity
  8
細線
100
AcDbCircle
 10
-1325.448916495342
 20
458.2938062227611
 30
0.0
 40
1.5
100
AcDbArc
 50
0.0
 51
90.0
  0
LINE
  5
1B7BD
330
1F
100
AcDbEntity
  8
細線
100
AcDbLine
 10
-1323.448916495342
 20
458.1938062227613
 30
0.0
 11
-1323.948916495341
 21
458.1938062227613
 31
0.0
  0
LINE
  5
1B7BE
330
1F
100
AcDbEntity
  8
細線
100
AcDbLine
 10
-1323.948916495341
 20
458.1938062227613
 30
0.0
 11
-1323.948916495341
 21
458.2938062227611
 31
0.0
  0
LINE
  5
1B7BF
330
1F
100
AcDbEntity
  8
細線
100
AcDbLine
 10
-1322.94891649534
 20
458.1938062227613
 30
0.0
 11
-1322.94891649534
 21
458.2938062227611
 31
0.0
  0
LINE
  5
1B7C0
330
1F
100
AcDbEntity
  8
細線
100
AcDbLine
 10
-1323.448916495342
 20
458.1938062227613
 30
0.0
 11
-1322.94891649534
 21
458.1938062227613
 31
0.0
  0
LINE
  5
1B7C1
330
1F
100
AcDbEntity
  8
細線
100
AcDbLine
 10
-1321.44891649534
 20
460.7938062227612
 30
0.0
 11
-1321.348916495342
 21
460.7938062227612
 31
0.0
  0
LINE
  5
1B7C2
330
1F
100
AcDbEntity
  8
細線
100
AcDbLine
 10
-1321.348916495342
 20
459.7938062227611
 30
0.0
 11
-1321.348916495342
 21
460.2938062227612
 31
0.0
  0
LINE
  5
1B7C3
330
1F
100
AcDbEntity
  8
細線
100
AcDbLine
 10
-1321.348916495342
 20
460.7938062227612
 30
0.0
 11
-1321.348916495342
 21
460.2938062227612
 31
0.0
  0
LINE
  5
1B7C4
330
1F
100
AcDbEntity
  8
細線
100
AcDbLine
 10
-1321.44891649534
 20
459.7938062227611
 30
0.0
 11
-1321.348916495342
 21
459.7938062227611
 31
0.0
  0
CIRCLE
  5
1B7C5
330
1F
100
AcDbEntity
  8
細線
100
AcDbCircle
 10
-1323.448916495343
 20
529.7938062227632
 30
0.0
 40
4.0
  0
CIRCLE
  5
1B7C6
330
1F
100
AcDbEntity
  8
0
100
AcDbCircle
 10
-1323.448916495343
 20
529.7938062227632
 30
0.0
 40
3.20000000000012
  0
CIRCLE
  5
1B7C7
330
1F
100
AcDbEntity
  8
外形線
100
AcDbCircle
 10
-1277.114965016505
 20
534.3573021269968
 30
0.0
 40
8.0
  0
LINE
  5
1B7C8
330
1F
100
AcDbEntity
  8
外形線
100
AcDbLine
 10
-1273.07771912472
 20
532.9868412606648
 30
0.0
 11
-1276.283195375638
 21
530.1757137631185
 31
0.0
  0
LINE
  5
1B7C9
330
1F
100
AcDbEntity
  8
外形線
100
AcDbLine
 10
-1277.946734657371
 20
538.5388904908751
 30
0.0
 11
-1273.909488837619
 21
537.1684299866789
 31
0.0
  0
LINE
  5
1B7CA
330
1F
100
AcDbEntity
  8
外形線
100
AcDbLine
 10
-1273.909488717563
 20
537.1684293831187
 30
0.0
 11
-1273.077719244775
 21
532.986841864225
 31
0.0
  0
LINE
  5
1B7CB
330
1F
100
AcDbEntity
  8
外形線
100
AcDbLine
 10
-1281.152210788234
 20
535.7277623897686
 30
0.0
 11
-1280.320441315444
 21
531.546174870875
 31
0.0
  0
LINE
  5
1B7CC
330
1F
100
AcDbEntity
  8
外形線
100
AcDbLine
 10
-1276.283195543716
 20
530.1757146081032
 30
0.0
 11
-1280.320441339456
 21
531.5461749915868
 31
0.0
  0
LINE
  5
1B7CD
330
1F
100
AcDbEntity
  8
外形線
100
AcDbLine
 10
-1277.946734489293
 20
538.5388896458908
 30
0.0
 11
-1281.152210764222
 21
535.7277622690568
 31
0.0
  0
CIRCLE
  5
1B7CE
330
1F
100
AcDbEntity
  8
細線
100
AcDbCircle
 10
-1323.448916495343
 20
567.2938062227623
 30
0.0
 40
8.0
  0
CIRCLE
  5
1B7CF
330
1F
100
AcDbEntity
  8
外形線
100
AcDbCircle
 10
-1323.448916495343
 20
567.2938062227614
 30
0.0
 40
6.400000000000241
  0
CIRCLE
  5
1B7D0
330
1F
100
AcDbEntity
  8
細線
100
AcDbCircle
 10
-1323.448916495343
 20
567.2938062227614
 30
0.0
 40
8.0
  0
ARC
  5
1B7D1
330
1F
100
AcDbEntity
  8
中心線
100
AcDbCircle
 10
-1323.448916495343
 20
767.2938062227623
 30
0.0
 40
137.4999999999995
100
AcDbArc
 50
265.990504276718
 51
274.0094957232819
  0
CIRCLE
  5
1B7D2
330
1F
100
AcDbEntity
  8
外形線
100
AcDbCircle
 10
-1323.448916495343
 20
629.7938062227623
 30
0.0
 40
4.800000000000181
  0
CIRCLE
  5
1B7D3
330
1F
100
AcDbEntity
  8
細線
100
AcDbCircle
 10
-1323.448916495343
 20
629.7938062227623
 30
0.0
 40
6.0
  0
CIRCLE
  5
1B7D4
330
1F
100
AcDbEntity
  8
細線
100
AcDbCircle
 10
-1169.948916495342
 20
501.4240072609385
 30
0.0
 40
4.7
  0
ARC
  5
1B7D5
330
1F
100
AcDbEntity
  8
細線
100
AcDbCircle
 10
-1172.680967302911
 20
502.1560580685074
 30
0.0
 40
1.5
100
AcDbArc
 50
299.9999999999965
 51
29.99999999999932
  0
ARC
  5
1B7D6
330
1F
100
AcDbEntity
  8
細線
100
AcDbCircle
 10
-1169.216865687773
 20
504.1560580685073
 30
0.0
 40
1.5
100
AcDbArc
 50
209.9999999999993
 51
299.9999999999965
  0
LINE
  5
1B7D7
330
1F
100
AcDbEntity
  8
細線
100
AcDbLine
 10
-1170.998916495342
 20
503.2426606088862
 30
0.0
 11
-1171.431929197234
 21
502.9926606088862
 31
0.0
  0
LINE
  5
1B7D8
330
1F
100
AcDbEntity
  8
細線
100
AcDbLine
 10
-1171.431929197234
 20
502.9926606088862
 30
0.0
 11
-1171.381929197235
 21
502.9060580685078
 31
0.0
  0
LINE
  5
1B7D9
330
1F
100
AcDbEntity
  8
細線
100
AcDbLine
 10
-1170.998916495342
 20
503.2426606088862
 30
0.0
 11
-1170.56590379345
 21
503.4926606088862
 31
0.0
  0
LINE
  5
1B7DA
330
1F
100
AcDbEntity
  8
細線
100
AcDbLine
 10
-1170.56590379345
 20
503.4926606088862
 30
0.0
 11
-1170.51590379345
 21
503.4060580685078
 31
0.0
  0
ARC
  5
1B7DB
330
1F
100
AcDbEntity
  8
細線
100
AcDbCircle
 10
-1167.216865687773
 20
500.6919564533697
 30
0.0
 40
1.5
100
AcDbArc
 50
119.9999999999965
 51
209.9999999999993
  0
LINE
  5
1B7DC
330
1F
100
AcDbEntity
  8
細線
100
AcDbLine
 10
-1171.430967302911
 20
499.9909945590466
 30
0.0
 11
-1171.51756984329
 21
499.9409945590465
 31
0.0
  0
LINE
  5
1B7DD
330
1F
100
AcDbEntity
  8
細線
100
AcDbLine
 10
-1171.51756984329
 20
499.9409945590465
 30
0.0
 11
-1171.76756984329
 21
500.3740072609385
 31
0.0
  0
LINE
  5
1B7DE
330
1F
100
AcDbEntity
  8
細線
100
AcDbLine
 10
-1171.930967302911
 20
500.857019962831
 30
0.0
 11
-1172.017569843289
 21
500.8070199628308
 31
0.0
  0
LINE
  5
1B7DF
330
1F
100
AcDbEntity
  8
細線
100
AcDbLine
 10
-1172.017569843289
 20
500.8070199628308
 30
0.0
 11
-1171.76756984329
 21
500.3740072609385
 31
0.0
  0
LINE
  5
1B7E0
330
1F
100
AcDbEntity
  8
細線
100
AcDbLine
 10
-1168.46590379345
 20
499.8553539129915
 30
0.0
 11
-1168.51590379345
 21
499.9419564533702
 31
0.0
  0
LINE
  5
1B7E1
330
1F
100
AcDbEntity
  8
細線
100
AcDbLine
 10
-1168.466865687773
 20
502.8570199628307
 30
0.0
 11
-1168.380263147394
 21
502.907019962831
 31
0.0
  0
LINE
  5
1B7E2
330
1F
100
AcDbEntity
  8
細線
100
AcDbLine
 10
-1167.880263147395
 20
502.0409945590464
 30
0.0
 11
-1168.130263147395
 21
502.4740072609389
 31
0.0
  0
LINE
  5
1B7E3
330
1F
100
AcDbEntity
  8
細線
100
AcDbLine
 10
-1168.380263147394
 20
502.907019962831
 30
0.0
 11
-1168.130263147395
 21
502.4740072609389
 31
0.0
  0
LINE
  5
1B7E4
330
1F
100
AcDbEntity
  8
細線
100
AcDbLine
 10
-1167.966865687773
 20
501.9909945590462
 30
0.0
 11
-1167.880263147395
 21
502.0409945590464
 31
0.0
  0
LINE
  5
1B7E5
330
1F
100
AcDbEntity
  8
細線
100
AcDbLine
 10
-1168.89891649534
 20
499.6053539129915
 30
0.0
 11
-1169.331929197233
 21
499.3553539129915
 31
0.0
  0
LINE
  5
1B7E6
330
1F
100
AcDbEntity
  8
細線
100
AcDbLine
 10
-1169.331929197233
 20
499.3553539129915
 30
0.0
 11
-1169.381929197235
 21
499.4419564533701
 31
0.0
  0
ARC
  5
1B7E7
330
1F
100
AcDbEntity
  8
細線
100
AcDbCircle
 10
-1170.680967302911
 20
498.6919564533694
 30
0.0
 40
1.5
100
AcDbArc
 50
29.99999999999932
 51
119.9999999999965
  0
LINE
  5
1B7E8
330
1F
100
AcDbEntity
  8
細線
100
AcDbLine
 10
-1168.89891649534
 20
499.6053539129915
 30
0.0
 11
-1168.46590379345
 21
499.8553539129915
 31
0.0
  0
CIRCLE
  5
1B7E9
330
1F
100
AcDbEntity
  8
細線
100
AcDbCircle
 10
-1182.027560258033
 20
625.8724499854523
 30
0.0
 40
8.0
  0
LINE
  5
1B7EA
330
1F
100
AcDbEntity
  8
中心線
100
AcDbLine
 10
-1190.89647459708
 20
634.7413643244987
 30
0.0
 11
-1173.158645918987
 21
617.0035356464044
 31
0.0
  0
CIRCLE
  5
1B7EB
330
1F
100
AcDbEntity
  8
外形線
100
AcDbCircle
 10
-1182.027560258033
 20
625.8724499854516
 30
0.0
 40
6.400000000000241
  0
CIRCLE
  5
1B7EC
330
1F
100
AcDbEntity
  8
細線
100
AcDbCircle
 10
-1182.027560258033
 20
625.8724499854516
 30
0.0
 40
8.0
  0
LINE
  5
1B7ED
330
1F
100
AcDbEntity
  8
外形線
100
AcDbLine
 10
-1189.615284035827
 20
573.6435989085718
 30
0.0
 11
-1187.246604979685
 21
570.0986201832444
 31
0.0
  0
LINE
  5
1B7EE
330
1F
100
AcDbEntity
  8
外形線
100
AcDbLine
 10
-1193.869665209323
 20
573.3647520262403
 30
0.0
 11
-1195.755367258299
 21
569.5409263162463
 31
0.0
  0
CIRCLE
  5
1B7EF
330
1F
100
AcDbEntity
  8
外形線
100
AcDbCircle
 10
-1191.500986153181
 20
569.8197733009124
 30
0.0
 40
8.0
  0
LINE
  5
1B7F0
330
1F
100
AcDbEntity
  8
外形線
100
AcDbLine
 10
-1187.246604637794
 20
570.0986196715708
 30
0.0
 11
-1189.132306618394
 21
566.2747938592421
 31
0.0
  0
LINE
  5
1B7F1
330
1F
100
AcDbEntity
  8
外形線
100
AcDbLine
 10
-1189.132307097038
 20
566.2747945755853
 30
0.0
 11
-1193.386688338911
 21
565.9959477955879
 31
0.0
  0
LINE
  5
1B7F2
330
1F
100
AcDbEntity
  8
外形線
100
AcDbLine
 10
-1195.755367326676
 20
569.5409264185806
 30
0.0
 11
-1193.386688270535
 21
565.9959476932532
 31
0.0
  0
LINE
  5
1B7F3
330
1F
100
AcDbEntity
  8
外形線
100
AcDbLine
 10
-1193.869665687967
 20
573.3647527425834
 30
0.0
 11
-1189.615284377717
 21
573.6435994202452
 31
0.0
  0
CIRCLE
  5
1B7F4
330
1F
100
AcDbEntity
  8
外形線
100
AcDbCircle
 10
-1125.974883573485
 20
635.3458758806133
 30
0.0
 40
8.0
  0
LINE
  5
1B7F5
330
1F
100
AcDbEntity
  8
外形線
100
AcDbLine
 10
-1122.151057454151
 20
637.2315776560777
 30
0.0
 11
-1122.429904131812
 21
632.9771963458257
 31
0.0
  0
LINE
  5
1B7F6
330
1F
100
AcDbEntity
  8
外形線
100
AcDbLine
 10
-1122.429904848157
 20
632.9771968244714
 30
0.0
 11
-1126.253730558151
 21
631.0914947754951
 31
0.0
  0
LINE
  5
1B7F7
330
1F
100
AcDbEntity
  8
外形線
100
AcDbLine
 10
-1129.51986229881
 20
637.7145549367559
 30
0.0
 11
-1129.798709078809
 21
633.4601736948817
 31
0.0
  0
LINE
  5
1B7F8
330
1F
100
AcDbEntity
  8
外形線
100
AcDbLine
 10
-1129.519863015155
 20
637.7145554154009
 30
0.0
 11
-1125.696037202827
 21
639.6002573959982
 31
0.0
  0
LINE
  5
1B7F9
330
1F
100
AcDbEntity
  8
外形線
100
AcDbLine
 10
-1125.696036691153
 20
639.6002570541091
 30
0.0
 11
-1122.151057965826
 21
637.2315779979673
 31
0.0
  0
LINE
  5
1B7FA
330
1F
100
AcDbEntity
  8
外形線
100
AcDbLine
 10
-1129.798709181144
 20
633.4601737632594
 30
0.0
 11
-1126.253730455816
 21
631.0914947071174
 31
0.0
  0
ARC
  5
1B7FB
330
1F
100
AcDbEntity
  8
細線
100
AcDbCircle
 10
-1060.311168341089
 20
613.0617554151927
 30
0.0
 40
1.5
100
AcDbArc
 50
330.0000000000006
 51
60.00000000000341
  0
LINE
  5
1B7FC
330
1F
100
AcDbEntity
  8
細線
100
AcDbLine
 10
-1059.397770881467
 20
614.8438062227613
 30
0.0
 11
-1059.147770881466
 21
615.2768189246536
 31
0.0
  0
CIRCLE
  5
1B7FD
330
1F
100
AcDbEntity
  8
細線
100
AcDbCircle
 10
-1057.57911753352
 20
613.7938062227614
 30
0.0
 40
4.7
  0
LINE
  5
1B7FE
330
1F
100
AcDbEntity
  8
細線
100
AcDbLine
 10
-1059.397770881467
 20
614.8438062227613
 30
0.0
 11
-1059.647770881465
 21
614.4107935208693
 31
0.0
  0
LINE
  5
1B7FF
330
1F
100
AcDbEntity
  8
細線
100
AcDbLine
 10
-1059.647770881465
 20
614.4107935208693
 30
0.0
 11
-1059.561168341089
 21
614.3607935208693
 31
0.0
  0
LINE
  5
1B800
330
1F
100
AcDbEntity
  8
細線
100
AcDbLine
 10
-1059.147770881466
 20
615.2768189246536
 30
0.0
 11
-1059.061168341087
 21
615.2268189246536
 31
0.0
  0
LINE
  5
1B801
330
1F
100
AcDbEntity
  8
細線
100
AcDbLine
 10
-1058.146104831626
 20
611.8117554151925
 30
0.0
 11
-1058.196104831627
 21
611.7251528748144
 31
0.0
  0
LINE
  5
1B802
330
1F
100
AcDbEntity
  8
細線
100
AcDbLine
 10
-1058.196104831627
 20
611.7251528748144
 30
0.0
 11
-1058.62911753352
 21
611.9751528748143
 31
0.0
  0
LINE
  5
1B803
330
1F
100
AcDbEntity
  8
細線
100
AcDbLine
 10
-1059.012130235412
 20
612.3117554151924
 30
0.0
 11
-1059.062130235411
 21
612.2251528748144
 31
0.0
  0
LINE
  5
1B804
330
1F
100
AcDbEntity
  8
細線
100
AcDbLine
 10
-1059.062130235411
 20
612.2251528748144
 30
0.0
 11
-1058.62911753352
 21
611.9751528748143
 31
0.0
  0
LINE
  5
1B805
330
1F
100
AcDbEntity
  8
細線
100
AcDbLine
 10
-1057.01213023541
 20
615.7758570303305
 30
0.0
 11
-1056.962130235411
 21
615.8624595707088
 31
0.0
  0
ARC
  5
1B806
330
1F
100
AcDbEntity
  8
細線
100
AcDbCircle
 10
-1054.847066725951
 20
614.5258570303305
 30
0.0
 40
1.5
100
AcDbArc
 50
150.0000000000006
 51
240.0000000000033
  0
LINE
  5
1B807
330
1F
100
AcDbEntity
  8
細線
100
AcDbLine
 10
-1055.760464185572
 20
612.7438062227612
 30
0.0
 11
-1056.01046418557
 21
612.3107935208696
 31
0.0
  0
LINE
  5
1B808
330
1F
100
AcDbEntity
  8
細線
100
AcDbLine
 10
-1056.01046418557
 20
612.3107935208696
 30
0.0
 11
-1056.097066725951
 21
612.3607935208694
 31
0.0
  0
LINE
  5
1B809
330
1F
100
AcDbEntity
  8
細線
100
AcDbLine
 10
-1055.510464185573
 20
613.1768189246537
 30
0.0
 11
-1055.597066725951
 21
613.2268189246539
 31
0.0
  0
LINE
  5
1B80A
330
1F
100
AcDbEntity
  8
細線
100
AcDbLine
 10
-1055.760464185572
 20
612.7438062227612
 30
0.0
 11
-1055.510464185573
 21
613.1768189246537
 31
0.0
  0
LINE
  5
1B80B
330
1F
100
AcDbEntity
  8
細線
100
AcDbLine
 10
-1056.096104831627
 20
615.3624595707088
 30
0.0
 11
-1056.52911753352
 21
615.6124595707089
 31
0.0
  0
LINE
  5
1B80C
330
1F
100
AcDbEntity
  8
細線
100
AcDbLine
 10
-1056.146104831626
 20
615.2758570303305
 30
0.0
 11
-1056.096104831627
 21
615.3624595707088
 31
0.0
  0
ARC
  5
1B80D
330
1F
100
AcDbEntity
  8
細線
100
AcDbCircle
 10
-1058.311168341087
 20
616.5258570303304
 30
0.0
 40
1.5
100
AcDbArc
 50
240.0000000000033
 51
330.0000000000006
  0
ARC
  5
1B80E
330
1F
100
AcDbEntity
  8
細線
100
AcDbCircle
 10
-1056.847066725951
 20
611.0617554151923
 30
0.0
 40
1.5
100
AcDbArc
 50
60.00000000000341
 51
150.0000000000006
  0
LINE
  5
1B80F
330
1F
100
AcDbEntity
  8
細線
100
AcDbLine
 10
-1056.962130235411
 20
615.8624595707088
 30
0.0
 11
-1056.52911753352
 21
615.6124595707089
 31
0.0
  0
LINE
  5
1B810
330
1F
100
AcDbEntity
  8
想像線
 48
0.5
100
AcDbLine
 10
-751.0313583906587
 20
441.7938062227611
 30
0.0
 11
-751.0313583906587
 21
453.7938062227611
 31
0.0
  0
LINE
  5
1B811
330
1F
100
AcDbEntity
  8
中心線
100
AcDbLine
 10
-816.0313583906592
 20
438.1802951358642
 30
0.0
 11
-816.0313583906592
 21
456.5719774239984
 31
0.0
  0
LINE
  5
1B812
330
1F
100
AcDbEntity
  8
想像線
 48
0.5
100
AcDbLine
 10
-798.5313583906592
 20
452.7938062227612
 30
0.0
 11
-798.5313583906592
 21
442.7938062227607
 31
0.0
  0
LINE
  5
1B813
330
1F
100
AcDbEntity
  8
想像線
 48
0.5
100
AcDbLine
 10
-833.5313583906591
 20
452.7938062227612
 30
0.0
 11
-833.5313583906591
 21
442.7938062227607
 31
0.0
  0
LINE
  5
1B814
330
1F
100
AcDbEntity
  8
想像線
 48
0.5
100
AcDbLine
 10
-851.0313583906592
 20
441.7938062227607
 30
0.0
 11
-851.0313583906592
 21
453.7938062227611
 31
0.0
  0
LINE
  5
1B815
330
1F
100
AcDbEntity
  8
中心線
100
AcDbLine
 10
-768.5313583906587
 20
421.3098504502966
 30
0.0
 11
-768.5313583906587
 21
461.409491577872
 31
0.0
  0
LINE
  5
1B816
330
1F
100
AcDbEntity
  8
想像線
 48
0.5
100
AcDbLine
 10
-756.5313583906591
 20
439.2938062227607
 30
0.0
 11
-780.5313583906592
 21
439.2938062227612
 31
0.0
  0
LINE
  5
1B817
330
1F
100
AcDbEntity
  8
想像線
 48
0.5
100
AcDbLine
 10
-757.7813583906592
 20
436.2938062227605
 30
0.0
 11
-779.2813583906591
 21
436.2938062227612
 31
0.0
  0
LINE
  5
1B818
330
1F
100
AcDbEntity
  8
想像線
 48
0.5
100
AcDbLine
 10
-760.5313583906591
 20
424.2938062227612
 30
0.0
 11
-776.5313583906583
 21
424.2938062227612
 31
0.0
  0
LINE
  5
1B819
330
1F
100
AcDbEntity
  8
想像線
 48
0.5
100
AcDbLine
 10
-751.0313583906587
 20
441.7938062227611
 30
0.0
 11
-851.0313583906592
 21
441.7938062227607
 31
0.0
  0
LINE
  5
1B81A
330
1F
100
AcDbEntity
  8
想像線
 48
0.5
100
AcDbLine
 10
-833.5313583906591
 20
442.7938062227607
 30
0.0
 11
-834.5313583906593
 21
441.7938062227607
 31
0.0
  0
LINE
  5
1B81B
330
1F
100
AcDbEntity
  8
想像線
 48
0.5
100
AcDbLine
 10
-798.5313583906592
 20
442.7938062227607
 30
0.0
 11
-797.5313583906592
 21
441.7938062227607
 31
0.0
  0
LINE
  5
1B81C
330
1F
100
AcDbEntity
  8
想像線
 48
0.5
100
AcDbLine
 10
-798.5313583906592
 20
442.7938062227607
 30
0.0
 11
-797.5313583906592
 21
441.7938062227607
 31
0.0
  0
LINE
  5
1B81D
330
1F
100
AcDbEntity
  8
想像線
 48
0.5
100
AcDbLine
 10
-777.5313583906588
 20
425.2938062227616
 30
0.0
 11
-777.5313583906588
 21
436.2938062227612
 31
0.0
  0
LINE
  5
1B81E
330
1F
100
AcDbEntity
  8
想像線
 48
0.5
100
AcDbLine
 10
-780.5313583906592
 20
439.2938062227612
 30
0.0
 11
-780.5313583906592
 21
441.7938062227607
 31
0.0
  0
LINE
  5
1B81F
330
1F
100
AcDbEntity
  8
想像線
 48
0.5
100
AcDbLine
 10
-779.2813583906591
 20
436.2938062227612
 30
0.0
 11
-779.2813583906591
 21
439.2938062227612
 31
0.0
  0
LINE
  5
1B820
330
1F
100
AcDbEntity
  8
想像線
 48
0.5
100
AcDbLine
 10
-777.5313583906588
 20
425.2938062227616
 30
0.0
 11
-776.5313583906583
 21
424.2938062227612
 31
0.0
  0
LINE
  5
1B821
330
1F
100
AcDbEntity
  8
想像線
 48
0.5
100
AcDbLine
 10
-759.5313583906592
 20
425.2938062227616
 30
0.0
 11
-759.5313583906592
 21
436.2938062227612
 31
0.0
  0
LINE
  5
1B822
330
1F
100
AcDbEntity
  8
想像線
 48
0.5
100
AcDbLine
 10
-756.5313583906591
 20
439.2938062227607
 30
0.0
 11
-756.5313583906587
 21
441.7938062227607
 31
0.0
  0
LINE
  5
1B823
330
1F
100
AcDbEntity
  8
想像線
 48
0.5
100
AcDbLine
 10
-757.7813583906592
 20
436.2938062227612
 30
0.0
 11
-757.7813583906592
 21
439.2938062227612
 31
0.0
  0
LINE
  5
1B824
330
1F
100
AcDbEntity
  8
想像線
 48
0.5
100
AcDbLine
 10
-759.5313583906592
 20
425.2938062227616
 30
0.0
 11
-760.5313583906591
 21
424.2938062227612
 31
0.0
  0
LINE
  5
1B825
330
1F
100
AcDbEntity
  8
中心線
100
AcDbLine
 10
-799.8392571036893
 20
567.2938062227614
 30
0.0
 11
-755.6963589819401
 21
567.2938062227614
 31
0.0
  0
LINE
  5
1B826
330
1F
100
AcDbEntity
  8
想像線
 48
0.5
100
AcDbLine
 10
-746.0313583906587
 20
453.7938062227607
 30
0.0
 11
-851.0313583906592
 21
453.7938062227607
 31
0.0
  0
LINE
  5
1B827
330
1F
100
AcDbEntity
  8
外形線
100
AcDbLine
 10
-621.031358390659
 20
452.2938062227614
 30
0.0
 11
-784.031358390659
 21
452.2938062227612
 31
0.0
  0
LINE
  5
1B828
330
1F
100
AcDbEntity
  8
想像線
 48
0.5
100
AcDbLine
 10
-833.5313583906591
 20
452.7938062227612
 30
0.0
 11
-834.5313583906593
 21
453.7938062227611
 31
0.0
  0
LINE
  5
1B829
330
1F
100
AcDbEntity
  8
外形線
100
AcDbLine
 10
-788.2609696304532
 20
464.993806222761
 30
0.0
 11
-788.0313583906587
 21
464.993806222761
 31
0.0
  0
ARC
  5
1B82A
330
1F
100
AcDbEntity
  8
外形線
100
AcDbCircle
 10
-784.5313583906586
 20
460.2938062227612
 30
0.0
 40
6.000000000000047
100
AcDbArc
 50
128.4332063408553
 51
231.5667936591446
  0
LINE
  5
1B82B
330
1F
100
AcDbEntity
  8
外形線
100
AcDbLine
 10
-788.2609696304532
 20
455.5938062227609
 30
0.0
 11
-788.0313583906587
 21
455.5938062227609
 31
0.0
  0
LINE
  5
1B82C
330
1F
100
AcDbEntity
  8
外形線
100
AcDbLine
 10
-788.0313583906587
 20
464.993806222761
 30
0.0
 11
-788.0313583906587
 21
455.5938062227609
 31
0.0
  0
LINE
  5
1B82D
330
1F
100
AcDbEntity
  8
外形線
100
AcDbLine
 10
-786.0313583906588
 20
454.2938062227611
 30
0.0
 11
-784.031358390659
 21
452.2938062227612
 31
0.0
  0
LINE
  5
1B82E
330
1F
100
AcDbEntity
  8
外形線
100
AcDbLine
 10
-788.031358390659
 20
454.2938062227611
 30
0.0
 11
-786.0313583906588
 21
454.2938062227611
 31
0.0
  0
LINE
  5
1B82F
330
1F
100
AcDbEntity
  8
中心線
 48
0.1
100
AcDbLine
 10
-793.5313583906587
 20
460.2938062227612
 30
0.0
 11
-778.0313583906588
 21
460.2938062227612
 31
0.0
  0
LINE
  5
1B830
330
1F
100
AcDbEntity
  8
外形線
100
AcDbLine
 10
-791.5313583906587
 20
517.2938062227627
 30
0.0
 11
-788.0313583906586
 21
517.2938062227618
 31
0.0
  0
LINE
  5
1B831
330
1F
100
AcDbEntity
  8
外形線
100
AcDbLine
 10
-791.5313583906587
 20
517.2938062227627
 30
0.0
 11
-792.0313583906587
 21
517.7938062227627
 31
0.0
  0
LINE
  5
1B832
330
1F
100
AcDbEntity
  8
外形線
100
AcDbLine
 10
-795.5313583906586
 20
542.2938062227623
 30
0.0
 11
-792.0313583906587
 21
542.2938062227623
 31
0.0
  0
LINE
  5
1B833
330
1F
100
AcDbEntity
  8
外形線
100
AcDbLine
 10
-795.5313583906586
 20
542.2938062227623
 30
0.0
 11
-796.0313583906587
 21
542.7938062227623
 31
0.0
  0
LINE
  5
1B834
330
1F
100
AcDbEntity
  8
破線
100
AcDbLine
 10
-796.0313583906587
 20
617.2938062227614
 30
0.0
 11
-792.0313583906579
 21
617.2938062227614
 31
0.0
  0
LINE
  5
1B835
330
1F
100
AcDbEntity
  8
想像線
 48
0.5
100
AcDbLine
 10
-746.0313583906587
 20
452.2938062227612
 30
0.0
 11
-746.0313583906587
 21
453.7938062227607
 31
0.0
  0
LINE
  5
1B836
330
1F
100
AcDbEntity
  8
中心線
100
AcDbLine
 10
-678.7625025780678
 20
477.2938062227612
 30
0.0
 11
-617.6616077264557
 21
477.2938062227612
 31
0.0
  0
LINE
  5
1B837
330
1F
100
AcDbEntity
  8
破線
100
AcDbLine
 10
-617.031358390659
 20
642.2938062227614
 30
0.0
 11
-621.031358390659
 21
642.2938062227614
 31
0.0
  0
LINE
  5
1B838
330
1F
100
AcDbEntity
  8
外形線
100
AcDbLine
 10
-621.0313583906589
 20
627.2938062227618
 30
0.0
 11
-617.031358390659
 21
627.2938062227614
 31
0.0
  0
CIRCLE
  5
1B839
330
1F
100
AcDbEntity
  8
外形線
100
AcDbCircle
 10
-1265.948916495343
 20
767.2938062227609
 30
0.0
 40
5.7
  0
CIRCLE
  5
1B83A
330
1F
100
AcDbEntity
  8
外形線
100
AcDbCircle
 10
-1265.948916495343
 20
767.2938062227609
 30
0.0
 40
6.5
  0
LINE
  5
1B83B
330
1F
100
AcDbEntity
  8
中心線
100
AcDbLine
 10
-1649.355522736871
 20
767.2938062227605
 30
0.0
 11
-994.729370301583
 21
767.2938062227618
 31
0.0
  0
CIRCLE
  5
1B83C
330
1F
100
AcDbEntity
  8
細線
100
AcDbCircle
 10
-1589.318715457166
 20
920.7938062227604
 30
0.0
 40
4.7
  0
ARC
  5
1B83D
330
1F
100
AcDbEntity
  8
細線
100
AcDbCircle
 10
-1632.448916495341
 20
765.2938062227605
 30
0.0
 40
1.5
100
AcDbArc
 50
0.0
 51
90.0
  0
ARC
  5
1B83E
330
1F
100
AcDbEntity
  8
細線
100
AcDbCircle
 10
-1628.448916495343
 20
765.2938062227605
 30
0.0
 40
1.5
100
AcDbArc
 50
90.0
 51
180.0
  0
CIRCLE
  5
1B83F
330
1F
100
AcDbEntity
  8
細線
100
AcDbCircle
 10
-1630.448916495341
 20
767.2938062227607
 30
0.0
 40
4.7
  0
ARC
  5
1B840
330
1F
100
AcDbEntity
  8
細線
100
AcDbCircle
 10
-1632.448916495341
 20
769.2938062227607
 30
0.0
 40
1.5
100
AcDbArc
 50
270.0
 51
0.0
  0
ARC
  5
1B841
330
1F
100
AcDbEntity
  8
細線
100
AcDbCircle
 10
-1628.448916495343
 20
769.2938062227607
 30
0.0
 40
1.5
100
AcDbArc
 50
180.0
 51
270.0
  0
LINE
  5
1B842
330
1F
100
AcDbEntity
  8
細線
100
AcDbLine
 10
-1629.948916495344
 20
769.3938062227604
 30
0.0
 11
-1630.448916495341
 21
769.3938062227604
 31
0.0
  0
LINE
  5
1B843
330
1F
100
AcDbEntity
  8
細線
100
AcDbLine
 10
-1629.948916495344
 20
769.2938062227607
 30
0.0
 11
-1629.948916495344
 21
769.3938062227604
 31
0.0
  0
LINE
  5
1B844
330
1F
100
AcDbEntity
  8
細線
100
AcDbLine
 10
-1630.948916495341
 20
769.3938062227604
 30
0.0
 11
-1630.448916495341
 21
769.3938062227604
 31
0.0
  0
LINE
  5
1B845
330
1F
100
AcDbEntity
  8
細線
100
AcDbLine
 10
-1630.948916495341
 20
769.2938062227607
 30
0.0
 11
-1630.948916495341
 21
769.3938062227604
 31
0.0
  0
LINE
  5
1B846
330
1F
100
AcDbEntity
  8
細線
100
AcDbLine
 10
-1628.348916495344
 20
767.2938062227607
 30
0.0
 11
-1628.348916495344
 21
767.7938062227607
 31
0.0
  0
LINE
  5
1B847
330
1F
100
AcDbEntity
  8
細線
100
AcDbLine
 10
-1628.348916495344
 20
767.7938062227607
 30
0.0
 11
-1628.448916495343
 21
767.7938062227607
 31
0.0
  0
LINE
  5
1B848
330
1F
100
AcDbEntity
  8
細線
100
AcDbLine
 10
-1628.348916495344
 20
766.7938062227607
 30
0.0
 11
-1628.448916495343
 21
766.7938062227607
 31
0.0
  0
LINE
  5
1B849
330
1F
100
AcDbEntity
  8
細線
100
AcDbLine
 10
-1628.348916495344
 20
767.2938062227607
 30
0.0
 11
-1628.348916495344
 21
766.7938062227607
 31
0.0
  0
LINE
  5
1B84A
330
1F
100
AcDbEntity
  8
細線
100
AcDbLine
 10
-1632.548916495344
 20
767.7938062227607
 30
0.0
 11
-1632.448916495341
 21
767.7938062227607
 31
0.0
  0
LINE
  5
1B84B
330
1F
100
AcDbEntity
  8
細線
100
AcDbLine
 10
-1632.548916495344
 20
767.2938062227607
 30
0.0
 11
-1632.548916495344
 21
767.7938062227607
 31
0.0
  0
LINE
  5
1B84C
330
1F
100
AcDbEntity
  8
細線
100
AcDbLine
 10
-1632.548916495344
 20
767.2938062227607
 30
0.0
 11
-1632.548916495344
 21
766.7938062227607
 31
0.0
  0
LINE
  5
1B84D
330
1F
100
AcDbEntity
  8
細線
100
AcDbLine
 10
-1632.548916495344
 20
766.7938062227607
 30
0.0
 11
-1632.448916495341
 21
766.7938062227607
 31
0.0
  0
LINE
  5
1B84E
330
1F
100
AcDbEntity
  8
細線
100
AcDbLine
 10
-1630.948916495341
 20
765.2938062227605
 30
0.0
 11
-1630.948916495341
 21
765.1938062227603
 31
0.0
  0
LINE
  5
1B84F
330
1F
100
AcDbEntity
  8
細線
100
AcDbLine
 10
-1629.948916495344
 20
765.1938062227603
 30
0.0
 11
-1630.448916495341
 21
765.1938062227603
 31
0.0
  0
LINE
  5
1B850
330
1F
100
AcDbEntity
  8
細線
100
AcDbLine
 10
-1630.948916495341
 20
765.1938062227603
 30
0.0
 11
-1630.448916495341
 21
765.1938062227603
 31
0.0
  0
LINE
  5
1B851
330
1F
100
AcDbEntity
  8
細線
100
AcDbLine
 10
-1629.948916495344
 20
765.2938062227605
 30
0.0
 11
-1629.948916495344
 21
765.1938062227603
 31
0.0
  0
ARC
  5
1B852
330
1F
100
AcDbEntity
  8
細線
100
AcDbCircle
 10
-1586.586664649598
 20
921.5258570303296
 30
0.0
 40
1.5
100
AcDbArc
 50
150.0000000000006
 51
240.0000000000033
  0
ARC
  5
1B853
330
1F
100
AcDbEntity
  8
細線
100
AcDbCircle
 10
-1588.586664649598
 20
918.0617554151918
 30
0.0
 40
1.5
100
AcDbArc
 50
60.00000000000341
 51
150.0000000000006
  0
LINE
  5
1B854
330
1F
100
AcDbEntity
  8
細線
100
AcDbLine
 10
-1587.500062109219
 20
919.7438062227607
 30
0.0
 11
-1587.250062109218
 21
920.1768189246529
 31
0.0
  0
LINE
  5
1B855
330
1F
100
AcDbEntity
  8
細線
100
AcDbLine
 10
-1587.250062109218
 20
920.1768189246529
 30
0.0
 11
-1587.336664649596
 21
920.2268189246526
 31
0.0
  0
LINE
  5
1B856
330
1F
100
AcDbEntity
  8
細線
100
AcDbLine
 10
-1587.500062109219
 20
919.7438062227607
 30
0.0
 11
-1587.750062109217
 21
919.3107935208685
 31
0.0
  0
LINE
  5
1B857
330
1F
100
AcDbEntity
  8
細線
100
AcDbLine
 10
-1587.750062109217
 20
919.3107935208685
 30
0.0
 11
-1587.836664649598
 21
919.3607935208685
 31
0.0
  0
ARC
  5
1B858
330
1F
100
AcDbEntity
  8
細線
100
AcDbCircle
 10
-1592.050766264734
 20
920.0617554151918
 30
0.0
 40
1.5
100
AcDbArc
 50
330.0000000000006
 51
60.00000000000341
  0
LINE
  5
1B859
330
1F
100
AcDbEntity
  8
細線
100
AcDbLine
 10
-1588.751728159059
 20
922.7758570303295
 30
0.0
 11
-1588.701728159058
 21
922.862459570708
 31
0.0
  0
LINE
  5
1B85A
330
1F
100
AcDbEntity
  8
細線
100
AcDbLine
 10
-1588.701728159058
 20
922.862459570708
 30
0.0
 11
-1588.268715457165
 21
922.6124595707075
 31
0.0
  0
LINE
  5
1B85B
330
1F
100
AcDbEntity
  8
細線
100
AcDbLine
 10
-1587.885702755274
 20
922.2758570303296
 30
0.0
 11
-1587.835702755274
 21
922.3624595707079
 31
0.0
  0
LINE
  5
1B85C
330
1F
100
AcDbEntity
  8
細線
100
AcDbLine
 10
-1587.835702755274
 20
922.3624595707079
 30
0.0
 11
-1588.268715457165
 21
922.6124595707075
 31
0.0
  0
ARC
  5
1B85D
330
1F
100
AcDbEntity
  8
細線
100
AcDbCircle
 10
-1590.050766264734
 20
923.5258570303296
 30
0.0
 40
1.5
100
AcDbArc
 50
240.0000000000033
 51
330.0000000000006
  0
LINE
  5
1B85E
330
1F
100
AcDbEntity
  8
細線
100
AcDbLine
 10
-1591.137368805114
 20
921.8438062227605
 30
0.0
 11
-1590.887368805114
 21
922.2768189246524
 31
0.0
  0
LINE
  5
1B85F
330
1F
100
AcDbEntity
  8
細線
100
AcDbLine
 10
-1590.887368805114
 20
922.2768189246524
 30
0.0
 11
-1590.800766264734
 21
922.2268189246527
 31
0.0
  0
LINE
  5
1B860
330
1F
100
AcDbEntity
  8
細線
100
AcDbLine
 10
-1591.387368805114
 20
921.4107935208685
 30
0.0
 11
-1591.300766264735
 21
921.3607935208685
 31
0.0
  0
LINE
  5
1B861
330
1F
100
AcDbEntity
  8
細線
100
AcDbLine
 10
-1591.137368805114
 20
921.8438062227605
 30
0.0
 11
-1591.387368805114
 21
921.4107935208685
 31
0.0
  0
LINE
  5
1B862
330
1F
100
AcDbEntity
  8
細線
100
AcDbLine
 10
-1589.885702755273
 20
918.8117554151919
 30
0.0
 11
-1589.935702755272
 21
918.7251528748134
 31
0.0
  0
LINE
  5
1B863
330
1F
100
AcDbEntity
  8
細線
100
AcDbLine
 10
-1590.801728159058
 20
919.2251528748135
 30
0.0
 11
-1590.368715457166
 21
918.9751528748134
 31
0.0
  0
LINE
  5
1B864
330
1F
100
AcDbEntity
  8
細線
100
AcDbLine
 10
-1589.935702755272
 20
918.7251528748134
 30
0.0
 11
-1590.368715457166
 21
918.9751528748134
 31
0.0
  0
LINE
  5
1B865
330
1F
100
AcDbEntity
  8
細線
100
AcDbLine
 10
-1590.751728159059
 20
919.3117554151919
 30
0.0
 11
-1590.801728159058
 21
919.2251528748135
 31
0.0
  0
LINE
  5
1B866
330
1F
100
AcDbEntity
  8
外形線
100
AcDbLine
 10
-1555.014960328335
 20
724.9971005156518
 30
0.0
 11
-1559.196547847229
 21
724.1653310428636
 31
0.0
  0
CIRCLE
  5
1B867
330
1F
100
AcDbEntity
  8
外形線
100
AcDbCircle
 10
-1556.385420591107
 20
720.9598547439228
 30
0.0
 40
8.0
  0
LINE
  5
1B868
330
1F
100
AcDbEntity
  8
外形線
100
AcDbLine
 10
-1552.203833072213
 20
721.7916242167112
 30
0.0
 11
-1555.014960449047
 21
724.9971004916409
 31
0.0
  0
LINE
  5
1B869
330
1F
100
AcDbEntity
  8
外形線
100
AcDbLine
 10
-1552.203832227229
 20
721.791624384789
 30
0.0
 11
-1553.574292731425
 21
717.7543785650376
 31
0.0
  0
LINE
  5
1B86A
330
1F
100
AcDbEntity
  8
外形線
100
AcDbLine
 10
-1557.755881457439
 20
716.9226088521378
 30
0.0
 11
-1560.567008954984
 21
720.1280851030561
 31
0.0
  0
LINE
  5
1B86B
330
1F
100
AcDbEntity
  8
外形線
100
AcDbLine
 10
-1560.567008110001
 20
720.1280852711343
 30
0.0
 11
-1559.196547726517
 21
724.1653310668749
 31
0.0
  0
LINE
  5
1B86C
330
1F
100
AcDbEntity
  8
外形線
100
AcDbLine
 10
-1553.574293334983
 20
717.7543784449818
 30
0.0
 11
-1557.755880853878
 21
716.9226089721933
 31
0.0
  0
SOLID
  5
1B86D
330
1F
100
AcDbEntity
  8
0
  6
BYBLOCK
 62
     0
100
AcDbTrace
 10
-1564.448916495341
 20
771.9126083827615
 30
0.0
 11
-1572.448916495341
 21
767.2938062227609
 31
0.0
 12
-1564.448916495341
 22
762.6750040627613
 32
0.0
 13
-1564.448916495341
 23
762.6750040627613
 33
0.0
  0
CIRCLE
  5
1B86E
330
1F
100
AcDbEntity
  8
細線
100
AcDbCircle
 10
-1560.948916495341
 20
767.2938062227623
 30
0.0
 40
4.0
  0
SOLID
  5
1B86F
330
1F
100
AcDbEntity
  8
0
  6
BYBLOCK
 62
     0
100
AcDbTrace
 10
-1582.448916495341
 20
771.9126083827615
 30
0.0
 11
-1574.448916495341
 21
767.2938062227609
 31
0.0
 12
-1582.448916495341
 22
762.6750040627613
 32
0.0
 13
-1582.448916495341
 23
762.6750040627613
 33
0.0
  0
CIRCLE
  5
1B870
330
1F
100
AcDbEntity
  8
0
100
AcDbCircle
 10
-1560.948916495341
 20
767.2938062227623
 30
0.0
 40
3.20000000000012
  0
CIRCLE
  5
1B871
330
1F
100
AcDbEntity
  8
外形線
100
AcDbCircle
 10
-1523.448916495341
 20
767.2938062227609
 30
0.0
 40
6.400000000000241
  0
CIRCLE
  5
1B872
330
1F
100
AcDbEntity
  8
細線
100
AcDbCircle
 10
-1523.448916495341
 20
767.2938062227623
 30
0.0
 40
8.0
  0
CIRCLE
  5
1B873
330
1F
100
AcDbEntity
  8
細線
100
AcDbCircle
 10
-1523.448916495341
 20
767.2938062227609
 30
0.0
 40
8.0
  0
LINE
  5
1B874
330
1F
100
AcDbEntity
  8
外形線
100
AcDbLine
 10
-1552.203833072216
 20
812.7959882287948
 30
0.0
 11
-1553.574293455701
 21
816.8332340245353
 31
0.0
  0
LINE
  5
1B875
330
1F
100
AcDbEntity
  8
外形線
100
AcDbLine
 10
-1560.567008110004
 20
814.4595271743721
 30
0.0
 11
-1557.755880733171
 21
817.6650034493016
 31
0.0
  0
LINE
  5
1B876
330
1F
100
AcDbEntity
  8
外形線
100
AcDbLine
 10
-1555.014960328339
 20
809.5905119298544
 30
0.0
 11
-1559.196547847232
 21
810.4222814026426
 31
0.0
  0
LINE
  5
1B877
330
1F
100
AcDbEntity
  8
外形線
100
AcDbLine
 10
-1559.196548450793
 20
810.4222815226982
 30
0.0
 11
-1560.567008954989
 21
814.4595273424501
 31
0.0
  0
LINE
  5
1B878
330
1F
100
AcDbEntity
  8
外形線
100
AcDbLine
 10
-1552.203832227232
 20
812.7959880607175
 30
0.0
 11
-1555.014959724778
 21
809.590511809799
 31
0.0
  0
LINE
  5
1B879
330
1F
100
AcDbEntity
  8
外形線
100
AcDbLine
 10
-1553.574293334989
 20
816.8332340005246
 30
0.0
 11
-1557.755880853883
 21
817.6650034733128
 31
0.0
  0
CIRCLE
  5
1B87A
330
1F
100
AcDbEntity
  8
外形線
100
AcDbCircle
 10
-1556.38542059111
 20
813.6277577015841
 30
0.0
 40
8.0
  0
CIRCLE
  5
1B87B
330
1F
100
AcDbEntity
  8
細線
100
AcDbCircle
 10
-1460.948916495341
 20
767.2938062227609
 30
0.0
 40
6.0
  0
CIRCLE
  5
1B87C
330
1F
100
AcDbEntity
  8
外形線
100
AcDbCircle
 10
-1460.948916495341
 20
767.2938062227609
 30
0.0
 40
4.800000000000181
  0
CIRCLE
  5
1B87D
330
1F
100
AcDbEntity
  8
外形線
100
AcDbCircle
 10
-1323.448916495343
 20
767.2938062227609
 30
0.0
 40
50.0
  0
LINE
  5
1B87E
330
1F
100
AcDbEntity
  8
外形線
100
AcDbLine
 10
-1353.930967306697
 20
720.4973454986012
 30
0.0
 11
-1355.663018106696
 21
717.4973455117109
 31
0.0
  0
LINE
  5
1B87F
330
1F
100
AcDbEntity
  8
外形線
100
AcDbLine
 10
-1353.930967295343
 20
714.4973455182651
 30
0.0
 11
-1355.663018056696
 21
717.4973455983132
 31
0.0
  0
LINE
  5
1B880
330
1F
100
AcDbEntity
  8
外形線
100
AcDbLine
 10
-1350.46686593399
 20
714.497345078698
 30
0.0
 11
-1353.930967645343
 21
714.4973449120478
 31
0.0
  0
LINE
  5
1B881
330
1F
100
AcDbEntity
  8
外形線
100
AcDbLine
 10
-1350.466865695343
 20
720.4973454920462
 30
0.0
 11
-1353.930967356695
 21
720.4973454119986
 31
0.0
  0
CIRCLE
  5
1B882
330
1F
100
AcDbEntity
  8
外形線
100
AcDbCircle
 10
-1352.198916495342
 20
717.4973455051564
 30
0.0
 40
6.5
  0
LINE
  5
1B883
330
1F
100
AcDbEntity
  8
外形線
100
AcDbLine
 10
-1350.466865345343
 20
720.4973460982643
 30
0.0
 11
-1348.73481463399
 21
717.4973459316139
 31
0.0
  0
LINE
  5
1B884
330
1F
100
AcDbEntity
  8
外形線
100
AcDbLine
 10
-1348.734814883989
 20
717.4973454986012
 30
0.0
 11
-1350.466865683989
 21
714.4973455117106
 31
0.0
  0
CIRCLE
  5
1B885
330
1F
100
AcDbEntity
  8
外形線
100
AcDbCircle
 10
-1352.198916495342
 20
717.4973455051564
 30
0.0
 40
5.7
  0
LINE
  5
1B886
330
1F
100
AcDbEntity
  8
外形線
100
AcDbLine
 10
-1296.430967295343
 20
720.4973454920461
 30
0.0
 11
-1298.163018056696
 21
717.4973454119982
 31
0.0
  0
LINE
  5
1B887
330
1F
100
AcDbEntity
  8
外形線
100
AcDbLine
 10
-1298.163018106696
 20
717.497345498601
 30
0.0
 11
-1296.430967306696
 21
714.4973455117106
 31
0.0
  0
CIRCLE
  5
1B888
330
1F
100
AcDbEntity
  8
外形線
100
AcDbCircle
 10
-1294.698916495343
 20
717.4973455051559
 30
0.0
 40
5.7
  0
LINE
  5
1B889
330
1F
100
AcDbEntity
  8
外形線
100
AcDbLine
 10
-1292.966865695343
 20
714.4973455182651
 30
0.0
 11
-1296.430967356696
 21
714.4973455983132
 31
0.0
  0
LINE
  5
1B88A
330
1F
100
AcDbEntity
  8
外形線
100
AcDbLine
 10
-1292.96686568399
 20
720.4973454986007
 30
0.0
 11
-1291.23481488399
 21
717.4973455117109
 31
0.0
  0
LINE
  5
1B88B
330
1F
100
AcDbEntity
  8
外形線
100
AcDbLine
 10
-1296.430967645343
 20
720.4973460982638
 30
0.0
 11
-1292.96686593399
 21
720.4973459316136
 31
0.0
  0
LINE
  5
1B88C
330
1F
100
AcDbEntity
  8
外形線
100
AcDbLine
 10
-1291.23481463399
 20
717.4973450786979
 30
0.0
 11
-1292.966865345343
 21
714.4973449120477
 31
0.0
  0
CIRCLE
  5
1B88D
330
1F
100
AcDbEntity
  8
外形線
100
AcDbCircle
 10
-1294.698916495343
 20
717.4973455051559
 30
0.0
 40
6.5
  0
LINE
  5
1B88E
330
1F
100
AcDbEntity
  8
外形線
100
AcDbLine
 10
-1379.216865695343
 20
770.2938062227614
 30
0.0
 11
-1382.680967295341
 21
770.2938062227614
 31
0.0
  0
LINE
  5
1B88F
330
1F
100
AcDbEntity
  8
外形線
100
AcDbLine
 10
-1379.216865695343
 20
764.2938062227614
 30
0.0
 11
-1382.680967295341
 21
764.2938062227614
 31
0.0
  0
CIRCLE
  5
1B890
330
1F
100
AcDbEntity
  8
外形線
100
AcDbCircle
 10
-1380.948916495341
 20
767.2938062227609
 30
0.0
 40
5.7
  0
CIRCLE
  5
1B891
330
1F
100
AcDbEntity
  8
外形線
100
AcDbCircle
 10
-1380.948916495341
 20
767.2938062227609
 30
0.0
 40
6.5
  0
LINE
  5
1B892
330
1F
100
AcDbEntity
  8
外形線
100
AcDbLine
 10
-1384.413018095344
 20
767.2938062227609
 30
0.0
 11
-1382.680967195343
 21
770.2938062227614
 31
0.0
  0
LINE
  5
1B893
330
1F
100
AcDbEntity
  8
外形線
100
AcDbLine
 10
-1382.680967795341
 20
764.2938062227614
 30
0.0
 11
-1384.413018795344
 21
767.2938062227609
 31
0.0
  0
LINE
  5
1B894
330
1F
100
AcDbEntity
  8
外形線
100
AcDbLine
 10
-1377.484814895342
 20
767.2938062227609
 30
0.0
 11
-1379.216865795344
 21
770.2938062227616
 31
0.0
  0
LINE
  5
1B895
330
1F
100
AcDbEntity
  8
外形線
100
AcDbLine
 10
-1377.484814195341
 20
767.2938062227616
 30
0.0
 11
-1379.216865195344
 21
764.2938062227614
 31
0.0
  0
LINE
  5
1B896
330
1F
100
AcDbEntity
  8
外形線
100
AcDbLine
 10
-1355.663018356696
 20
817.0902673668248
 30
0.0
 11
-1353.930967645343
 21
820.0902675334752
 31
0.0
  0
LINE
  5
1B897
330
1F
100
AcDbEntity
  8
外形線
100
AcDbLine
 10
-1353.930967295343
 20
820.0902669272574
 30
0.0
 11
-1350.466865633989
 21
820.0902668472096
 31
0.0
  0
LINE
  5
1B898
330
1F
100
AcDbEntity
  8
外形線
100
AcDbLine
 10
-1350.466865345343
 20
814.0902663472589
 30
0.0
 11
-1353.930967056695
 21
814.090266513909
 31
0.0
  0
LINE
  5
1B899
330
1F
100
AcDbEntity
  8
外形線
100
AcDbLine
 10
-1353.930967306697
 20
814.090266946922
 30
0.0
 11
-1355.663018106696
 21
817.090266933812
 31
0.0
  0
LINE
  5
1B89A
330
1F
100
AcDbEntity
  8
外形線
100
AcDbLine
 10
-1348.734814883989
 20
817.0902669469217
 30
0.0
 11
-1350.466865683989
 21
820.0902669338118
 31
0.0
  0
LINE
  5
1B89B
330
1F
100
AcDbEntity
  8
外形線
100
AcDbLine
 10
-1350.466865695343
 20
814.0902669534767
 30
0.0
 11
-1348.73481493399
 21
817.0902670335246
 31
0.0
  0
CIRCLE
  5
1B89C
330
1F
100
AcDbEntity
  8
外形線
100
AcDbCircle
 10
-1352.198916495342
 20
817.0902669403668
 30
0.0
 40
6.5
  0
CIRCLE
  5
1B89D
330
1F
100
AcDbEntity
  8
外形線
100
AcDbCircle
 10
-1352.198916495342
 20
817.0902669403668
 30
0.0
 40
5.7
  0
LINE
  5
1B89E
330
1F
100
AcDbEntity
  8
外形線
100
AcDbLine
 10
-1262.484814895342
 20
767.2938062227609
 30
0.0
 11
-1264.216865795342
 21
764.2938062227614
 31
0.0
  0
LINE
  5
1B89F
330
1F
100
AcDbEntity
  8
外形線
100
AcDbLine
 10
-1264.216865195343
 20
770.2938062227614
 30
0.0
 11
-1262.484814195343
 21
767.2938062227609
 31
0.0
  0
LINE
  5
1B8A0
330
1F
100
AcDbEntity
  8
外形線
100
AcDbLine
 10
-1269.413018095343
 20
767.2938062227609
 30
0.0
 11
-1267.680967195343
 21
764.2938062227614
 31
0.0
  0
LINE
  5
1B8A1
330
1F
100
AcDbEntity
  8
外形線
100
AcDbLine
 10
-1269.413018795342
 20
767.2938062227609
 30
0.0
 11
-1267.680967795343
 21
770.2938062227614
 31
0.0
  0
LINE
  5
1B8A2
330
1F
100
AcDbEntity
  8
外形線
100
AcDbLine
 10
-1267.680967295343
 20
764.2938062227614
 30
0.0
 11
-1264.216865695342
 21
764.2938062227614
 31
0.0
  0
LINE
  5
1B8A3
330
1F
100
AcDbEntity
  8
外形線
100
AcDbLine
 10
-1267.680967295341
 20
770.2938062227614
 30
0.0
 11
-1264.216865695342
 21
770.2938062227614
 31
0.0
  0
LINE
  5
1B8A4
330
1F
100
AcDbEntity
  8
外形線
100
AcDbLine
 10
-1298.163018106696
 20
817.0902669469217
 30
0.0
 11
-1296.430967306696
 21
820.0902669338118
 31
0.0
  0
LINE
  5
1B8A5
330
1F
100
AcDbEntity
  8
外形線
100
AcDbLine
 10
-1292.966865695343
 20
820.0902669272574
 30
0.0
 11
-1291.234814933988
 21
817.0902668472095
 31
0.0
  0
LINE
  5
1B8A6
330
1F
100
AcDbEntity
  8
外形線
100
AcDbLine
 10
-1296.430967056696
 20
820.0902673668251
 30
0.0
 11
-1292.966865345343
 21
820.0902675334749
 31
0.0
  0
LINE
  5
1B8A7
330
1F
100
AcDbEntity
  8
外形線
100
AcDbLine
 10
-1296.430967295343
 20
814.0902669534765
 30
0.0
 11
-1292.966865633988
 21
814.0902670335245
 31
0.0
  0
LINE
  5
1B8A8
330
1F
100
AcDbEntity
  8
外形線
100
AcDbLine
 10
-1296.430967645343
 20
814.0902663472585
 30
0.0
 11
-1298.163018356696
 21
817.0902665139092
 31
0.0
  0
LINE
  5
1B8A9
330
1F
100
AcDbEntity
  8
外形線
100
AcDbLine
 10
-1292.96686568399
 20
814.0902669469218
 30
0.0
 11
-1291.234814883989
 21
817.090266933812
 31
0.0
  0
CIRCLE
  5
1B8AA
330
1F
100
AcDbEntity
  8
外形線
100
AcDbCircle
 10
-1294.698916495343
 20
817.0902669403664
 30
0.0
 40
5.7
  0
CIRCLE
  5
1B8AB
330
1F
100
AcDbEntity
  8
外形線
100
AcDbCircle
 10
-1294.698916495343
 20
817.0902669403664
 30
0.0
 40
6.5
  0
LINE
  5
1B8AC
330
1F
100
AcDbEntity
  8
外形線
100
AcDbLine
 10
-1524.467928142528
 20
901.6104156210518
 30
0.0
 11
-1520.644102432535
 21
903.4961176700276
 31
0.0
  0
LINE
  5
1B8AD
330
1F
100
AcDbEntity
  8
外形線
100
AcDbLine
 10
-1517.099123809542
 20
901.1274386822634
 30
0.0
 11
-1520.644102534869
 21
903.4961177384058
 31
0.0
  0
CIRCLE
  5
1B8AE
330
1F
100
AcDbEntity
  8
外形線
100
AcDbCircle
 10
-1520.922949417201
 20
899.2417365649098
 30
0.0
 40
8.0
  0
LINE
  5
1B8AF
330
1F
100
AcDbEntity
  8
外形線
100
AcDbLine
 10
-1521.201796299533
 20
894.9873553914136
 30
0.0
 11
-1524.74677502486
 21
897.3560344475556
 31
0.0
  0
LINE
  5
1B8B0
330
1F
100
AcDbEntity
  8
外形線
100
AcDbLine
 10
-1524.746775536533
 20
897.356034789445
 30
0.0
 11
-1524.46792885887
 21
901.610416099697
 31
0.0
  0
LINE
  5
1B8B1
330
1F
100
AcDbEntity
  8
外形線
100
AcDbLine
 10
-1517.377970691873
 20
896.8730575087668
 30
0.0
 11
-1517.099123911876
 21
901.1274387506409
 31
0.0
  0
LINE
  5
1B8B2
330
1F
100
AcDbEntity
  8
外形線
100
AcDbLine
 10
-1517.377969975528
 20
896.8730570301222
 30
0.0
 11
-1521.201795787859
 21
894.9873550495244
 31
0.0
  0
CIRCLE
  5
1B8B3
330
1F
100
AcDbEntity
  8
細線
100
AcDbCircle
 10
-1464.870272732652
 20
908.7151624600718
 30
0.0
 40
8.0
  0
LINE
  5
1B8B4
330
1F
100
AcDbEntity
  8
中心線
100
AcDbLine
 10
-1456.001358393606
 20
899.8462481210237
 30
0.0
 11
-1473.739187071699
 21
917.5840767991182
 31
0.0
  0
CIRCLE
  5
1B8B5
330
1F
100
AcDbEntity
  8
細線
100
AcDbCircle
 10
-1464.870272732652
 20
908.7151624600709
 30
0.0
 40
8.0
  0
CIRCLE
  5
1B8B6
330
1F
100
AcDbEntity
  8
外形線
100
AcDbCircle
 10
-1464.870272732652
 20
908.7151624600709
 30
0.0
 40
6.400000000000241
  0
LINE
  5
1B8B7
330
1F
100
AcDbEntity
  8
外形線
100
AcDbLine
 10
-1459.65122835289
 20
964.4889927739521
 30
0.0
 11
-1457.765526372292
 21
968.3128185862809
 31
0.0
  0
LINE
  5
1B8B8
330
1F
100
AcDbEntity
  8
外形線
100
AcDbLine
 10
-1457.765525893647
 20
968.3128178699377
 30
0.0
 11
-1453.511144651772
 21
968.5916646499348
 31
0.0
  0
LINE
  5
1B8B9
330
1F
100
AcDbEntity
  8
外形線
100
AcDbLine
 10
-1453.028167781362
 20
961.2228604192825
 30
0.0
 11
-1451.142465732387
 21
965.0466861292764
 31
0.0
  0
LINE
  5
1B8BA
330
1F
100
AcDbEntity
  8
外形線
100
AcDbLine
 10
-1453.028167302717
 20
961.2228597029394
 30
0.0
 11
-1457.282548612969
 21
960.9440130252774
 31
0.0
  0
LINE
  5
1B8BB
330
1F
100
AcDbEntity
  8
外形線
100
AcDbLine
 10
-1457.282548954858
 20
960.9440135369515
 30
0.0
 11
-1459.651228011
 21
964.4889922622784
 31
0.0
  0
LINE
  5
1B8BC
330
1F
100
AcDbEntity
  8
外形線
100
AcDbLine
 10
-1451.142465664009
 20
965.0466860269427
 30
0.0
 11
-1453.51114472015
 21
968.5916647522695
 31
0.0
  0
CIRCLE
  5
1B8BD
330
1F
100
AcDbEntity
  8
外形線
100
AcDbCircle
 10
-1455.396846837504
 20
964.7678391446104
 30
0.0
 40
8.0
  0
CIRCLE
  5
1B8BE
330
1F
100
AcDbEntity
  8
細線
100
AcDbCircle
 10
-1476.948916495344
 20
1033.163605184583
 30
0.0
 40
4.7
  0
ARC
  5
1B8BF
330
1F
100
AcDbEntity
  8
細線
100
AcDbCircle
 10
-1474.216865687775
 20
1032.431554377015
 30
0.0
 40
1.5
100
AcDbArc
 50
119.9999999999965
 51
209.9999999999993
  0
ARC
  5
1B8C0
330
1F
100
AcDbEntity
  8
細線
100
AcDbCircle
 10
-1477.680967302912
 20
1030.431554377015
 30
0.0
 40
1.5
100
AcDbArc
 50
29.99999999999932
 51
119.9999999999965
  0
LINE
  5
1B8C1
330
1F
100
AcDbEntity
  8
細線
100
AcDbLine
 10
-1475.898916495344
 20
1031.344951836634
 30
0.0
 11
-1475.465903793452
 21
1031.594951836636
 31
0.0
  0
LINE
  5
1B8C2
330
1F
100
AcDbEntity
  8
細線
100
AcDbLine
 10
-1475.465903793452
 20
1031.594951836636
 30
0.0
 11
-1475.515903793451
 21
1031.681554377014
 31
0.0
  0
LINE
  5
1B8C3
330
1F
100
AcDbEntity
  8
細線
100
AcDbLine
 10
-1475.898916495344
 20
1031.344951836634
 30
0.0
 11
-1476.331929197234
 21
1031.094951836636
 31
0.0
  0
LINE
  5
1B8C4
330
1F
100
AcDbEntity
  8
細線
100
AcDbLine
 10
-1476.331929197234
 20
1031.094951836636
 30
0.0
 11
-1476.381929197236
 21
1031.181554377012
 31
0.0
  0
ARC
  5
1B8C5
330
1F
100
AcDbEntity
  8
細線
100
AcDbCircle
 10
-1479.680967302913
 20
1033.895655992151
 30
0.0
 40
1.5
100
AcDbArc
 50
299.9999999999965
 51
29.99999999999932
  0
LINE
  5
1B8C6
330
1F
100
AcDbEntity
  8
細線
100
AcDbLine
 10
-1475.466865687775
 20
1034.596617886475
 30
0.0
 11
-1475.380263147396
 21
1034.646617886475
 31
0.0
  0
LINE
  5
1B8C7
330
1F
100
AcDbEntity
  8
細線
100
AcDbLine
 10
-1475.380263147396
 20
1034.646617886475
 30
0.0
 11
-1475.130263147397
 21
1034.213605184584
 31
0.0
  0
LINE
  5
1B8C8
330
1F
100
AcDbEntity
  8
細線
100
AcDbLine
 10
-1474.966865687775
 20
1033.730592482691
 30
0.0
 11
-1474.880263147396
 21
1033.780592482691
 31
0.0
  0
LINE
  5
1B8C9
330
1F
100
AcDbEntity
  8
細線
100
AcDbLine
 10
-1474.880263147396
 20
1033.780592482691
 30
0.0
 11
-1475.130263147397
 21
1034.213605184584
 31
0.0
  0
ARC
  5
1B8CA
330
1F
100
AcDbEntity
  8
細線
100
AcDbCircle
 10
-1476.216865687775
 20
1035.895655992151
 30
0.0
 40
1.5
100
AcDbArc
 50
209.9999999999993
 51
299.9999999999965
  0
LINE
  5
1B8CB
330
1F
100
AcDbEntity
  8
細線
100
AcDbLine
 10
-1477.998916495344
 20
1034.982258532531
 30
0.0
 11
-1477.565903793452
 21
1035.232258532529
 31
0.0
  0
LINE
  5
1B8CC
330
1F
100
AcDbEntity
  8
細線
100
AcDbLine
 10
-1477.565903793452
 20
1035.232258532529
 30
0.0
 11
-1477.515903793451
 21
1035.145655992151
 31
0.0
  0
LINE
  5
1B8CD
330
1F
100
AcDbEntity
  8
細線
100
AcDbLine
 10
-1478.431929197234
 20
1034.732258532531
 30
0.0
 11
-1478.381929197235
 21
1034.645655992151
 31
0.0
  0
LINE
  5
1B8CE
330
1F
100
AcDbEntity
  8
細線
100
AcDbLine
 10
-1477.998916495344
 20
1034.982258532531
 30
0.0
 11
-1478.431929197234
 21
1034.732258532531
 31
0.0
  0
LINE
  5
1B8CF
330
1F
100
AcDbEntity
  8
細線
100
AcDbLine
 10
-1478.430967302913
 20
1031.730592482689
 30
0.0
 11
-1478.517569843291
 21
1031.680592482691
 31
0.0
  0
LINE
  5
1B8D0
330
1F
100
AcDbEntity
  8
細線
100
AcDbLine
 10
-1479.017569843291
 20
1032.546617886475
 30
0.0
 11
-1478.767569843291
 21
1032.113605184582
 31
0.0
  0
LINE
  5
1B8D1
330
1F
100
AcDbEntity
  8
細線
100
AcDbLine
 10
-1478.517569843291
 20
1031.680592482691
 30
0.0
 11
-1478.767569843291
 21
1032.113605184582
 31
0.0
  0
LINE
  5
1B8D2
330
1F
100
AcDbEntity
  8
細線
100
AcDbLine
 10
-1478.930967302913
 20
1032.596617886475
 30
0.0
 11
-1479.017569843291
 21
1032.546617886475
 31
0.0
  0
CIRCLE
  5
1B8D3
330
1F
100
AcDbEntity
  8
外形線
100
AcDbCircle
 10
-1323.448916495343
 20
904.7938062227613
 30
0.0
 40
4.800000000000181
  0
CIRCLE
  5
1B8D4
330
1F
100
AcDbEntity
  8
細線
100
AcDbCircle
 10
-1323.448916495343
 20
904.7938062227613
 30
0.0
 40
6.0
  0
LINE
  5
1B8D5
330
1F
100
AcDbEntity
  8
外形線
100
AcDbLine
 10
-1373.820113865966
 20
1001.600771184857
 30
0.0
 11
-1370.614637615046
 21
1004.411898682403
 31
0.0
  0
LINE
  5
1B8D6
330
1F
100
AcDbEntity
  8
外形線
100
AcDbLine
 10
-1370.61463744697
 20
1004.411897837419
 30
0.0
 11
-1366.577391651228
 21
1003.041437453934
 31
0.0
  0
CIRCLE
  5
1B8D7
330
1F
100
AcDbEntity
  8
外形線
100
AcDbCircle
 10
-1369.782867974181
 20
1000.230310318525
 30
0.0
 40
8.0
  0
LINE
  5
1B8D8
330
1F
100
AcDbEntity
  8
外形線
100
AcDbLine
 10
-1368.951098501393
 20
996.0487227996317
 30
0.0
 11
-1365.745622226463
 21
998.8598501764656
 31
0.0
  0
LINE
  5
1B8D9
330
1F
100
AcDbEntity
  8
外形線
100
AcDbLine
 10
-1368.951098333313
 20
996.0487219546472
 30
0.0
 11
-1372.988344153065
 21
997.4191824588439
 31
0.0
  0
LINE
  5
1B8DA
330
1F
100
AcDbEntity
  8
外形線
100
AcDbLine
 10
-1372.988344273122
 20
997.4191830624036
 30
0.0
 11
-1373.820113745911
 21
1001.600770581297
 31
0.0
  0
LINE
  5
1B8DB
330
1F
100
AcDbEntity
  8
外形線
100
AcDbLine
 10
-1365.745622202452
 20
998.8598500557539
 30
0.0
 11
-1366.577391675241
 21
1003.041437574647
 31
0.0
  0
LINE
  5
1B8DC
330
1F
100
AcDbEntity
  8
外形線
100
AcDbLine
 10
-1276.283195543733
 20
1004.411897837422
 30
0.0
 11
-1273.077719268803
 21
1001.600770460589
 31
0.0
  0
LINE
  5
1B8DD
330
1F
100
AcDbEntity
  8
外形線
100
AcDbLine
 10
-1280.320441195406
 20
1003.04143817821
 30
0.0
 11
-1276.283195375655
 21
1004.411898682404
 31
0.0
  0
CIRCLE
  5
1B8DE
330
1F
100
AcDbEntity
  8
細線
100
AcDbCircle
 10
-1323.448916495343
 20
1004.79380622276
 30
0.0
 40
4.0
  0
CIRCLE
  5
1B8DF
330
1F
100
AcDbEntity
  8
0
100
AcDbCircle
 10
-1323.448916495343
 20
1004.79380622276
 30
0.0
 40
3.20000000000012
  0
CIRCLE
  5
1B8E0
330
1F
100
AcDbEntity
  8
外形線
100
AcDbCircle
 10
-1277.11496501652
 20
1000.230310318529
 30
0.0
 40
8.0
  0
CIRCLE
  5
1B8E1
330
1F
100
AcDbEntity
  8
細線
100
AcDbCircle
 10
-1323.448916495343
 20
967.2938062227613
 30
0.0
 40
8.0
  0
CIRCLE
  5
1B8E2
330
1F
100
AcDbEntity
  8
外形線
100
AcDbCircle
 10
-1323.448916495343
 20
967.2938062227613
 30
0.0
 40
6.400000000000241
  0
CIRCLE
  5
1B8E3
330
1F
100
AcDbEntity
  8
細線
100
AcDbCircle
 10
-1323.448916495343
 20
967.2938062227613
 30
0.0
 40
8.0
  0
LINE
  5
1B8E4
330
1F
100
AcDbEntity
  8
外形線
100
AcDbLine
 10
-1277.946734489309
 20
996.0487227996356
 30
0.0
 11
-1273.909488693569
 21
997.4191831831189
 31
0.0
  0
LINE
  5
1B8E5
330
1F
100
AcDbEntity
  8
外形線
100
AcDbLine
 10
-1273.90948871758
 20
997.4191830624077
 30
0.0
 11
-1273.077719244791
 21
1001.600770581301
 31
0.0
  0
LINE
  5
1B8E6
330
1F
100
AcDbEntity
  8
外形線
100
AcDbLine
 10
-1281.15221078825
 20
998.859850055757
 30
0.0
 11
-1280.320441315462
 21
1003.041437574651
 31
0.0
  0
LINE
  5
1B8E7
330
1F
100
AcDbEntity
  8
外形線
100
AcDbLine
 10
-1277.946734657387
 20
996.0487219546504
 30
0.0
 11
-1281.152210908306
 21
998.8598494521969
 31
0.0
  0
LINE
  5
1B8E8
330
1F
100
AcDbEntity
  8
想像線
 48
0.5
100
AcDbLine
 10
-1335.448916495344
 20
1110.293806222758
 30
0.0
 11
-1351.448916495342
 21
1110.293806222758
 31
0.0
  0
LINE
  5
1B8E9
330
1F
100
AcDbEntity
  8
想像線
 48
0.5
100
AcDbLine
 10
-1354.198916495344
 20
1098.29380622276
 30
0.0
 11
-1332.698916495343
 21
1098.29380622276
 31
0.0
  0
LINE
  5
1B8EA
330
1F
100
AcDbEntity
  8
想像線
 48
0.5
100
AcDbLine
 10
-1355.448916495344
 20
1095.293806222761
 30
0.0
 11
-1331.448916495344
 21
1095.293806222761
 31
0.0
  0
LINE
  5
1B8EB
330
1F
100
AcDbEntity
  8
想像線
 48
0.5
100
AcDbLine
 10
-1285.948916495343
 20
1092.79380622276
 30
0.0
 11
-1360.948916495344
 21
1092.79380622276
 31
0.0
  0
LINE
  5
1B8EC
330
1F
100
AcDbEntity
  8
想像線
 48
0.5
100
AcDbLine
 10
-1360.948916495342
 20
1080.793806222762
 30
0.0
 11
-1285.948916495344
 21
1080.793806222762
 31
0.0
  0
LINE
  5
1B8ED
330
1F
100
AcDbEntity
  8
中心線
100
AcDbLine
 10
-1343.448916495344
 20
1113.147041640803
 30
0.0
 11
-1343.448916495344
 21
1075.114240365715
 31
0.0
  0
LINE
  5
1B8EE
330
1F
100
AcDbEntity
  8
想像線
 48
0.5
100
AcDbLine
 10
-1352.448916495344
 20
1109.293806222759
 30
0.0
 11
-1352.448916495344
 21
1098.29380622276
 31
0.0
  0
LINE
  5
1B8EF
330
1F
100
AcDbEntity
  8
想像線
 48
0.5
100
AcDbLine
 10
-1354.198916495344
 20
1098.29380622276
 30
0.0
 11
-1354.198916495344
 21
1095.293806222761
 31
0.0
  0
LINE
  5
1B8F0
330
1F
100
AcDbEntity
  8
想像線
 48
0.5
100
AcDbLine
 10
-1355.448916495344
 20
1095.293806222761
 30
0.0
 11
-1355.448916495344
 21
1092.79380622276
 31
0.0
  0
LINE
  5
1B8F1
330
1F
100
AcDbEntity
  8
想像線
 48
0.5
100
AcDbLine
 10
-1360.948916495344
 20
1092.79380622276
 30
0.0
 11
-1360.948916495342
 21
1080.793806222762
 31
0.0
  0
LINE
  5
1B8F2
330
1F
100
AcDbEntity
  8
想像線
 48
0.5
100
AcDbLine
 10
-1352.448916495344
 20
1109.293806222759
 30
0.0
 11
-1351.448916495342
 21
1110.293806222758
 31
0.0
  0
LINE
  5
1B8F3
330
1F
100
AcDbEntity
  8
中心線
100
AcDbLine
 10
-1303.448916495344
 20
1113.147041640803
 30
0.0
 11
-1303.448916495344
 21
1075.114240365715
 31
0.0
  0
LINE
  5
1B8F4
330
1F
100
AcDbEntity
  8
想像線
 48
0.5
100
AcDbLine
 10
-1312.448916495344
 20
1109.293806222759
 30
0.0
 11
-1312.448916495344
 21
1098.29380622276
 31
0.0
  0
LINE
  5
1B8F5
330
1F
100
AcDbEntity
  8
想像線
 48
0.5
100
AcDbLine
 10
-1294.448916495344
 20
1109.293806222759
 30
0.0
 11
-1294.448916495344
 21
1098.29380622276
 31
0.0
  0
LINE
  5
1B8F6
330
1F
100
AcDbEntity
  8
想像線
 48
0.5
100
AcDbLine
 10
-1334.448916495343
 20
1109.293806222759
 30
0.0
 11
-1334.448916495343
 21
1098.29380622276
 31
0.0
  0
LINE
  5
1B8F7
330
1F
100
AcDbEntity
  8
想像線
 48
0.5
100
AcDbLine
 10
-1291.448916495344
 20
1095.293806222761
 30
0.0
 11
-1315.448916495344
 21
1095.293806222761
 31
0.0
  0
LINE
  5
1B8F8
330
1F
100
AcDbEntity
  8
想像線
 48
0.5
100
AcDbLine
 10
-1292.698916495344
 20
1098.29380622276
 30
0.0
 11
-1314.198916495344
 21
1098.29380622276
 31
0.0
  0
LINE
  5
1B8F9
330
1F
100
AcDbEntity
  8
中心線
 48
0.4
100
AcDbLine
 10
-1323.448916495344
 20
1068.29380622276
 30
0.0
 11
-1323.448916495344
 21
1080.29380622276
 31
0.0
  0
ARC
  5
1B8FA
330
1F
100
AcDbEntity
  8
細線
100
AcDbCircle
 10
-1321.448916495344
 20
1076.29380622276
 30
0.0
 40
1.5
100
AcDbArc
 50
180.0
 51
270.0
  0
ARC
  5
1B8FB
330
1F
100
AcDbEntity
  8
細線
100
AcDbCircle
 10
-1321.448916495344
 20
1072.29380622276
 30
0.0
 40
1.5
100
AcDbArc
 50
90.0
 51
180.0
  0
CIRCLE
  5
1B8FC
330
1F
100
AcDbEntity
  8
細線
100
AcDbCircle
 10
-1323.448916495344
 20
1074.29380622276
 30
0.0
 40
4.7
  0
ARC
  5
1B8FD
330
1F
100
AcDbEntity
  8
細線
100
AcDbCircle
 10
-1325.448916495344
 20
1076.29380622276
 30
0.0
 40
1.5
100
AcDbArc
 50
270.0
 51
0.0
  0
LINE
  5
1B8FE
330
1F
100
AcDbEntity
  8
細線
100
AcDbLine
 10
-1323.448916495344
 20
1076.39380622276
 30
0.0
 11
-1322.948916495344
 21
1076.39380622276
 31
0.0
  0
LINE
  5
1B8FF
330
1F
100
AcDbEntity
  8
細線
100
AcDbLine
 10
-1322.948916495344
 20
1076.39380622276
 30
0.0
 11
-1322.948916495344
 21
1076.29380622276
 31
0.0
  0
LINE
  5
1B900
330
1F
100
AcDbEntity
  8
細線
100
AcDbLine
 10
-1323.948916495343
 20
1076.39380622276
 30
0.0
 11
-1323.948916495343
 21
1076.29380622276
 31
0.0
  0
LINE
  5
1B901
330
1F
100
AcDbEntity
  8
細線
100
AcDbLine
 10
-1323.448916495344
 20
1076.39380622276
 30
0.0
 11
-1323.948916495343
 21
1076.39380622276
 31
0.0
  0
LINE
  5
1B902
330
1F
100
AcDbEntity
  8
細線
100
AcDbLine
 10
-1325.448916495344
 20
1073.793806222758
 30
0.0
 11
-1325.548916495343
 21
1073.793806222758
 31
0.0
  0
LINE
  5
1B903
330
1F
100
AcDbEntity
  8
細線
100
AcDbLine
 10
-1325.548916495343
 20
1074.793806222759
 30
0.0
 11
-1325.548916495343
 21
1074.29380622276
 31
0.0
  0
LINE
  5
1B904
330
1F
100
AcDbEntity
  8
細線
100
AcDbLine
 10
-1325.548916495343
 20
1073.793806222758
 30
0.0
 11
-1325.548916495343
 21
1074.29380622276
 31
0.0
  0
LINE
  5
1B905
330
1F
100
AcDbEntity
  8
細線
100
AcDbLine
 10
-1325.448916495344
 20
1074.793806222759
 30
0.0
 11
-1325.548916495343
 21
1074.793806222759
 31
0.0
  0
LINE
  5
1B906
330
1F
100
AcDbEntity
  8
細線
100
AcDbLine
 10
-1323.448916495344
 20
1072.19380622276
 30
0.0
 11
-1322.948916495344
 21
1072.19380622276
 31
0.0
  0
LINE
  5
1B907
330
1F
100
AcDbEntity
  8
細線
100
AcDbLine
 10
-1322.948916495344
 20
1072.19380622276
 30
0.0
 11
-1322.948916495344
 21
1072.29380622276
 31
0.0
  0
LINE
  5
1B908
330
1F
100
AcDbEntity
  8
細線
100
AcDbLine
 10
-1323.448916495344
 20
1072.19380622276
 30
0.0
 11
-1323.948916495343
 21
1072.19380622276
 31
0.0
  0
LINE
  5
1B909
330
1F
100
AcDbEntity
  8
細線
100
AcDbLine
 10
-1323.948916495343
 20
1072.19380622276
 30
0.0
 11
-1323.948916495343
 21
1072.29380622276
 31
0.0
  0
ARC
  5
1B90A
330
1F
100
AcDbEntity
  8
細線
100
AcDbCircle
 10
-1325.448916495344
 20
1072.29380622276
 30
0.0
 40
1.5
100
AcDbArc
 50
0.0
 51
90.0
  0
LINE
  5
1B90B
330
1F
100
AcDbEntity
  8
細線
100
AcDbLine
 10
-1321.448916495344
 20
1074.793806222759
 30
0.0
 11
-1321.348916495344
 21
1074.793806222759
 31
0.0
  0
LINE
  5
1B90C
330
1F
100
AcDbEntity
  8
細線
100
AcDbLine
 10
-1321.348916495344
 20
1074.793806222759
 30
0.0
 11
-1321.348916495344
 21
1074.29380622276
 31
0.0
  0
LINE
  5
1B90D
330
1F
100
AcDbEntity
  8
細線
100
AcDbLine
 10
-1321.448916495344
 20
1073.793806222758
 30
0.0
 11
-1321.348916495344
 21
1073.793806222758
 31
0.0
  0
LINE
  5
1B90E
330
1F
100
AcDbEntity
  8
細線
100
AcDbLine
 10
-1321.348916495344
 20
1073.793806222758
 30
0.0
 11
-1321.348916495344
 21
1074.29380622276
 31
0.0
  0
LINE
  5
1B90F
330
1F
100
AcDbEntity
  8
想像線
 48
0.5
100
AcDbLine
 10
-1332.698916495343
 20
1098.29380622276
 30
0.0
 11
-1332.698916495343
 21
1095.293806222761
 31
0.0
  0
LINE
  5
1B910
330
1F
100
AcDbEntity
  8
想像線
 48
0.5
100
AcDbLine
 10
-1331.448916495344
 20
1095.293806222761
 30
0.0
 11
-1331.448916495344
 21
1092.79380622276
 31
0.0
  0
LINE
  5
1B911
330
1F
100
AcDbEntity
  8
想像線
 48
0.5
100
AcDbLine
 10
-1315.448916495344
 20
1095.293806222761
 30
0.0
 11
-1315.448916495344
 21
1092.79380622276
 31
0.0
  0
LINE
  5
1B912
330
1F
100
AcDbEntity
  8
想像線
 48
0.5
100
AcDbLine
 10
-1314.198916495344
 20
1098.29380622276
 30
0.0
 11
-1314.198916495344
 21
1095.293806222761
 31
0.0
  0
LINE
  5
1B913
330
1F
100
AcDbEntity
  8
想像線
 48
0.5
100
AcDbLine
 10
-1285.948916495344
 20
1080.793806222762
 30
0.0
 11
-1285.948916495343
 21
1092.79380622276
 31
0.0
  0
LINE
  5
1B914
330
1F
100
AcDbEntity
  8
想像線
 48
0.5
100
AcDbLine
 10
-1291.448916495344
 20
1095.293806222761
 30
0.0
 11
-1291.448916495343
 21
1092.79380622276
 31
0.0
  0
LINE
  5
1B915
330
1F
100
AcDbEntity
  8
想像線
 48
0.5
100
AcDbLine
 10
-1292.698916495344
 20
1098.29380622276
 30
0.0
 11
-1292.698916495344
 21
1095.293806222761
 31
0.0
  0
LINE
  5
1B916
330
1F
100
AcDbEntity
  8
想像線
 48
0.5
100
AcDbLine
 10
-1311.448916495344
 20
1110.293806222758
 30
0.0
 11
-1295.448916495344
 21
1110.293806222758
 31
0.0
  0
LINE
  5
1B917
330
1F
100
AcDbEntity
  8
想像線
 48
0.5
100
AcDbLine
 10
-1334.448916495343
 20
1109.293806222759
 30
0.0
 11
-1335.448916495344
 21
1110.293806222758
 31
0.0
  0
LINE
  5
1B918
330
1F
100
AcDbEntity
  8
想像線
 48
0.5
100
AcDbLine
 10
-1312.448916495344
 20
1109.293806222759
 30
0.0
 11
-1311.448916495344
 21
1110.293806222758
 31
0.0
  0
LINE
  5
1B919
330
1F
100
AcDbEntity
  8
想像線
 48
0.5
100
AcDbLine
 10
-1294.448916495344
 20
1109.293806222759
 30
0.0
 11
-1295.448916495344
 21
1110.293806222758
 31
0.0
  0
LINE
  5
1B91A
330
1F
100
AcDbEntity
  8
外形線
100
AcDbLine
 10
-621.031358390659
 20
1082.29380622276
 30
0.0
 11
-621.0313583906586
 21
767.2938062227609
 31
0.0
  0
LINE
  5
1B91B
330
1F
100
AcDbEntity
  8
外形線
100
AcDbLine
 10
-661.0313583906584
 20
1082.29380622276
 30
0.0
 11
-661.0313583906629
 21
767.2938062227614
 31
0.0
  0
LINE
  5
1B91C
330
1F
100
AcDbEntity
  8
外形線
100
AcDbLine
 10
-786.0313583906588
 20
1080.29380622276
 30
0.0
 11
-786.0313583906568
 21
767.2938062227609
 31
0.0
  0
LINE
  5
1B91D
330
1F
100
AcDbEntity
  8
外形線
100
AcDbLine
 10
-788.031358390659
 20
1080.29380622276
 30
0.0
 11
-788.0313583906568
 21
767.2938062227609
 31
0.0
  0
CIRCLE
  5
1B91E
330
1F
100
AcDbEntity
  8
細線
100
AcDbCircle
 10
-1185.948916495342
 20
767.2938062227623
 30
0.0
 40
6.0
  0
CIRCLE
  5
1B91F
330
1F
100
AcDbEntity
  8
外形線
100
AcDbCircle
 10
-1185.948916495342
 20
767.2938062227623
 30
0.0
 40
4.800000000000181
  0
CIRCLE
  5
1B920
330
1F
100
AcDbEntity
  8
外形線
100
AcDbCircle
 10
-1123.448916495342
 20
767.2938062227609
 30
0.0
 40
6.400000000000241
  0
CIRCLE
  5
1B921
330
1F
100
AcDbEntity
  8
細線
100
AcDbCircle
 10
-1123.448916495342
 20
767.2938062227623
 30
0.0
 40
8.0
  0
CIRCLE
  5
1B922
330
1F
100
AcDbEntity
  8
細線
100
AcDbCircle
 10
-1123.448916495342
 20
767.2938062227609
 30
0.0
 40
8.0
  0
LINE
  5
1B923
330
1F
100
AcDbEntity
  8
外形線
100
AcDbLine
 10
-1094.694000763454
 20
721.7916243848054
 30
0.0
 11
-1091.882873265907
 21
724.9971006357237
 31
0.0
  0
LINE
  5
1B924
330
1F
100
AcDbEntity
  8
外形線
100
AcDbLine
 10
-1091.882872662347
 20
724.9971005156687
 30
0.0
 11
-1087.701285143453
 21
724.1653310428802
 31
0.0
  0
CIRCLE
  5
1B925
330
1F
100
AcDbEntity
  8
外形線
100
AcDbCircle
 10
-1090.512412399575
 20
720.9598547439392
 30
0.0
 40
8.0
  0
LINE
  5
1B926
330
1F
100
AcDbEntity
  8
外形線
100
AcDbLine
 10
-1087.701284539892
 20
724.1653309228246
 30
0.0
 11
-1086.330824035697
 21
720.128085103073
 31
0.0
  0
LINE
  5
1B927
330
1F
100
AcDbEntity
  8
外形線
100
AcDbLine
 10
-1094.693999918469
 20
721.7916242167278
 30
0.0
 11
-1093.323539534984
 21
717.7543784209875
 31
0.0
  0
LINE
  5
1B928
330
1F
100
AcDbEntity
  8
外形線
100
AcDbLine
 10
-1093.323539655697
 20
717.7543784449984
 30
0.0
 11
-1089.141952136803
 21
716.92260897221
 31
0.0
  0
LINE
  5
1B929
330
1F
100
AcDbEntity
  8
外形線
100
AcDbLine
 10
-1086.33082488068
 20
720.1280852711508
 30
0.0
 11
-1089.141952257514
 21
716.9226089962211
 31
0.0
  0
CIRCLE
  5
1B92A
330
1F
100
AcDbEntity
  8
細線
100
AcDbCircle
 10
-1016.448916495341
 20
767.2938062227618
 30
0.0
 40
4.7
  0
LINE
  5
1B92B
330
1F
100
AcDbEntity
  8
中心線
 48
0.4
100
AcDbLine
 10
-1022.448916495342
 20
767.2938062227618
 30
0.0
 11
-1010.448916495342
 21
767.2938062227618
 31
0.0
  0
CIRCLE
  5
1B92C
330
1F
100
AcDbEntity
  8
細線
100
AcDbCircle
 10
-1085.948916495344
 20
767.2938062227623
 30
0.0
 40
4.0
  0
CIRCLE
  5
1B92D
330
1F
100
AcDbEntity
  8
0
100
AcDbCircle
 10
-1085.948916495344
 20
767.2938062227623
 30
0.0
 40
3.20000000000012
  0
LINE
  5
1B92E
330
1F
100
AcDbEntity
  8
外形線
100
AcDbLine
 10
-1086.330824880685
 20
814.4595271743881
 30
0.0
 11
-1087.701285264166
 21
810.4222813786478
 31
0.0
  0
LINE
  5
1B92F
330
1F
100
AcDbEntity
  8
外形線
100
AcDbLine
 10
-1094.694000763456
 20
812.7959880607333
 30
0.0
 11
-1093.32354025926
 21
816.8332338804846
 31
0.0
  0
LINE
  5
1B930
330
1F
100
AcDbEntity
  8
外形線
100
AcDbLine
 10
-1093.323539655699
 20
816.8332340005408
 30
0.0
 11
-1089.141952136805
 21
817.665003473329
 31
0.0
  0
LINE
  5
1B931
330
1F
100
AcDbEntity
  8
外形線
100
AcDbLine
 10
-1094.693999918473
 20
812.7959882288113
 30
0.0
 11
-1091.882872541638
 21
809.5905119538816
 31
0.0
  0
LINE
  5
1B932
330
1F
100
AcDbEntity
  8
外形線
100
AcDbLine
 10
-1089.141951533247
 20
817.6650035933844
 30
0.0
 11
-1086.330824035701
 21
814.4595273424657
 31
0.0
  0
LINE
  5
1B933
330
1F
100
AcDbEntity
  8
外形線
100
AcDbLine
 10
-1091.882872662349
 20
809.5905119298706
 30
0.0
 11
-1087.701285143457
 21
810.4222814026588
 31
0.0
  0
CIRCLE
  5
1B934
330
1F
100
AcDbEntity
  8
外形線
100
AcDbCircle
 10
-1090.512412399578
 20
813.6277577015995
 30
0.0
 40
8.0
  0
ARC
  5
1B935
330
1F
100
AcDbEntity
  8
細線
100
AcDbCircle
 10
-1018.448916495342
 20
765.2938062227619
 30
0.0
 40
1.5
100
AcDbArc
 50
0.0
 51
90.0
  0
ARC
  5
1B936
330
1F
100
AcDbEntity
  8
細線
100
AcDbCircle
 10
-1018.448916495342
 20
769.2938062227619
 30
0.0
 40
1.5
100
AcDbArc
 50
270.0
 51
0.0
  0
LINE
  5
1B937
330
1F
100
AcDbEntity
  8
細線
100
AcDbLine
 10
-1018.548916495342
 20
767.2938062227618
 30
0.0
 11
-1018.548916495342
 21
766.7938062227618
 31
0.0
  0
LINE
  5
1B938
330
1F
100
AcDbEntity
  8
細線
100
AcDbLine
 10
-1018.548916495342
 20
766.7938062227618
 30
0.0
 11
-1018.448916495342
 21
766.7938062227618
 31
0.0
  0
LINE
  5
1B939
330
1F
100
AcDbEntity
  8
細線
100
AcDbLine
 10
-1018.548916495342
 20
767.2938062227618
 30
0.0
 11
-1018.548916495342
 21
767.7938062227618
 31
0.0
  0
LINE
  5
1B93A
330
1F
100
AcDbEntity
  8
細線
100
AcDbLine
 10
-1018.548916495342
 20
767.7938062227618
 30
0.0
 11
-1018.448916495342
 21
767.7938062227618
 31
0.0
  0
ARC
  5
1B93B
330
1F
100
AcDbEntity
  8
細線
100
AcDbCircle
 10
-1014.448916495342
 20
769.2938062227619
 30
0.0
 40
1.5
100
AcDbArc
 50
180.0
 51
270.0
  0
LINE
  5
1B93C
330
1F
100
AcDbEntity
  8
細線
100
AcDbLine
 10
-1015.948916495343
 20
765.2938062227619
 30
0.0
 11
-1015.948916495343
 21
765.1938062227615
 31
0.0
  0
LINE
  5
1B93D
330
1F
100
AcDbEntity
  8
細線
100
AcDbLine
 10
-1015.948916495343
 20
765.1938062227615
 30
0.0
 11
-1016.448916495341
 21
765.1938062227615
 31
0.0
  0
LINE
  5
1B93E
330
1F
100
AcDbEntity
  8
細線
100
AcDbLine
 10
-1016.948916495343
 20
765.2938062227619
 30
0.0
 11
-1016.948916495343
 21
765.1938062227615
 31
0.0
  0
LINE
  5
1B93F
330
1F
100
AcDbEntity
  8
細線
100
AcDbLine
 10
-1016.948916495343
 20
765.1938062227615
 30
0.0
 11
-1016.448916495341
 21
765.1938062227615
 31
0.0
  0
ARC
  5
1B940
330
1F
100
AcDbEntity
  8
細線
100
AcDbCircle
 10
-1014.448916495342
 20
765.2938062227619
 30
0.0
 40
1.5
100
AcDbArc
 50
90.0
 51
180.0
  0
LINE
  5
1B941
330
1F
100
AcDbEntity
  8
細線
100
AcDbLine
 10
-1014.348916495342
 20
767.2938062227618
 30
0.0
 11
-1014.348916495342
 21
766.7938062227618
 31
0.0
  0
LINE
  5
1B942
330
1F
100
AcDbEntity
  8
細線
100
AcDbLine
 10
-1014.348916495342
 20
766.7938062227618
 30
0.0
 11
-1014.448916495342
 21
766.7938062227618
 31
0.0
  0
LINE
  5
1B943
330
1F
100
AcDbEntity
  8
細線
100
AcDbLine
 10
-1014.348916495342
 20
767.7938062227618
 30
0.0
 11
-1014.448916495342
 21
767.7938062227618
 31
0.0
  0
LINE
  5
1B944
330
1F
100
AcDbEntity
  8
細線
100
AcDbLine
 10
-1014.348916495342
 20
767.2938062227618
 30
0.0
 11
-1014.348916495342
 21
767.7938062227618
 31
0.0
  0
LINE
  5
1B945
330
1F
100
AcDbEntity
  8
細線
100
AcDbLine
 10
-1016.948916495343
 20
769.2938062227619
 30
0.0
 11
-1016.948916495343
 21
769.3938062227617
 31
0.0
  0
LINE
  5
1B946
330
1F
100
AcDbEntity
  8
細線
100
AcDbLine
 10
-1015.948916495343
 20
769.3938062227617
 30
0.0
 11
-1016.448916495341
 21
769.3938062227617
 31
0.0
  0
LINE
  5
1B947
330
1F
100
AcDbEntity
  8
細線
100
AcDbLine
 10
-1016.948916495343
 20
769.3938062227617
 30
0.0
 11
-1016.448916495341
 21
769.3938062227617
 31
0.0
  0
LINE
  5
1B948
330
1F
100
AcDbEntity
  8
細線
100
AcDbLine
 10
-1015.948916495343
 20
769.2938062227619
 30
0.0
 11
-1015.948916495343
 21
769.3938062227617
 31
0.0
  0
CIRCLE
  5
1B949
330
1F
100
AcDbEntity
  8
細線
100
AcDbCircle
 10
-1182.027560258033
 20
908.7151624600709
 30
0.0
 40
8.0
  0
CIRCLE
  5
1B94A
330
1F
100
AcDbEntity
  8
細線
100
AcDbCircle
 10
-1182.027560258033
 20
908.7151624600709
 30
0.0
 40
8.0
  0
CIRCLE
  5
1B94B
330
1F
100
AcDbEntity
  8
外形線
100
AcDbCircle
 10
-1182.027560258033
 20
908.7151624600705
 30
0.0
 40
6.400000000000241
  0
CIRCLE
  5
1B94C
330
1F
100
AcDbEntity
  8
細線
100
AcDbCircle
 10
-1182.027560258033
 20
908.7151624600705
 30
0.0
 40
8.0
  0
LINE
  5
1B94D
330
1F
100
AcDbEntity
  8
中心線
100
AcDbLine
 10
-1190.89647459708
 20
899.8462481210241
 30
0.0
 11
-1173.158645918986
 21
917.5840767991173
 31
0.0
  0
LINE
  5
1B94E
330
1F
100
AcDbEntity
  8
外形線
100
AcDbLine
 10
-1126.253729944151
 20
903.4961180803085
 30
0.0
 11
-1122.429904131824
 21
901.6104160997105
 31
0.0
  0
LINE
  5
1B94F
330
1F
100
AcDbEntity
  8
外形線
100
AcDbLine
 10
-1129.798709181152
 20
901.1274386822769
 30
0.0
 11
-1126.253730455825
 21
903.4961177384195
 31
0.0
  0
CIRCLE
  5
1B950
330
1F
100
AcDbEntity
  8
外形線
100
AcDbCircle
 10
-1125.974883573493
 20
899.2417365649229
 30
0.0
 40
8.0
  0
LINE
  5
1B951
330
1F
100
AcDbEntity
  8
外形線
100
AcDbLine
 10
-1122.429904848166
 20
901.6104156210655
 30
0.0
 11
-1122.151058068169
 21
897.3560343791914
 31
0.0
  0
LINE
  5
1B952
330
1F
100
AcDbEntity
  8
外形線
100
AcDbLine
 10
-1129.519862298822
 20
896.8730575087807
 30
0.0
 11
-1125.696036588828
 21
894.9873554598054
 31
0.0
  0
LINE
  5
1B953
330
1F
100
AcDbEntity
  8
外形線
100
AcDbLine
 10
-1129.519863015165
 20
896.8730570301355
 30
0.0
 11
-1129.798709692825
 21
901.1274383403874
 31
0.0
  0
LINE
  5
1B954
330
1F
100
AcDbEntity
  8
外形線
100
AcDbLine
 10
-1125.696036691162
 20
894.9873553914272
 30
0.0
 11
-1122.151057965834
 21
897.3560344475696
 31
0.0
  0
LINE
  5
1B955
330
1F
100
AcDbEntity
  8
外形線
100
AcDbLine
 10
-1193.386687928659
 20
968.5916652639521
 30
0.0
 11
-1189.132306618408
 21
968.3128185862898
 31
0.0
  0
LINE
  5
1B956
330
1F
100
AcDbEntity
  8
外形線
100
AcDbLine
 10
-1189.132307097052
 20
968.3128178699467
 30
0.0
 11
-1187.246605048077
 21
964.4889921599528
 31
0.0
  0
LINE
  5
1B957
330
1F
100
AcDbEntity
  8
外形線
100
AcDbLine
 10
-1193.869665209337
 20
961.2228604192917
 30
0.0
 11
-1189.615283967464
 21
960.9440136392949
 31
0.0
  0
LINE
  5
1B958
330
1F
100
AcDbEntity
  8
外形線
100
AcDbLine
 10
-1189.615284035841
 20
960.9440135369604
 30
0.0
 11
-1187.246604979699
 21
964.488992262288
 31
0.0
  0
LINE
  5
1B959
330
1F
100
AcDbEntity
  8
外形線
100
AcDbLine
 10
-1193.869665687983
 20
961.2228597029485
 30
0.0
 11
-1195.75536766858
 21
965.0466855152778
 31
0.0
  0
LINE
  5
1B95A
330
1F
100
AcDbEntity
  8
外形線
100
AcDbLine
 10
-1195.75536732669
 20
965.0466860269515
 30
0.0
 11
-1193.386688270549
 21
968.5916647522786
 31
0.0
  0
CIRCLE
  5
1B95B
330
1F
100
AcDbEntity
  8
外形線
100
AcDbCircle
 10
-1191.500986153193
 20
964.767839144619
 30
0.0
 40
8.0
  0
CIRCLE
  5
1B95C
330
1F
100
AcDbEntity
  8
細線
100
AcDbCircle
 10
-1169.948916495342
 20
1033.163605184584
 30
0.0
 40
4.7
  0
ARC
  5
1B95D
330
1F
100
AcDbEntity
  8
細線
100
AcDbCircle
 10
-1169.216865687774
 20
1030.431554377015
 30
0.0
 40
1.5
100
AcDbArc
 50
60.00000000000341
 51
150.0000000000006
  0
ARC
  5
1B95E
330
1F
100
AcDbEntity
  8
細線
100
AcDbCircle
 10
-1172.680967302912
 20
1032.431554377015
 30
0.0
 40
1.5
100
AcDbArc
 50
330.0000000000006
 51
60.00000000000341
  0
LINE
  5
1B95F
330
1F
100
AcDbEntity
  8
細線
100
AcDbLine
 10
-1170.998916495343
 20
1031.344951836635
 30
0.0
 11
-1170.565903793451
 21
1031.094951836637
 31
0.0
  0
LINE
  5
1B960
330
1F
100
AcDbEntity
  8
細線
100
AcDbLine
 10
-1170.565903793451
 20
1031.094951836637
 30
0.0
 11
-1170.515903793451
 21
1031.181554377015
 31
0.0
  0
LINE
  5
1B961
330
1F
100
AcDbEntity
  8
細線
100
AcDbLine
 10
-1170.998916495343
 20
1031.344951836635
 30
0.0
 11
-1171.431929197236
 21
1031.594951836636
 31
0.0
  0
LINE
  5
1B962
330
1F
100
AcDbEntity
  8
細線
100
AcDbLine
 10
-1171.431929197236
 20
1031.594951836636
 30
0.0
 11
-1171.381929197236
 21
1031.681554377015
 31
0.0
  0
ARC
  5
1B963
330
1F
100
AcDbEntity
  8
細線
100
AcDbCircle
 10
-1170.680967302911
 20
1035.895655992153
 30
0.0
 40
1.5
100
AcDbArc
 50
240.0000000000033
 51
330.0000000000006
  0
LINE
  5
1B964
330
1F
100
AcDbEntity
  8
細線
100
AcDbLine
 10
-1167.966865687774
 20
1032.596617886476
 30
0.0
 11
-1167.880263147396
 21
1032.546617886475
 31
0.0
  0
LINE
  5
1B965
330
1F
100
AcDbEntity
  8
細線
100
AcDbLine
 10
-1167.880263147396
 20
1032.546617886475
 30
0.0
 11
-1168.130263147396
 21
1032.113605184584
 31
0.0
  0
LINE
  5
1B966
330
1F
100
AcDbEntity
  8
細線
100
AcDbLine
 10
-1168.466865687774
 20
1031.730592482692
 30
0.0
 11
-1168.380263147396
 21
1031.680592482691
 31
0.0
  0
LINE
  5
1B967
330
1F
100
AcDbEntity
  8
細線
100
AcDbLine
 10
-1168.380263147396
 20
1031.680592482691
 30
0.0
 11
-1168.130263147396
 21
1032.113605184584
 31
0.0
  0
ARC
  5
1B968
330
1F
100
AcDbEntity
  8
細線
100
AcDbCircle
 10
-1167.216865687774
 20
1033.895655992153
 30
0.0
 40
1.5
100
AcDbArc
 50
150.0000000000006
 51
240.0000000000033
  0
LINE
  5
1B969
330
1F
100
AcDbEntity
  8
細線
100
AcDbLine
 10
-1168.898916495343
 20
1034.982258532531
 30
0.0
 11
-1168.465903793451
 21
1034.732258532531
 31
0.0
  0
LINE
  5
1B96A
330
1F
100
AcDbEntity
  8
細線
100
AcDbLine
 10
-1168.465903793451
 20
1034.732258532531
 30
0.0
 11
-1168.515903793451
 21
1034.645655992153
 31
0.0
  0
LINE
  5
1B96B
330
1F
100
AcDbEntity
  8
細線
100
AcDbLine
 10
-1169.331929197234
 20
1035.232258532529
 30
0.0
 11
-1169.381929197236
 21
1035.145655992153
 31
0.0
  0
LINE
  5
1B96C
330
1F
100
AcDbEntity
  8
細線
100
AcDbLine
 10
-1168.898916495343
 20
1034.982258532531
 30
0.0
 11
-1169.331929197234
 21
1035.232258532529
 31
0.0
  0
LINE
  5
1B96D
330
1F
100
AcDbEntity
  8
細線
100
AcDbLine
 10
-1171.930967302912
 20
1033.730592482692
 30
0.0
 11
-1172.017569843289
 21
1033.780592482691
 31
0.0
  0
LINE
  5
1B96E
330
1F
100
AcDbEntity
  8
細線
100
AcDbLine
 10
-1171.51756984329
 20
1034.646617886475
 30
0.0
 11
-1171.76756984329
 21
1034.213605184584
 31
0.0
  0
LINE
  5
1B96F
330
1F
100
AcDbEntity
  8
細線
100
AcDbLine
 10
-1172.017569843289
 20
1033.780592482691
 30
0.0
 11
-1171.76756984329
 21
1034.213605184584
 31
0.0
  0
LINE
  5
1B970
330
1F
100
AcDbEntity
  8
細線
100
AcDbLine
 10
-1171.430967302911
 20
1034.596617886476
 30
0.0
 11
-1171.51756984329
 21
1034.646617886475
 31
0.0
  0
ARC
  5
1B971
330
1F
100
AcDbEntity
  8
細線
100
AcDbCircle
 10
-1060.311168341089
 20
921.5258570303305
 30
0.0
 40
1.5
100
AcDbArc
 50
299.9999999999965
 51
29.99999999999932
  0
LINE
  5
1B972
330
1F
100
AcDbEntity
  8
細線
100
AcDbLine
 10
-1059.397770881467
 20
919.7438062227616
 30
0.0
 11
-1059.147770881466
 21
919.3107935208697
 31
0.0
  0
CIRCLE
  5
1B973
330
1F
100
AcDbEntity
  8
細線
100
AcDbCircle
 10
-1057.57911753352
 20
920.7938062227619
 30
0.0
 40
4.7
  0
LINE
  5
1B974
330
1F
100
AcDbEntity
  8
細線
100
AcDbLine
 10
-1059.397770881467
 20
919.7438062227616
 30
0.0
 11
-1059.647770881466
 21
920.1768189246541
 31
0.0
  0
LINE
  5
1B975
330
1F
100
AcDbEntity
  8
細線
100
AcDbLine
 10
-1059.647770881466
 20
920.1768189246541
 30
0.0
 11
-1059.561168341089
 21
920.2268189246538
 31
0.0
  0
LINE
  5
1B976
330
1F
100
AcDbEntity
  8
細線
100
AcDbLine
 10
-1059.147770881466
 20
919.3107935208697
 30
0.0
 11
-1059.061168341087
 21
919.3607935208698
 31
0.0
  0
LINE
  5
1B977
330
1F
100
AcDbEntity
  8
細線
100
AcDbLine
 10
-1057.012130235413
 20
918.8117554151927
 30
0.0
 11
-1056.962130235413
 21
918.7251528748143
 31
0.0
  0
LINE
  5
1B978
330
1F
100
AcDbEntity
  8
細線
100
AcDbLine
 10
-1059.012130235413
 20
922.2758570303309
 30
0.0
 11
-1059.062130235413
 21
922.3624595707093
 31
0.0
  0
LINE
  5
1B979
330
1F
100
AcDbEntity
  8
細線
100
AcDbLine
 10
-1058.196104831627
 20
922.8624595707094
 30
0.0
 11
-1058.62911753352
 21
922.6124595707092
 31
0.0
  0
LINE
  5
1B97A
330
1F
100
AcDbEntity
  8
細線
100
AcDbLine
 10
-1059.062130235413
 20
922.3624595707093
 30
0.0
 11
-1058.62911753352
 21
922.6124595707092
 31
0.0
  0
LINE
  5
1B97B
330
1F
100
AcDbEntity
  8
細線
100
AcDbLine
 10
-1058.146104831628
 20
922.775857030331
 30
0.0
 11
-1058.196104831627
 21
922.8624595707094
 31
0.0
  0
LINE
  5
1B97C
330
1F
100
AcDbEntity
  8
細線
100
AcDbLine
 10
-1056.146104831628
 20
919.3117554151925
 30
0.0
 11
-1056.096104831628
 21
919.2251528748144
 31
0.0
  0
LINE
  5
1B97D
330
1F
100
AcDbEntity
  8
細線
100
AcDbLine
 10
-1056.096104831628
 20
919.2251528748144
 30
0.0
 11
-1056.52911753352
 21
918.9751528748145
 31
0.0
  0
ARC
  5
1B97E
330
1F
100
AcDbEntity
  8
細線
100
AcDbCircle
 10
-1054.847066725951
 20
920.0617554151929
 30
0.0
 40
1.5
100
AcDbArc
 50
119.9999999999965
 51
209.9999999999993
  0
LINE
  5
1B97F
330
1F
100
AcDbEntity
  8
細線
100
AcDbLine
 10
-1055.760464185572
 20
921.8438062227617
 30
0.0
 11
-1055.510464185573
 21
921.4107935208696
 31
0.0
  0
LINE
  5
1B980
330
1F
100
AcDbEntity
  8
細線
100
AcDbLine
 10
-1055.510464185573
 20
921.4107935208696
 30
0.0
 11
-1055.597066725951
 21
921.3607935208697
 31
0.0
  0
LINE
  5
1B981
330
1F
100
AcDbEntity
  8
細線
100
AcDbLine
 10
-1056.010464185571
 20
922.2768189246536
 30
0.0
 11
-1056.097066725951
 21
922.2268189246539
 31
0.0
  0
LINE
  5
1B982
330
1F
100
AcDbEntity
  8
細線
100
AcDbLine
 10
-1055.760464185572
 20
921.8438062227617
 30
0.0
 11
-1056.010464185571
 21
922.2768189246536
 31
0.0
  0
ARC
  5
1B983
330
1F
100
AcDbEntity
  8
細線
100
AcDbCircle
 10
-1058.311168341087
 20
918.0617554151927
 30
0.0
 40
1.5
100
AcDbArc
 50
29.99999999999932
 51
119.9999999999965
  0
ARC
  5
1B984
330
1F
100
AcDbEntity
  8
細線
100
AcDbCircle
 10
-1056.847066725951
 20
923.5258570303304
 30
0.0
 40
1.5
100
AcDbArc
 50
209.9999999999993
 51
299.9999999999965
  0
LINE
  5
1B985
330
1F
100
AcDbEntity
  8
細線
100
AcDbLine
 10
-1056.962130235413
 20
918.7251528748143
 30
0.0
 11
-1056.52911753352
 21
918.9751528748145
 31
0.0
  0
LINE
  5
1B986
330
1F
100
AcDbEntity
  8
外形線
100
AcDbLine
 10
-617.031358390659
 20
828.6359114859198
 30
0.0
 11
-617.031358390659
 21
873.9517009596035
 31
0.0
  0
LINE
  5
1B987
330
1F
100
AcDbEntity
  8
外形線
100
AcDbLine
 10
-617.031358390659
 20
828.6359114859198
 30
0.0
 11
-617.031358390659
 21
873.9517009596035
 31
0.0
  0
LINE
  5
1B988
330
1F
100
AcDbEntity
  8
破線
100
AcDbLine
 10
-621.031358390659
 20
882.2938062227613
 30
0.0
 11
-621.031358390659
 21
767.2938062227609
 31
0.0
  0
LINE
  5
1B989
330
1F
100
AcDbEntity
  8
外形線
100
AcDbLine
 10
-617.031358390659
 20
907.2938062227613
 30
0.0
 11
-617.031358390659
 21
767.2938062227609
 31
0.0
  0
LINE
  5
1B98A
330
1F
100
AcDbEntity
  8
外形線
100
AcDbLine
 10
-796.0313583906587
 20
991.7938062227605
 30
0.0
 11
-796.0313583906587
 21
767.2938062227609
 31
0.0
  0
LINE
  5
1B98B
330
1F
100
AcDbEntity
  8
外形線
100
AcDbLine
 10
-792.0313583906587
 20
1016.79380622276
 30
0.0
 11
-792.0313583906565
 21
767.2938062227609
 31
0.0
  0
LINE
  5
1B98C
330
1F
100
AcDbEntity
  8
破線
100
AcDbLine
 10
-621.5313583906574
 20
817.2938062227673
 30
0.0
 11
-792.031358390657
 21
817.2938062227611
 31
0.0
  0
LINE
  5
1B98D
330
1F
100
AcDbEntity
  8
破線
100
AcDbLine
 10
-621.5313583906574
 20
717.2938062227554
 30
0.0
 11
-792.031358390657
 21
717.2938062227609
 31
0.0
  0
LINE
  5
1B98E
330
1F
100
AcDbEntity
  8
外形線
100
AcDbLine
 10
-626.031358390659
 20
749.7938062227611
 30
0.0
 11
-626.031358390659
 21
784.7938062227614
 31
0.0
  0
LINE
  5
1B98F
330
1F
100
AcDbEntity
  8
外形線
100
AcDbLine
 10
-633.2313583906589
 20
749.7938062227611
 30
0.0
 11
-633.2313583906595
 21
784.7938062227614
 31
0.0
  0
LINE
  5
1B990
330
1F
100
AcDbEntity
  8
破線
100
AcDbLine
 10
-621.031358390659
 20
652.2938062227614
 30
0.0
 11
-621.031358390659
 21
767.2938062227609
 31
0.0
  0
LINE
  5
1B991
330
1F
100
AcDbEntity
  8
外形線
100
AcDbLine
 10
-615.4613583906598
 20
693.5638053660724
 30
0.0
 11
-615.4613583906598
 21
661.0238070794504
 31
0.0
  0
LINE
  5
1B992
330
1F
100
AcDbEntity
  8
外形線
100
AcDbLine
 10
-617.0313583906589
 20
661.0238070794504
 30
0.0
 11
-615.4613583906598
 21
661.0238070794504
 31
0.0
  0
LINE
  5
1B993
330
1F
100
AcDbEntity
  8
外形線
100
AcDbLine
 10
-617.0313583906589
 20
693.5638053660724
 30
0.0
 11
-615.4613583906598
 21
693.5638053660724
 31
0.0
  0
LINE
  5
1B994
330
1F
100
AcDbEntity
  8
破線
100
AcDbLine
 10
-641.4110780995811
 20
714.0938062227613
 30
0.0
 11
-621.0313583906589
 21
714.0938062227613
 31
0.0
  0
LWPOLYLINE
  5
1B995
330
1F
100
AcDbEntity
  8
外形線
100
AcDbPolyline
 90
        8
 70
     1
 43
0.0
 10
-626.0313583906594
 20
736.0938062227614
 10
-626.0313583906593
 20
744.4938062227612
 42
0.4142135623730951
 10
-626.3313583906592
 20
744.7938062227613
 10
-631.7313583906592
 20
744.7938062227613
 42
0.4142135623730951
 10
-632.0313583906592
 20
744.4938062227612
 10
-632.0313583906592
 20
736.0938062227614
 42
0.4142135623730996
 10
-631.7313583906592
 20
735.7938062227614
 10
-626.3313583906594
 20
735.7938062227614
 42
0.4142135623730904
  0
LINE
  5
1B996
330
1F
100
AcDbEntity
  8
外形線
100
AcDbLine
 10
-633.2313583906589
 20
749.7938062227611
 30
0.0
 11
-626.031358390659
 21
749.7938062227611
 31
0.0
  0
LINE
  5
1B997
330
1F
100
AcDbEntity
  8
外形線
100
AcDbLine
 10
-633.2313583906589
 20
810.4938062227617
 30
0.0
 11
-633.2313583906589
 21
790.0938062227614
 31
0.0
  0
LINE
  5
1B998
330
1F
100
AcDbEntity
  8
外形線
100
AcDbLine
 10
-626.031358390659
 20
790.0938062227614
 30
0.0
 11
-626.031358390659
 21
810.4938062227612
 31
0.0
  0
ARC
  5
1B999
330
1F
100
AcDbEntity
  8
外形線
100
AcDbCircle
 10
-626.3313583906592
 20
790.0938062227615
 30
0.0
 40
0.3
100
AcDbArc
 50
270.0
 51
0.0
  0
ARC
  5
1B99A
330
1F
100
AcDbEntity
  8
外形線
100
AcDbCircle
 10
-632.9313583906591
 20
790.0938062227615
 30
0.0
 40
0.3
100
AcDbArc
 50
180.0
 51
270.0
  0
LINE
  5
1B99B
330
1F
100
AcDbEntity
  8
外形線
100
AcDbLine
 10
-632.9313583906591
 20
789.7938062227614
 30
0.0
 11
-626.3313583906588
 21
789.7938062227614
 31
0.0
  0
LINE
  5
1B99C
330
1F
100
AcDbEntity
  8
外形線
100
AcDbLine
 10
-633.2313583906595
 20
784.7938062227614
 30
0.0
 11
-626.031358390659
 21
784.7938062227614
 31
0.0
  0
LINE
  5
1B99D
330
1F
100
AcDbEntity
  8
破線
100
AcDbLine
 10
-641.4110780995811
 20
820.4938062227611
 30
0.0
 11
-621.0313583906589
 21
820.4938062227611
 31
0.0
  0
ARC
  5
1B99E
330
1F
100
AcDbEntity
  8
外形線
100
AcDbCircle
 10
-626.3313583906592
 20
810.4938062227617
 30
0.0
 40
0.3
100
AcDbArc
 50
0.0
 51
90.0
  0
ARC
  5
1B99F
330
1F
100
AcDbEntity
  8
外形線
100
AcDbCircle
 10
-632.9313583906589
 20
810.4938062227617
 30
0.0
 40
0.3
100
AcDbArc
 50
90.0
 51
180.0
  0
LINE
  5
1B9A0
330
1F
100
AcDbEntity
  8
外形線
100
AcDbLine
 10
-626.3313583906588
 20
810.7938062227614
 30
0.0
 11
-632.9313583906589
 21
810.7938062227614
 31
0.0
  0
LINE
  5
1B9A1
330
1F
100
AcDbEntity
  8
中心線
100
AcDbLine
 10
-799.8392571036893
 20
967.2938062227613
 30
0.0
 11
-755.6963589819401
 21
967.2938062227613
 31
0.0
  0
LINE
  5
1B9A2
330
1F
100
AcDbEntity
  8
破線
100
AcDbLine
 10
-796.0313583906587
 20
917.2938062227613
 30
0.0
 11
-792.0313583906579
 21
917.2938062227613
 31
0.0
  0
LINE
  5
1B9A3
330
1F
100
AcDbEntity
  8
外形線
100
AcDbLine
 10
-795.5313583906586
 20
992.2938062227604
 30
0.0
 11
-792.0313583906587
 21
992.2938062227604
 31
0.0
  0
LINE
  5
1B9A4
330
1F
100
AcDbEntity
  8
外形線
100
AcDbLine
 10
-795.5313583906586
 20
992.2938062227604
 30
0.0
 11
-796.0313583906587
 21
991.7938062227605
 31
0.0
  0
LINE
  5
1B9A5
330
1F
100
AcDbEntity
  8
外形線
100
AcDbLine
 10
-791.5313583906587
 20
1017.29380622276
 30
0.0
 11
-788.0313583906586
 21
1017.29380622276
 31
0.0
  0
LINE
  5
1B9A6
330
1F
100
AcDbEntity
  8
外形線
100
AcDbLine
 10
-791.5313583906587
 20
1017.29380622276
 30
0.0
 11
-792.0313583906587
 21
1016.79380622276
 31
0.0
  0
LINE
  5
1B9A7
330
1F
100
AcDbEntity
  8
破線
100
AcDbLine
 10
-617.031358390659
 20
892.2938062227611
 30
0.0
 11
-621.031358390659
 21
892.2938062227611
 31
0.0
  0
LINE
  5
1B9A8
330
1F
100
AcDbEntity
  8
外形線
100
AcDbLine
 10
-621.0313583906589
 20
907.2938062227606
 30
0.0
 11
-617.031358390659
 21
907.2938062227613
 31
0.0
  0
LINE
  5
1B9A9
330
1F
100
AcDbEntity
  8
想像線
 48
0.5
100
AcDbLine
 10
-760.5313583906591
 20
1110.293806222758
 30
0.0
 11
-776.5313583906583
 21
1110.293806222758
 31
0.0
  0
LINE
  5
1B9AA
330
1F
100
AcDbEntity
  8
想像線
 48
0.5
100
AcDbLine
 10
-757.7813583906592
 20
1098.293806222762
 30
0.0
 11
-779.2813583906591
 21
1098.29380622276
 31
0.0
  0
LINE
  5
1B9AB
330
1F
100
AcDbEntity
  8
想像線
 48
0.5
100
AcDbLine
 10
-756.5313583906591
 20
1095.293806222761
 30
0.0
 11
-780.5313583906592
 21
1095.293806222761
 31
0.0
  0
LINE
  5
1B9AC
330
1F
100
AcDbEntity
  8
想像線
 48
0.5
100
AcDbLine
 10
-746.0313583906587
 20
1080.793806222762
 30
0.0
 11
-851.0313583906592
 21
1080.793806222762
 31
0.0
  0
LINE
  5
1B9AD
330
1F
100
AcDbEntity
  8
想像線
 48
0.5
100
AcDbLine
 10
-751.0313583906587
 20
1092.79380622276
 30
0.0
 11
-851.0313583906592
 21
1092.793806222762
 31
0.0
  0
LINE
  5
1B9AE
330
1F
100
AcDbEntity
  8
外形線
100
AcDbLine
 10
-621.031358390659
 20
1082.29380622276
 30
0.0
 11
-784.031358390659
 21
1082.29380622276
 31
0.0
  0
LINE
  5
1B9AF
330
1F
100
AcDbEntity
  8
想像線
 48
0.5
100
AcDbLine
 10
-777.5313583906588
 20
1109.293806222759
 30
0.0
 11
-777.5313583906588
 21
1098.29380622276
 31
0.0
  0
LINE
  5
1B9B0
330
1F
100
AcDbEntity
  8
想像線
 48
0.5
100
AcDbLine
 10
-851.0313583906592
 20
1092.793806222762
 30
0.0
 11
-851.0313583906592
 21
1080.79380622276
 31
0.0
  0
LINE
  5
1B9B1
330
1F
100
AcDbEntity
  8
想像線
 48
0.5
100
AcDbLine
 10
-833.5313583906591
 20
1081.793806222759
 30
0.0
 11
-833.5313583906591
 21
1091.793806222762
 31
0.0
  0
LINE
  5
1B9B2
330
1F
100
AcDbEntity
  8
想像線
 48
0.5
100
AcDbLine
 10
-833.5313583906591
 20
1091.793806222762
 30
0.0
 11
-834.5313583906593
 21
1092.793806222762
 31
0.0
  0
LINE
  5
1B9B3
330
1F
100
AcDbEntity
  8
想像線
 48
0.5
100
AcDbLine
 10
-833.5313583906591
 20
1081.793806222759
 30
0.0
 11
-834.5313583906593
 21
1080.79380622276
 31
0.0
  0
LINE
  5
1B9B4
330
1F
100
AcDbEntity
  8
中心線
100
AcDbLine
 10
-816.0313583906592
 20
1096.407317309658
 30
0.0
 11
-816.0313583906592
 21
1078.015635021524
 31
0.0
  0
LINE
  5
1B9B5
330
1F
100
AcDbEntity
  8
外形線
100
AcDbLine
 10
-788.2609696304532
 20
1078.993806222759
 30
0.0
 11
-788.0313583906587
 21
1078.993806222759
 31
0.0
  0
LINE
  5
1B9B6
330
1F
100
AcDbEntity
  8
外形線
100
AcDbLine
 10
-788.2609696304532
 20
1069.593806222761
 30
0.0
 11
-788.0313583906587
 21
1069.593806222761
 31
0.0
  0
LINE
  5
1B9B7
330
1F
100
AcDbEntity
  8
外形線
100
AcDbLine
 10
-788.0313583906587
 20
1069.593806222761
 30
0.0
 11
-788.0313583906587
 21
1078.993806222759
 31
0.0
  0
ARC
  5
1B9B8
330
1F
100
AcDbEntity
  8
外形線
100
AcDbCircle
 10
-784.5313583906586
 20
1074.29380622276
 30
0.0
 40
6.000000000000047
100
AcDbArc
 50
128.4332063408553
 51
231.5667936591446
  0
LINE
  5
1B9B9
330
1F
100
AcDbEntity
  8
中心線
 48
0.1
100
AcDbLine
 10
-793.5313583906587
 20
1074.29380622276
 30
0.0
 11
-778.0313583906588
 21
1074.29380622276
 31
0.0
  0
LINE
  5
1B9BA
330
1F
100
AcDbEntity
  8
想像線
 48
0.5
100
AcDbLine
 10
-798.5313583906592
 20
1091.793806222762
 30
0.0
 11
-797.5313583906592
 21
1092.793806222762
 31
0.0
  0
LINE
  5
1B9BB
330
1F
100
AcDbEntity
  8
想像線
 48
0.5
100
AcDbLine
 10
-798.5313583906592
 20
1081.793806222759
 30
0.0
 11
-798.5313583906592
 21
1091.793806222762
 31
0.0
  0
LINE
  5
1B9BC
330
1F
100
AcDbEntity
  8
想像線
 48
0.5
100
AcDbLine
 10
-779.2813583906591
 20
1098.29380622276
 30
0.0
 11
-779.2813583906591
 21
1095.293806222761
 31
0.0
  0
LINE
  5
1B9BD
330
1F
100
AcDbEntity
  8
想像線
 48
0.5
100
AcDbLine
 10
-780.5313583906592
 20
1095.293806222761
 30
0.0
 11
-780.5313583906592
 21
1092.793806222762
 31
0.0
  0
LINE
  5
1B9BE
330
1F
100
AcDbEntity
  8
外形線
100
AcDbLine
 10
-788.031358390659
 20
1080.29380622276
 30
0.0
 11
-786.0313583906588
 21
1080.29380622276
 31
0.0
  0
LINE
  5
1B9BF
330
1F
100
AcDbEntity
  8
外形線
100
AcDbLine
 10
-786.0313583906588
 20
1080.29380622276
 30
0.0
 11
-784.031358390659
 21
1082.29380622276
 31
0.0
  0
LINE
  5
1B9C0
330
1F
100
AcDbEntity
  8
想像線
 48
0.5
100
AcDbLine
 10
-777.5313583906588
 20
1109.293806222759
 30
0.0
 11
-776.5313583906583
 21
1110.293806222758
 31
0.0
  0
LINE
  5
1B9C1
330
1F
100
AcDbEntity
  8
中心線
100
AcDbLine
 10
-768.5313583906587
 20
1113.277761995225
 30
0.0
 11
-768.5313583906587
 21
1073.17812086765
 31
0.0
  0
LINE
  5
1B9C2
330
1F
100
AcDbEntity
  8
想像線
 48
0.5
100
AcDbLine
 10
-759.5313583906592
 20
1109.293806222759
 30
0.0
 11
-759.5313583906592
 21
1098.29380622276
 31
0.0
  0
LINE
  5
1B9C3
330
1F
100
AcDbEntity
  8
想像線
 48
0.5
100
AcDbLine
 10
-757.7813583906592
 20
1098.29380622276
 30
0.0
 11
-757.7813583906592
 21
1095.293806222761
 31
0.0
  0
LINE
  5
1B9C4
330
1F
100
AcDbEntity
  8
想像線
 48
0.5
100
AcDbLine
 10
-756.5313583906591
 20
1095.293806222761
 30
0.0
 11
-756.5313583906587
 21
1092.793806222762
 31
0.0
  0
LINE
  5
1B9C5
330
1F
100
AcDbEntity
  8
想像線
 48
0.5
100
AcDbLine
 10
-746.0313583906587
 20
1082.29380622276
 30
0.0
 11
-746.0313583906587
 21
1080.793806222762
 31
0.0
  0
LINE
  5
1B9C6
330
1F
100
AcDbEntity
  8
想像線
 48
0.5
100
AcDbLine
 10
-751.0313583906587
 20
1092.79380622276
 30
0.0
 11
-751.0313583906587
 21
1080.79380622276
 31
0.0
  0
LINE
  5
1B9C7
330
1F
100
AcDbEntity
  8
想像線
 48
0.5
100
AcDbLine
 10
-759.5313583906592
 20
1109.293806222759
 30
0.0
 11
-760.5313583906591
 21
1110.293806222758
 31
0.0
  0
LINE
  5
1B9C8
330
1F
100
AcDbEntity
  8
中心線
100
AcDbLine
 10
-678.7625025780678
 20
1057.293806222759
 30
0.0
 11
-617.6616077264557
 21
1057.293806222759
 31
0.0
  0
CIRCLE
  5
1B9C9
330
1F
100
AcDbEntity
  8
細線
100
AcDbCircle
 10
-61.02085740935899
 20
651.2938062227664
 30
0.0
 40
4.7
  0
CIRCLE
  5
1B9CA
330
1F
100
AcDbEntity
  8
外形線
100
AcDbCircle
 10
-344.6518738903312
 20
649.8099924866879
 30
0.0
 40
3.5
  0
CIRCLE
  5
1B9CB
330
1F
100
AcDbEntity
  8
外形線
100
AcDbCircle
 10
-344.6518738903312
 20
649.8099924866879
 30
0.0
 40
2.475000000000134
  0
CIRCLE
  5
1B9CC
330
1F
100
AcDbEntity
  8
細線
100
AcDbCircle
 10
-344.6518738903312
 20
649.8099924866879
 30
0.0
 40
3.0
  0
LINE
  5
1B9CD
330
1F
100
AcDbEntity
  8
外形線
100
AcDbLine
 10
-420.4140333409955
 20
647.4237943129475
 30
0.0
 11
-420.4140333409955
 21
669.3515198821606
 31
0.0
  0
LINE
  5
1B9CE
330
1F
100
AcDbEntity
  8
外形線
100
AcDbLine
 10
-424.6140333409953
 20
647.4237943129475
 30
0.0
 11
-424.6140333409953
 21
669.3515198821606
 31
0.0
  0
CIRCLE
  5
1B9CF
330
1F
100
AcDbEntity
  8
外形線
100
AcDbCircle
 10
-61.02085740935899
 20
767.2938062227664
 30
0.0
 40
125.0
  0
LINE
  5
1B9D0
330
1F
100
AcDbEntity
  8
外形線
100
AcDbLine
 10
-464.2533641366533
 20
559.0647179036356
 30
0.0
 11
-464.2533641366533
 21
657.2938062227619
 31
0.0
  0
LINE
  5
1B9D1
330
1F
100
AcDbEntity
  8
外形線
100
AcDbLine
 10
-468.4533641366534
 20
559.0647179036356
 30
0.0
 11
-468.4533641366528
 21
657.2938062227623
 31
0.0
  0
CIRCLE
  5
1B9D2
330
1F
100
AcDbEntity
  8
外形線
100
AcDbCircle
 10
-61.02085740935899
 20
767.2938062227664
 30
0.0
 40
315.0
  0
LINE
  5
1B9D3
330
1F
100
AcDbEntity
  8
中心線
100
AcDbLine
 10
-61.02085740935899
 20
445.2924268464227
 30
0.0
 11
-61.02085740935899
 21
1089.295185599109
 31
0.0
  0
CIRCLE
  5
1B9D4
330
1F
100
AcDbEntity
  8
外形線
100
AcDbCircle
 10
-61.02085740935899
 20
767.2938062227664
 30
0.0
 40
139.9999999999995
  0
CIRCLE
  5
1B9D5
330
1F
100
AcDbEntity
  8
中心線
100
AcDbCircle
 10
-61.02085740935899
 20
767.2938062227664
 30
0.0
 40
290.0000000000001
  0
ARC
  5
1B9D6
330
1F
100
AcDbEntity
  8
外形線
100
AcDbCircle
 10
-412.1533641366529
 20
434.9337661484552
 30
0.0
 40
52.1
100
AcDbArc
 50
150.0000000000006
 51
180.0
  0
ARC
  5
1B9D7
330
1F
100
AcDbEntity
  8
外形線
100
AcDbCircle
 10
-412.1533641366529
 20
434.9337661484552
 30
0.0
 40
47.9
100
AcDbArc
 50
150.0000000000006
 51
180.0
  0
LINE
  5
1B9D8
330
1F
100
AcDbEntity
  8
外形線
100
AcDbLine
 10
-468.4533641366534
 20
426.4622595744659
 30
0.0
 11
-468.4533641366534
 21
551.013557492724
 31
0.0
  0
LINE
  5
1B9D9
330
1F
100
AcDbEntity
  8
外形線
100
AcDbLine
 10
-464.2533641366529
 20
426.4622595744659
 30
0.0
 11
-464.2533641366529
 21
551.013557492724
 31
0.0
  0
CIRCLE
  5
1B9DA
330
1F
100
AcDbEntity
  8
外形線
100
AcDbCircle
 10
-451.9533641366534
 20
330.5442399381596
 30
0.0
 40
4.25
  0
LINE
  5
1B9DB
330
1F
100
AcDbEntity
  8
HIDDEN
 48
0.5
100
AcDbLine
 10
-478.1346141366527
 20
323.3942399381597
 30
0.0
 11
-450.3721141366536
 21
323.3942399381597
 31
0.0
  0
LINE
  5
1B9DC
330
1F
100
AcDbEntity
  8
外形線
100
AcDbLine
 10
-476.5533641366528
 20
324.1942399381597
 30
0.0
 11
-451.9533641366534
 21
324.1942399381597
 31
0.0
  0
LINE
  5
1B9DD
330
1F
100
AcDbEntity
  8
外形線
100
AcDbLine
 10
-476.5533641366528
 20
336.89423993816
 30
0.0
 11
-451.9533641366534
 21
336.8942399381598
 31
0.0
  0
LINE
  5
1B9DE
330
1F
100
AcDbEntity
  8
HIDDEN
 48
0.5
100
AcDbLine
 10
-479.3346141366533
 20
313.89423993816
 30
0.0
 11
-449.1721141366529
 21
313.89423993816
 31
0.0
  0
LINE
  5
1B9DF
330
1F
100
AcDbEntity
  8
外形線
100
AcDbLine
 10
-478.7033641366533
 20
313.0942399381598
 30
0.0
 11
-449.8033641366528
 21
313.0942399381598
 31
0.0
  0
LINE
  5
1B9E0
330
1F
100
AcDbEntity
  8
外形線
100
AcDbLine
 10
-479.3346141366533
 20
310.8942399381597
 30
0.0
 11
-449.1721141366529
 21
310.8942399381597
 31
0.0
  0
LINE
  5
1B9E1
330
1F
100
AcDbEntity
  8
細線
100
AcDbLine
 10
-480.1283641366531
 20
269.0142399381596
 30
0.0
 11
-448.3783641366531
 21
269.0142399381596
 31
0.0
  0
LINE
  5
1B9E2
330
1F
100
AcDbEntity
  8
外形線
100
AcDbLine
 10
-480.1283641366531
 20
283.7142399381597
 30
0.0
 11
-448.3783641366531
 21
283.7142399381597
 31
0.0
  0
LINE
  5
1B9E3
330
1F
100
AcDbEntity
  8
外形線
100
AcDbLine
 10
-478.9283641366532
 20
267.8142399381596
 30
0.0
 11
-449.5783641366531
 21
267.8142399381596
 31
0.0
  0
LINE
  5
1B9E4
330
1F
100
AcDbEntity
  8
外形線
100
AcDbLine
 10
-482.908364136653
 20
291.3142399381598
 30
0.0
 11
-445.5983641366531
 21
291.3142399381596
 31
0.0
  0
LINE
  5
1B9E5
330
1F
100
AcDbEntity
  8
外形線
100
AcDbLine
 10
-482.908364136653
 20
289.8142399381598
 30
0.0
 11
-445.5983641366531
 21
289.8142399381598
 31
0.0
  0
LINE
  5
1B9E6
330
1F
100
AcDbEntity
  8
外形線
100
AcDbLine
 10
-482.908364136653
 20
286.8142399381596
 30
0.0
 11
-445.5983641366531
 21
286.8142399381596
 31
0.0
  0
LINE
  5
1B9E7
330
1F
100
AcDbEntity
  8
外形線
100
AcDbLine
 10
-454.8533641366532
 20
336.8942399381598
 30
0.0
 11
-454.8533641366527
 21
380.5942399381598
 31
0.0
  0
LINE
  5
1B9E8
330
1F
100
AcDbEntity
  8
外形線
100
AcDbLine
 10
-473.6533641366527
 20
336.89423993816
 30
0.0
 11
-473.6533641366527
 21
380.5942399381598
 31
0.0
  0
LINE
  5
1B9E9
330
1F
100
AcDbEntity
  8
中心線
100
AcDbLine
 10
-464.2533641366533
 20
264.8321311964024
 30
0.0
 11
-464.2533641366529
 21
380.5942399381598
 31
0.0
  0
LINE
  5
1B9EA
330
1F
100
AcDbEntity
  8
外形線
100
AcDbLine
 10
-482.908364136653
 20
291.3142399381598
 30
0.0
 11
-482.908364136653
 21
298.0715992510405
 31
0.0
  0
LINE
  5
1B9EB
330
1F
100
AcDbEntity
  8
外形線
100
AcDbLine
 10
-480.1283641366531
 20
269.0142399381596
 30
0.0
 11
-478.9283641366532
 21
267.8142399381596
 31
0.0
  0
LINE
  5
1B9EC
330
1F
100
AcDbEntity
  8
細線
100
AcDbLine
 10
-478.9283641366532
 20
267.8142399381596
 30
0.0
 11
-478.9283641366532
 21
283.7142399381597
 31
0.0
  0
LINE
  5
1B9ED
330
1F
100
AcDbEntity
  8
細線
100
AcDbLine
 10
-478.9283641366532
 20
283.7142399381597
 30
0.0
 11
-480.1283641366532
 21
285.7927009072424
 31
0.0
  0
LINE
  5
1B9EE
330
1F
100
AcDbEntity
  8
外形線
100
AcDbLine
 10
-482.908364136653
 20
286.8142399381596
 30
0.0
 11
-482.908364136653
 21
289.8142399381598
 31
0.0
  0
LINE
  5
1B9EF
330
1F
100
AcDbEntity
  8
外形線
100
AcDbLine
 10
-480.1283641366531
 20
269.0142399381596
 30
0.0
 11
-480.1283641366531
 21
286.8142399381596
 31
0.0
  0
LINE
  5
1B9F0
330
1F
100
AcDbEntity
  8
外形線
100
AcDbLine
 10
-478.628364136653
 20
289.8142399381598
 30
0.0
 11
-478.628364136653
 21
291.3142399381598
 31
0.0
  0
LINE
  5
1B9F1
330
1F
100
AcDbEntity
  8
HIDDEN
 48
0.5
100
AcDbLine
 10
-479.3346141366533
 20
313.89423993816
 30
0.0
 11
-479.3346141366533
 21
322.1942399381597
 31
0.0
  0
LINE
  5
1B9F2
330
1F
100
AcDbEntity
  8
HIDDEN
 48
0.5
100
AcDbLine
 10
-478.1346141366527
 20
313.0942399381598
 30
0.0
 11
-478.1346141366527
 21
323.3942399381597
 31
0.0
  0
LINE
  5
1B9F3
330
1F
100
AcDbEntity
  8
外形線
100
AcDbLine
 10
-481.7033641366529
 20
316.0942399381598
 30
0.0
 11
-481.7033641366529
 21
326.8294048139588
 31
0.0
  0
LINE
  5
1B9F4
330
1F
100
AcDbEntity
  8
外形線
100
AcDbLine
 10
-478.1346141366527
 20
310.8942399381597
 30
0.0
 11
-478.1346141366527
 21
313.0942399381598
 31
0.0
  0
LINE
  5
1B9F5
330
1F
100
AcDbEntity
  8
外形線
100
AcDbLine
 10
-479.3346141366533
 20
304.1306306252789
 30
0.0
 11
-479.3346141366533
 21
310.8942399381597
 31
0.0
  0
ARC
  5
1B9F6
330
1F
100
AcDbEntity
  8
外形線
100
AcDbCircle
 10
-479.908364136653
 20
298.0715992510405
 30
0.0
 40
3.0
100
AcDbArc
 50
134.999999999993
 51
180.0
  0
ARC
  5
1B9F7
330
1F
100
AcDbEntity
  8
外形線
100
AcDbCircle
 10
-482.334614136653
 20
304.1306306252789
 30
0.0
 40
3.0
100
AcDbArc
 50
314.999999999993
 51
0.0
  0
LINE
  5
1B9F8
330
1F
100
AcDbEntity
  8
外形線
100
AcDbLine
 10
-482.0296844802124
 20
300.1929195945998
 30
0.0
 11
-480.2132937930934
 21
302.0093102817194
 31
0.0
  0
ARC
  5
1B9F9
330
1F
100
AcDbEntity
  8
外形線
100
AcDbCircle
 10
-478.7033641366533
 20
316.0942399381598
 30
0.0
 40
3.0
100
AcDbArc
 50
180.0
 51
270.0
  0
CIRCLE
  5
1B9FA
330
1F
100
AcDbEntity
  8
外形線
100
AcDbCircle
 10
-476.5533641366528
 20
330.5442399381596
 30
0.0
 40
4.25
  0
LINE
  5
1B9FB
330
1F
100
AcDbEntity
  8
外形線
100
AcDbLine
 10
-476.5533641366528
 20
326.2942399381596
 30
0.0
 11
-476.5533641366528
 21
334.7942399381596
 31
0.0
  0
ARC
  5
1B9FC
330
1F
100
AcDbEntity
  8
外形線
100
AcDbCircle
 10
-476.5533641366528
 20
330.5442399381596
 30
0.0
 40
6.350000000000022
100
AcDbArc
 50
90.0
 51
270.0
  0
LINE
  5
1B9FD
330
1F
100
AcDbEntity
  8
HIDDEN
 48
0.5
100
AcDbLine
 10
-479.3346141366533
 20
322.1942399381597
 30
0.0
 11
-478.1346141366527
 21
323.3942399381597
 31
0.0
  0
LINE
  5
1B9FE
330
1F
100
AcDbEntity
  8
外形線
100
AcDbLine
 10
-457.7533641366533
 20
324.1942399381597
 30
0.0
 11
-457.7533641366533
 21
336.8942399381598
 31
0.0
  0
LINE
  5
1B9FF
330
1F
100
AcDbEntity
  8
外形線
100
AcDbLine
 10
-470.7533641366531
 20
324.1942399381597
 30
0.0
 11
-470.7533641366531
 21
336.89423993816
 31
0.0
  0
LINE
  5
1BA00
330
1F
100
AcDbEntity
  8
外形線
100
AcDbLine
 10
-460.0533641366528
 20
380.5942399381598
 30
0.0
 11
-460.0533641366528
 21
421.4622595744661
 31
0.0
  0
LINE
  5
1BA01
330
1F
100
AcDbEntity
  8
外形線
100
AcDbLine
 10
-464.2533641366529
 20
380.5942399381598
 30
0.0
 11
-464.2533641366529
 21
421.4622595744661
 31
0.0
  0
LINE
  5
1BA02
330
1F
100
AcDbEntity
  8
外形線
100
AcDbLine
 10
-468.4533641366534
 20
380.5942399381598
 30
0.0
 11
-468.4533641366534
 21
421.4622595744661
 31
0.0
  0
LINE
  5
1BA03
330
1F
100
AcDbEntity
  8
外形線
100
AcDbLine
 10
-473.6533641366527
 20
380.5942399381598
 30
0.0
 11
-454.8533641366527
 21
380.5942399381598
 31
0.0
  0
LINE
  5
1BA04
330
1F
100
AcDbEntity
  8
外形線
100
AcDbLine
 10
-460.0533641366528
 20
426.4622595744659
 30
0.0
 11
-460.0533641366528
 21
434.9337661484552
 31
0.0
  0
LINE
  5
1BA05
330
1F
100
AcDbEntity
  8
外形線
100
AcDbLine
 10
-468.6533641366532
 20
426.4622595744664
 30
0.0
 11
-459.8533641366527
 21
426.4622595744659
 31
0.0
  0
LINE
  5
1BA06
330
1F
100
AcDbEntity
  8
外形線
100
AcDbLine
 10
-468.6533641366532
 20
421.4622595744661
 30
0.0
 11
-459.8533641366527
 21
421.4622595744661
 31
0.0
  0
LINE
  5
1BA07
330
1F
100
AcDbEntity
  8
外形線
100
AcDbLine
 10
-468.6533641366532
 20
421.4622595744661
 30
0.0
 11
-468.6533641366532
 21
426.4622595744664
 31
0.0
  0
LINE
  5
1BA08
330
1F
100
AcDbEntity
  8
外形線
100
AcDbLine
 10
-459.8533641366527
 20
421.4622595744661
 30
0.0
 11
-459.8533641366527
 21
426.4622595744659
 31
0.0
  0
LINE
  5
1BA09
330
1F
100
AcDbEntity
  8
外形線
100
AcDbLine
 10
-445.5983641366528
 20
291.3142399381596
 30
0.0
 11
-445.5983641366528
 21
298.0715992510405
 31
0.0
  0
LINE
  5
1BA0A
330
1F
100
AcDbEntity
  8
外形線
100
AcDbLine
 10
-449.5783641366531
 20
267.8142399381596
 30
0.0
 11
-448.3783641366533
 21
269.0142399381596
 31
0.0
  0
LINE
  5
1BA0B
330
1F
100
AcDbEntity
  8
細線
100
AcDbLine
 10
-449.5783641366531
 20
267.8142399381596
 30
0.0
 11
-449.5783641366531
 21
283.7142399381597
 31
0.0
  0
LINE
  5
1BA0C
330
1F
100
AcDbEntity
  8
細線
100
AcDbLine
 10
-449.5783641366531
 20
283.7142399381597
 30
0.0
 11
-448.3783641366533
 21
285.7927009072424
 31
0.0
  0
LINE
  5
1BA0D
330
1F
100
AcDbEntity
  8
外形線
100
AcDbLine
 10
-445.5983641366531
 20
286.8142399381596
 30
0.0
 11
-445.5983641366531
 21
289.8142399381596
 31
0.0
  0
LINE
  5
1BA0E
330
1F
100
AcDbEntity
  8
外形線
100
AcDbLine
 10
-448.3783641366533
 20
269.0142399381596
 30
0.0
 11
-448.3783641366531
 21
286.8142399381596
 31
0.0
  0
LINE
  5
1BA0F
330
1F
100
AcDbEntity
  8
外形線
100
AcDbLine
 10
-449.8783641366528
 20
289.8142399381598
 30
0.0
 11
-449.8783641366528
 21
291.3142399381598
 31
0.0
  0
LINE
  5
1BA10
330
1F
100
AcDbEntity
  8
HIDDEN
 48
0.5
100
AcDbLine
 10
-449.1721141366529
 20
313.89423993816
 30
0.0
 11
-449.1721141366529
 21
322.1942399381597
 31
0.0
  0
LINE
  5
1BA11
330
1F
100
AcDbEntity
  8
HIDDEN
 48
0.5
100
AcDbLine
 10
-450.3721141366532
 20
313.0942399381595
 30
0.0
 11
-450.3721141366532
 21
323.3942399381597
 31
0.0
  0
LINE
  5
1BA12
330
1F
100
AcDbEntity
  8
外形線
100
AcDbLine
 10
-446.8033641366532
 20
316.0942399381598
 30
0.0
 11
-446.8033641366532
 21
326.8294048139588
 31
0.0
  0
LINE
  5
1BA13
330
1F
100
AcDbEntity
  8
外形線
100
AcDbLine
 10
-449.1721141366529
 20
304.1306306252789
 30
0.0
 11
-449.1721141366529
 21
310.89423993816
 31
0.0
  0
ARC
  5
1BA14
330
1F
100
AcDbEntity
  8
外形線
100
AcDbCircle
 10
-446.1721141366533
 20
304.1306306252789
 30
0.0
 40
3.0
100
AcDbArc
 50
180.0
 51
225.0000000000069
  0
LINE
  5
1BA15
330
1F
100
AcDbEntity
  8
外形線
100
AcDbLine
 10
-446.4770437930935
 20
300.1929195945998
 30
0.0
 11
-448.2934344802129
 21
302.0093102817194
 31
0.0
  0
ARC
  5
1BA16
330
1F
100
AcDbEntity
  8
外形線
100
AcDbCircle
 10
-448.5983641366533
 20
298.0715992510405
 30
0.0
 40
3.0
100
AcDbArc
 50
0.0
 51
45.0000000000069
  0
ARC
  5
1BA17
330
1F
100
AcDbEntity
  8
外形線
100
AcDbCircle
 10
-449.8033641366528
 20
316.0942399381598
 30
0.0
 40
3.0
100
AcDbArc
 50
270.0
 51
0.0
  0
LINE
  5
1BA18
330
1F
100
AcDbEntity
  8
外形線
100
AcDbLine
 10
-450.3721141366532
 20
310.8942399381597
 30
0.0
 11
-450.3721141366532
 21
313.0942399381595
 31
0.0
  0
ARC
  5
1BA19
330
1F
100
AcDbEntity
  8
外形線
100
AcDbCircle
 10
-451.9533641366534
 20
330.5442399381596
 30
0.0
 40
6.350000000000022
100
AcDbArc
 50
270.0
 51
90.0
  0
LINE
  5
1BA1A
330
1F
100
AcDbEntity
  8
外形線
100
AcDbLine
 10
-451.9533641366534
 20
326.2942399381596
 30
0.0
 11
-451.9533641366534
 21
334.7942399381596
 31
0.0
  0
LINE
  5
1BA1B
330
1F
100
AcDbEntity
  8
HIDDEN
 48
0.5
100
AcDbLine
 10
-450.3721141366536
 20
323.3942399381597
 30
0.0
 11
-449.1721141366529
 21
322.1942399381597
 31
0.0
  0
LINE
  5
1BA1C
330
1F
100
AcDbEntity
  8
外形線
100
AcDbLine
 10
-427.3941098038265
 20
504.3360203076757
 30
0.0
 11
-453.6359809779278
 21
458.8837661484554
 31
0.0
  0
LINE
  5
1BA1D
330
1F
100
AcDbEntity
  8
外形線
100
AcDbLine
 10
-431.0314164997212
 20
506.4360203076761
 30
0.0
 11
-457.2732876738225
 21
460.9837661484553
 31
0.0
  0
ARC
  5
1BA1E
330
1F
100
AcDbEntity
  8
細線
100
AcDbCircle
 10
-467.403364824986
 20
560.2450214623867
 30
0.0
 40
1.579751577084181
100
AcDbArc
 50
228.3436741432111
 51
311.6563926847131
  0
ARC
  5
1BA1F
330
1F
100
AcDbEntity
  8
細線
100
AcDbCircle
 10
-467.4033634483193
 20
557.88441556957
 30
0.0
 40
1.579751577084181
100
AcDbArc
 50
48.34367414321118
 51
131.656392684713
  0
ARC
  5
1BA20
330
1F
100
AcDbEntity
  8
細線
100
AcDbCircle
 10
-465.303364824987
 20
560.2450226870722
 30
0.0
 40
1.579751577084181
100
AcDbArc
 50
228.3436741432111
 51
311.6563926847131
  0
ARC
  5
1BA21
330
1F
100
AcDbEntity
  8
細線
100
AcDbCircle
 10
-465.3033648249861
 20
552.19386227616
 30
0.0
 40
1.579751577084181
100
AcDbArc
 50
228.3436741432111
 51
311.6563926847131
  0
ARC
  5
1BA22
330
1F
100
AcDbEntity
  8
細線
100
AcDbCircle
 10
-465.3033634483197
 20
549.8332563833438
 30
0.0
 40
1.579751577084181
100
AcDbArc
 50
48.34367414321118
 51
131.656392684713
  0
ARC
  5
1BA23
330
1F
100
AcDbEntity
  8
細線
100
AcDbCircle
 10
-467.4033634483187
 20
549.8332551586578
 30
0.0
 40
1.579751577084181
100
AcDbArc
 50
48.34367414321118
 51
131.656392684713
  0
ARC
  5
1BA24
330
1F
100
AcDbEntity
  8
外形線
100
AcDbCircle
 10
-409.8540333409951
 20
548.023794312946
 30
0.0
 40
2.0
100
AcDbArc
 50
270.0
 51
0.0
  0
ARC
  5
1BA25
330
1F
100
AcDbEntity
  8
外形線
100
AcDbCircle
 10
-435.5040333409947
 20
548.023794312946
 30
0.0
 40
2.0
100
AcDbArc
 50
180.0
 51
270.0
  0
LINE
  5
1BA26
330
1F
100
AcDbEntity
  8
外形線
100
AcDbLine
 10
-409.8540333409951
 20
546.023794312946
 30
0.0
 11
-416.6790333409956
 21
546.023794312946
 31
0.0
  0
ARC
  5
1BA27
330
1F
100
AcDbEntity
  8
外形線
100
AcDbCircle
 10
-472.5140333409954
 20
530.3860203076761
 30
0.0
 40
47.9
100
AcDbArc
 50
330.0000000000006
 51
0.0
  0
ARC
  5
1BA28
330
1F
100
AcDbEntity
  8
外形線
100
AcDbCircle
 10
-472.5140333409954
 20
530.3860203076761
 30
0.0
 40
52.1
100
AcDbArc
 50
330.0000000000006
 51
0.0
  0
LINE
  5
1BA29
330
1F
100
AcDbEntity
  8
外形線
100
AcDbLine
 10
-428.679033340994
 20
546.023794312946
 30
0.0
 11
-435.5040333409947
 21
546.023794312946
 31
0.0
  0
LINE
  5
1BA2A
330
1F
100
AcDbEntity
  8
外形線
100
AcDbLine
 10
-416.6790333409956
 20
546.023794312946
 30
0.0
 11
-428.679033340994
 21
546.023794312946
 31
0.0
  0
LINE
  5
1BA2B
330
1F
100
AcDbEntity
  8
外形線
100
AcDbLine
 10
-427.6790333409958
 20
544.1462443129467
 30
0.0
 11
-417.6790333409958
 21
544.1462443129467
 31
0.0
  0
LINE
  5
1BA2C
330
1F
100
AcDbEntity
  8
外形線
100
AcDbLine
 10
-427.6790333409958
 20
544.1462443129467
 30
0.0
 11
-428.679033340994
 21
546.023794312946
 31
0.0
  0
LINE
  5
1BA2D
330
1F
100
AcDbEntity
  8
外形線
100
AcDbLine
 10
-417.6790333409958
 20
544.1462443129467
 30
0.0
 11
-416.6790333409956
 21
546.023794312946
 31
0.0
  0
LINE
  5
1BA2E
330
1F
100
AcDbEntity
  8
外形線
100
AcDbLine
 10
-424.6140333409953
 20
530.3860203076761
 30
0.0
 11
-424.6140333409955
 21
544.1462443129467
 31
0.0
  0
LINE
  5
1BA2F
330
1F
100
AcDbEntity
  8
外形線
100
AcDbLine
 10
-420.4140333409955
 20
530.3860203076761
 30
0.0
 11
-420.4140333409955
 21
544.1462443129467
 31
0.0
  0
LINE
  5
1BA30
330
1F
100
AcDbEntity
  8
細線
100
AcDbLine
 10
-409.5140333409958
 20
593.7852515032756
 30
0.0
 11
-409.5140333409958
 21
598.2237943129468
 31
0.0
  0
LINE
  5
1BA31
330
1F
100
AcDbEntity
  8
外形線
100
AcDbLine
 10
-430.5140333409956
 20
599.4237943129474
 30
0.0
 11
-430.5140333409956
 21
596.9237943129475
 31
0.0
  0
LINE
  5
1BA32
330
1F
100
AcDbEntity
  8
外形線
100
AcDbLine
 10
-414.5140333409954
 20
596.9237943129475
 30
0.0
 11
-414.5140333409954
 21
599.4237943129474
 31
0.0
  0
LINE
  5
1BA33
330
1F
100
AcDbEntity
  8
細線
100
AcDbLine
 10
-435.5140333409954
 20
598.2237943129468
 30
0.0
 11
-435.5140333409954
 21
593.7852515032756
 31
0.0
  0
LINE
  5
1BA34
330
1F
100
AcDbEntity
  8
外形線
100
AcDbLine
 10
-411.0215584536095
 20
565.7380943129457
 30
0.0
 11
-413.5865082283821
 21
565.7380943129457
 31
0.0
  0
LINE
  5
1BA35
330
1F
100
AcDbEntity
  8
外形線
100
AcDbLine
 10
-414.931583340995
 20
562.1105443129464
 30
0.0
 11
-410.7340333409942
 21
562.1105443129464
 31
0.0
  0
LINE
  5
1BA36
330
1F
100
AcDbEntity
  8
外形線
100
AcDbLine
 10
-434.6240333409991
 20
547.9037943129468
 30
0.0
 11
-410.7340333409961
 21
547.9037943129468
 31
0.0
  0
HATCH
  5
1BA37
330
1F
100
AcDbEntity
  8
外形線
100
AcDbHatch
 10
0.0
 20
0.0
 30
0.0
210
0.0
220
0.0
230
1.0
  2
ANSI31
 70
     0
 71
     0
 91
        1
 92
        7
 72
     1
 73
     1
 93
       16
 10
-415.9315833409951
 20
563.1105443129464
 42
0.0
 10
-415.9315833409951
 20
564.7380943129452
 42
0.414213562373195
 10
-416.931583340995
 20
565.7380943129457
 42
0.0
 10
-428.4264833409966
 20
565.7380943129457
 42
0.4142135623731617
 10
-429.4264833409966
 20
564.7380943129457
 42
0.0
 10
-429.4264833409966
 20
563.1105443129464
 42
-0.4142135623730618
 10
-430.4264833409965
 20
562.1105443129464
 42
0.0
 10
-434.6240333409973
 20
562.1105443129464
 42
0.4142135623730618
 10
-435.6240333409973
 20
561.1105443129464
 42
0.0
 10
-435.6240333409991
 20
548.9037943129471
 42
0.4142135623731284
 10
-434.6240333409991
 20
547.9037943129468
 42
0.0
 10
-410.7340333409961
 20
547.9037943129468
 42
0.4142135623731117
 10
-409.734033340996
 20
548.9037943129466
 42
0.0
 10
-409.7340333409943
 20
561.1105443129464
 42
0.4142135623731284
 10
-410.7340333409942
 20
562.1105443129464
 42
0.0
 10
-414.931583340995
 20
562.1105443129464
 42
-0.4142135623730284
 97
        0
 75
     0
 76
     1
 52
135.0
 41
20.0
 77
     0
 78
     1
 53
179.9999999999999
 43
9586.17491078551
 44
1252.354338110294
 45
-0.0000000000000016
 46
-2.5
 79
     0
 47
0.105468415908994
 98
        1
 10
-420.7523890019042
 20
556.4901710572495
  0
LINE
  5
1BA38
330
1F
100
AcDbEntity
  8
細線
100
AcDbLine
 10
-409.9140333409954
 20
598.023794312946
 30
0.0
 11
-435.1140333409964
 21
598.023794312946
 31
0.0
  0
LINE
  5
1BA39
330
1F
100
AcDbEntity
  8
細線
100
AcDbLine
 10
-409.5140333409958
 20
593.7852515032756
 30
0.0
 11
-422.5140333409954
 21
593.7852515032756
 31
0.0
  0
CIRCLE
  5
1BA3A
330
1F
100
AcDbEntity
  8
外形線
100
AcDbCircle
 10
-412.3040333409958
 20
565.7380943129457
 30
0.0
 40
1.75
  0
LINE
  5
1BA3B
330
1F
100
AcDbEntity
  8
外形線
100
AcDbLine
 10
-402.1790333409939
 20
592.023794312946
 30
0.0
 11
-443.1790333409958
 21
592.023794312946
 31
0.0
  0
LINE
  5
1BA3C
330
1F
100
AcDbEntity
  8
外形線
100
AcDbLine
 10
-444.1790333409958
 20
591.023794312946
 30
0.0
 11
-444.1790333409958
 21
572.4337943129459
 31
0.0
  0
CIRCLE
  5
1BA3D
330
1F
100
AcDbEntity
  8
外形線
100
AcDbCircle
 10
-433.0540333409958
 20
565.7380943129457
 30
0.0
 40
1.75
  0
LINE
  5
1BA3E
330
1F
100
AcDbEntity
  8
外形線
100
AcDbLine
 10
-430.4264833409965
 20
562.1105443129464
 30
0.0
 11
-434.6240333409973
 21
562.1105443129464
 31
0.0
  0
LINE
  5
1BA3F
330
1F
100
AcDbEntity
  8
外形線
100
AcDbLine
 10
-431.5858612087345
 20
565.7380943129457
 30
0.0
 11
-434.5222054732589
 21
565.7380943129457
 31
0.0
  0
LINE
  5
1BA40
330
1F
100
AcDbEntity
  8
外形線
100
AcDbLine
 10
-433.0540333409958
 20
567.2408314830128
 30
0.0
 11
-433.0540333409958
 21
564.2353571428803
 31
0.0
  0
ARC
  5
1BA41
330
1F
100
AcDbEntity
  8
外形線
100
AcDbCircle
 10
-434.6240333409973
 20
561.1105443129464
 30
0.0
 40
1.0
100
AcDbArc
 50
90.0
 51
180.0
  0
LINE
  5
1BA42
330
1F
100
AcDbEntity
  8
外形線
100
AcDbLine
 10
-438.0040333409947
 20
570.4337943129458
 30
0.0
 11
-442.1790333409957
 21
570.4337943129458
 31
0.0
  0
LINE
  5
1BA43
330
1F
100
AcDbEntity
  8
外形線
100
AcDbLine
 10
-437.5890333409956
 20
568.4337943129459
 30
0.0
 11
-441.0890333409956
 21
568.4337943129459
 31
0.0
  0
LINE
  5
1BA44
330
1F
100
AcDbEntity
  8
外形線
100
AcDbLine
 10
-441.0890333409956
 20
570.4337943129458
 30
0.0
 11
-441.0890333409956
 21
568.4337943129459
 31
0.0
  0
LINE
  5
1BA45
330
1F
100
AcDbEntity
  8
外形線
100
AcDbLine
 10
-437.5890333409956
 20
570.0187943129468
 30
0.0
 11
-437.5890333409956
 21
568.4337943129459
 31
0.0
  0
LINE
  5
1BA46
330
1F
100
AcDbEntity
  8
外形線
100
AcDbLine
 10
-437.5040333409947
 20
569.9337943129458
 30
0.0
 11
-438.0040333409947
 21
570.4337943129458
 31
0.0
  0
ARC
  5
1BA47
330
1F
100
AcDbEntity
  8
外形線
100
AcDbCircle
 10
-442.1790333409957
 20
572.4337943129459
 30
0.0
 40
2.0
100
AcDbArc
 50
180.0
 51
270.0
  0
ARC
  5
1BA48
330
1F
100
AcDbEntity
  8
外形線
100
AcDbCircle
 10
-434.6240333409991
 20
548.9037943129468
 30
0.0
 40
1.0
100
AcDbArc
 50
180.0
 51
270.0
  0
LINE
  5
1BA49
330
1F
100
AcDbEntity
  8
外形線
100
AcDbLine
 10
-437.5040333409947
 20
548.023794312946
 30
0.0
 11
-437.5040333409947
 21
569.9337943129458
 31
0.0
  0
LINE
  5
1BA4A
330
1F
100
AcDbEntity
  8
外形線
100
AcDbLine
 10
-435.6240333409991
 20
548.9037943129468
 30
0.0
 11
-435.6240333409973
 21
561.1105443129464
 31
0.0
  0
ARC
  5
1BA4B
330
1F
100
AcDbEntity
  8
外形線
100
AcDbCircle
 10
-416.931583340995
 20
564.7380943129452
 30
0.0
 40
1.0
100
AcDbArc
 50
0.0
 51
90.0
  0
ARC
  5
1BA4C
330
1F
100
AcDbEntity
  8
外形線
100
AcDbCircle
 10
-428.4264833409966
 20
564.7380943129452
 30
0.0
 40
1.0
100
AcDbArc
 50
90.0
 51
180.0
  0
LINE
  5
1BA4D
330
1F
100
AcDbEntity
  8
外形線
100
AcDbLine
 10
-416.931583340995
 20
565.7380943129457
 30
0.0
 11
-428.4264833409966
 21
565.7380943129457
 31
0.0
  0
LINE
  5
1BA4E
330
1F
100
AcDbEntity
  8
外形線
100
AcDbLine
 10
-429.4264833409966
 20
564.7380943129452
 30
0.0
 11
-429.4264833409966
 21
563.1105443129464
 31
0.0
  0
ARC
  5
1BA4F
330
1F
100
AcDbEntity
  8
外形線
100
AcDbCircle
 10
-430.4264833409965
 20
563.1105443129464
 30
0.0
 40
1.0
100
AcDbArc
 50
270.0
 51
0.0
  0
LINE
  5
1BA50
330
1F
100
AcDbEntity
  8
外形線
100
AcDbLine
 10
-415.9315833409951
 20
564.7380943129452
 30
0.0
 11
-415.9315833409951
 21
563.1105443129464
 31
0.0
  0
ARC
  5
1BA51
330
1F
100
AcDbEntity
  8
外形線
100
AcDbCircle
 10
-414.931583340995
 20
563.1105443129464
 30
0.0
 40
1.0
100
AcDbArc
 50
180.0
 51
270.0
  0
LINE
  5
1BA52
330
1F
100
AcDbEntity
  8
細線
100
AcDbLine
 10
-435.5140333409954
 20
593.7852515032756
 30
0.0
 11
-422.5140333409954
 21
593.7852515032765
 31
0.0
  0
LINE
  5
1BA53
330
1F
100
AcDbEntity
  8
外形線
100
AcDbLine
 10
-441.9453146331054
 20
592.1237943129468
 30
0.0
 11
-436.4027520488848
 21
592.1237943129468
 31
0.0
  0
LINE
  5
1BA54
330
1F
100
AcDbEntity
  8
外形線
100
AcDbLine
 10
-441.9453146331057
 20
598.1237943129464
 30
0.0
 11
-436.4027520488848
 21
598.1237943129468
 31
0.0
  0
LINE
  5
1BA55
330
1F
100
AcDbEntity
  8
外形線
100
AcDbLine
 10
-440.5596739870502
 20
598.1237943129464
 30
0.0
 11
-440.5596739870502
 21
592.1237943129468
 31
0.0
  0
LINE
  5
1BA56
330
1F
100
AcDbEntity
  8
外形線
100
AcDbLine
 10
-441.9453146331057
 20
598.1237943129464
 30
0.0
 11
-441.9453146331054
 21
592.1237943129468
 31
0.0
  0
LINE
  5
1BA57
330
1F
100
AcDbEntity
  8
外形線
100
AcDbLine
 10
-436.4027520488848
 20
598.1237943129468
 30
0.0
 11
-436.4027520488848
 21
592.1237943129468
 31
0.0
  0
LINE
  5
1BA58
330
1F
100
AcDbEntity
  8
外形線
100
AcDbLine
 10
-437.78839269494
 20
598.1237943129468
 30
0.0
 11
-437.78839269494
 21
592.1237943129468
 31
0.0
  0
LINE
  5
1BA59
330
1F
100
AcDbEntity
  8
外形線
100
AcDbLine
 10
-444.1790333409958
 20
591.023794312946
 30
0.0
 11
-443.1790333409958
 21
592.023794312946
 31
0.0
  0
LINE
  5
1BA5A
330
1F
100
AcDbEntity
  8
外形線
100
AcDbLine
 10
-430.5140333409956
 20
596.9237943129475
 30
0.0
 11
-414.5140333409954
 21
596.9237943129475
 31
0.0
  0
LINE
  5
1BA5B
330
1F
100
AcDbEntity
  8
外形線
100
AcDbLine
 10
-417.0090333409939
 20
585.4537943129463
 30
0.0
 11
-428.3490333409941
 21
585.4537943129463
 31
0.0
  0
LINE
  5
1BA5C
330
1F
100
AcDbEntity
  8
外形線
100
AcDbLine
 10
-417.0090333409957
 20
579.8237943129453
 30
0.0
 11
-428.3490333409958
 21
579.8237943129453
 31
0.0
  0
LINE
  5
1BA5D
330
1F
100
AcDbEntity
  8
外形線
100
AcDbLine
 10
-429.349033340994
 20
584.4537943129463
 30
0.0
 11
-429.3490333409959
 21
580.8237943129471
 31
0.0
  0
ARC
  5
1BA5E
330
1F
100
AcDbEntity
  8
外形線
100
AcDbCircle
 10
-428.3490333409958
 20
580.8237943129453
 30
0.0
 40
1.0
100
AcDbArc
 50
180.0
 51
270.0
  0
LINE
  5
1BA5F
330
1F
100
AcDbEntity
  8
外形線
100
AcDbLine
 10
-416.0090333409939
 20
584.4537943129463
 30
0.0
 11
-416.0090333409957
 21
580.8237943129453
 31
0.0
  0
ARC
  5
1BA60
330
1F
100
AcDbEntity
  8
外形線
100
AcDbCircle
 10
-417.0090333409957
 20
580.8237943129453
 30
0.0
 40
1.0
100
AcDbArc
 50
270.0
 51
0.0
  0
ARC
  5
1BA61
330
1F
100
AcDbEntity
  8
外形線
100
AcDbCircle
 10
-428.3490333409941
 20
584.4537943129463
 30
0.0
 40
1.0
100
AcDbArc
 50
90.0
 51
180.0
  0
ARC
  5
1BA62
330
1F
100
AcDbEntity
  8
外形線
100
AcDbCircle
 10
-417.0090333409939
 20
584.4537943129463
 30
0.0
 40
1.0
100
AcDbArc
 50
0.0
 51
90.0
  0
LINE
  5
1BA63
330
1F
100
AcDbEntity
  8
外形線
100
AcDbLine
 10
-401.179033340994
 20
572.4337943129459
 30
0.0
 11
-401.179033340994
 21
591.023794312946
 31
0.0
  0
LINE
  5
1BA64
330
1F
100
AcDbEntity
  8
外形線
100
AcDbLine
 10
-407.3540333409932
 20
570.4337943129458
 30
0.0
 11
-403.179033340994
 21
570.4337943129458
 31
0.0
  0
LINE
  5
1BA65
330
1F
100
AcDbEntity
  8
外形線
100
AcDbLine
 10
-404.104033340995
 20
570.4337943129458
 30
0.0
 11
-404.104033340995
 21
568.4337943129459
 31
0.0
  0
LINE
  5
1BA66
330
1F
100
AcDbEntity
  8
外形線
100
AcDbLine
 10
-404.104033340995
 20
568.4337943129459
 30
0.0
 11
-407.6040333409951
 21
568.4337943129459
 31
0.0
  0
LINE
  5
1BA67
330
1F
100
AcDbEntity
  8
外形線
100
AcDbLine
 10
-407.6040333409951
 20
570.1837943129438
 30
0.0
 11
-407.6040333409951
 21
568.4337943129459
 31
0.0
  0
LINE
  5
1BA68
330
1F
100
AcDbEntity
  8
外形線
100
AcDbLine
 10
-407.8540333409932
 20
569.9337943129458
 30
0.0
 11
-407.3540333409932
 21
570.4337943129458
 31
0.0
  0
ARC
  5
1BA69
330
1F
100
AcDbEntity
  8
外形線
100
AcDbCircle
 10
-403.179033340994
 20
572.4337943129459
 30
0.0
 40
2.0
100
AcDbArc
 50
270.0
 51
0.0
  0
LINE
  5
1BA6A
330
1F
100
AcDbEntity
  8
外形線
100
AcDbLine
 10
-407.8540333409951
 20
548.023794312946
 30
0.0
 11
-407.8540333409932
 21
569.9337943129458
 31
0.0
  0
LINE
  5
1BA6B
330
1F
100
AcDbEntity
  8
外形線
100
AcDbLine
 10
-409.734033340996
 20
548.9037943129468
 30
0.0
 11
-409.7340333409943
 21
561.1105443129464
 31
0.0
  0
LINE
  5
1BA6C
330
1F
100
AcDbEntity
  8
外形線
100
AcDbLine
 10
-412.3040333409958
 20
567.0017405024892
 30
0.0
 11
-412.3040333409958
 21
564.4744481234039
 31
0.0
  0
ARC
  5
1BA6D
330
1F
100
AcDbEntity
  8
外形線
100
AcDbCircle
 10
-410.7340333409961
 20
548.9037943129468
 30
0.0
 40
1.0
100
AcDbArc
 50
270.0
 51
0.0
  0
ARC
  5
1BA6E
330
1F
100
AcDbEntity
  8
外形線
100
AcDbCircle
 10
-410.7340333409942
 20
561.1105443129464
 30
0.0
 40
1.0
100
AcDbArc
 50
0.0
 51
90.0
  0
LINE
  5
1BA6F
330
1F
100
AcDbEntity
  8
外形線
100
AcDbLine
 10
-402.1790333409939
 20
592.023794312946
 30
0.0
 11
-401.179033340994
 21
591.023794312946
 31
0.0
  0
LINE
  5
1BA70
330
1F
100
AcDbEntity
  8
外形線
100
AcDbLine
 10
-403.0827520488858
 20
592.1237943129468
 30
0.0
 11
-408.6253146331059
 21
592.1237943129468
 31
0.0
  0
LINE
  5
1BA71
330
1F
100
AcDbEntity
  8
外形線
100
AcDbLine
 10
-403.0827520488855
 20
598.1237943129464
 30
0.0
 11
-408.6253146331059
 21
598.1237943129468
 31
0.0
  0
LINE
  5
1BA72
330
1F
100
AcDbEntity
  8
外形線
100
AcDbLine
 10
-404.468392694941
 20
598.1237943129464
 30
0.0
 11
-404.468392694941
 21
592.1237943129468
 31
0.0
  0
LINE
  5
1BA73
330
1F
100
AcDbEntity
  8
外形線
100
AcDbLine
 10
-403.0827520488855
 20
598.1237943129464
 30
0.0
 11
-403.0827520488858
 21
592.1237943129468
 31
0.0
  0
LINE
  5
1BA74
330
1F
100
AcDbEntity
  8
外形線
100
AcDbLine
 10
-408.6253146331059
 20
598.1237943129468
 30
0.0
 11
-408.6253146331059
 21
592.1237943129468
 31
0.0
  0
LINE
  5
1BA75
330
1F
100
AcDbEntity
  8
外形線
100
AcDbLine
 10
-407.239673987051
 20
598.1237943129468
 30
0.0
 11
-407.239673987051
 21
592.1237943129468
 31
0.0
  0
ARC
  5
1BA76
330
1F
100
AcDbEntity
  8
外形線
100
AcDbCircle
 10
-413.1987145781772
 20
638.4237943129465
 30
0.0
 40
2.0
100
AcDbArc
 50
9.78240703182195
 51
90.0
  0
ARC
  5
1BA77
330
1F
100
AcDbEntity
  8
外形線
100
AcDbCircle
 10
-414.0140333409963
 20
621.9237943129463
 30
0.0
 40
2.999999999999971
100
AcDbArc
 50
270.0
 51
90.0
  0
LINE
  5
1BA78
330
1F
100
AcDbEntity
  8
外形線
100
AcDbLine
 10
-414.5140333409954
 20
599.4237943129474
 30
0.0
 11
-402.5140333409958
 21
599.4237943129474
 31
0.0
  0
LINE
  5
1BA79
330
1F
100
AcDbEntity
  8
外形線
100
AcDbLine
 10
-414.5140333409954
 20
598.2237943129468
 30
0.0
 11
-409.5140333409958
 21
598.2237943129468
 31
0.0
  0
CIRCLE
  5
1BA7A
330
1F
100
AcDbEntity
  8
外形線
100
AcDbCircle
 10
-415.2640333409963
 20
632.4237943129466
 30
0.0
 40
3.0
  0
ARC
  5
1BA7B
330
1F
100
AcDbEntity
  8
外形線
100
AcDbCircle
 10
-431.0140333409963
 20
621.9237943129463
 30
0.0
 40
2.999999999999971
100
AcDbArc
 50
90.0
 51
270.0
  0
LINE
  5
1BA7C
330
1F
100
AcDbEntity
  8
外形線
100
AcDbLine
 10
-437.6740333409957
 20
616.2571506350596
 30
0.0
 11
-437.6740333409957
 21
631.4237949793579
 31
0.0
  0
LINE
  5
1BA7D
330
1F
100
AcDbEntity
  8
外形線
100
AcDbLine
 10
-440.6740333409959
 20
614.1602859860503
 30
0.0
 11
-440.6740333409959
 21
631.4237941445509
 31
0.0
  0
LINE
  5
1BA7E
330
1F
100
AcDbEntity
  8
外形線
100
AcDbLine
 10
-433.8002723353038
 20
638.7636081459624
 30
0.0
 11
-437.5140333409956
 21
617.2237943129467
 31
0.0
  0
LINE
  5
1BA7F
330
1F
100
AcDbEntity
  8
外形線
100
AcDbLine
 10
-435.5140333409954
 20
598.2237943129468
 30
0.0
 11
-430.5140333409956
 21
598.2237943129468
 31
0.0
  0
LINE
  5
1BA80
330
1F
100
AcDbEntity
  8
外形線
100
AcDbLine
 10
-442.5140333409956
 20
599.4237943129474
 30
0.0
 11
-430.5140333409956
 21
599.4237943129474
 31
0.0
  0
ARC
  5
1BA81
330
1F
100
AcDbEntity
  8
外形線
100
AcDbCircle
 10
-440.5140333409963
 20
617.2237943129467
 30
0.0
 40
3.0
100
AcDbArc
 50
270.0
 51
0.0
  0
ARC
  5
1BA82
330
1F
100
AcDbEntity
  8
外形線
100
AcDbCircle
 10
-440.5140333409963
 20
612.2237943129468
 30
0.0
 40
2.0
100
AcDbArc
 50
90.0
 51
180.0
  0
LINE
  5
1BA83
330
1F
100
AcDbEntity
  8
外形線
100
AcDbLine
 10
-442.5140333409956
 20
610.7237943129468
 30
0.0
 11
-435.9140333409961
 21
610.7237943129468
 31
0.0
  0
LINE
  5
1BA84
330
1F
100
AcDbEntity
  8
細線
100
AcDbLine
 10
-441.5140333409956
 20
604.4391347367906
 30
0.0
 11
-441.5140333409956
 21
609.4391347367908
 31
0.0
  0
LINE
  5
1BA85
330
1F
100
AcDbEntity
  8
細線
100
AcDbLine
 10
-438.5140333409956
 20
609.4391347367908
 30
0.0
 11
-438.5140333409956
 21
604.4391347367906
 31
0.0
  0
LINE
  5
1BA86
330
1F
100
AcDbEntity
  8
細線
100
AcDbLine
 10
-439.6371206737933
 20
609.4391347367908
 30
0.0
 11
-439.6371206737933
 21
604.4391347367906
 31
0.0
  0
LINE
  5
1BA87
330
1F
100
AcDbEntity
  8
細線
100
AcDbLine
 10
-438.5140333409956
 20
604.4391347367906
 30
0.0
 11
-441.5140333409956
 21
604.4391347367906
 31
0.0
  0
LINE
  5
1BA88
330
1F
100
AcDbEntity
  8
細線
100
AcDbLine
 10
-441.5140333409956
 20
609.4391347367908
 30
0.0
 11
-438.5140333409956
 21
609.4391347367908
 31
0.0
  0
LINE
  5
1BA89
330
1F
100
AcDbEntity
  8
外形線
100
AcDbLine
 10
-436.4040333409962
 20
598.2237943129468
 30
0.0
 11
-441.9440333409964
 21
598.2237943129468
 31
0.0
  0
LINE
  5
1BA8A
330
1F
100
AcDbEntity
  8
外形線
100
AcDbLine
 10
-442.5140333409956
 20
598.2237943129468
 30
0.0
 11
-435.5140333409954
 21
598.2237943129468
 31
0.0
  0
LINE
  5
1BA8B
330
1F
100
AcDbEntity
  8
外形線
100
AcDbLine
 10
-435.9140333409961
 20
602.7237943129468
 30
0.0
 11
-442.5140333409956
 21
602.7237943129468
 31
0.0
  0
LINE
  5
1BA8C
330
1F
100
AcDbEntity
  8
外形線
100
AcDbLine
 10
-442.5140333409956
 20
612.2237943129468
 30
0.0
 11
-442.5140333409956
 21
598.2237943129468
 31
0.0
  0
LINE
  5
1BA8D
330
1F
100
AcDbEntity
  8
外形線
100
AcDbLine
 10
-435.9140333409961
 20
610.7237943129468
 30
0.0
 11
-435.9140333409961
 21
602.7237943129468
 31
0.0
  0
ARC
  5
1BA8E
330
1F
100
AcDbEntity
  8
外形線
100
AcDbCircle
 10
-422.5140333409963
 20
621.9237943129463
 30
0.0
 40
8.5
100
AcDbArc
 50
200.6673164934931
 51
339.3326835065068
  0
LINE
  5
1BA8F
330
1F
100
AcDbEntity
  8
外形線
100
AcDbLine
 10
-431.0140333409954
 20
618.9237943129475
 30
0.0
 11
-414.0140333409956
 21
618.9237943129475
 31
0.0
  0
ARC
  5
1BA90
330
1F
100
AcDbEntity
  8
外形線
100
AcDbCircle
 10
-431.8293521038153
 20
638.4237943129465
 30
0.0
 40
2.0
100
AcDbArc
 50
90.0
 51
170.217592968178
  0
LINE
  5
1BA91
330
1F
100
AcDbEntity
  8
外形線
100
AcDbLine
 10
-441.6740333409957
 20
639.8237943129471
 30
0.0
 11
-441.0740333409962
 21
640.4237943129475
 31
0.0
  0
LINE
  5
1BA92
330
1F
100
AcDbEntity
  8
外形線
100
AcDbLine
 10
-437.2740333409963
 20
640.4237943129475
 30
0.0
 11
-436.6740333409959
 21
639.8237943129471
 31
0.0
  0
LINE
  5
1BA93
330
1F
100
AcDbEntity
  8
外形線
100
AcDbLine
 10
-441.0740333409962
 20
640.4237943129475
 30
0.0
 11
-437.2740333409963
 21
640.4237943129475
 31
0.0
  0
LINE
  5
1BA94
330
1F
100
AcDbEntity
  8
外形線
100
AcDbLine
 10
-441.6740333409957
 20
639.8237943129471
 30
0.0
 11
-436.6740333409959
 21
639.8237943129471
 31
0.0
  0
LINE
  5
1BA95
330
1F
100
AcDbEntity
  8
外形線
100
AcDbLine
 10
-440.6740333409959
 20
632.4237943129475
 30
0.0
 11
-437.6740333409957
 21
632.4237943129475
 31
0.0
  0
LINE
  5
1BA96
330
1F
100
AcDbEntity
  8
外形線
100
AcDbLine
 10
-440.6740333409959
 20
631.4237941445509
 30
0.0
 11
-437.6740333409957
 21
631.423794758951
 31
0.0
  0
LINE
  5
1BA97
330
1F
100
AcDbEntity
  8
外形線
100
AcDbLine
 10
-436.6740333409959
 20
632.4237943129475
 30
0.0
 11
-437.6740333409957
 21
632.4237943129475
 31
0.0
  0
LINE
  5
1BA98
330
1F
100
AcDbEntity
  8
外形線
100
AcDbLine
 10
-436.6740333409959
 20
632.4237947225475
 30
0.0
 11
-437.6740333409957
 21
631.4237949793579
 31
0.0
  0
LINE
  5
1BA99
330
1F
100
AcDbEntity
  8
外形線
100
AcDbLine
 10
-441.6740333409957
 20
632.4237943129475
 30
0.0
 11
-440.6740333409959
 21
632.4237943129475
 31
0.0
  0
LINE
  5
1BA9A
330
1F
100
AcDbEntity
  8
外形線
100
AcDbLine
 10
-441.6740332897957
 20
632.4237943129475
 30
0.0
 11
-440.6740333409959
 21
631.4237941445509
 31
0.0
  0
LINE
  5
1BA9B
330
1F
100
AcDbEntity
  8
外形線
100
AcDbLine
 10
-441.6740333409957
 20
632.4237943129475
 30
0.0
 11
-441.6740333409957
 21
639.8237943129471
 31
0.0
  0
LINE
  5
1BA9C
330
1F
100
AcDbEntity
  8
外形線
100
AcDbLine
 10
-436.6740333409959
 20
632.4237943129475
 30
0.0
 11
-436.6740333409959
 21
639.8237943129471
 31
0.0
  0
LINE
  5
1BA9D
330
1F
100
AcDbEntity
  8
外形線
100
AcDbLine
 10
-419.6640333409959
 20
647.4237943129475
 30
0.0
 11
-425.3640333409959
 21
647.4237943129475
 31
0.0
  0
LINE
  5
1BA9E
330
1F
100
AcDbEntity
  8
外形線
100
AcDbLine
 10
-425.3640333409959
 20
640.4237943129475
 30
0.0
 11
-419.6640333409959
 21
640.4237943129475
 31
0.0
  0
LINE
  5
1BA9F
330
1F
100
AcDbEntity
  8
外形線
100
AcDbLine
 10
-419.6640333409959
 20
640.4237943129475
 30
0.0
 11
-419.6640333409959
 21
647.4237943129475
 31
0.0
  0
LINE
  5
1BAA0
330
1F
100
AcDbEntity
  8
外形線
100
AcDbLine
 10
-425.3640333409959
 20
647.4237943129475
 30
0.0
 11
-425.3640333409959
 21
640.4237943129475
 31
0.0
  0
LINE
  5
1BAA1
330
1F
100
AcDbEntity
  8
外形線
100
AcDbLine
 10
-413.198714578177
 20
640.4237943129475
 30
0.0
 11
-419.6640333409959
 21
640.4237943129475
 31
0.0
  0
LINE
  5
1BAA2
330
1F
100
AcDbEntity
  8
外形線
100
AcDbLine
 10
-415.2640333409956
 20
634.6205437716199
 30
0.0
 11
-415.2640333409956
 21
630.4321381725468
 31
0.0
  0
LINE
  5
1BAA3
330
1F
100
AcDbEntity
  8
外形線
100
AcDbLine
 10
-429.7640333409954
 20
634.6205437716199
 30
0.0
 11
-429.7640333409954
 21
630.7209937311037
 31
0.0
  0
LINE
  5
1BAA4
330
1F
100
AcDbEntity
  8
外形線
100
AcDbLine
 10
-417.3729703451069
 20
632.4237943129475
 30
0.0
 11
-413.2567786356723
 21
632.4237943129475
 31
0.0
  0
LINE
  5
1BAA5
330
1F
100
AcDbEntity
  8
外形線
100
AcDbLine
 10
-425.3640333409959
 20
640.4237943129475
 30
0.0
 11
-431.8293521038151
 21
640.4237943129475
 31
0.0
  0
LINE
  5
1BAA6
330
1F
100
AcDbEntity
  8
外形線
100
AcDbLine
 10
-431.8879621625858
 20
632.4237943129475
 30
0.0
 11
-427.9161982324296
 21
632.4237943129475
 31
0.0
  0
LINE
  5
1BAA7
330
1F
100
AcDbEntity
  8
外形線
100
AcDbLine
 10
-431.0140333409954
 20
624.9237943129474
 30
0.0
 11
-414.0140333409956
 21
624.9237943129474
 31
0.0
  0
ARC
  5
1BAA8
330
1F
100
AcDbEntity
  8
外形線
100
AcDbCircle
 10
-422.5140333409963
 20
621.9237943129463
 30
0.0
 40
8.5
100
AcDbArc
 50
20.66731649349315
 51
159.3326835065068
  0
CIRCLE
  5
1BAA9
330
1F
100
AcDbEntity
  8
外形線
100
AcDbCircle
 10
-429.7640333409963
 20
632.4237943129466
 30
0.0
 40
3.0
  0
LINE
  5
1BAAA
330
1F
100
AcDbEntity
  8
外形線
100
AcDbLine
 10
-407.354033340996
 20
616.2571506350587
 30
0.0
 11
-407.354033340996
 21
631.4237941445509
 31
0.0
  0
LINE
  5
1BAAB
330
1F
100
AcDbEntity
  8
外形線
100
AcDbLine
 10
-404.354033340996
 20
614.1488196644806
 30
0.0
 11
-404.354033340996
 21
631.4237949793579
 31
0.0
  0
LINE
  5
1BAAC
330
1F
100
AcDbEntity
  8
外形線
100
AcDbLine
 10
-411.2277943466881
 20
638.7636081459624
 30
0.0
 11
-407.5140333409958
 21
617.2237943129467
 31
0.0
  0
ARC
  5
1BAAD
330
1F
100
AcDbEntity
  8
外形線
100
AcDbCircle
 10
-404.5140333409963
 20
612.2237943129468
 30
0.0
 40
2.0
100
AcDbArc
 50
0.0
 51
90.0
  0
LINE
  5
1BAAE
330
1F
100
AcDbEntity
  8
外形線
100
AcDbLine
 10
-402.5140333409958
 20
610.7237943129468
 30
0.0
 11
-409.114033340996
 21
610.7237943129468
 31
0.0
  0
ARC
  5
1BAAF
330
1F
100
AcDbEntity
  8
外形線
100
AcDbCircle
 10
-404.5140333409963
 20
617.2237943129467
 30
0.0
 40
3.0
100
AcDbArc
 50
180.0
 51
270.0
  0
LINE
  5
1BAB0
330
1F
100
AcDbEntity
  8
細線
100
AcDbLine
 10
-406.5140333409958
 20
604.4391347367906
 30
0.0
 11
-403.5140333409958
 21
604.4391347367906
 31
0.0
  0
LINE
  5
1BAB1
330
1F
100
AcDbEntity
  8
細線
100
AcDbLine
 10
-403.5140333409958
 20
609.4391347367908
 30
0.0
 11
-406.5140333409958
 21
609.4391347367908
 31
0.0
  0
LINE
  5
1BAB2
330
1F
100
AcDbEntity
  8
細線
100
AcDbLine
 10
-403.5140333409958
 20
604.4391347367906
 30
0.0
 11
-403.5140333409958
 21
609.4391347367908
 31
0.0
  0
LINE
  5
1BAB3
330
1F
100
AcDbEntity
  8
細線
100
AcDbLine
 10
-406.5140333409958
 20
609.4391347367908
 30
0.0
 11
-406.5140333409958
 21
604.4391347367906
 31
0.0
  0
LINE
  5
1BAB4
330
1F
100
AcDbEntity
  8
細線
100
AcDbLine
 10
-405.3909460081991
 20
609.4391347367908
 30
0.0
 11
-405.3909460081991
 21
604.4391347367906
 31
0.0
  0
LINE
  5
1BAB5
330
1F
100
AcDbEntity
  8
外形線
100
AcDbLine
 10
-408.6240333409955
 20
598.2237943129468
 30
0.0
 11
-403.0840333409956
 21
598.2237943129468
 31
0.0
  0
LINE
  5
1BAB6
330
1F
100
AcDbEntity
  8
外形線
100
AcDbLine
 10
-409.5140333409958
 20
598.2237943129468
 30
0.0
 11
-402.5140333409958
 21
598.2237943129468
 31
0.0
  0
LINE
  5
1BAB7
330
1F
100
AcDbEntity
  8
外形線
100
AcDbLine
 10
-409.114033340996
 20
602.7237943129468
 30
0.0
 11
-402.5140333409958
 21
602.7237943129468
 31
0.0
  0
LINE
  5
1BAB8
330
1F
100
AcDbEntity
  8
外形線
100
AcDbLine
 10
-402.5140333409958
 20
598.2237943129468
 30
0.0
 11
-402.5140333409958
 21
612.2237943129468
 31
0.0
  0
LINE
  5
1BAB9
330
1F
100
AcDbEntity
  8
外形線
100
AcDbLine
 10
-409.114033340996
 20
610.7237943129468
 30
0.0
 11
-409.114033340996
 21
602.7237943129468
 31
0.0
  0
LINE
  5
1BABA
330
1F
100
AcDbEntity
  8
外形線
100
AcDbLine
 10
-408.354033340996
 20
639.8237943129471
 30
0.0
 11
-403.354033340996
 21
639.8237943129471
 31
0.0
  0
LINE
  5
1BABB
330
1F
100
AcDbEntity
  8
外形線
100
AcDbLine
 10
-407.7540333409965
 20
640.4237943129475
 30
0.0
 11
-403.9540333409964
 21
640.4237943129475
 31
0.0
  0
LINE
  5
1BABC
330
1F
100
AcDbEntity
  8
外形線
100
AcDbLine
 10
-408.354033340996
 20
639.8237943129471
 30
0.0
 11
-407.7540333409965
 21
640.4237943129475
 31
0.0
  0
LINE
  5
1BABD
330
1F
100
AcDbEntity
  8
外形線
100
AcDbLine
 10
-403.9540333409964
 20
640.4237943129475
 30
0.0
 11
-403.354033340996
 21
639.8237943129471
 31
0.0
  0
LINE
  5
1BABE
330
1F
100
AcDbEntity
  8
外形線
100
AcDbLine
 10
-407.354033340996
 20
631.4237941445509
 30
0.0
 11
-404.354033340996
 21
631.423794758951
 31
0.0
  0
LINE
  5
1BABF
330
1F
100
AcDbEntity
  8
外形線
100
AcDbLine
 10
-407.354033340996
 20
632.4237943129475
 30
0.0
 11
-404.354033340996
 21
632.4237943129475
 31
0.0
  0
LINE
  5
1BAC0
330
1F
100
AcDbEntity
  8
外形線
100
AcDbLine
 10
-408.354033340996
 20
632.4237943129475
 30
0.0
 11
-407.354033340996
 21
632.4237943129475
 31
0.0
  0
LINE
  5
1BAC1
330
1F
100
AcDbEntity
  8
外形線
100
AcDbLine
 10
-408.354033289796
 20
632.4237943129475
 30
0.0
 11
-407.354033340996
 21
631.4237941445509
 31
0.0
  0
LINE
  5
1BAC2
330
1F
100
AcDbEntity
  8
外形線
100
AcDbLine
 10
-403.354033340996
 20
632.4237943129475
 30
0.0
 11
-404.354033340996
 21
632.4237943129475
 31
0.0
  0
LINE
  5
1BAC3
330
1F
100
AcDbEntity
  8
外形線
100
AcDbLine
 10
-403.354033340996
 20
632.4237947225475
 30
0.0
 11
-404.354033340996
 21
631.4237949793579
 31
0.0
  0
LINE
  5
1BAC4
330
1F
100
AcDbEntity
  8
外形線
100
AcDbLine
 10
-408.354033340996
 20
632.4237943129475
 30
0.0
 11
-408.354033340996
 21
639.8237943129471
 31
0.0
  0
LINE
  5
1BAC5
330
1F
100
AcDbEntity
  8
外形線
100
AcDbLine
 10
-403.354033340996
 20
632.4237943129475
 30
0.0
 11
-403.354033340996
 21
639.8237943129471
 31
0.0
  0
LINE
  5
1BAC6
330
1F
100
AcDbEntity
  8
外形線
100
AcDbLine
 10
-319.1623236005789
 20
594.8091929526468
 30
0.0
 11
-319.3888866093272
 21
598.2658777116699
 31
0.0
  0
LINE
  5
1BAC7
330
1F
100
AcDbEntity
  8
外形線
100
AcDbLine
 10
-313.4017325898928
 20
598.6582968077774
 30
0.0
 11
-313.1751696642932
 21
595.2016119931978
 31
0.0
  0
CIRCLE
  5
1BAC8
330
1F
100
AcDbEntity
  8
外形線
100
AcDbCircle
 10
-316.2820283862511
 20
596.7337446857633
 30
0.0
 40
6.5
  0
LINE
  5
1BAC9
330
1F
100
AcDbEntity
  8
外形線
100
AcDbLine
 10
-316.0554657100913
 20
593.2770597045119
 30
0.0
 11
-319.162324182608
 21
594.8091925637471
 31
0.0
  0
LINE
  5
1BACA
330
1F
100
AcDbEntity
  8
外形線
100
AcDbLine
 10
-313.1751700800277
 20
595.2016117154126
 30
0.0
 11
-316.0554652943558
 21
593.2770599822971
 31
0.0
  0
LINE
  5
1BACB
330
1F
100
AcDbEntity
  8
外形線
100
AcDbLine
 10
-316.5085914781452
 20
600.1904293892279
 30
0.0
 11
-319.3888866924739
 21
598.2658776561123
 31
0.0
  0
LINE
  5
1BACC
330
1F
100
AcDbEntity
  8
外形線
100
AcDbLine
 10
-313.4017331719219
 20
598.6582964188779
 30
0.0
 11
-316.5085915612926
 21
600.1904293336711
 31
0.0
  0
LINE
  5
1BACD
330
1F
100
AcDbEntity
  8
外形線
100
AcDbLine
 10
-230.048786253827
 20
508.9257765239359
 30
0.0
 11
-233.505471068406
 21
509.1523394495363
 31
0.0
  0
LINE
  5
1BACE
330
1F
100
AcDbEntity
  8
外形線
100
AcDbLine
 10
-229.6563672132756
 20
514.9129304602228
 30
0.0
 11
-233.1130519722992
 21
515.1394934689704
 31
0.0
  0
CIRCLE
  5
1BACF
330
1F
100
AcDbEntity
  8
外形線
100
AcDbCircle
 10
-231.5809189463921
 20
512.0326352458947
 30
0.0
 40
6.5
  0
LINE
  5
1BAD0
330
1F
100
AcDbEntity
  8
外形線
100
AcDbLine
 10
-233.5054706795067
 20
509.1523400315653
 30
0.0
 11
-235.0376035943008
 21
512.2591984209358
 31
0.0
  0
LINE
  5
1BAD1
330
1F
100
AcDbEntity
  8
外形線
100
AcDbLine
 10
-233.1130519167418
 20
515.1394935521167
 30
0.0
 11
-235.0376036498569
 21
512.2591983377884
 31
0.0
  0
LINE
  5
1BAD2
330
1F
100
AcDbEntity
  8
外形線
100
AcDbLine
 10
-229.6563668243766
 20
514.9129310422516
 30
0.0
 11
-228.1242339651416
 21
511.8060725697345
 31
0.0
  0
LINE
  5
1BAD3
330
1F
100
AcDbEntity
  8
外形線
100
AcDbLine
 10
-228.1242342429263
 20
511.8060721539994
 30
0.0
 11
-230.0487859760414
 21
508.9257769396712
 31
0.0
  0
CIRCLE
  5
1BAD4
330
1F
100
AcDbEntity
  8
細線
100
AcDbCircle
 10
-266.0818239534583
 20
562.2328396786673
 30
0.0
 40
8.0
  0
CIRCLE
  5
1BAD5
330
1F
100
AcDbEntity
  8
外形線
100
AcDbCircle
 10
-266.0818239534583
 20
562.2328396786673
 30
0.0
 40
6.400000000000241
  0
LINE
  5
1BAD6
330
1F
100
AcDbEntity
  8
中心線
100
AcDbLine
 10
-257.2129096144113
 20
571.1017540177143
 30
0.0
 11
-274.9507382925057
 21
553.3639253396207
 31
0.0
  0
CIRCLE
  5
1BAD7
330
1F
100
AcDbEntity
  8
外形線
100
AcDbCircle
 10
-120.9135862683281
 20
466.1927251389784
 30
0.0
 40
6.5
  0
LINE
  5
1BAD8
330
1F
100
AcDbEntity
  8
外形線
100
AcDbLine
 10
-118.3091368729831
 20
463.9086837529854
 30
0.0
 11
-121.5893991015309
 21
462.7951845933258
 31
0.0
  0
LINE
  5
1BAD9
330
1F
100
AcDbEntity
  8
外形線
100
AcDbLine
 10
-121.5893989649675
 20
462.7951852798759
 30
0.0
 11
-124.1938484383488
 21
465.0792262735534
 31
0.0
  0
LINE
  5
1BADA
330
1F
100
AcDbEntity
  8
外形線
100
AcDbLine
 10
-123.5180357612171
 20
468.4767660345761
 30
0.0
 11
-124.1938484578572
 21
465.0792261754751
 31
0.0
  0
LINE
  5
1BADB
330
1F
100
AcDbEntity
  8
外形線
100
AcDbLine
 10
-120.2377735716863
 20
469.5902649980786
 30
0.0
 11
-123.5180357807259
 21
468.4767659364978
 31
0.0
  0
LINE
  5
1BADC
330
1F
100
AcDbEntity
  8
外形線
100
AcDbLine
 10
-120.2377734351232
 20
469.5902656846286
 30
0.0
 11
-117.6333239812524
 21
467.3062245928718
 31
0.0
  0
LINE
  5
1BADD
330
1F
100
AcDbEntity
  8
外形線
100
AcDbLine
 10
-117.6333240787971
 20
467.3062241024793
 30
0.0
 11
-118.3091367754377
 21
463.9086842433783
 31
0.0
  0
CIRCLE
  5
1BADE
330
1F
100
AcDbEntity
  8
細線
100
AcDbCircle
 10
-61.02085740935899
 20
477.2938062227659
 30
0.0
 40
8.0
  0
CIRCLE
  5
1BADF
330
1F
100
AcDbEntity
  8
外形線
100
AcDbCircle
 10
-61.02085740935899
 20
477.2938062227659
 30
0.0
 40
6.400000000000241
  0
CIRCLE
  5
1BAE0
330
1F
100
AcDbEntity
  8
外形線
100
AcDbCircle
 10
-1.128128550425572
 20
466.1927251389703
 30
0.0
 40
6.5
  0
LINE
  5
1BAE1
330
1F
100
AcDbEntity
  8
外形線
100
AcDbLine
 10
2.152133736650739
 20
465.0792256850751
 30
0.0
 11
-0.4523157172202446
 21
462.7951845933193
 31
0.0
  0
LINE
  5
1BAE2
330
1F
100
AcDbEntity
  8
外形線
100
AcDbLine
 10
-0.4523158537836025
 20
462.7951852798695
 30
0.0
 11
-3.732578062823449
 21
463.9086843414496
 31
0.0
  0
LINE
  5
1BAE3
330
1F
100
AcDbEntity
  8
外形線
100
AcDbLine
 10
-4.408390739954484
 20
467.3062241024723
 30
0.0
 11
-3.732578043313878
 21
463.9086842433713
 31
0.0
  0
LINE
  5
1BAE4
330
1F
100
AcDbEntity
  8
外形線
100
AcDbLine
 10
-1.803941247064813
 20
469.590264998072
 30
0.0
 11
-4.408390720445822
 21
467.306224004394
 31
0.0
  0
LINE
  5
1BAE5
330
1F
100
AcDbEntity
  8
外形線
100
AcDbLine
 10
-1.803941383628171
 20
469.5902656846218
 30
0.0
 11
1.476320844919428
 21
468.4767665249617
 31
0.0
  0
LINE
  5
1BAE6
330
1F
100
AcDbEntity
  8
外形線
100
AcDbLine
 10
1.476320942465008
 20
468.4767660345693
 30
0.0
 11
2.152133639105613
 21
465.0792261754682
 31
0.0
  0
LINE
  5
1BAE7
330
1F
100
AcDbEntity
  8
外形線
100
AcDbLine
 10
191.1334552612902
 20
595.2016117153833
 30
0.0
 11
194.0137504756187
 21
593.2770599822682
 31
0.0
  0
LINE
  5
1BAE8
330
1F
100
AcDbEntity
  8
外形線
100
AcDbLine
 10
191.3600177711552
 20
598.6582968077487
 30
0.0
 11
194.4668762436729
 21
600.1904296669837
 31
0.0
  0
CIRCLE
  5
1BAE9
330
1F
100
AcDbEntity
  8
外形線
100
AcDbCircle
 10
194.2403135675124
 20
596.7337446857328
 30
0.0
 40
6.5
  0
LINE
  5
1BAEA
330
1F
100
AcDbEntity
  8
外形線
100
AcDbLine
 10
112.9958891088954
 20
512.2591979220341
 30
0.0
 11
111.4637562496595
 21
509.1523394495173
 31
0.0
  0
LINE
  5
1BAEB
330
1F
100
AcDbEntity
  8
外形線
100
AcDbLine
 10
111.0713370979942
 20
515.1394935520978
 30
0.0
 11
112.99588883111
 21
512.2591983377693
 31
0.0
  0
CIRCLE
  5
1BAEC
330
1F
100
AcDbEntity
  8
外形線
100
AcDbCircle
 10
109.5392041276438
 20
512.0326352458747
 30
0.0
 40
6.5
  0
CIRCLE
  5
1BAED
330
1F
100
AcDbEntity
  8
外形線
100
AcDbCircle
 10
56.46295632671604
 20
483.6627897418035
 30
0.0
 40
2.475000000000134
  0
CIRCLE
  5
1BAEE
330
1F
100
AcDbEntity
  8
細線
100
AcDbCircle
 10
56.46295632671604
 20
483.6627897418035
 30
0.0
 40
3.0
  0
CIRCLE
  5
1BAEF
330
1F
100
AcDbEntity
  8
外形線
100
AcDbCircle
 10
56.46295632671604
 20
483.6627897418035
 30
0.0
 40
3.5
  0
LINE
  5
1BAF0
330
1F
100
AcDbEntity
  8
外形線
100
AcDbLine
 10
111.46375586076
 20
509.1523400315464
 30
0.0
 11
108.0070711017372
 21
508.9257770227979
 31
0.0
  0
LINE
  5
1BAF1
330
1F
100
AcDbEntity
  8
外形線
100
AcDbLine
 10
106.0825194241792
 20
511.8060721539799
 30
0.0
 11
108.0070711572948
 21
508.9257769396517
 31
0.0
  0
LINE
  5
1BAF2
330
1F
100
AcDbEntity
  8
外形線
100
AcDbLine
 10
107.6146523945287
 20
514.9129304602037
 30
0.0
 11
106.0825194797357
 21
511.8060720708327
 31
0.0
  0
LINE
  5
1BAF3
330
1F
100
AcDbEntity
  8
外形線
100
AcDbLine
 10
107.6146520056297
 20
514.9129310422323
 30
0.0
 11
111.0713368202091
 21
515.1394939678318
 31
0.0
  0
LINE
  5
1BAF4
330
1F
100
AcDbEntity
  8
外形線
100
AcDbLine
 10
191.3600183531843
 20
598.6582964188498
 30
0.0
 11
191.1334553444371
 21
595.2016116598262
 31
0.0
  0
CIRCLE
  5
1BAF5
330
1F
100
AcDbEntity
  8
細線
100
AcDbCircle
 10
144.0401091347393
 20
562.2328396786671
 30
0.0
 40
8.0
  0
CIRCLE
  5
1BAF6
330
1F
100
AcDbEntity
  8
外形線
100
AcDbCircle
 10
144.0401091347393
 20
562.2328396786671
 30
0.0
 40
6.400000000000241
  0
LINE
  5
1BAF7
330
1F
100
AcDbEntity
  8
中心線
100
AcDbLine
 10
135.1711947956923
 20
571.1017540177139
 30
0.0
 11
152.9090234737857
 21
553.3639253396192
 31
0.0
  0
LINE
  5
1BAF8
330
1F
100
AcDbEntity
  8
外形線
100
AcDbLine
 10
197.3471722894714
 20
598.2658773782983
 30
0.0
 11
197.1206093638711
 21
594.8091925637187
 31
0.0
  0
LINE
  5
1BAF9
330
1F
100
AcDbEntity
  8
外形線
100
AcDbLine
 10
197.1206087818418
 20
594.8091929526186
 30
0.0
 11
194.0137503924713
 21
593.2770600378245
 31
0.0
  0
LINE
  5
1BAFA
330
1F
100
AcDbEntity
  8
外形線
100
AcDbLine
 10
194.4668766594077
 20
600.190429389199
 30
0.0
 11
197.3471718737364
 21
598.2658776560839
 31
0.0
  0
LINE
  5
1BAFB
330
1F
100
AcDbEntity
  8
中心線
100
AcDbLine
 10
260.9805219669847
 20
767.2938062227664
 30
0.0
 11
-383.0222367857024
 21
767.2938062227664
 31
0.0
  0
CIRCLE
  5
1BAFC
330
1F
100
AcDbEntity
  8
細線
100
AcDbCircle
 10
-61.02085740935899
 20
1057.293806222765
 30
0.0
 40
8.0
  0
CIRCLE
  5
1BAFD
330
1F
100
AcDbEntity
  8
外形線
100
AcDbCircle
 10
-61.02085740935899
 20
1057.293806222765
 30
0.0
 40
6.400000000000241
  0
CIRCLE
  5
1BAFE
330
1F
100
AcDbEntity
  8
外形線
100
AcDbCircle
 10
-178.5046711454469
 20
1050.924822703735
 30
0.0
 40
3.5
  0
LINE
  5
1BAFF
330
1F
100
AcDbEntity
  8
中心線
100
AcDbLine
 10
-466.3354781201937
 20
1245.40181878314
 30
0.0
 11
-466.3354781201924
 21
881.2938062227615
 31
0.0
  0
LINE
  5
1BB00
330
1F
100
AcDbEntity
  8
外形線
100
AcDbLine
 10
-472.8354781201928
 20
1127.143464173969
 30
0.0
 11
-472.8354781201926
 21
1038.04544217225
 31
0.0
  0
LINE
  5
1BB01
330
1F
100
AcDbEntity
  8
外形線
100
AcDbLine
 10
-459.8354781201928
 20
1127.143464173969
 30
0.0
 11
-459.8354781201922
 21
1038.045449753639
 31
0.0
  0
ARC
  5
1BB02
330
1F
100
AcDbEntity
  8
外形線
100
AcDbCircle
 10
-606.7047926180735
 20
851.2938062227611
 30
0.0
 40
24.28254847644835
100
AcDbArc
 50
336.5829384421517
 51
23.41706155784825
  0
ARC
  5
1BB03
330
1F
100
AcDbEntity
  8
中心線
100
AcDbCircle
 10
-496.3354781201924
 20
881.2938062227614
 30
0.0
 40
30.0
100
AcDbArc
 50
270.0
 51
0.0
  0
LINE
  5
1BB04
330
1F
100
AcDbEntity
  8
外形線
100
AcDbLine
 10
-577.03135839066
 20
865.2938062227613
 30
0.0
 11
-577.03135839066
 21
837.2938062227618
 31
0.0
  0
LINE
  5
1BB05
330
1F
100
AcDbEntity
  8
外形線
100
AcDbLine
 10
-610.03135839066
 20
869.5652347941887
 30
0.0
 11
-610.03135839066
 21
833.0223776513346
 31
0.0
  0
LINE
  5
1BB06
330
1F
100
AcDbEntity
  8
外形線
100
AcDbLine
 10
-597.03135839066
 20
873.9517009596035
 30
0.0
 11
-597.03135839066
 21
828.6359114859198
 31
0.0
  0
LINE
  5
1BB07
330
1F
100
AcDbEntity
  8
外形線
100
AcDbLine
 10
-611.0313583906595
 20
873.9517009596035
 30
0.0
 11
-611.0313583906595
 21
828.6359114859198
 31
0.0
  0
LINE
  5
1BB08
330
1F
100
AcDbEntity
  8
外形線
100
AcDbLine
 10
-582.4222441416245
 20
871.6088438167467
 30
0.0
 11
-582.4222441416245
 21
830.9787686287764
 31
0.0
  0
ARC
  5
1BB09
330
1F
100
AcDbEntity
  8
外形線
100
AcDbCircle
 10
-496.3354781201924
 20
881.2938062227614
 30
0.0
 40
36.5
100
AcDbArc
 50
270.0
 51
0.0
  0
LINE
  5
1BB0A
330
1F
100
AcDbEntity
  8
外形線
100
AcDbLine
 10
-501.2989174457752
 20
691.4515198821606
 30
0.0
 11
-442.5140333409956
 21
691.4515198821606
 31
0.0
  0
LINE
  5
1BB0B
330
1F
100
AcDbEntity
  8
外形線
100
AcDbLine
 10
-501.2989174457756
 20
687.2515198821603
 30
0.0
 11
-442.5140333409956
 21
687.2515198821603
 31
0.0
  0
LINE
  5
1BB0C
330
1F
100
AcDbEntity
  8
外形線
100
AcDbLine
 10
-556.1389174457781
 20
684.2938062227617
 30
0.0
 11
-506.9389174457801
 21
684.2938062227614
 31
0.0
  0
LINE
  5
1BB0D
330
1F
100
AcDbEntity
  8
外形線
100
AcDbLine
 10
-547.2989174457747
 20
697.7938062227609
 30
0.0
 11
-501.2989174457752
 21
697.7938062227609
 31
0.0
  0
LINE
  5
1BB0E
330
1F
100
AcDbEntity
  8
外形線
100
AcDbLine
 10
-556.1389174457767
 20
670.2938062227614
 30
0.0
 11
-506.9389174457755
 21
670.2938062227614
 31
0.0
  0
CIRCLE
  5
1BB0F
330
1F
100
AcDbEntity
  8
外形線
100
AcDbCircle
 10
-553.2989174457723
 20
701.8938062227609
 30
0.0
 40
3.75
  0
CIRCLE
  5
1BB10
330
1F
100
AcDbEntity
  8
外形線
100
AcDbCircle
 10
-553.2989174457723
 20
701.8938062227609
 30
0.0
 40
3.0
  0
LINE
  5
1BB11
330
1F
100
AcDbEntity
  8
外形線
100
AcDbLine
 10
-558.7989174458007
 20
694.5688462788183
 30
0.0
 11
-558.7989174457741
 21
705.8938062227609
 31
0.0
  0
LINE
  5
1BB12
330
1F
100
AcDbEntity
  8
外形線
100
AcDbLine
 10
-547.2989174457736
 20
684.2938062227614
 30
0.0
 11
-547.2989174457752
 21
701.8938062227618
 31
0.0
  0
LINE
  5
1BB13
330
1F
100
AcDbEntity
  8
外形線
100
AcDbLine
 10
-571.0989174457747
 20
694.5688462788183
 30
0.0
 11
-571.0989174457754
 21
702.8938062227608
 31
0.0
  0
LINE
  5
1BB14
330
1F
100
AcDbEntity
  8
外形線
100
AcDbLine
 10
-571.0989174457747
 20
694.5688462788183
 30
0.0
 11
-571.0989174457745
 21
704.0938062227613
 31
0.0
  0
LINE
  5
1BB15
330
1F
100
AcDbEntity
  8
外形線
100
AcDbLine
 10
-582.8083662646718
 20
694.5688462788183
 30
0.0
 11
-582.8083662646704
 21
706.0414046479583
 31
0.0
  0
LINE
  5
1BB16
330
1F
100
AcDbEntity
  8
外形線
100
AcDbLine
 10
-594.3060040599475
 20
694.5688462788183
 30
0.0
 11
-594.3060040599475
 21
707.0414046479583
 31
0.0
  0
LINE
  5
1BB17
330
1F
100
AcDbEntity
  8
外形線
100
AcDbLine
 10
-595.1485237449863
 20
694.5688462788183
 30
0.0
 11
-595.1485237449869
 21
705.3016014983519
 31
0.0
  0
LINE
  5
1BB18
330
1F
100
AcDbEntity
  8
外形線
100
AcDbLine
 10
-611.4713583906572
 20
703.6390198821597
 30
0.0
 11
-611.4713583906572
 21
694.5688462788183
 31
0.0
  0
LINE
  5
1BB19
330
1F
100
AcDbEntity
  8
外形線
100
AcDbLine
 10
-611.4713583906578
 20
694.5688462788183
 30
0.0
 11
-611.4713583906578
 21
704.4590818133125
 31
0.0
  0
LINE
  5
1BB1A
330
1F
100
AcDbEntity
  8
外形線
100
AcDbLine
 10
-609.7863190205769
 20
694.5688462788183
 30
0.0
 11
-609.7863190205769
 21
705.3016014983519
 31
0.0
  0
LINE
  5
1BB1B
330
1F
100
AcDbEntity
  8
外形線
100
AcDbLine
 10
-614.6413583906573
 20
706.8115192504136
 30
0.0
 11
-614.6413583906578
 21
694.5688462788183
 31
0.0
  0
LINE
  5
1BB1C
330
1F
100
AcDbEntity
  8
外形線
100
AcDbLine
 10
-613.9989174457755
 20
694.5688462788183
 30
0.0
 11
-613.998917445776
 21
702.7740424432339
 31
0.0
  0
LINE
  5
1BB1D
330
1F
100
AcDbEntity
  8
外形線
100
AcDbLine
 10
-578.9389174457783
 20
691.1938062227615
 30
0.0
 11
-567.6389174458092
 21
691.1938062227615
 31
0.0
  0
LINE
  5
1BB1E
330
1F
100
AcDbEntity
  8
外形線
100
AcDbLine
 10
-578.9389174457774
 20
663.3938062227613
 30
0.0
 11
-567.6389174457774
 21
663.3938062227613
 31
0.0
  0
LINE
  5
1BB1F
330
1F
100
AcDbEntity
  8
外形線
100
AcDbLine
 10
-579.9389174457774
 20
664.393806222761
 30
0.0
 11
-579.9389174457783
 21
690.1938062227615
 31
0.0
  0
LINE
  5
1BB20
330
1F
100
AcDbEntity
  8
外形線
100
AcDbLine
 10
-579.9389174457783
 20
666.0714440180369
 30
0.0
 11
-579.9389174457783
 21
688.5161684274859
 31
0.0
  0
LINE
  5
1BB21
330
1F
100
AcDbEntity
  8
外形線
100
AcDbLine
 10
-610.71135839066
 20
689.9938062227612
 30
0.0
 11
-610.71135839066
 21
664.5938062227616
 31
0.0
  0
LINE
  5
1BB22
330
1F
100
AcDbEntity
  8
外形線
100
AcDbLine
 10
-610.7113583906595
 20
663.9485306322105
 30
0.0
 11
-610.7113583906603
 21
690.6390818133123
 31
0.0
  0
LINE
  5
1BB23
330
1F
100
AcDbEntity
  8
外形線
100
AcDbLine
 10
-609.0263190205798
 20
663.1060109471706
 30
0.0
 11
-609.0263190205807
 21
691.4816014983522
 31
0.0
  0
LINE
  5
1BB24
330
1F
100
AcDbEntity
  8
外形線
100
AcDbLine
 10
-596.3885237449897
 20
663.1060109471706
 30
0.0
 11
-596.3885237449906
 21
691.4816014983522
 31
0.0
  0
LINE
  5
1BB25
330
1F
100
AcDbEntity
  8
外形線
100
AcDbLine
 10
-589.6483662646769
 20
662.3662077975644
 30
0.0
 11
-589.6483662646744
 21
692.2214046479581
 31
0.0
  0
LINE
  5
1BB26
330
1F
100
AcDbEntity
  8
外形線
100
AcDbLine
 10
-613.2389174457777
 20
665.633570002289
 30
0.0
 11
-613.2389174457777
 21
688.954042443234
 31
0.0
  0
LINE
  5
1BB27
330
1F
100
AcDbEntity
  8
外形線
100
AcDbLine
 10
-595.5460040599502
 20
661.3662077975646
 30
0.0
 11
-595.5460040599502
 21
693.2214046479583
 31
0.0
  0
LINE
  5
1BB28
330
1F
100
AcDbEntity
  8
外形線
100
AcDbLine
 10
-590.6483662646771
 20
661.3662077975646
 30
0.0
 11
-595.5460040599502
 21
661.3662077975646
 31
0.0
  0
LINE
  5
1BB29
330
1F
100
AcDbEntity
  8
外形線
100
AcDbLine
 10
-595.5460040599502
 20
664.1190208876729
 30
0.0
 11
-596.3885237449897
 21
664.1190208876729
 31
0.0
  0
LINE
  5
1BB2A
330
1F
100
AcDbEntity
  8
外形線
100
AcDbLine
 10
-609.0263190205807
 20
663.9485306322105
 30
0.0
 11
-610.7113583906595
 21
663.9485306322105
 31
0.0
  0
LINE
  5
1BB2B
330
1F
100
AcDbEntity
  8
外形線
100
AcDbLine
 10
-610.7113583906595
 20
665.633570002289
 30
0.0
 11
-613.2389174457777
 21
665.633570002289
 31
0.0
  0
LINE
  5
1BB2C
330
1F
100
AcDbEntity
  8
外形線
100
AcDbLine
 10
-596.3885237449897
 20
663.1060109471706
 30
0.0
 11
-609.0263190205798
 21
663.1060109471706
 31
0.0
  0
LINE
  5
1BB2D
330
1F
100
AcDbEntity
  8
外形線
100
AcDbLine
 10
-580.9389174457773
 20
664.8164243329973
 30
0.0
 11
-589.6483662646756
 21
664.8164243329973
 31
0.0
  0
ARC
  5
1BB2E
330
1F
100
AcDbEntity
  8
外形線
100
AcDbCircle
 10
-590.6483662646771
 20
662.3662077975644
 30
0.0
 40
1.0
100
AcDbArc
 50
270.0
 51
359.9999999999869
  0
ARC
  5
1BB2F
330
1F
100
AcDbEntity
  8
外形線
100
AcDbCircle
 10
-580.9389174457773
 20
665.8164243329975
 30
0.0
 40
1.0
100
AcDbArc
 50
270.0
 51
0.0
  0
ARC
  5
1BB30
330
1F
100
AcDbEntity
  8
外形線
100
AcDbCircle
 10
-578.9389174457774
 20
664.393806222761
 30
0.0
 40
1.0
100
AcDbArc
 50
180.0
 51
270.0
  0
LINE
  5
1BB31
330
1F
100
AcDbEntity
  8
外形線
100
AcDbLine
 10
-590.6483662646744
 20
693.2214046479581
 30
0.0
 11
-595.5460040599502
 21
693.2214046479583
 31
0.0
  0
LINE
  5
1BB32
330
1F
100
AcDbEntity
  8
外形線
100
AcDbLine
 10
-595.5460040599502
 20
690.4685915578498
 30
0.0
 11
-596.3885237449897
 21
690.4685915578498
 31
0.0
  0
LINE
  5
1BB33
330
1F
100
AcDbEntity
  8
外形線
100
AcDbLine
 10
-609.0263190205807
 20
690.6390818133123
 30
0.0
 11
-610.7113583906603
 21
690.6390818133123
 31
0.0
  0
LINE
  5
1BB34
330
1F
100
AcDbEntity
  8
外形線
100
AcDbLine
 10
-610.7113583906595
 20
688.954042443234
 30
0.0
 11
-613.2389174457777
 21
688.954042443234
 31
0.0
  0
LINE
  5
1BB35
330
1F
100
AcDbEntity
  8
外形線
100
AcDbLine
 10
-596.3885237449906
 20
691.4816014983522
 30
0.0
 11
-609.0263190205807
 21
691.4816014983522
 31
0.0
  0
ARC
  5
1BB36
330
1F
100
AcDbEntity
  8
外形線
100
AcDbCircle
 10
-590.6483662646744
 20
692.2214046479581
 30
0.0
 40
1.0
100
AcDbArc
 50
359.9999999999869
 51
90.0
  0
LINE
  5
1BB37
330
1F
100
AcDbEntity
  8
外形線
100
AcDbLine
 10
-580.9389174457794
 20
689.7711881125252
 30
0.0
 11
-589.6483662646756
 21
689.7711881125252
 31
0.0
  0
ARC
  5
1BB38
330
1F
100
AcDbEntity
  8
外形線
100
AcDbCircle
 10
-580.9389174457794
 20
688.7711881125252
 30
0.0
 40
1.0
100
AcDbArc
 50
0.0
 51
90.0
  0
ARC
  5
1BB39
330
1F
100
AcDbEntity
  8
外形線
100
AcDbCircle
 10
-578.9389174457783
 20
690.1938062227615
 30
0.0
 40
1.0
100
AcDbArc
 50
90.0
 51
180.0
  0
LINE
  5
1BB3A
330
1F
100
AcDbEntity
  8
外形線
100
AcDbLine
 10
-567.6389174457763
 20
662.5938062227613
 30
0.0
 11
-567.6389174457938
 21
677.2938062227614
 31
0.0
  0
LINE
  5
1BB3B
330
1F
100
AcDbEntity
  8
外形線
100
AcDbLine
 10
-556.1389174457763
 20
666.5938062227618
 30
0.0
 11
-556.1389174457783
 21
687.9938062227616
 31
0.0
  0
CIRCLE
  5
1BB3C
330
1F
100
AcDbEntity
  8
外形線
100
AcDbCircle
 10
-562.1389174457753
 20
666.5938062227613
 30
0.0
 40
3.0
  0
LINE
  5
1BB3D
330
1F
100
AcDbEntity
  8
外形線
100
AcDbLine
 10
-565.0969573373251
 20
666.0938062227613
 30
0.0
 11
-559.1808775542258
 21
666.0938062227613
 31
0.0
  0
LINE
  5
1BB3E
330
1F
100
AcDbEntity
  8
外形線
100
AcDbLine
 10
-565.0969573373251
 20
667.0938062227613
 30
0.0
 11
-559.1808775542258
 21
667.0938062227613
 31
0.0
  0
LINE
  5
1BB3F
330
1F
100
AcDbEntity
  8
外形線
100
AcDbLine
 10
-567.6389174457763
 20
662.5938062227613
 30
0.0
 11
-560.1389174457763
 21
662.5938062227613
 31
0.0
  0
CIRCLE
  5
1BB40
330
1F
100
AcDbEntity
  8
外形線
100
AcDbCircle
 10
-562.1389174457753
 20
666.5938062227613
 30
0.0
 40
3.75
  0
LINE
  5
1BB41
330
1F
100
AcDbEntity
  8
外形線
100
AcDbLine
 10
-567.6389174457874
 20
672.2938062227614
 30
0.0
 11
-556.1389174457763
 21
672.2938062227614
 31
0.0
  0
ARC
  5
1BB42
330
1F
100
AcDbEntity
  8
外形線
100
AcDbCircle
 10
-560.1389174457763
 20
666.5938062227613
 30
0.0
 40
4.0
100
AcDbArc
 50
270.0
 51
0.0
  0
LINE
  5
1BB43
330
1F
100
AcDbEntity
  8
外形線
100
AcDbLine
 10
-558.7989174457841
 20
696.5813062227613
 30
0.0
 11
-547.2989174457734
 21
696.5813062227613
 31
0.0
  0
LINE
  5
1BB44
330
1F
100
AcDbEntity
  8
外形線
100
AcDbLine
 10
-565.0969573373251
 20
688.4938062227616
 30
0.0
 11
-559.1808775542258
 21
688.4938062227616
 31
0.0
  0
LINE
  5
1BB45
330
1F
100
AcDbEntity
  8
外形線
100
AcDbLine
 10
-567.6389174458111
 20
691.9938062227616
 30
0.0
 11
-560.1389174457783
 21
691.9938062227616
 31
0.0
  0
LINE
  5
1BB46
330
1F
100
AcDbEntity
  8
外形線
100
AcDbLine
 10
-565.0969573373251
 20
687.4938062227612
 30
0.0
 11
-559.1808775542258
 21
687.4938062227612
 31
0.0
  0
CIRCLE
  5
1BB47
330
1F
100
AcDbEntity
  8
外形線
100
AcDbCircle
 10
-562.1389174457753
 20
687.9938062227616
 30
0.0
 40
3.0
  0
LINE
  5
1BB48
330
1F
100
AcDbEntity
  8
外形線
100
AcDbLine
 10
-567.6389174457874
 20
682.2938062227613
 30
0.0
 11
-556.1389174457763
 21
682.2938062227613
 31
0.0
  0
ARC
  5
1BB49
330
1F
100
AcDbEntity
  8
外形線
100
AcDbCircle
 10
-560.1389174457783
 20
687.9938062227616
 30
0.0
 40
4.0
100
AcDbArc
 50
0.0
 51
90.0
  0
CIRCLE
  5
1BB4A
330
1F
100
AcDbEntity
  8
外形線
100
AcDbCircle
 10
-562.1389174457753
 20
687.9938062227616
 30
0.0
 40
3.75
  0
LINE
  5
1BB4B
330
1F
100
AcDbEntity
  8
外形線
100
AcDbLine
 10
-567.6389174458145
 20
677.2938062227614
 30
0.0
 11
-567.6389174457802
 21
691.9938062227616
 31
0.0
  0
LINE
  5
1BB4C
330
1F
100
AcDbEntity
  8
外形線
100
AcDbLine
 10
-572.0989174457761
 20
704.0586881125251
 30
0.0
 11
-582.8083662646718
 21
704.0586881125251
 31
0.0
  0
LINE
  5
1BB4D
330
1F
100
AcDbEntity
  8
外形線
100
AcDbLine
 10
-594.3060040599475
 20
704.2885915578493
 30
0.0
 11
-595.1485237449869
 21
704.2885915578493
 31
0.0
  0
LINE
  5
1BB4E
330
1F
100
AcDbEntity
  8
外形線
100
AcDbLine
 10
-609.786319020578
 20
704.4590818133123
 30
0.0
 11
-611.4713583906578
 21
704.4590818133125
 31
0.0
  0
LINE
  5
1BB4F
330
1F
100
AcDbEntity
  8
外形線
100
AcDbLine
 10
-611.4713583906564
 20
702.7740424432339
 30
0.0
 11
-613.998917445776
 21
702.7740424432339
 31
0.0
  0
LINE
  5
1BB50
330
1F
100
AcDbEntity
  8
外形線
100
AcDbLine
 10
-611.4713583906572
 20
703.6390198821597
 30
0.0
 11
-614.641358390658
 21
703.6390198821597
 31
0.0
  0
LINE
  5
1BB51
330
1F
100
AcDbEntity
  8
外形線
100
AcDbLine
 10
-595.1485237449869
 20
705.3016014983519
 30
0.0
 11
-609.7863190205769
 21
705.3016014983519
 31
0.0
  0
ARC
  5
1BB52
330
1F
100
AcDbEntity
  8
外形線
100
AcDbCircle
 10
-583.8083662646704
 20
706.0414046479583
 30
0.0
 40
1.0
100
AcDbArc
 50
359.9999999999869
 51
90.0
  0
LINE
  5
1BB53
330
1F
100
AcDbEntity
  8
外形線
100
AcDbLine
 10
-583.8083662646704
 20
707.0414046479583
 30
0.0
 11
-594.3060040599475
 21
707.0414046479583
 31
0.0
  0
LINE
  5
1BB54
330
1F
100
AcDbEntity
  8
外形線
100
AcDbLine
 10
-558.7989174457741
 20
705.8938062227609
 30
0.0
 11
-551.2989174457734
 21
705.8938062227609
 31
0.0
  0
LINE
  5
1BB55
330
1F
100
AcDbEntity
  8
外形線
100
AcDbLine
 10
-556.2569573373216
 20
701.3938062227613
 30
0.0
 11
-550.3408775542229
 21
701.3938062227613
 31
0.0
  0
LINE
  5
1BB56
330
1F
100
AcDbEntity
  8
外形線
100
AcDbLine
 10
-556.2569573373216
 20
702.3938062227609
 30
0.0
 11
-550.3408775542229
 21
702.3938062227609
 31
0.0
  0
ARC
  5
1BB57
330
1F
100
AcDbEntity
  8
外形線
100
AcDbCircle
 10
-570.0989174457745
 20
704.0938062227611
 30
0.0
 40
1.0
100
AcDbArc
 50
90.0
 51
179.9999999999869
  0
ARC
  5
1BB58
330
1F
100
AcDbEntity
  8
外形線
100
AcDbCircle
 10
-572.0989174457761
 20
703.0586881125251
 30
0.0
 40
1.0
100
AcDbArc
 50
0.0
 51
90.0
  0
LINE
  5
1BB59
330
1F
100
AcDbEntity
  8
外形線
100
AcDbLine
 10
-570.0989174457745
 20
705.0938062227611
 30
0.0
 11
-558.7989174457741
 21
705.0938062227613
 31
0.0
  0
ARC
  5
1BB5A
330
1F
100
AcDbEntity
  8
外形線
100
AcDbCircle
 10
-551.2989174457734
 20
701.8938062227609
 30
0.0
 40
4.0
100
AcDbArc
 50
359.9999999999869
 51
90.0
  0
LINE
  5
1BB5B
330
1F
100
AcDbEntity
  8
外形線
100
AcDbLine
 10
-506.9389174457779
 20
679.3938062227622
 30
0.0
 11
-486.3533641366534
 21
679.3938062227627
 31
0.0
  0
LINE
  5
1BB5C
330
1F
100
AcDbEntity
  8
外形線
100
AcDbLine
 10
-506.9389174457779
 20
675.1938062227626
 30
0.0
 11
-486.3533641366534
 21
675.1938062227626
 31
0.0
  0
LINE
  5
1BB5D
330
1F
100
AcDbEntity
  8
外形線
100
AcDbLine
 10
-506.9389174457755
 20
670.2938062227614
 30
0.0
 11
-506.9389174457801
 21
684.2938062227614
 31
0.0
  0
LINE
  5
1BB5E
330
1F
100
AcDbEntity
  8
外形線
100
AcDbLine
 10
-506.9389174457796
 20
682.1938062227615
 30
0.0
 11
-501.2989174457752
 21
682.1938062227615
 31
0.0
  0
LINE
  5
1BB5F
330
1F
100
AcDbEntity
  8
外形線
100
AcDbLine
 10
-501.2989174457762
 20
682.1938062227615
 30
0.0
 11
-501.2989174457752
 21
697.7938062227609
 31
0.0
  0
ARC
  5
1BB60
330
1F
100
AcDbEntity
  8
外形線
100
AcDbCircle
 10
-486.3533641366534
 20
657.2938062227623
 30
0.0
 40
17.9
100
AcDbArc
 50
0.0
 51
90.0
  0
ARC
  5
1BB61
330
1F
100
AcDbEntity
  8
外形線
100
AcDbCircle
 10
-486.3533641366534
 20
657.2938062227623
 30
0.0
 40
22.1
100
AcDbArc
 50
0.0
 51
90.0
  0
LINE
  5
1BB62
330
1F
100
AcDbEntity
  8
外形線
100
AcDbLine
 10
-496.3354781201924
 20
844.7938062227613
 30
0.0
 11
-577.03135839066
 21
844.7938062227612
 31
0.0
  0
LINE
  5
1BB63
330
1F
100
AcDbEntity
  8
外形線
100
AcDbLine
 10
-597.03135839066
 20
841.6434075830263
 30
0.0
 11
-584.422244141625
 21
841.6434075830263
 31
0.0
  0
LINE
  5
1BB64
330
1F
100
AcDbEntity
  8
外形線
100
AcDbLine
 10
-597.03135839066
 20
838.3654847650483
 30
0.0
 11
-584.422244141625
 21
838.3654847650483
 31
0.0
  0
LINE
  5
1BB65
330
1F
100
AcDbEntity
  8
外形線
100
AcDbLine
 10
-584.422244141625
 20
828.6359114859198
 30
0.0
 11
-597.03135839066
 21
828.6359114859198
 31
0.0
  0
LINE
  5
1BB66
330
1F
100
AcDbEntity
  8
外形線
100
AcDbLine
 10
-611.0313583906595
 20
836.0223776513343
 30
0.0
 11
-610.03135839066
 21
836.0223776513343
 31
0.0
  0
LINE
  5
1BB67
330
1F
100
AcDbEntity
  8
外形線
100
AcDbLine
 10
-610.03135839066
 20
833.0223776513346
 30
0.0
 11
-597.03135839066
 21
833.0223776513346
 31
0.0
  0
ARC
  5
1BB68
330
1F
100
AcDbEntity
  8
外形線
100
AcDbCircle
 10
-589.2646886224786
 20
833.5006981254839
 30
0.0
 40
6.864067132439955
100
AcDbArc
 50
314.8681282929233
 51
45.13187170707669
  0
LINE
  5
1BB69
330
1F
100
AcDbEntity
  8
外形線
100
AcDbLine
 10
-584.422244141625
 20
828.6359114859198
 30
0.0
 11
-577.03135839066
 21
837.2938062227618
 31
0.0
  0
LINE
  5
1BB6A
330
1F
100
AcDbEntity
  8
外形線
100
AcDbLine
 10
-584.422244141625
 20
841.6434075830263
 30
0.0
 11
-584.422244141625
 21
838.3654847650483
 31
0.0
  0
ARC
  5
1BB6B
330
1F
100
AcDbEntity
  8
外形線
100
AcDbCircle
 10
-442.5140333409956
 20
669.3515198821606
 30
0.0
 40
17.9
100
AcDbArc
 50
0.0
 51
90.0
  0
ARC
  5
1BB6C
330
1F
100
AcDbEntity
  8
外形線
100
AcDbCircle
 10
-442.5140333409956
 20
669.3515198821606
 30
0.0
 40
22.1
100
AcDbArc
 50
0.0
 51
90.0
  0
LINE
  5
1BB6D
330
1F
100
AcDbEntity
  8
外形線
100
AcDbLine
 10
-361.0084395296528
 20
710.6813395533619
 30
0.0
 11
-364.4059793887538
 21
710.0055268567213
 31
0.0
  0
LINE
  5
1BB6E
330
1F
100
AcDbEntity
  8
外形線
100
AcDbLine
 10
-363.2354379470502
 20
704.1208150767566
 30
0.0
 11
-365.5194790388061
 21
706.7252645306276
 31
0.0
  0
LINE
  5
1BB6F
330
1F
100
AcDbEntity
  8
外形線
100
AcDbLine
 10
-358.7243979475035
 20
708.0768901970356
 30
0.0
 11
-359.8378971071638
 21
704.7966279684875
 31
0.0
  0
LINE
  5
1BB70
330
1F
100
AcDbEntity
  8
外形線
100
AcDbLine
 10
-359.8378975975558
 20
704.7966278709424
 30
0.0
 11
-363.2354374566568
 21
704.1208151743018
 31
0.0
  0
LINE
  5
1BB71
330
1F
100
AcDbEntity
  8
外形線
100
AcDbLine
 10
-365.519478352256
 20
706.725264667191
 30
0.0
 11
-364.4059792906759
 21
710.0055268762308
 31
0.0
  0
LINE
  5
1BB72
330
1F
100
AcDbEntity
  8
外形線
100
AcDbLine
 10
-358.7243986340531
 20
708.0768900604722
 30
0.0
 11
-361.0084396277315
 21
710.6813395338532
 31
0.0
  0
CIRCLE
  5
1BB73
330
1F
100
AcDbEntity
  8
外形線
100
AcDbCircle
 10
-362.1219384931543
 20
707.4010773638327
 30
0.0
 40
6.5
  0
CIRCLE
  5
1BB74
330
1F
100
AcDbEntity
  8
外形線
100
AcDbCircle
 10
-351.0208574093589
 20
767.2938062227666
 30
0.0
 40
6.400000000000241
  0
CIRCLE
  5
1BB75
330
1F
100
AcDbEntity
  8
細線
100
AcDbCircle
 10
-351.0208574093589
 20
767.2938062227666
 30
0.0
 40
8.0
  0
LINE
  5
1BB76
330
1F
100
AcDbEntity
  8
外形線
100
AcDbLine
 10
-364.4059798791397
 20
824.5820856863909
 30
0.0
 11
-365.519479038799
 21
827.8623479149384
 31
0.0
  0
LINE
  5
1BB77
330
1F
100
AcDbEntity
  8
外形線
100
AcDbLine
 10
-358.7243979474965
 20
826.510722248531
 30
0.0
 11
-361.008439039253
 21
823.9062727946603
 31
0.0
  0
CIRCLE
  5
1BB78
330
1F
100
AcDbEntity
  8
外形線
100
AcDbCircle
 10
-362.1219384931468
 20
827.1865350817353
 30
0.0
 40
6.5
  0
LINE
  5
1BB79
330
1F
100
AcDbEntity
  8
外形線
100
AcDbLine
 10
-361.0084395296457
 20
823.9062728922046
 30
0.0
 11
-364.4059793887465
 21
824.5820855888451
 31
0.0
  0
LINE
  5
1BB7A
330
1F
100
AcDbEntity
  8
外形線
100
AcDbLine
 10
-365.5194783522488
 20
827.8623477783751
 30
0.0
 11
-363.2354373585715
 21
830.4667972517565
 31
0.0
  0
LINE
  5
1BB7B
330
1F
100
AcDbEntity
  8
外形線
100
AcDbLine
 10
-359.8378975975488
 20
829.7909845746243
 30
0.0
 11
-363.23543745665
 21
830.4667972712648
 31
0.0
  0
LINE
  5
1BB7C
330
1F
100
AcDbEntity
  8
外形線
100
AcDbLine
 10
-358.7243986340463
 20
826.5107223850938
 30
0.0
 11
-359.8378976956276
 21
829.7909845941338
 31
0.0
  0
LINE
  5
1BB7D
330
1F
100
AcDbEntity
  8
外形線
100
AcDbLine
 10
-472.8354781201928
 20
1030.241733445439
 30
0.0
 11
-472.8354781201922
 21
881.2938062227615
 31
0.0
  0
LINE
  5
1BB7E
330
1F
100
AcDbEntity
  8
外形線
100
AcDbLine
 10
-459.8354781201926
 20
1030.241741026824
 30
0.0
 11
-459.8354781201922
 21
881.2938062227615
 31
0.0
  0
LINE
  5
1BB7F
330
1F
100
AcDbEntity
  8
外形線
100
AcDbLine
 10
-496.3354781201924
 20
857.7938062227614
 30
0.0
 11
-577.03135839066
 21
857.7938062227614
 31
0.0
  0
LINE
  5
1BB80
330
1F
100
AcDbEntity
  8
外形線
100
AcDbLine
 10
-584.422244141625
 20
873.9517009596035
 30
0.0
 11
-597.03135839066
 21
873.9517009596035
 31
0.0
  0
LINE
  5
1BB81
330
1F
100
AcDbEntity
  8
外形線
100
AcDbLine
 10
-597.03135839066
 20
860.944204862497
 30
0.0
 11
-584.422244141625
 21
860.9442048624963
 31
0.0
  0
LINE
  5
1BB82
330
1F
100
AcDbEntity
  8
外形線
100
AcDbLine
 10
-597.03135839066
 20
864.2221276804745
 30
0.0
 11
-584.422244141625
 21
864.2221276804745
 31
0.0
  0
LINE
  5
1BB83
330
1F
100
AcDbEntity
  8
外形線
100
AcDbLine
 10
-611.0313583906595
 20
866.5652347941888
 30
0.0
 11
-610.03135839066
 21
866.5652347941888
 31
0.0
  0
LINE
  5
1BB84
330
1F
100
AcDbEntity
  8
外形線
100
AcDbLine
 10
-610.03135839066
 20
869.5652347941887
 30
0.0
 11
-597.03135839066
 21
869.5652347941887
 31
0.0
  0
LINE
  5
1BB85
330
1F
100
AcDbEntity
  8
外形線
100
AcDbLine
 10
-584.422244141625
 20
864.2221276804745
 30
0.0
 11
-584.422244141625
 21
860.9442048624963
 31
0.0
  0
ARC
  5
1BB86
330
1F
100
AcDbEntity
  8
外形線
100
AcDbCircle
 10
-589.2646886224793
 20
869.0869143200393
 30
0.0
 40
6.864067132439955
100
AcDbArc
 50
314.8681282929233
 51
45.13187170707669
  0
LINE
  5
1BB87
330
1F
100
AcDbEntity
  8
外形線
100
AcDbLine
 10
-584.422244141625
 20
873.9517009596035
 30
0.0
 11
-577.03135839066
 21
865.2938062227613
 31
0.0
  0
ARC
  5
1BB88
330
1F
100
AcDbEntity
  8
外形線
100
AcDbCircle
 10
-496.3354781201924
 20
881.2938062227614
 30
0.0
 40
23.5
100
AcDbArc
 50
270.0
 51
0.0
  0
ARC
  5
1BB89
330
1F
100
AcDbEntity
  8
細線
100
AcDbCircle
 10
-463.0854802507492
 20
1033.895057775126
 30
0.0
 40
4.889707262404326
100
AcDbArc
 50
228.3436741432111
 51
311.6563926847131
  0
ARC
  5
1BB8A
330
1F
100
AcDbEntity
  8
細線
100
AcDbCircle
 10
-463.0854759896383
 20
1026.588420487835
 30
0.0
 40
4.889707262404326
100
AcDbArc
 50
48.34367414321118
 51
131.656392684713
  0
ARC
  5
1BB8B
330
1F
100
AcDbEntity
  8
細線
100
AcDbCircle
 10
-469.585475989636
 20
1026.588416697139
 30
0.0
 40
4.889707262404326
100
AcDbArc
 50
48.34367414321118
 51
131.656392684713
  0
ARC
  5
1BB8C
330
1F
100
AcDbEntity
  8
細線
100
AcDbCircle
 10
-469.5854802507476
 20
1041.698762711242
 30
0.0
 40
4.889707262404326
100
AcDbArc
 50
228.3436741432111
 51
311.6563926847131
  0
ARC
  5
1BB8D
330
1F
100
AcDbEntity
  8
細線
100
AcDbCircle
 10
-469.5854759896365
 20
1034.392125423951
 30
0.0
 40
4.889707262404326
100
AcDbArc
 50
48.34367414321118
 51
131.656392684713
  0
ARC
  5
1BB8E
330
1F
100
AcDbEntity
  8
細線
100
AcDbCircle
 10
-463.0854802507497
 20
1041.698766501936
 30
0.0
 40
4.889707262404326
100
AcDbArc
 50
228.3436741432111
 51
311.6563926847131
  0
CIRCLE
  5
1BB8F
330
1F
100
AcDbEntity
  8
外形線
100
AcDbCircle
 10
-316.2820283862302
 20
937.8538677597992
 30
0.0
 40
6.5
  0
LINE
  5
1BB90
330
1F
100
AcDbEntity
  8
外形線
100
AcDbLine
 10
-319.3888871081892
 20
936.3217350672345
 30
0.0
 11
-319.1623241825891
 21
939.7784198818138
 31
0.0
  0
LINE
  5
1BB91
330
1F
100
AcDbEntity
  8
外形線
100
AcDbLine
 10
-319.1623236005593
 20
939.7784194929144
 30
0.0
 11
-316.0554652111895
 21
941.3105524077085
 31
0.0
  0
LINE
  5
1BB92
330
1F
100
AcDbEntity
  8
外形線
100
AcDbLine
 10
-313.175170080008
 20
939.3860007301492
 30
0.0
 11
-316.0554652943365
 21
941.3105524632642
 31
0.0
  0
LINE
  5
1BB93
330
1F
100
AcDbEntity
  8
外形線
100
AcDbLine
 10
-313.4017331719023
 20
935.9293160266833
 30
0.0
 11
-313.1751701631549
 21
939.3860007857066
 31
0.0
  0
LINE
  5
1BB94
330
1F
100
AcDbEntity
  8
外形線
100
AcDbLine
 10
-313.4017325898732
 20
935.9293156377841
 30
0.0
 11
-316.5085910623906
 21
934.3971827785489
 31
0.0
  0
LINE
  5
1BB95
330
1F
100
AcDbEntity
  8
外形線
100
AcDbLine
 10
-316.5085914781257
 20
934.3971830563338
 30
0.0
 11
-319.3888866924539
 21
936.3217347894488
 31
0.0
  0
CIRCLE
  5
1BB96
330
1F
100
AcDbEntity
  8
外形線
100
AcDbCircle
 10
-61.02085740935899
 20
851.2938062227664
 30
0.0
 40
6.5
  0
HATCH
  5
1BB97
330
1F
100
AcDbEntity
  8
0
100
AcDbHatch
 10
0.0
 20
0.0
 30
0.0
210
0.0
220
0.0
230
1.0
  2
SOLID
 70
     1
 71
     0
 91
        2
 92
        7
 72
     1
 73
     1
 93
        3
 10
-61.02085740935876
 20
844.793806222766
 42
0.0
 10
-61.02085740935876
 20
851.2938062227664
 42
0.0
 10
-67.52085740935877
 20
851.2938062227661
 42
0.4142135623730951
 97
        0
 92
        7
 72
     1
 73
     1
 93
        3
 10
-54.52085740935877
 20
851.2938062227661
 42
0.4142135623730951
 10
-61.02085740935876
 20
857.7938062227664
 42
0.0
 10
-61.02085740935876
 20
851.2938062227664
 42
0.0
 97
        0
 75
     0
 76
     1
 47
0.1348330763457408
 98
        2
 10
-63.50154699523432
 20
847.5851818351411
 10
-59.05205643972681
 20
853.1156796382029
  0
CIRCLE
  5
1BB98
330
1F
100
AcDbEntity
  8
外形線
100
AcDbCircle
 10
-61.02085740935899
 20
851.2938062227664
 30
0.0
 40
12.5
  0
ARC
  5
1BB99
330
1F
100
AcDbEntity
  8
中心線
100
AcDbCircle
 10
-61.02085740935899
 20
767.2938062227664
 30
0.0
 40
84.0
100
AcDbArc
 50
72.04478708289234
 51
134.8559875553006
  0
CIRCLE
  5
1BB9A
330
1F
100
AcDbEntity
  8
外形線
100
AcDbCircle
 10
-61.02085740935899
 20
851.2938062227664
 30
0.0
 40
14.0
  0
LWPOLYLINE
  5
1BB9B
330
1F
100
AcDbEntity
  8
外形線
100
AcDbPolyline
 90
       12
 70
   129
 43
0.0
 10
-40.52085740935831
 20
860.9442048625034
 42
0.0418357922730061
 10
-42.41336703070032
 20
864.2221276804786
 10
-59.12834778801812
 20
873.8725263202146
 42
0.041835792273005
 10
-62.91336703070033
 20
873.8725263202146
 10
-79.62834778801675
 20
864.2221276804795
 42
0.0418357922730106
 10
-81.52085740935831
 20
860.9442048625025
 10
-81.52085740935831
 20
841.6434075830308
 42
0.0418357922730243
 10
-79.62834778801675
 20
838.3654847650532
 10
-62.91336703070033
 20
828.7150861253177
 42
0.041835792273011
 10
-59.12834778801675
 20
828.7150861253177
 10
-42.41336703070032
 20
838.3654847650532
 42
0.0418357922730047
 10
-40.52085740935967
 20
841.6434075830293
  0
CIRCLE
  5
1BB9C
330
1F
100
AcDbEntity
  8
外形線
100
AcDbCircle
 10
-61.02085740935899
 20
851.2938062227664
 30
0.0
 40
20.5
  0
LINE
  5
1BB9D
330
1F
100
AcDbEntity
  8
細線
100
AcDbLine
 10
-163.5484575963037
 20
708.6768189246637
 30
0.0
 11
-163.4618550559252
 21
708.7268189246639
 31
0.0
  0
LINE
  5
1BB9E
330
1F
100
AcDbEntity
  8
細線
100
AcDbLine
 10
-159.6611509004092
 20
710.3438062227714
 30
0.0
 11
-159.9111509004092
 21
710.7768189246636
 31
0.0
  0
LINE
  5
1BB9F
330
1F
100
AcDbEntity
  8
細線
100
AcDbLine
 10
-159.9111509004092
 20
710.7768189246636
 30
0.0
 11
-159.9977534407876
 21
710.7268189246637
 31
0.0
  0
LINE
  5
1BBA0
330
1F
100
AcDbEntity
  8
細線
100
AcDbLine
 10
-162.9128169502485
 20
710.7758570303403
 30
0.0
 11
-162.9628169502486
 21
710.8624595707186
 31
0.0
  0
LINE
  5
1BBA1
330
1F
100
AcDbEntity
  8
細線
100
AcDbLine
 10
-162.9628169502486
 20
710.8624595707186
 30
0.0
 11
-162.5298042483564
 21
711.1124595707188
 31
0.0
  0
LINE
  5
1BBA2
330
1F
100
AcDbEntity
  8
細線
100
AcDbLine
 10
-162.0467915464641
 20
711.2758570303403
 30
0.0
 11
-162.0967915464641
 21
711.3624595707186
 31
0.0
  0
LINE
  5
1BBA3
330
1F
100
AcDbEntity
  8
細線
100
AcDbLine
 10
-162.0967915464641
 20
711.3624595707186
 30
0.0
 11
-162.5298042483564
 21
711.1124595707188
 31
0.0
  0
ARC
  5
1BBA4
330
1F
100
AcDbEntity
  8
細線
100
AcDbCircle
 10
-160.747753440788
 20
712.02585703034
 30
0.0
 40
1.5
100
AcDbArc
 50
209.9999999999985
 51
299.9999999999979
  0
LINE
  5
1BBA5
330
1F
100
AcDbEntity
  8
細線
100
AcDbLine
 10
-159.6611509004092
 20
710.3438062227714
 30
0.0
 11
-159.4111509004089
 21
709.9107935208791
 31
0.0
  0
LINE
  5
1BBA6
330
1F
100
AcDbEntity
  8
細線
100
AcDbLine
 10
-159.4111509004089
 20
709.9107935208791
 30
0.0
 11
-159.4977534407876
 21
709.8607935208791
 31
0.0
  0
ARC
  5
1BBA7
330
1F
100
AcDbEntity
  8
細線
100
AcDbCircle
 10
-164.2118550559257
 20
710.02585703034
 30
0.0
 40
1.5
100
AcDbArc
 50
299.9999999999979
 51
29.9999999999985
  0
LINE
  5
1BBA8
330
1F
100
AcDbEntity
  8
細線
100
AcDbLine
 10
-163.0484575963037
 20
707.8107935208792
 30
0.0
 11
-162.961855055925
 21
707.8607935208793
 31
0.0
  0
LINE
  5
1BBA9
330
1F
100
AcDbEntity
  8
細線
100
AcDbLine
 10
-163.2984575963036
 20
708.2438062227715
 30
0.0
 11
-163.0484575963037
 21
707.8107935208792
 31
0.0
  0
LINE
  5
1BBAA
330
1F
100
AcDbEntity
  8
細線
100
AcDbLine
 10
-160.0467915464641
 20
707.8117554152023
 30
0.0
 11
-159.9967915464642
 21
707.7251528748242
 31
0.0
  0
LINE
  5
1BBAB
330
1F
100
AcDbEntity
  8
細線
100
AcDbLine
 10
-160.8628169502489
 20
707.2251528748242
 30
0.0
 11
-160.4298042483562
 21
707.4751528748241
 31
0.0
  0
LINE
  5
1BBAC
330
1F
100
AcDbEntity
  8
細線
100
AcDbLine
 10
-159.9967915464642
 20
707.7251528748242
 30
0.0
 11
-160.4298042483562
 21
707.4751528748241
 31
0.0
  0
LINE
  5
1BBAD
330
1F
100
AcDbEntity
  8
細線
100
AcDbLine
 10
-160.9128169502485
 20
707.3117554152023
 30
0.0
 11
-160.8628169502489
 21
707.2251528748242
 31
0.0
  0
ARC
  5
1BBAE
330
1F
100
AcDbEntity
  8
細線
100
AcDbCircle
 10
-162.2118550559257
 20
706.5617554152023
 30
0.0
 40
1.5
100
AcDbArc
 50
29.9999999999985
 51
119.9999999999979
  0
LINE
  5
1BBAF
330
1F
100
AcDbEntity
  8
細線
100
AcDbLine
 10
-163.2984575963036
 20
708.2438062227715
 30
0.0
 11
-163.5484575963037
 21
708.6768189246637
 31
0.0
  0
ARC
  5
1BBB0
330
1F
100
AcDbEntity
  8
細線
100
AcDbCircle
 10
-158.747753440788
 20
708.5617554152023
 30
0.0
 40
1.5
100
AcDbArc
 50
119.9999999999979
 51
209.9999999999985
  0
CIRCLE
  5
1BBB1
330
1F
100
AcDbEntity
  8
細線
100
AcDbCircle
 10
-161.4798042483566
 20
709.2938062227714
 30
0.0
 40
4.7
  0
LINE
  5
1BBB2
330
1F
100
AcDbEntity
  8
細線
100
AcDbLine
 10
-163.2984575963041
 20
826.3438062227617
 30
0.0
 11
-163.5484575963039
 21
825.9107935208696
 31
0.0
  0
ARC
  5
1BBB3
330
1F
100
AcDbEntity
  8
細線
100
AcDbCircle
 10
-158.747753440788
 20
826.0258570303303
 30
0.0
 40
1.5
100
AcDbArc
 50
150.0000000000014
 51
240.000000000002
  0
CIRCLE
  5
1BBB4
330
1F
100
AcDbEntity
  8
細線
100
AcDbCircle
 10
-161.4798042483566
 20
825.2938062227617
 30
0.0
 40
4.7
  0
LINE
  5
1BBB5
330
1F
100
AcDbEntity
  8
細線
100
AcDbLine
 10
-163.5484575963039
 20
825.9107935208696
 30
0.0
 11
-163.4618550559257
 21
825.8607935208695
 31
0.0
  0
LINE
  5
1BBB6
330
1F
100
AcDbEntity
  8
細線
100
AcDbLine
 10
-159.6611509004096
 20
824.2438062227616
 30
0.0
 11
-159.4111509004096
 21
824.6768189246537
 31
0.0
  0
LINE
  5
1BBB7
330
1F
100
AcDbEntity
  8
細線
100
AcDbLine
 10
-159.4111509004096
 20
824.6768189246537
 30
0.0
 11
-159.4977534407876
 21
824.7268189246538
 31
0.0
  0
LINE
  5
1BBB8
330
1F
100
AcDbEntity
  8
細線
100
AcDbLine
 10
-162.0467915464646
 20
823.3117554151929
 30
0.0
 11
-162.0967915464641
 21
823.2251528748143
 31
0.0
  0
LINE
  5
1BBB9
330
1F
100
AcDbEntity
  8
細線
100
AcDbLine
 10
-162.9628169502486
 20
823.7251528748144
 30
0.0
 11
-162.5298042483568
 21
823.4751528748144
 31
0.0
  0
LINE
  5
1BBBA
330
1F
100
AcDbEntity
  8
細線
100
AcDbLine
 10
-162.0967915464641
 20
823.2251528748143
 30
0.0
 11
-162.5298042483568
 21
823.4751528748144
 31
0.0
  0
LINE
  5
1BBBB
330
1F
100
AcDbEntity
  8
細線
100
AcDbLine
 10
-159.6611509004096
 20
824.2438062227616
 30
0.0
 11
-159.9111509004096
 21
823.8107935208693
 31
0.0
  0
ARC
  5
1BBBC
330
1F
100
AcDbEntity
  8
細線
100
AcDbCircle
 10
-160.747753440788
 20
822.5617554151927
 30
0.0
 40
1.5
100
AcDbArc
 50
60.000000000002
 51
150.0000000000014
  0
LINE
  5
1BBBD
330
1F
100
AcDbEntity
  8
細線
100
AcDbLine
 10
-159.9111509004096
 20
823.8107935208693
 30
0.0
 11
-159.9977534407876
 21
823.8607935208696
 31
0.0
  0
LINE
  5
1BBBE
330
1F
100
AcDbEntity
  8
細線
100
AcDbLine
 10
-162.9128169502485
 20
823.8117554151928
 30
0.0
 11
-162.9628169502486
 21
823.7251528748144
 31
0.0
  0
ARC
  5
1BBBF
330
1F
100
AcDbEntity
  8
細線
100
AcDbCircle
 10
-164.2118550559257
 20
824.5617554151928
 30
0.0
 40
1.5
100
AcDbArc
 50
330.0000000000015
 51
60.000000000002
  0
LINE
  5
1BBC0
330
1F
100
AcDbEntity
  8
細線
100
AcDbLine
 10
-163.2984575963041
 20
826.3438062227617
 30
0.0
 11
-163.0484575963041
 21
826.7768189246536
 31
0.0
  0
LINE
  5
1BBC1
330
1F
100
AcDbEntity
  8
細線
100
AcDbLine
 10
-163.0484575963041
 20
826.7768189246536
 30
0.0
 11
-162.9618550559257
 21
826.7268189246539
 31
0.0
  0
LINE
  5
1BBC2
330
1F
100
AcDbEntity
  8
細線
100
AcDbLine
 10
-160.9128169502485
 20
827.2758570303309
 30
0.0
 11
-160.8628169502489
 21
827.3624595707094
 31
0.0
  0
LINE
  5
1BBC3
330
1F
100
AcDbEntity
  8
細線
100
AcDbLine
 10
-160.8628169502489
 20
827.3624595707094
 30
0.0
 11
-160.4298042483567
 21
827.1124595707089
 31
0.0
  0
LINE
  5
1BBC4
330
1F
100
AcDbEntity
  8
細線
100
AcDbLine
 10
-160.0467915464646
 20
826.7758570303305
 30
0.0
 11
-159.9967915464642
 21
826.8624595707089
 31
0.0
  0
LINE
  5
1BBC5
330
1F
100
AcDbEntity
  8
細線
100
AcDbLine
 10
-159.9967915464642
 20
826.8624595707089
 30
0.0
 11
-160.4298042483567
 21
827.1124595707089
 31
0.0
  0
ARC
  5
1BBC6
330
1F
100
AcDbEntity
  8
細線
100
AcDbCircle
 10
-162.2118550559257
 20
828.0258570303303
 30
0.0
 40
1.5
100
AcDbArc
 50
240.000000000002
 51
330.0000000000015
  0
CIRCLE
  5
1BBC7
330
1F
100
AcDbEntity
  8
外形線
100
AcDbCircle
 10
-61.02085740935899
 20
767.2938062227664
 30
0.0
 40
54.0
  0
CIRCLE
  5
1BBC8
330
1F
100
AcDbEntity
  8
外形線
100
AcDbCircle
 10
-61.02085740935899
 20
767.2938062227664
 30
0.0
 40
50.00000000000002
  0
CIRCLE
  5
1BBC9
330
1F
100
AcDbEntity
  8
寸法
 48
0.5
100
AcDbCircle
 10
-48.7158574093587
 20
689.5988062227667
 30
0.0
 40
1.524999999999999
  0
LINE
  5
1BBCA
330
1F
100
AcDbEntity
  8
中心線
100
AcDbLine
 10
-45.89509127579321
 20
689.5988062227663
 30
0.0
 11
-51.53662354292419
 21
689.5988062227663
 31
0.0
  0
CIRCLE
  5
1BBCB
330
1F
100
AcDbEntity
  8
寸法
 48
0.5
100
AcDbCircle
 10
-48.71585740935961
 20
664.9888062227661
 30
0.0
 40
1.524999999999999
  0
LINE
  5
1BBCC
330
1F
100
AcDbEntity
  8
中心線
100
AcDbLine
 10
-45.89509127579321
 20
664.9888062227661
 30
0.0
 11
-51.53662354292419
 21
664.9888062227661
 31
0.0
  0
LINE
  5
1BBCD
330
1F
100
AcDbEntity
  8
実線
100
AcDbLine
 10
-47.59775225437851
 20
693.5638053660762
 30
0.0
 11
-74.44396256433947
 21
693.563805366077
 31
0.0
  0
CIRCLE
  5
1BBCE
330
1F
100
AcDbEntity
  8
実線
100
AcDbCircle
 10
-61.02085740935899
 20
677.2938062227664
 30
0.0
 40
12.70000000000017
  0
LINE
  5
1BBCF
330
1F
100
AcDbEntity
  8
実線
100
AcDbLine
 10
-47.59775225437851
 20
661.0238070794554
 30
0.0
 11
-74.44396256433947
 21
661.0238070794545
 31
0.0
  0
ARC
  5
1BBD0
330
1F
100
AcDbEntity
  8
中心線
100
AcDbCircle
 10
-61.02085740935899
 20
767.2938062227664
 30
0.0
 40
90.0
100
AcDbArc
 50
259.0932247089079
 51
324.6969831732889
  0
CIRCLE
  5
1BBD1
330
1F
100
AcDbEntity
  8
寸法
 48
0.5
100
AcDbCircle
 10
-54.95867958286772
 20
673.7938062227655
 30
0.0
 40
1.0
  0
CIRCLE
  5
1BBD2
330
1F
100
AcDbEntity
  8
寸法
 48
0.5
100
AcDbCircle
 10
-67.08303523585027
 20
673.7938062227645
 30
0.0
 40
1.0
  0
ARC
  5
1BBD3
330
1F
100
AcDbEntity
  8
0
100
AcDbCircle
 10
-61.02085740936082
 20
677.2938062227664
 30
0.0
 40
10.13620525815749
100
AcDbArc
 50
183.3073621796748
 51
176.6926378203251
  0
LINE
  5
1BBD4
330
1F
100
AcDbEntity
  8
実線
100
AcDbLine
 10
-77.29085655266999
 20
690.716911377746
 30
0.0
 11
-77.29085655266999
 21
663.8707010677848
 31
0.0
  0
CIRCLE
  5
1BBD5
330
1F
100
AcDbEntity
  8
細線
 48
5.0
100
AcDbCircle
 10
-61.02085740935899
 20
677.2938062227664
 30
0.0
 40
12.01300000000008
  0
LINE
  5
1BBD6
330
1F
100
AcDbEntity
  8
中心線
100
AcDbLine
 10
-73.32585740935837
 20
662.1680400892006
 30
0.0
 11
-73.32585740935837
 21
667.8095723563316
 31
0.0
  0
CIRCLE
  5
1BBD7
330
1F
100
AcDbEntity
  8
寸法
 48
0.5
100
AcDbCircle
 10
-73.32585740935929
 20
664.9888062227661
 30
0.0
 40
1.524999999999999
  0
ARC
  5
1BBD8
330
1F
100
AcDbEntity
  8
実線
100
AcDbCircle
 10
-74.44396256433947
 20
663.8707010677848
 30
0.0
 40
2.846893988330908
100
AcDbArc
 50
180.0
 51
270.0
  0
LINE
  5
1BBD9
330
1F
100
AcDbEntity
  8
中心線
100
AcDbLine
 10
-76.14662354292386
 20
664.9888062227661
 30
0.0
 11
-70.50509127579289
 21
664.9888062227661
 31
0.0
  0
CIRCLE
  5
1BBDA
330
1F
100
AcDbEntity
  8
寸法
 48
0.5
100
AcDbCircle
 10
-61.02085740935899
 20
670.2938062227664
 30
0.0
 40
1.0
  0
LINE
  5
1BBDB
330
1F
100
AcDbEntity
  8
細線
100
AcDbLine
 10
-61.02085740935899
 20
649.1938062227665
 30
0.0
 11
-61.52085740935899
 21
649.1938062227665
 31
0.0
  0
LINE
  5
1BBDC
330
1F
100
AcDbEntity
  8
細線
100
AcDbLine
 10
-61.52085740935899
 20
649.1938062227665
 30
0.0
 11
-61.52085740935899
 21
649.2938062227661
 31
0.0
  0
LINE
  5
1BBDD
330
1F
100
AcDbEntity
  8
細線
100
AcDbLine
 10
-60.520857409359
 20
649.1938062227665
 30
0.0
 11
-60.520857409359
 21
649.2938062227661
 31
0.0
  0
LINE
  5
1BBDE
330
1F
100
AcDbEntity
  8
細線
100
AcDbLine
 10
-61.02085740935899
 20
649.1938062227665
 30
0.0
 11
-60.520857409359
 21
649.1938062227665
 31
0.0
  0
LINE
  5
1BBDF
330
1F
100
AcDbEntity
  8
細線
100
AcDbLine
 10
-61.02085740935899
 20
653.3938062227663
 30
0.0
 11
-61.52085740935899
 21
653.3938062227663
 31
0.0
  0
LINE
  5
1BBE0
330
1F
100
AcDbEntity
  8
細線
100
AcDbLine
 10
-61.52085740935899
 20
653.3938062227663
 30
0.0
 11
-61.52085740935899
 21
653.2938062227661
 31
0.0
  0
LINE
  5
1BBE1
330
1F
100
AcDbEntity
  8
細線
100
AcDbLine
 10
-63.020857409359
 20
650.7938062227664
 30
0.0
 11
-63.12085740935891
 21
650.7938062227664
 31
0.0
  0
LINE
  5
1BBE2
330
1F
100
AcDbEntity
  8
細線
100
AcDbLine
 10
-63.12085740935891
 20
650.7938062227664
 30
0.0
 11
-63.12085740935891
 21
651.2938062227664
 31
0.0
  0
LINE
  5
1BBE3
330
1F
100
AcDbEntity
  8
細線
100
AcDbLine
 10
-63.020857409359
 20
651.7938062227663
 30
0.0
 11
-63.12085740935891
 21
651.7938062227663
 31
0.0
  0
LINE
  5
1BBE4
330
1F
100
AcDbEntity
  8
細線
100
AcDbLine
 10
-63.12085740935891
 20
651.7938062227663
 30
0.0
 11
-63.12085740935891
 21
651.2938062227664
 31
0.0
  0
ARC
  5
1BBE5
330
1F
100
AcDbEntity
  8
細線
100
AcDbCircle
 10
-63.020857409359
 20
653.2938062227664
 30
0.0
 40
1.5
100
AcDbArc
 50
270.0
 51
0.0
  0
LINE
  5
1BBE6
330
1F
100
AcDbEntity
  8
細線
100
AcDbLine
 10
-59.02085740935899
 20
651.7938062227663
 30
0.0
 11
-58.92085740935908
 21
651.7938062227663
 31
0.0
  0
LINE
  5
1BBE7
330
1F
100
AcDbEntity
  8
細線
100
AcDbLine
 10
-58.92085740935908
 20
650.7938062227664
 30
0.0
 11
-58.92085740935908
 21
651.2938062227664
 31
0.0
  0
LINE
  5
1BBE8
330
1F
100
AcDbEntity
  8
細線
100
AcDbLine
 10
-58.92085740935908
 20
651.7938062227663
 30
0.0
 11
-58.92085740935908
 21
651.2938062227664
 31
0.0
  0
LINE
  5
1BBE9
330
1F
100
AcDbEntity
  8
細線
100
AcDbLine
 10
-61.02085740935899
 20
653.3938062227663
 30
0.0
 11
-60.520857409359
 21
653.3938062227663
 31
0.0
  0
ARC
  5
1BBEA
330
1F
100
AcDbEntity
  8
細線
100
AcDbCircle
 10
-59.02085740935899
 20
653.2938062227664
 30
0.0
 40
1.5
100
AcDbArc
 50
180.0
 51
270.0
  0
LINE
  5
1BBEB
330
1F
100
AcDbEntity
  8
細線
100
AcDbLine
 10
-60.520857409359
 20
653.3938062227663
 30
0.0
 11
-60.520857409359
 21
653.2938062227661
 31
0.0
  0
LINE
  5
1BBEC
330
1F
100
AcDbEntity
  8
細線
100
AcDbLine
 10
-59.02085740935899
 20
650.7938062227664
 30
0.0
 11
-58.92085740935908
 21
650.7938062227664
 31
0.0
  0
ARC
  5
1BBED
330
1F
100
AcDbEntity
  8
細線
100
AcDbCircle
 10
-63.020857409359
 20
649.2938062227664
 30
0.0
 40
1.5
100
AcDbArc
 50
0.0
 51
90.0
  0
ARC
  5
1BBEE
330
1F
100
AcDbEntity
  8
細線
100
AcDbCircle
 10
-59.02085740935899
 20
649.2938062227664
 30
0.0
 40
1.5
100
AcDbArc
 50
90.0
 51
180.0
  0
LINE
  5
1BBEF
330
1F
100
AcDbEntity
  8
0
100
AcDbLine
 10
-69.98750052234618
 20
677.8785872953518
 30
0.0
 11
-69.98750052234618
 21
676.7090251501798
 31
0.0
  0
LINE
  5
1BBF0
330
1F
100
AcDbEntity
  8
0
100
AcDbLine
 10
-71.14017992288109
 20
676.7090251501798
 30
0.0
 11
-69.98750052234618
 21
676.7090251501798
 31
0.0
  0
LINE
  5
1BBF1
330
1F
100
AcDbEntity
  8
0
100
AcDbLine
 10
-71.14017992288109
 20
677.8785872953518
 30
0.0
 11
-69.98750052234618
 21
677.8785872953518
 31
0.0
  0
LINE
  5
1BBF2
330
1F
100
AcDbEntity
  8
中心線
100
AcDbLine
 10
-73.32585740935837
 20
692.4195723563322
 30
0.0
 11
-73.32585740935837
 21
686.7780400892012
 31
0.0
  0
ARC
  5
1BBF3
330
1F
100
AcDbEntity
  8
実線
100
AcDbCircle
 10
-74.44396256433947
 20
690.716911377746
 30
0.0
 40
2.846893988330908
100
AcDbArc
 50
90.0
 51
180.0
  0
CIRCLE
  5
1BBF4
330
1F
100
AcDbEntity
  8
寸法
 48
0.5
100
AcDbCircle
 10
-73.32585740935929
 20
689.5988062227667
 30
0.0
 40
1.524999999999999
  0
LINE
  5
1BBF5
330
1F
100
AcDbEntity
  8
中心線
100
AcDbLine
 10
-76.14662354292386
 20
689.5988062227663
 30
0.0
 11
-70.50509127579289
 21
689.5988062227663
 31
0.0
  0
CIRCLE
  5
1BBF6
330
1F
100
AcDbEntity
  8
寸法
 48
0.5
100
AcDbCircle
 10
-61.02085740935899
 20
684.2938062227664
 30
0.0
 40
1.0
  0
CIRCLE
  5
1BBF7
330
1F
100
AcDbEntity
  8
寸法
 48
0.5
100
AcDbCircle
 10
-61.02085740935899
 20
677.2938062227664
 30
0.0
 40
1.0
  0
CIRCLE
  5
1BBF8
330
1F
100
AcDbEntity
  8
寸法
 48
0.5
100
AcDbCircle
 10
-54.95867958286862
 20
680.7938062227663
 30
0.0
 40
1.0
  0
CIRCLE
  5
1BBF9
330
1F
100
AcDbEntity
  8
寸法
 48
0.5
100
AcDbCircle
 10
-67.08303523584937
 20
680.7938062227663
 30
0.0
 40
1.0
  0
LINE
  5
1BBFA
330
1F
100
AcDbEntity
  8
実線
100
AcDbLine
 10
-8.102495090674437
 20
710.5565127699652
 30
0.0
 11
6.302386277885034
 21
685.6065263626179
 31
0.0
  0
LINE
  5
1BBFB
330
1F
100
AcDbEntity
  8
実線
100
AcDbLine
 10
-12.27586388981626
 20
711.6747635694129
 30
0.0
 11
-37.22585029716401
 21
697.2698822008529
 31
0.0
  0
LINE
  5
1BBFC
330
1F
100
AcDbEntity
  8
中心線
100
AcDbLine
 10
-25.52243261046396
 20
705.8087308824057
 30
0.0
 11
-6.51928220826312
 21
672.8943088819224
 31
0.0
  0
CIRCLE
  5
1BBFD
330
1F
100
AcDbEntity
  8
細線
 48
5.0
100
AcDbCircle
 10
-16.02085740936354
 20
689.3515198821643
 30
0.0
 40
13.52350000000031
  0
CIRCLE
  5
1BBFE
330
1F
100
AcDbEntity
  8
実線
100
AcDbCircle
 10
-16.02085740936354
 20
689.3515198821643
 30
0.0
 40
14.28750000000034
  0
ARC
  5
1BBFF
330
1F
100
AcDbEntity
  8
0
100
AcDbCircle
 10
-16.02085740936445
 20
689.3515198821647
 30
0.0
 40
11.40323091542728
100
AcDbArc
 50
213.3073621796734
 51
206.6926378203333
  0
CIRCLE
  5
1BC00
330
1F
100
AcDbEntity
  8
寸法
 48
0.5
100
AcDbCircle
 10
-8.089298518372288
 20
690.3957294199264
 30
0.0
 40
1.0
  0
LINE
  5
1BC01
330
1F
100
AcDbEntity
  8
実線
100
AcDbLine
 10
5.184135478437838
 20
681.4331575634761
 30
0.0
 11
-19.76585092890991
 21
667.0282761949167
 31
0.0
  0
LINE
  5
1BC02
330
1F
100
AcDbEntity
  8
実線
100
AcDbLine
 10
-44.75085826604799
 20
690.716911377746
 30
0.0
 11
-44.75085826604799
 21
663.8707010677848
 31
0.0
  0
LINE
  5
1BC03
330
1F
100
AcDbEntity
  8
実線
100
AcDbLine
 10
-38.3441010966103
 20
693.0965134017116
 30
0.0
 11
-23.93921972805082
 21
668.1465269943638
 31
0.0
  0
LINE
  5
1BC04
330
1F
100
AcDbEntity
  8
中心線
100
AcDbLine
 10
-48.7158574093587
 20
662.1680400892006
 30
0.0
 11
-48.7158574093587
 21
667.8095723563316
 31
0.0
  0
ARC
  5
1BC05
330
1F
100
AcDbEntity
  8
実線
100
AcDbCircle
 10
-47.59775225437851
 20
663.8707010677848
 30
0.0
 40
2.846893988330908
100
AcDbArc
 50
270.0
 51
0.0
  0
LINE
  5
1BC06
330
1F
100
AcDbEntity
  8
中心線
100
AcDbLine
 10
-23.57823740834055
 20
669.417127745342
 30
0.0
 11
-18.33518255045191
 21
672.4442068789204
 31
0.0
  0
LINE
  5
1BC07
330
1F
100
AcDbEntity
  8
中心線
100
AcDbLine
 10
-19.44317041260683
 20
668.3091398831876
 30
0.0
 11
-22.47024954618473
 21
673.552194741076
 31
0.0
  0
CIRCLE
  5
1BC08
330
1F
100
AcDbEntity
  8
寸法
 48
0.5
100
AcDbCircle
 10
-20.95670997939623
 20
670.9306673121319
 30
0.0
 40
1.524999999999999
  0
ARC
  5
1BC09
330
1F
100
AcDbEntity
  8
実線
100
AcDbCircle
 10
-21.29340992875722
 20
669.6740859942111
 30
0.0
 40
3.055117999694486
100
AcDbArc
 50
209.9999999999993
 51
299.9999999999979
  0
LINE
  5
1BC0A
330
1F
100
AcDbEntity
  8
中心線
100
AcDbLine
 10
-35.9552495461844
 20
696.9088998811422
 30
0.0
 11
-32.9281704126065
 21
691.6658450232532
 31
0.0
  0
LINE
  5
1BC0B
330
1F
100
AcDbEntity
  8
中心線
100
AcDbLine
 10
-37.06323740833932
 20
692.7738328854085
 30
0.0
 11
-31.82018255045159
 21
695.8009120189863
 31
0.0
  0
LINE
  5
1BC0C
330
1F
100
AcDbEntity
  8
中心線
100
AcDbLine
 10
-48.7158574093587
 20
692.4195723563322
 30
0.0
 11
-48.7158574093587
 21
686.7780400892012
 31
0.0
  0
CIRCLE
  5
1BC0D
330
1F
100
AcDbEntity
  8
寸法
 48
0.5
100
AcDbCircle
 10
-34.44170997939591
 20
694.2873724521974
 30
0.0
 40
1.524999999999999
  0
ARC
  5
1BC0E
330
1F
100
AcDbEntity
  8
実線
100
AcDbCircle
 10
-35.6982912973167
 20
694.6240724015584
 30
0.0
 40
3.055117999694486
100
AcDbArc
 50
119.9999999999979
 51
209.9999999999993
  0
ARC
  5
1BC0F
330
1F
100
AcDbEntity
  8
実線
100
AcDbCircle
 10
-47.59775225437851
 20
690.716911377746
 30
0.0
 40
2.846893988330908
100
AcDbArc
 50
0.0
 51
90.0
  0
CIRCLE
  5
1BC10
330
1F
100
AcDbEntity
  8
寸法
 48
0.5
100
AcDbCircle
 10
-11.15076597729375
 20
695.698346604495
 30
0.0
 40
1.0
  0
CIRCLE
  5
1BC11
330
1F
100
AcDbEntity
  8
寸法
 48
0.5
100
AcDbCircle
 10
-12.98976849611745
 20
691.1015198821643
 30
0.0
 40
1.0
  0
CIRCLE
  5
1BC12
330
1F
100
AcDbEntity
  8
寸法
 48
0.5
100
AcDbCircle
 10
-17.0650669471247
 20
697.2830787731537
 30
0.0
 40
1.0
  0
CIRCLE
  5
1BC13
330
1F
100
AcDbEntity
  8
寸法
 48
0.5
100
AcDbCircle
 10
-22.36768413169329
 20
694.2216113142327
 30
0.0
 40
1.0
  0
CIRCLE
  5
1BC14
330
1F
100
AcDbEntity
  8
寸法
 48
0.5
100
AcDbCircle
 10
-9.674030687031972
 20
684.4814284500954
 30
0.0
 40
1.0
  0
LINE
  5
1BC15
330
1F
100
AcDbEntity
  8
0
100
AcDbLine
 10
-25.08580507552278
 20
684.8775228036848
 30
0.0
 11
-24.42792636886361
 21
683.7380434585335
 31
0.0
  0
LINE
  5
1BC16
330
1F
100
AcDbEntity
  8
0
100
AcDbLine
 10
-25.5509572175556
 20
683.0896612957318
 30
0.0
 11
-24.42792636886361
 21
683.7380434585335
 31
0.0
  0
LINE
  5
1BC17
330
1F
100
AcDbEntity
  8
0
100
AcDbLine
 10
-26.20883592421478
 20
684.2291406408841
 30
0.0
 11
-25.08580507552278
 21
684.8775228036848
 31
0.0
  0
CIRCLE
  5
1BC18
330
1F
100
AcDbEntity
  8
寸法
 48
0.5
100
AcDbCircle
 10
-23.95241630035298
 20
688.3073103444031
 30
0.0
 40
1.0
  0
CIRCLE
  5
1BC19
330
1F
100
AcDbEntity
  8
寸法
 48
0.5
100
AcDbCircle
 10
-19.05194632260872
 20
687.6015198821647
 30
0.0
 40
1.0
  0
CIRCLE
  5
1BC1A
330
1F
100
AcDbEntity
  8
寸法
 48
0.5
100
AcDbCircle
 10
-14.97664787160238
 20
681.4199609911749
 30
0.0
 40
1.0
  0
CIRCLE
  5
1BC1B
330
1F
100
AcDbEntity
  8
寸法
 48
0.5
100
AcDbCircle
 10
-20.8909488414315
 20
683.0046931598336
 30
0.0
 40
1.0
  0
LINE
  5
1BC1C
330
1F
100
AcDbEntity
  8
中心線
100
AcDbLine
 10
5.02152258961405
 20
685.9292068789203
 30
0.0
 11
-0.2215322682736769
 21
682.9021277453431
 31
0.0
  0
CIRCLE
  5
1BC1D
330
1F
100
AcDbEntity
  8
寸法
 48
0.5
100
AcDbCircle
 10
2.399995160669732
 20
684.4156673121316
 30
0.0
 40
1.524999999999999
  0
LINE
  5
1BC1E
330
1F
100
AcDbEntity
  8
中心線
100
AcDbLine
 10
3.913534727459136
 20
681.794139883187
 30
0.0
 11
0.8864555938812372
 21
687.037194741076
 31
0.0
  0
ARC
  5
1BC1F
330
1F
100
AcDbEntity
  8
実線
100
AcDbCircle
 10
3.656576478590523
 20
684.0789673627702
 30
0.0
 40
3.055117999694486
100
AcDbArc
 50
299.9999999999979
 51
29.99999999999932
  0
ARC
  5
1BC20
330
1F
100
AcDbEntity
  8
実線
100
AcDbCircle
 10
-10.74830488996894
 20
709.0289537701184
 30
0.0
 40
3.055117999694486
100
AcDbArc
 50
29.99999999999932
 51
119.9999999999979
  0
LINE
  5
1BC21
330
1F
100
AcDbEntity
  8
中心線
100
AcDbLine
 10
-12.59854440611934
 20
710.3938998811415
 30
0.0
 11
-9.571465272541445
 21
705.1508450232533
 31
0.0
  0
LINE
  5
1BC22
330
1F
100
AcDbEntity
  8
中心線
100
AcDbLine
 10
-8.463477410385621
 20
709.2859120189858
 30
0.0
 11
-13.70653226827426
 21
706.2588328854077
 31
0.0
  0
CIRCLE
  5
1BC23
330
1F
100
AcDbEntity
  8
寸法
 48
0.5
100
AcDbCircle
 10
-11.08500483933084
 20
707.7723724521969
 30
0.0
 40
1.524999999999999
  0
CIRCLE
  5
1BC24
330
1F
100
AcDbEntity
  8
細線
100
AcDbCircle
 10
-266.0818239534583
 20
972.3547727668655
 30
0.0
 40
8.0
  0
CIRCLE
  5
1BC25
330
1F
100
AcDbEntity
  8
外形線
100
AcDbCircle
 10
-266.0818239534583
 20
972.3547727668655
 30
0.0
 40
6.400000000000241
  0
LINE
  5
1BC26
330
1F
100
AcDbEntity
  8
中心線
100
AcDbLine
 10
-257.212909614411
 20
963.4858584278187
 30
0.0
 11
-274.9507382925044
 21
981.2236871059127
 31
0.0
  0
CIRCLE
  5
1BC27
330
1F
100
AcDbEntity
  8
外形線
100
AcDbCircle
 10
-231.5809189463621
 20
1022.554977199658
 30
0.0
 40
6.5
  0
LINE
  5
1BC28
330
1F
100
AcDbEntity
  8
外形線
100
AcDbLine
 10
-233.5054706794785
 20
1025.435272413986
 30
0.0
 11
-230.0487859204551
 21
1025.661835422734
 31
0.0
  0
LINE
  5
1BC29
330
1F
100
AcDbEntity
  8
外形線
100
AcDbLine
 10
-229.6563668243477
 20
1019.674681403299
 30
0.0
 11
-233.1130516389271
 21
1019.4481184777
 31
0.0
  0
LINE
  5
1BC2A
330
1F
100
AcDbEntity
  8
外形線
100
AcDbLine
 10
-235.0376039276134
 20
1022.328414523496
 30
0.0
 11
-233.505471068378
 21
1025.435272996015
 31
0.0
  0
LINE
  5
1BC2B
330
1F
100
AcDbEntity
  8
外形線
100
AcDbLine
 10
-233.1130519167127
 20
1019.448118893434
 30
0.0
 11
-235.0376036498282
 21
1022.328414107763
 31
0.0
  0
LINE
  5
1BC2C
330
1F
100
AcDbEntity
  8
外形線
100
AcDbLine
 10
-228.1242342428972
 20
1022.781540291552
 30
0.0
 11
-230.0487859760128
 21
1025.66183550588
 31
0.0
  0
LINE
  5
1BC2D
330
1F
100
AcDbEntity
  8
外形線
100
AcDbLine
 10
-229.6563672132474
 20
1019.674681985329
 30
0.0
 11
-228.1242342984542
 21
1022.781540374698
 31
0.0
  0
CIRCLE
  5
1BC2E
330
1F
100
AcDbEntity
  8
細線
100
AcDbCircle
 10
-178.5046711454469
 20
1050.924822703735
 30
0.0
 40
3.0
  0
CIRCLE
  5
1BC2F
330
1F
100
AcDbEntity
  8
外形線
100
AcDbCircle
 10
-178.5046711454469
 20
1050.924822703735
 30
0.0
 40
2.475000000000134
  0
LINE
  5
1BC30
330
1F
100
AcDbEntity
  8
細線
100
AcDbLine
 10
-61.02085740935899
 20
881.1938062227666
 30
0.0
 11
-60.520857409359
 21
881.1938062227666
 31
0.0
  0
LINE
  5
1BC31
330
1F
100
AcDbEntity
  8
細線
100
AcDbLine
 10
-60.520857409359
 20
881.1938062227666
 30
0.0
 11
-60.520857409359
 21
881.2938062227663
 31
0.0
  0
LINE
  5
1BC32
330
1F
100
AcDbEntity
  8
細線
100
AcDbLine
 10
-59.02085740935899
 20
883.7938062227664
 30
0.0
 11
-58.92085740935908
 21
883.7938062227664
 31
0.0
  0
LINE
  5
1BC33
330
1F
100
AcDbEntity
  8
細線
100
AcDbLine
 10
-58.92085740935908
 20
883.7938062227664
 30
0.0
 11
-58.92085740935908
 21
883.2938062227665
 31
0.0
  0
LINE
  5
1BC34
330
1F
100
AcDbEntity
  8
細線
100
AcDbLine
 10
-59.02085740935899
 20
882.7938062227664
 30
0.0
 11
-58.92085740935908
 21
882.7938062227664
 31
0.0
  0
LINE
  5
1BC35
330
1F
100
AcDbEntity
  8
細線
100
AcDbLine
 10
-58.92085740935908
 20
882.7938062227664
 30
0.0
 11
-58.92085740935908
 21
883.2938062227665
 31
0.0
  0
ARC
  5
1BC36
330
1F
100
AcDbEntity
  8
細線
100
AcDbCircle
 10
-59.02085740935899
 20
881.2938062227663
 30
0.0
 40
1.5
100
AcDbArc
 50
90.0
 51
180.0
  0
ARC
  5
1BC37
330
1F
100
AcDbEntity
  8
細線
100
AcDbCircle
 10
-59.02085740935899
 20
885.2938062227664
 30
0.0
 40
1.5
100
AcDbArc
 50
180.0
 51
270.0
  0
LINE
  5
1BC38
330
1F
100
AcDbEntity
  8
細線
100
AcDbLine
 10
-63.020857409359
 20
882.7938062227664
 30
0.0
 11
-63.12085740935891
 21
882.7938062227664
 31
0.0
  0
LINE
  5
1BC39
330
1F
100
AcDbEntity
  8
細線
100
AcDbLine
 10
-63.12085740935891
 20
883.7938062227664
 30
0.0
 11
-63.12085740935891
 21
883.2938062227665
 31
0.0
  0
LINE
  5
1BC3A
330
1F
100
AcDbEntity
  8
細線
100
AcDbLine
 10
-63.12085740935891
 20
882.7938062227664
 30
0.0
 11
-63.12085740935891
 21
883.2938062227665
 31
0.0
  0
LINE
  5
1BC3B
330
1F
100
AcDbEntity
  8
細線
100
AcDbLine
 10
-61.02085740935899
 20
881.1938062227666
 30
0.0
 11
-61.52085740935899
 21
881.1938062227666
 31
0.0
  0
ARC
  5
1BC3C
330
1F
100
AcDbEntity
  8
細線
100
AcDbCircle
 10
-63.020857409359
 20
881.2938062227663
 30
0.0
 40
1.5
100
AcDbArc
 50
0.0
 51
90.0
  0
LINE
  5
1BC3D
330
1F
100
AcDbEntity
  8
細線
100
AcDbLine
 10
-61.52085740935899
 20
881.1938062227666
 30
0.0
 11
-61.52085740935899
 21
881.2938062227663
 31
0.0
  0
LINE
  5
1BC3E
330
1F
100
AcDbEntity
  8
細線
100
AcDbLine
 10
-63.020857409359
 20
883.7938062227664
 30
0.0
 11
-63.12085740935891
 21
883.7938062227664
 31
0.0
  0
ARC
  5
1BC3F
330
1F
100
AcDbEntity
  8
細線
100
AcDbCircle
 10
-63.020857409359
 20
885.2938062227664
 30
0.0
 40
1.5
100
AcDbArc
 50
270.0
 51
0.0
  0
LINE
  5
1BC40
330
1F
100
AcDbEntity
  8
細線
100
AcDbLine
 10
-61.02085740935899
 20
885.3938062227664
 30
0.0
 11
-60.520857409359
 21
885.3938062227664
 31
0.0
  0
LINE
  5
1BC41
330
1F
100
AcDbEntity
  8
細線
100
AcDbLine
 10
-60.520857409359
 20
885.3938062227664
 30
0.0
 11
-60.520857409359
 21
885.2938062227664
 31
0.0
  0
LINE
  5
1BC42
330
1F
100
AcDbEntity
  8
細線
100
AcDbLine
 10
-61.52085740935899
 20
885.3938062227664
 30
0.0
 11
-61.52085740935899
 21
885.2938062227664
 31
0.0
  0
LINE
  5
1BC43
330
1F
100
AcDbEntity
  8
細線
100
AcDbLine
 10
-61.02085740935899
 20
885.3938062227664
 30
0.0
 11
-61.52085740935899
 21
885.3938062227664
 31
0.0
  0
CIRCLE
  5
1BC44
330
1F
100
AcDbEntity
  8
細線
100
AcDbCircle
 10
-61.02085740935899
 20
883.2938062227665
 30
0.0
 40
4.7
  0
LINE
  5
1BC45
330
1F
100
AcDbEntity
  8
0
100
AcDbLine
 10
-482.5979781201938
 20
1239.92346417397
 30
0.0
 11
-450.0729781201939
 21
1239.92346417397
 31
0.0
  0
LINE
  5
1BC46
330
1F
100
AcDbEntity
  8
0
100
AcDbLine
 10
-483.7979781201938
 20
1238.723464173968
 30
0.0
 11
-448.8729781201934
 21
1238.723464173968
 31
0.0
  0
LINE
  5
1BC47
330
1F
100
AcDbEntity
  8
0
100
AcDbLine
 10
-486.5804781201934
 20
1220.92346417397
 30
0.0
 11
-446.0904781201934
 21
1220.92346417397
 31
0.0
  0
LINE
  5
1BC48
330
1F
100
AcDbEntity
  8
0
100
AcDbLine
 10
-486.5804781201934
 20
1217.92346417397
 30
0.0
 11
-446.0904781201934
 21
1217.92346417397
 31
0.0
  0
LINE
  5
1BC49
330
1F
100
AcDbEntity
  8
0
100
AcDbLine
 10
-486.5804781201934
 20
1216.42346417397
 30
0.0
 11
-446.0904781201934
 21
1216.42346417397
 31
0.0
  0
LINE
  5
1BC4A
330
1F
100
AcDbEntity
  8
0
100
AcDbLine
 10
-482.2104781201933
 20
1224.02346417397
 30
0.0
 11
-450.4604781201932
 21
1224.02346417397
 31
0.0
  0
LINE
  5
1BC4B
330
1F
100
AcDbEntity
  8
HIDDEN
 48
0.5
100
AcDbLine
 10
-481.4167281201933
 20
1193.843464173967
 30
0.0
 11
-451.2542281201938
 21
1193.843464173967
 31
0.0
  0
LINE
  5
1BC4C
330
1F
100
AcDbEntity
  8
0
100
AcDbLine
 10
-483.0067281201932
 20
1196.843464173967
 30
0.0
 11
-449.6642281201939
 21
1196.843464173967
 31
0.0
  0
LINE
  5
1BC4D
330
1F
100
AcDbEntity
  8
0
100
AcDbLine
 10
-480.785478120194
 20
1194.643464173969
 30
0.0
 11
-451.8854781201932
 21
1194.643464173969
 31
0.0
  0
LINE
  5
1BC4E
330
1F
100
AcDbEntity
  8
HIDDEN
 48
0.5
100
AcDbLine
 10
-480.2167281201937
 20
1184.343464173967
 30
0.0
 11
-452.4542281201938
 21
1184.343464173967
 31
0.0
  0
ARC
  5
1BC4F
330
1F
100
AcDbEntity
  8
0
100
AcDbCircle
 10
-454.035478120194
 20
1177.19346417397
 30
0.0
 40
6.350000000000022
100
AcDbArc
 50
270.0
 51
90.0
  0
CIRCLE
  5
1BC50
330
1F
100
AcDbEntity
  8
0
100
AcDbCircle
 10
-454.035478120194
 20
1177.19346417397
 30
0.0
 40
4.25
  0
LINE
  5
1BC51
330
1F
100
AcDbEntity
  8
0
100
AcDbLine
 10
-475.7354781201936
 20
1170.843464173967
 30
0.0
 11
-475.7354781201936
 21
1127.143464173969
 31
0.0
  0
LINE
  5
1BC52
330
1F
100
AcDbEntity
  8
0
100
AcDbLine
 10
-456.9354781201936
 20
1170.843464173967
 30
0.0
 11
-456.9354781201936
 21
1127.143464173969
 31
0.0
  0
LINE
  5
1BC53
330
1F
100
AcDbEntity
  8
0
100
AcDbLine
 10
-475.7354781201936
 20
1127.143464173969
 30
0.0
 11
-456.9354781201936
 21
1127.143464173969
 31
0.0
  0
LINE
  5
1BC54
330
1F
100
AcDbEntity
  8
0
100
AcDbLine
 10
-485.7017984637529
 20
1207.54478451753
 30
0.0
 11
-483.8854077766341
 21
1205.728393830409
 31
0.0
  0
LINE
  5
1BC55
330
1F
100
AcDbEntity
  8
0
100
AcDbLine
 10
-483.7854781201938
 20
1191.643464173969
 30
0.0
 11
-483.7854781201936
 21
1180.908299298168
 31
0.0
  0
LINE
  5
1BC56
330
1F
100
AcDbEntity
  8
0
100
AcDbLine
 10
-454.035478120194
 20
1181.443464173969
 30
0.0
 11
-454.035478120194
 21
1172.943464173969
 31
0.0
  0
LINE
  5
1BC57
330
1F
100
AcDbEntity
  8
0
100
AcDbLine
 10
-478.6354781201932
 20
1181.443464173969
 30
0.0
 11
-478.6354781201932
 21
1172.943464173969
 31
0.0
  0
LINE
  5
1BC58
330
1F
100
AcDbEntity
  8
0
100
AcDbLine
 10
-472.8354781201933
 20
1183.543464173969
 30
0.0
 11
-472.8354781201933
 21
1170.843464173967
 31
0.0
  0
LINE
  5
1BC59
330
1F
100
AcDbEntity
  8
0
100
AcDbLine
 10
-459.8354781201938
 20
1183.543464173969
 30
0.0
 11
-459.8354781201938
 21
1170.843464173967
 31
0.0
  0
ARC
  5
1BC5A
330
1F
100
AcDbEntity
  8
0
100
AcDbCircle
 10
-478.6354781201932
 20
1177.19346417397
 30
0.0
 40
6.350000000000022
100
AcDbArc
 50
90.0
 51
270.0
  0
CIRCLE
  5
1BC5B
330
1F
100
AcDbEntity
  8
0
100
AcDbCircle
 10
-478.6354781201932
 20
1177.19346417397
 30
0.0
 40
4.25
  0
LINE
  5
1BC5C
330
1F
100
AcDbEntity
  8
0
100
AcDbLine
 10
-478.6354781201932
 20
1170.843464173967
 30
0.0
 11
-454.035478120194
 21
1170.843464173967
 31
0.0
  0
LINE
  5
1BC5D
330
1F
100
AcDbEntity
  8
0
100
AcDbLine
 10
-478.6354781201932
 20
1183.543464173969
 30
0.0
 11
-454.035478120194
 21
1183.543464173969
 31
0.0
  0
LINE
  5
1BC5E
330
1F
100
AcDbEntity
  8
0
100
AcDbLine
 10
-483.0067281201932
 20
1203.60707348685
 30
0.0
 11
-483.0067281201932
 21
1196.843464173967
 31
0.0
  0
LINE
  5
1BC5F
330
1F
100
AcDbEntity
  8
HIDDEN
 48
0.5
100
AcDbLine
 10
-480.2167281201928
 20
1194.643464173969
 30
0.0
 11
-480.2167281201937
 21
1184.343464173967
 31
0.0
  0
LINE
  5
1BC60
330
1F
100
AcDbEntity
  8
0
100
AcDbLine
 10
-480.2167281201928
 20
1196.843464173967
 30
0.0
 11
-480.2167281201928
 21
1194.643464173969
 31
0.0
  0
LINE
  5
1BC61
330
1F
100
AcDbEntity
  8
HIDDEN
 48
0.5
100
AcDbLine
 10
-481.4167281201933
 20
1193.843464173967
 30
0.0
 11
-481.4167281201933
 21
1185.543464173969
 31
0.0
  0
ARC
  5
1BC62
330
1F
100
AcDbEntity
  8
0
100
AcDbCircle
 10
-480.785478120194
 20
1191.643464173969
 30
0.0
 40
3.0
100
AcDbArc
 50
90.0
 51
180.0
  0
LINE
  5
1BC63
330
1F
100
AcDbEntity
  8
HIDDEN
 48
0.5
100
AcDbLine
 10
-481.4167281201933
 20
1185.543464173969
 30
0.0
 11
-480.2167281201937
 21
1184.343464173967
 31
0.0
  0
ARC
  5
1BC64
330
1F
100
AcDbEntity
  8
0
100
AcDbCircle
 10
-486.0067281201936
 20
1203.60707348685
 30
0.0
 40
3.0
100
AcDbArc
 50
0.0
 51
45.0000000000069
  0
LINE
  5
1BC65
330
1F
100
AcDbEntity
  8
0
100
AcDbLine
 10
-483.7979781201938
 20
1238.723464173968
 30
0.0
 11
-483.7979781201938
 21
1220.92346417397
 31
0.0
  0
LINE
  5
1BC66
330
1F
100
AcDbEntity
  8
0
100
AcDbLine
 10
-482.5979781201938
 20
1239.92346417397
 30
0.0
 11
-482.5979781201938
 21
1224.02346417397
 31
0.0
  0
LINE
  5
1BC67
330
1F
100
AcDbEntity
  8
0
100
AcDbLine
 10
-482.5979781201938
 20
1224.02346417397
 30
0.0
 11
-483.7979781201938
 21
1221.945003204888
 31
0.0
  0
LINE
  5
1BC68
330
1F
100
AcDbEntity
  8
0
100
AcDbLine
 10
-486.5804781201934
 20
1220.92346417397
 30
0.0
 11
-486.5804781201934
 21
1217.92346417397
 31
0.0
  0
LINE
  5
1BC69
330
1F
100
AcDbEntity
  8
0
100
AcDbLine
 10
-482.3004781201935
 20
1217.92346417397
 30
0.0
 11
-482.3004781201935
 21
1216.42346417397
 31
0.0
  0
ARC
  5
1BC6A
330
1F
100
AcDbEntity
  8
0
100
AcDbCircle
 10
-483.5804781201936
 20
1209.666104861089
 30
0.0
 40
3.0
100
AcDbArc
 50
180.0
 51
225.0000000000069
  0
LINE
  5
1BC6B
330
1F
100
AcDbEntity
  8
0
100
AcDbLine
 10
-486.5804781201934
 20
1216.42346417397
 30
0.0
 11
-486.5804781201934
 21
1209.666104861089
 31
0.0
  0
LINE
  5
1BC6C
330
1F
100
AcDbEntity
  8
0
100
AcDbLine
 10
-483.7979781201938
 20
1238.723464173968
 30
0.0
 11
-482.5979781201936
 21
1239.92346417397
 31
0.0
  0
LINE
  5
1BC6D
330
1F
100
AcDbEntity
  8
0
100
AcDbLine
 10
-446.9691577766337
 20
1207.54478451753
 30
0.0
 11
-448.7855484637534
 21
1205.728393830409
 31
0.0
  0
LINE
  5
1BC6E
330
1F
100
AcDbEntity
  8
0
100
AcDbLine
 10
-448.8854781201933
 20
1191.643464173969
 30
0.0
 11
-448.8854781201933
 21
1180.908299298168
 31
0.0
  0
LINE
  5
1BC6F
330
1F
100
AcDbEntity
  8
0
100
AcDbLine
 10
-449.6642281201939
 20
1203.60707348685
 30
0.0
 11
-449.6642281201939
 21
1196.843464173967
 31
0.0
  0
LINE
  5
1BC70
330
1F
100
AcDbEntity
  8
HIDDEN
 48
0.5
100
AcDbLine
 10
-452.4542281201938
 20
1184.343464173967
 30
0.0
 11
-451.2542281201938
 21
1185.543464173969
 31
0.0
  0
LINE
  5
1BC71
330
1F
100
AcDbEntity
  8
HIDDEN
 48
0.5
100
AcDbLine
 10
-452.4542281201938
 20
1194.643464173969
 30
0.0
 11
-452.4542281201938
 21
1184.343464173967
 31
0.0
  0
LINE
  5
1BC72
330
1F
100
AcDbEntity
  8
0
100
AcDbLine
 10
-452.4542281201938
 20
1196.843464173967
 30
0.0
 11
-452.4542281201938
 21
1194.643464173969
 31
0.0
  0
LINE
  5
1BC73
330
1F
100
AcDbEntity
  8
HIDDEN
 48
0.5
100
AcDbLine
 10
-451.2542281201936
 20
1193.843464173967
 30
0.0
 11
-451.2542281201938
 21
1185.543464173969
 31
0.0
  0
ARC
  5
1BC74
330
1F
100
AcDbEntity
  8
0
100
AcDbCircle
 10
-451.8854781201932
 20
1191.643464173969
 30
0.0
 40
3.0
100
AcDbArc
 50
0.0
 51
90.0
  0
ARC
  5
1BC75
330
1F
100
AcDbEntity
  8
0
100
AcDbCircle
 10
-446.6642281201939
 20
1203.60707348685
 30
0.0
 40
3.0
100
AcDbArc
 50
134.999999999993
 51
180.0
  0
LINE
  5
1BC76
330
1F
100
AcDbEntity
  8
0
100
AcDbLine
 10
-448.8729781201934
 20
1238.723464173968
 30
0.0
 11
-448.8729781201934
 21
1220.92346417397
 31
0.0
  0
LINE
  5
1BC77
330
1F
100
AcDbEntity
  8
0
100
AcDbLine
 10
-450.0729781201933
 20
1239.92346417397
 30
0.0
 11
-450.0729781201933
 21
1224.02346417397
 31
0.0
  0
LINE
  5
1BC78
330
1F
100
AcDbEntity
  8
0
100
AcDbLine
 10
-450.0729781201933
 20
1224.02346417397
 30
0.0
 11
-448.8729781201934
 21
1221.945003204885
 31
0.0
  0
LINE
  5
1BC79
330
1F
100
AcDbEntity
  8
0
100
AcDbLine
 10
-446.0904781201934
 20
1220.92346417397
 30
0.0
 11
-446.0904781201934
 21
1217.92346417397
 31
0.0
  0
LINE
  5
1BC7A
330
1F
100
AcDbEntity
  8
0
100
AcDbLine
 10
-450.3704781201929
 20
1217.92346417397
 30
0.0
 11
-450.3704781201929
 21
1216.42346417397
 31
0.0
  0
ARC
  5
1BC7B
330
1F
100
AcDbEntity
  8
0
100
AcDbCircle
 10
-449.0904781201934
 20
1209.666104861089
 30
0.0
 40
3.0
100
AcDbArc
 50
314.999999999993
 51
0.0
  0
LINE
  5
1BC7C
330
1F
100
AcDbEntity
  8
0
100
AcDbLine
 10
-446.0904781201934
 20
1216.42346417397
 30
0.0
 11
-446.0904781201934
 21
1209.666104861089
 31
0.0
  0
LINE
  5
1BC7D
330
1F
100
AcDbEntity
  8
0
100
AcDbLine
 10
-450.0729781201939
 20
1239.92346417397
 30
0.0
 11
-448.8729781201934
 21
1238.723464173968
 31
0.0
  0
LINE
  5
1BC7E
330
1F
100
AcDbEntity
  8
外形線
100
AcDbLine
 10
-118.3091368729844
 20
1070.678928692547
 30
0.0
 11
-121.589399101532
 21
1071.792427852207
 31
0.0
  0
LINE
  5
1BC7F
330
1F
100
AcDbEntity
  8
外形線
100
AcDbLine
 10
-120.2377734351246
 20
1064.997346760903
 30
0.0
 11
-117.6333239812536
 21
1067.281387852661
 31
0.0
  0
LINE
  5
1BC80
330
1F
100
AcDbEntity
  8
外形線
100
AcDbLine
 10
-117.6333240787982
 20
1067.281388343052
 30
0.0
 11
-118.3091367754391
 21
1070.678928202154
 31
0.0
  0
LINE
  5
1BC81
330
1F
100
AcDbEntity
  8
外形線
100
AcDbLine
 10
-120.2377735716875
 20
1064.997347447454
 30
0.0
 11
-123.5180357807275
 21
1066.110846509035
 31
0.0
  0
LINE
  5
1BC82
330
1F
100
AcDbEntity
  8
外形線
100
AcDbLine
 10
-121.5893989649684
 20
1071.792427165654
 30
0.0
 11
-124.1938484383499
 21
1069.508386171979
 31
0.0
  0
LINE
  5
1BC83
330
1F
100
AcDbEntity
  8
外形線
100
AcDbLine
 10
-123.5180357612182
 20
1066.110846410954
 30
0.0
 11
-124.1938484578586
 21
1069.508386270057
 31
0.0
  0
CIRCLE
  5
1BC84
330
1F
100
AcDbEntity
  8
外形線
100
AcDbCircle
 10
-120.9135862682924
 20
1068.39488730656
 30
0.0
 40
6.5
  0
LINE
  5
1BC85
330
1F
100
AcDbEntity
  8
外形線
100
AcDbLine
 10
-3.732577945733737
 20
1070.678928692547
 30
0.0
 11
-0.4523157171861385
 21
1071.792427852207
 31
0.0
  0
LINE
  5
1BC86
330
1F
100
AcDbEntity
  8
外形線
100
AcDbLine
 10
-0.4523158537494965
 20
1071.792427165654
 30
0.0
 11
2.152133619631968
 21
1069.508386171979
 31
0.0
  0
LINE
  5
1BC87
330
1F
100
AcDbEntity
  8
外形線
100
AcDbLine
 10
1.476320942500024
 20
1066.110846410954
 30
0.0
 11
2.152133639140174
 21
1069.508386270057
 31
0.0
  0
LINE
  5
1BC88
330
1F
100
AcDbEntity
  8
外形線
100
AcDbLine
 10
-1.803941247030707
 20
1064.997347447454
 30
0.0
 11
1.47632096200914
 21
1066.110846509035
 31
0.0
  0
LINE
  5
1BC89
330
1F
100
AcDbEntity
  8
外形線
100
AcDbLine
 10
-1.80394138359361
 20
1064.997346760903
 30
0.0
 11
-4.408390837464594
 21
1067.281387852661
 31
0.0
  0
LINE
  5
1BC8A
330
1F
100
AcDbEntity
  8
外形線
100
AcDbLine
 10
-4.408390739919923
 20
1067.281388343052
 30
0.0
 11
-3.732578043279318
 21
1070.678928202154
 31
0.0
  0
CIRCLE
  5
1BC8B
330
1F
100
AcDbEntity
  8
外形線
100
AcDbCircle
 10
-1.128128550389192
 20
1068.394887306554
 30
0.0
 40
6.5
  0
LINE
  5
1BC8C
330
1F
100
AcDbEntity
  8
細線
100
AcDbLine
 10
41.50674277758571
 20
708.6768189246632
 30
0.0
 11
41.4201402372073
 21
708.7268189246639
 31
0.0
  0
LINE
  5
1BC8D
330
1F
100
AcDbEntity
  8
細線
100
AcDbLine
 10
37.61943608169122
 20
710.3438062227714
 30
0.0
 11
37.36943608169122
 21
709.9107935208791
 31
0.0
  0
LINE
  5
1BC8E
330
1F
100
AcDbEntity
  8
細線
100
AcDbLine
 10
37.36943608169122
 20
709.9107935208791
 30
0.0
 11
37.4560386220694
 21
709.8607935208791
 31
0.0
  0
LINE
  5
1BC8F
330
1F
100
AcDbEntity
  8
細線
100
AcDbLine
 10
40.00507672774619
 20
711.2758570303403
 30
0.0
 11
40.05507672774593
 21
711.3624595707186
 31
0.0
  0
LINE
  5
1BC90
330
1F
100
AcDbEntity
  8
細線
100
AcDbLine
 10
40.92110213153046
 20
710.8624595707186
 30
0.0
 11
40.48808942963842
 21
711.1124595707188
 31
0.0
  0
LINE
  5
1BC91
330
1F
100
AcDbEntity
  8
細線
100
AcDbLine
 10
40.05507672774593
 20
711.3624595707186
 30
0.0
 11
40.48808942963842
 21
711.1124595707188
 31
0.0
  0
LINE
  5
1BC92
330
1F
100
AcDbEntity
  8
細線
100
AcDbLine
 10
37.61943608169122
 20
710.3438062227714
 30
0.0
 11
37.86943608169122
 21
710.7768189246631
 31
0.0
  0
ARC
  5
1BC93
330
1F
100
AcDbEntity
  8
細線
100
AcDbCircle
 10
38.70603862206962
 20
712.02585703034
 30
0.0
 40
1.5
100
AcDbArc
 50
240.000000000002
 51
330.0000000000015
  0
LINE
  5
1BC94
330
1F
100
AcDbEntity
  8
細線
100
AcDbLine
 10
37.86943608169122
 20
710.7768189246631
 30
0.0
 11
37.9560386220694
 21
710.7268189246637
 31
0.0
  0
LINE
  5
1BC95
330
1F
100
AcDbEntity
  8
細線
100
AcDbLine
 10
40.8711021315305
 20
710.7758570303403
 30
0.0
 11
40.92110213153046
 21
710.8624595707186
 31
0.0
  0
ARC
  5
1BC96
330
1F
100
AcDbEntity
  8
細線
100
AcDbCircle
 10
42.1701402372073
 20
710.02585703034
 30
0.0
 40
1.5
100
AcDbArc
 50
150.0000000000014
 51
240.000000000002
  0
LINE
  5
1BC97
330
1F
100
AcDbEntity
  8
細線
100
AcDbLine
 10
41.25674277758571
 20
708.2438062227715
 30
0.0
 11
41.00674277758571
 21
707.8107935208792
 31
0.0
  0
LINE
  5
1BC98
330
1F
100
AcDbEntity
  8
細線
100
AcDbLine
 10
41.00674277758571
 20
707.8107935208792
 30
0.0
 11
40.9201402372073
 21
707.8607935208792
 31
0.0
  0
LINE
  5
1BC99
330
1F
100
AcDbEntity
  8
細線
100
AcDbLine
 10
38.8711021315305
 20
707.3117554152023
 30
0.0
 11
38.82110213153055
 21
707.2251528748242
 31
0.0
  0
LINE
  5
1BC9A
330
1F
100
AcDbEntity
  8
細線
100
AcDbLine
 10
38.82110213153055
 20
707.2251528748242
 30
0.0
 11
38.38808942963851
 21
707.4751528748241
 31
0.0
  0
LINE
  5
1BC9B
330
1F
100
AcDbEntity
  8
細線
100
AcDbLine
 10
38.0050767277462
 20
707.8117554152023
 30
0.0
 11
37.95507672774601
 21
707.7251528748242
 31
0.0
  0
LINE
  5
1BC9C
330
1F
100
AcDbEntity
  8
細線
100
AcDbLine
 10
37.95507672774601
 20
707.7251528748242
 30
0.0
 11
38.38808942963851
 21
707.4751528748241
 31
0.0
  0
ARC
  5
1BC9D
330
1F
100
AcDbEntity
  8
細線
100
AcDbCircle
 10
40.1701402372073
 20
706.5617554152023
 30
0.0
 40
1.5
100
AcDbArc
 50
60.000000000002
 51
150.0000000000014
  0
LINE
  5
1BC9E
330
1F
100
AcDbEntity
  8
細線
100
AcDbLine
 10
41.25674277758571
 20
708.2438062227715
 30
0.0
 11
41.50674277758571
 21
708.6768189246632
 31
0.0
  0
ARC
  5
1BC9F
330
1F
100
AcDbEntity
  8
細線
100
AcDbCircle
 10
36.70603862206962
 20
708.5617554152023
 30
0.0
 40
1.5
100
AcDbArc
 50
330.0000000000015
 51
60.000000000002
  0
CIRCLE
  5
1BCA0
330
1F
100
AcDbEntity
  8
細線
100
AcDbCircle
 10
39.43808942963846
 20
709.2938062227714
 30
0.0
 40
4.7
  0
LINE
  5
1BCA1
330
1F
100
AcDbEntity
  8
細線
100
AcDbLine
 10
41.25674277758571
 20
826.3438062227614
 30
0.0
 11
41.50674277758571
 21
825.9107935208691
 31
0.0
  0
ARC
  5
1BCA2
330
1F
100
AcDbEntity
  8
細線
100
AcDbCircle
 10
36.70603862206962
 20
826.0258570303303
 30
0.0
 40
1.5
100
AcDbArc
 50
299.9999999999979
 51
29.9999999999985
  0
CIRCLE
  5
1BCA3
330
1F
100
AcDbEntity
  8
細線
100
AcDbCircle
 10
39.43808942963846
 20
825.2938062227617
 30
0.0
 40
4.7
  0
LINE
  5
1BCA4
330
1F
100
AcDbEntity
  8
細線
100
AcDbLine
 10
41.50674277758571
 20
825.9107935208691
 30
0.0
 11
41.4201402372073
 21
825.8607935208694
 31
0.0
  0
LINE
  5
1BCA5
330
1F
100
AcDbEntity
  8
細線
100
AcDbLine
 10
37.61943608169122
 20
824.2438062227613
 30
0.0
 11
37.86943608169122
 21
823.8107935208692
 31
0.0
  0
LINE
  5
1BCA6
330
1F
100
AcDbEntity
  8
細線
100
AcDbLine
 10
37.86943608169122
 20
823.8107935208692
 30
0.0
 11
37.95603862206962
 21
823.8607935208694
 31
0.0
  0
LINE
  5
1BCA7
330
1F
100
AcDbEntity
  8
細線
100
AcDbLine
 10
40.87110213153073
 20
823.8117554151928
 30
0.0
 11
40.92110213153046
 21
823.7251528748144
 31
0.0
  0
LINE
  5
1BCA8
330
1F
100
AcDbEntity
  8
細線
100
AcDbLine
 10
40.92110213153046
 20
823.7251528748144
 30
0.0
 11
40.48808942963842
 21
823.4751528748144
 31
0.0
  0
LINE
  5
1BCA9
330
1F
100
AcDbEntity
  8
細線
100
AcDbLine
 10
40.00507672774619
 20
823.3117554151926
 30
0.0
 11
40.05507672774615
 21
823.2251528748143
 31
0.0
  0
LINE
  5
1BCAA
330
1F
100
AcDbEntity
  8
細線
100
AcDbLine
 10
40.05507672774615
 20
823.2251528748143
 30
0.0
 11
40.48808942963842
 21
823.4751528748144
 31
0.0
  0
ARC
  5
1BCAB
330
1F
100
AcDbEntity
  8
細線
100
AcDbCircle
 10
38.70603862206962
 20
822.5617554151927
 30
0.0
 40
1.5
100
AcDbArc
 50
29.9999999999985
 51
119.9999999999979
  0
LINE
  5
1BCAC
330
1F
100
AcDbEntity
  8
細線
100
AcDbLine
 10
37.61943608169122
 20
824.2438062227613
 30
0.0
 11
37.36943608169122
 21
824.6768189246537
 31
0.0
  0
LINE
  5
1BCAD
330
1F
100
AcDbEntity
  8
細線
100
AcDbLine
 10
37.36943608169122
 20
824.6768189246537
 30
0.0
 11
37.45603862206962
 21
824.7268189246536
 31
0.0
  0
ARC
  5
1BCAE
330
1F
100
AcDbEntity
  8
細線
100
AcDbCircle
 10
42.1701402372073
 20
824.5617554151928
 30
0.0
 40
1.5
100
AcDbArc
 50
119.9999999999979
 51
209.9999999999985
  0
LINE
  5
1BCAF
330
1F
100
AcDbEntity
  8
細線
100
AcDbLine
 10
41.00674277758571
 20
826.7768189246536
 30
0.0
 11
40.9201402372073
 21
826.7268189246536
 31
0.0
  0
LINE
  5
1BCB0
330
1F
100
AcDbEntity
  8
細線
100
AcDbLine
 10
41.25674277758571
 20
826.3438062227614
 30
0.0
 11
41.00674277758571
 21
826.7768189246536
 31
0.0
  0
LINE
  5
1BCB1
330
1F
100
AcDbEntity
  8
細線
100
AcDbLine
 10
38.0050767277462
 20
826.7758570303302
 30
0.0
 11
37.95507672774624
 21
826.8624595707089
 31
0.0
  0
LINE
  5
1BCB2
330
1F
100
AcDbEntity
  8
細線
100
AcDbLine
 10
38.82110213153055
 20
827.3624595707085
 30
0.0
 11
38.38808942963851
 21
827.1124595707084
 31
0.0
  0
LINE
  5
1BCB3
330
1F
100
AcDbEntity
  8
細線
100
AcDbLine
 10
37.95507672774624
 20
826.8624595707089
 30
0.0
 11
38.38808942963851
 21
827.1124595707084
 31
0.0
  0
LINE
  5
1BCB4
330
1F
100
AcDbEntity
  8
細線
100
AcDbLine
 10
38.87110213153073
 20
827.2758570303304
 30
0.0
 11
38.82110213153055
 21
827.3624595707085
 31
0.0
  0
ARC
  5
1BCB5
330
1F
100
AcDbEntity
  8
細線
100
AcDbCircle
 10
40.1701402372073
 20
828.0258570303303
 30
0.0
 40
1.5
100
AcDbArc
 50
209.9999999999985
 51
299.9999999999979
  0
CIRCLE
  5
1BCB6
330
1F
100
AcDbEntity
  8
外形線
100
AcDbCircle
 10
240.0802236744298
 20
707.4010773637968
 30
0.0
 40
6.5
  0
LINE
  5
1BCB7
330
1F
100
AcDbEntity
  8
外形線
100
AcDbLine
 10
238.9667247109278
 20
710.6813395533273
 30
0.0
 11
242.3642645700285
 21
710.0055268566867
 31
0.0
  0
LINE
  5
1BCB8
330
1F
100
AcDbEntity
  8
外形線
100
AcDbLine
 10
243.477763533531
 20
706.7252646671571
 30
0.0
 11
241.1937225398539
 21
704.1208151937754
 31
0.0
  0
LINE
  5
1BCB9
330
1F
100
AcDbEntity
  8
外形線
100
AcDbLine
 10
237.7961827788312
 20
704.7966278709078
 30
0.0
 11
241.1937226379322
 21
704.1208151742672
 31
0.0
  0
LINE
  5
1BCBA
330
1F
100
AcDbEntity
  8
外形線
100
AcDbLine
 10
236.6826838153288
 20
708.0768900604381
 30
0.0
 11
237.7961828769098
 21
704.7966278513983
 31
0.0
  0
LINE
  5
1BCBB
330
1F
100
AcDbEntity
  8
外形線
100
AcDbLine
 10
242.3642650604219
 20
710.0055267591415
 30
0.0
 11
243.4777642200815
 21
706.7252645305935
 31
0.0
  0
LINE
  5
1BCBC
330
1F
100
AcDbEntity
  8
外形線
100
AcDbLine
 10
236.6826831287787
 20
708.0768901970015
 30
0.0
 11
238.9667242205352
 21
710.6813396508719
 31
0.0
  0
CIRCLE
  5
1BCBD
330
1F
100
AcDbEntity
  8
細線
100
AcDbCircle
 10
228.979142590641
 20
767.2938062227659
 30
0.0
 40
8.0
  0
CIRCLE
  5
1BCBE
330
1F
100
AcDbEntity
  8
外形線
100
AcDbCircle
 10
228.979142590641
 20
767.2938062227659
 30
0.0
 40
6.400000000000241
  0
CIRCLE
  5
1BCBF
330
1F
100
AcDbEntity
  8
外形線
100
AcDbCircle
 10
240.0802236744366
 20
827.1865350816996
 30
0.0
 40
6.5
  0
LINE
  5
1BCC0
330
1F
100
AcDbEntity
  8
外形線
100
AcDbLine
 10
243.4777635335378
 20
827.8623477783414
 30
0.0
 11
242.3642644719577
 21
824.5820855693015
 31
0.0
  0
LINE
  5
1BCC1
330
1F
100
AcDbEntity
  8
外形線
100
AcDbLine
 10
236.6826838153353
 20
826.5107223850598
 30
0.0
 11
238.9667248090133
 21
823.9062729116788
 31
0.0
  0
LINE
  5
1BCC2
330
1F
100
AcDbEntity
  8
外形線
100
AcDbLine
 10
238.9667247109348
 20
823.9062728921705
 30
0.0
 11
242.3642645700358
 21
824.5820855888108
 31
0.0
  0
LINE
  5
1BCC3
330
1F
100
AcDbEntity
  8
外形線
100
AcDbLine
 10
241.1937231283323
 20
830.4667973687756
 30
0.0
 11
243.4777642200883
 21
827.8623479149047
 31
0.0
  0
LINE
  5
1BCC4
330
1F
100
AcDbEntity
  8
外形線
100
AcDbLine
 10
236.6826831287858
 20
826.5107222484967
 30
0.0
 11
237.7961822884458
 21
829.7909844770444
 31
0.0
  0
LINE
  5
1BCC5
330
1F
100
AcDbEntity
  8
外形線
100
AcDbLine
 10
237.7961827788378
 20
829.79098457459
 30
0.0
 11
241.1937226379391
 21
830.4667972712305
 31
0.0
  0
LINE
  5
1BCC6
330
1F
100
AcDbEntity
  8
外形線
100
AcDbLine
 10
191.3600183532039
 20
935.9293160266544
 30
0.0
 11
194.4668767425748
 21
934.3971831118611
 31
0.0
  0
LINE
  5
1BCC7
330
1F
100
AcDbEntity
  8
外形線
100
AcDbLine
 10
191.1334552613098
 20
939.3860007301197
 30
0.0
 11
194.0137504756378
 21
941.3105524632355
 31
0.0
  0
CIRCLE
  5
1BCC8
330
1F
100
AcDbEntity
  8
外形線
100
AcDbCircle
 10
194.2403135675331
 20
937.8538677597688
 30
0.0
 40
6.5
  0
LINE
  5
1BCC9
330
1F
100
AcDbEntity
  8
外形線
100
AcDbLine
 10
191.360017771175
 20
935.929315637755
 30
0.0
 11
191.1334548455754
 21
939.3860004523345
 31
0.0
  0
LINE
  5
1BCCA
330
1F
100
AcDbEntity
  8
外形線
100
AcDbLine
 10
111.4637558607889
 20
1025.435272413967
 30
0.0
 11
112.9958887755831
 21
1022.328414024596
 31
0.0
  0
LINE
  5
1BCCB
330
1F
100
AcDbEntity
  8
外形線
100
AcDbLine
 10
111.071337098024
 20
1019.448118893415
 30
0.0
 11
112.9958888311393
 21
1022.328414107743
 31
0.0
  0
CIRCLE
  5
1BCCC
330
1F
100
AcDbEntity
  8
外形線
100
AcDbCircle
 10
109.5392041276743
 20
1022.554977199636
 30
0.0
 40
6.5
  0
LINE
  5
1BCCD
330
1F
100
AcDbEntity
  8
外形線
100
AcDbLine
 10
108.0070714351095
 20
1025.661835921596
 30
0.0
 11
111.4637562496886
 21
1025.435272995996
 31
0.0
  0
LINE
  5
1BCCE
330
1F
100
AcDbEntity
  8
外形線
100
AcDbLine
 10
106.0825194242086
 20
1022.781540291533
 30
0.0
 11
108.0070711573239
 21
1025.661835505861
 31
0.0
  0
LINE
  5
1BCCF
330
1F
100
AcDbEntity
  8
外形線
100
AcDbLine
 10
107.6146523945581
 20
1019.674681985309
 30
0.0
 11
111.0713371535812
 21
1019.448118976562
 31
0.0
  0
LINE
  5
1BCD0
330
1F
100
AcDbEntity
  8
外形線
100
AcDbLine
 10
107.6146520056588
 20
1019.674681403281
 30
0.0
 11
106.0825191464239
 21
1022.781539875798
 31
0.0
  0
CIRCLE
  5
1BCD1
330
1F
100
AcDbEntity
  8
細線
100
AcDbCircle
 10
144.0401091347398
 20
972.3547727668652
 30
0.0
 40
8.0
  0
CIRCLE
  5
1BCD2
330
1F
100
AcDbEntity
  8
外形線
100
AcDbCircle
 10
144.0401091347398
 20
972.3547727668652
 30
0.0
 40
6.400000000000241
  0
LINE
  5
1BCD3
330
1F
100
AcDbEntity
  8
中心線
100
AcDbLine
 10
135.1711947956928
 20
963.4858584278182
 30
0.0
 11
152.9090234737873
 21
981.2236871059118
 31
0.0
  0
CIRCLE
  5
1BCD4
330
1F
100
AcDbEntity
  8
外形線
100
AcDbCircle
 10
222.6101590716007
 20
884.7776199588507
 30
0.0
 40
3.5
  0
CIRCLE
  5
1BCD5
330
1F
100
AcDbEntity
  8
外形線
100
AcDbCircle
 10
222.6101590716007
 20
884.7776199588507
 30
0.0
 40
2.475000000000134
  0
CIRCLE
  5
1BCD6
330
1F
100
AcDbEntity
  8
細線
100
AcDbCircle
 10
222.6101590716007
 20
884.7776199588507
 30
0.0
 40
3.0
  0
LINE
  5
1BCD7
330
1F
100
AcDbEntity
  8
外形線
100
AcDbLine
 10
194.0137508913735
 20
941.3105527410207
 30
0.0
 11
197.1206093638902
 21
939.778419881785
 31
0.0
  0
LINE
  5
1BCD8
330
1F
100
AcDbEntity
  8
外形線
100
AcDbLine
 10
197.1206087818613
 20
939.7784194928854
 30
0.0
 11
197.3471717906095
 21
936.3217347338624
 31
0.0
  0
LINE
  5
1BCD9
330
1F
100
AcDbEntity
  8
外形線
100
AcDbLine
 10
194.4668766594277
 20
934.3971830563045
 30
0.0
 11
197.3471718737557
 21
936.3217347894202
 31
0.0
  0
VIEWPORT
  5
17E83
330
17E82
100
AcDbEntity
 67
     1
  8
0
100
AcDbViewport
 10
225.3535261049405
 20
155.3607802035444
 30
0.0
 40
496.3305283262331
 41
324.8409105656741
 68
     1
 69
     1
1001
ACAD
1000
MVIEW
1002
{
1070
    16
1010
0.0
1020
0.0
1030
0.0
1010
0.0
1020
0.0
1030
1.0
1040
0.0
1040
324.8409105656741
1040
225.3535261049405
1040
155.3607802035444
1040
50.0
1040
0.0
1040
0.0
1070
     0
1070
   100
1070
     1
1070
     0
1070
     0
1070
     0
1070
     0
1070
     0
1040
0.0
1040
0.0
1040
0.0
1040
10.0
1040
10.0
1040
10.0
1040
10.0
1070
     0
1002
{
1002
}
1002
}
  0
VIEWPORT
  5
17E84
330
17E82
100
AcDbEntity
 67
     1
  8
M_VIEW
100
AcDbViewport
 10
200.0
 20
144.0
 30
0.0
 40
400.0
 41
288.0
 68
     2
 69
     2
1001
ACAD
1000
MVIEW
1002
{
1070
    16
1010
0.0
1020
0.0
1030
0.0
1010
0.0
1020
0.0
1030
1.0
1040
0.0
1040
1583.999995985401
1040
-746.9291533734875
1040
489.5910799202066
1040
50.0
1040
0.0
1040
0.0
1070
     0
1070
   100
1070
     1
1070
     0
1070
     0
1070
     0
1070
     0
1070
     0
1040
0.0
1040
0.0
1040
0.0
1040
10.0
1040
10.0
1040
10.0
1040
10.0
1070
     0
1002
{
1002
}
1002
}
  0
TEXT
  5
17E8B
330
17E82
100
AcDbEntity
 67
     1
  8
WAKUMOJI
  6
CONTINUOUS
100
AcDbText
 10
323.402284853418
 20
6.326609872841799
 30
0.0
 40
7.0
  1
ＳＥ－４０８１１
 41
0.9529999999999999
100
AcDbText
  0
TEXT
  5
17F15
330
17E82
100
AcDbEntity
 67
     1
  8
WAKUMOJI
  6
CONTINUOUS
100
AcDbText
 10
288.2950459724286
 20
28.36480838004309
 30
0.0
 40
4.0
  1

 41
0.65
100
AcDbText
  0
TEXT
  5
17F16
330
17E82
100
AcDbEntity
 67
     1
  8
WAKUMOJI
  6
CONTINUOUS
100
AcDbText
 10
289.2453795729293
 20
17.36480838004307
 30
0.0
 40
4.0
  1

 41
0.65
100
AcDbText
  0
TEXT
  5
17F2D
330
17E82
100
AcDbEntity
 67
     1
  8
WAKUMOJI
  6
CONTINUOUS
100
AcDbText
 10
307.8652350767157
 20
11.96666666666597
 30
0.0
 40
4.0
  1

 41
0.625
100
AcDbText
  0
TEXT
  5
17F2E
330
17E82
100
AcDbEntity
 67
     1
  8
WAKUMOJI
  6
CONTINUOUS
100
AcDbText
 10
316.865235076716
 20
11.96666666666597
 30
0.0
 40
4.0
  1

 41
0.625
100
AcDbText
  0
MTEXT
  5
1B169
330
17E82
100
AcDbEntity
 67
     1
  8
寸法
 48
5.0
100
AcDbMText
 10
210.119701348767
 20
23.73202679997937
 30
0.0
 40
6.0
 41
176.1519291228271
 71
     1
 72
     5
  1
τDISCモータ D630-175-LP NMR-FVIBA2B-672AP
1001
ACAD
1000
MTEXTBEGIN
1070
    73
1070
     1
1070
    44
1040
1.0
1070
    74
1070
     0
1000
MTEXTEND
  0
ENDSEC
  0
SECTION
  2
OBJECTS
  0
DICTIONARY
  5
C
330
0
100
AcDbDictionary
  3
ACAD_GROUP
350
D
  3
ACAD_LAYOUT
350
1A
  3
ACAD_MLINESTYLE
350
17
  3
ACAD_PLOTSETTINGS
350
19
  3
ACAD_PLOTSTYLENAME
350
E
  3
ACADDIM
350
1AD1D
  3
ACDBHEADERROUNDTRIPXREC
350
1BD00
  3
ACDBVARIABLEDICTIONARY
350
2046
  0
DICTIONARY
  5
1AEBC
330
2
100
AcDbDictionary
280
     1
  3
ACAD_LAYERFILTERS
360
1AEBD
  3
ACAD_LAYERSTATES
360
1AEF4
  0
DICTIONARY
  5
1BD21
330
1F
100
AcDbDictionary
280
     1
  3
ACAD_LAYOUTSELFREF
360
1BD22
  0
DICTIONARY
  5
1BD23
330
17E82
100
AcDbDictionary
280
     1
  3
ACAD_LAYOUTSELFREF
360
1BD24
  0
DICTIONARY
  5
D
102
{ACAD_REACTORS
330
C
102
}
330
C
100
AcDbDictionary
  3
*A1
350
5EBB
  3
*A10
350
1171E
  3
*A11
350
118AE
  3
*A12
350
118A9
  3
*A13
350
118B8
  3
*A14
350
118B3
  3
*A15
350
11DE3
  3
*A16
350
118CA
  3
*A17
350
11DE7
  3
*A18
350
C936
  3
*A19
350
9CB3
  3
*A2
350
C863
  3
*A20
350
AA18
  3
*A21
350
A922
  3
*A22
350
168BF
  3
*A23
350
C7BC
  3
*A24
350
1737E
  3
*A25
350
1736D
  3
*A26
350
11719
  3
*A3
350
1112B
  3
*A4
350
9A76
  3
*A5
350
112D5
  3
*A6
350
118DA
  3
*A7
350
116D5
  3
*A8
350
116D0
  3
*A9
350
A9F6
  0
DICTIONARY
  5
1A
102
{ACAD_REACTORS
330
C
102
}
330
C
100
AcDbDictionary
  0
DICTIONARY
  5
17
102
{ACAD_REACTORS
330
C
102
}
330
C
100
AcDbDictionary
  3
STANDARD
350
18
  0
DICTIONARY
  5
19
102
{ACAD_REACTORS
330
C
102
}
330
C
100
AcDbDictionary
  0
ACDBDICTIONARYWDFLT
  5
E
102
{ACAD_REACTORS
330
C
102
}
330
C
100
AcDbDictionary
281
     1
  3
Normal
350
F
100
AcDbDictionaryWithDefault
340
F
  0
XRECORD
  5
1AD1D
102
{ACAD_REACTORS
330
C
102
}
330
C
100
AcDbXrecord
 90
   990106
  3

 60
     4
 61
     0
 62
     4
 63
     4
 64
     1
 65
     0
 66
     0
 67
     3
 68
     1
 69
     0
 70
     0
 71
     0
 72
     0
 40
25.99882075392437
170
     0
  0
DICTIONARY
  5
1BD00
102
{ACAD_REACTORS
330
C
102
}
330
C
100
AcDbDictionary
  3
CEPSNTYPE
350
1BD0A
  3
DIMSTYLEDATA
350
1BD0E
  3
FINGERPRINTGUID
350
1BD0B
  3
HYPERLINKBASE
350
1BD03
  3
INSUNITS
350
1BD09
  3
LAYOUTDICT
350
1BD05
  3
LWETCUNION
350
1BD08
  3
PLOTSETDICT
350
1BD06
  3
PLOTSTYLNAMDICT
350
1BD07
  3
PSVPSCALE
350
1BD0D
  3
PUCSBASE
350
1BD11
  3
PUCSORGBACK
350
1BD17
  3
PUCSORGBOTTOM
350
1BD13
  3
PUCSORGFRONT
350
1BD16
  3
PUCSORGLEFT
350
1BD14
  3
PUCSORGRIGHT
350
1BD15
  3
PUCSORGTOP
350
1BD12
  3
PUCSORTHOREF
350
1BD0F
  3
PUCSORTHOVIEW
350
1BD10
  3
STYLESHEET
350
1BD04
  3
TSTACKALIGN
350
1BD01
  3
TSTACKSIZE
350
1BD02
  3
UCSBASE
350
1BD1A
  3
UCSORGBACK
350
1BD20
  3
UCSORGBOTTOM
350
1BD1C
  3
UCSORGFRONT
350
1BD1F
  3
UCSORGLEFT
350
1BD1D
  3
UCSORGRIGHT
350
1BD1E
  3
UCSORGTOP
350
1BD1B
  3
UCSORTHOREF
350
1BD18
  3
UCSORTHOVIEW
350
1BD19
  3
VERSIONGUID
350
1BD0C
  0
DICTIONARY
  5
2046
102
{ACAD_REACTORS
330
C
102
}
330
C
100
AcDbDictionary
  3
SORTENTS
350
2047
  0
DICTIONARY
  5
1AEBD
102
{ACAD_REACTORS
330
1AEBC
102
}
330
1AEBC
100
AcDbDictionary
280
     1
  3
0
360
1AEBE
  3
11
360
1AEBF
  3
150_
360
1AEC0
  3
160_
360
1AEC1
  3
170_
360
1AEC2
  3
171_
360
1AEC3
  3
350_
360
1AEC4
  3
4
360
1AEC5
  3
5
360
1AEC6
  3
7
360
1AEC7
  3
KISEKI
360
1AEC8
  0
DICTIONARY
  5
1AEF4
102
{ACAD_REACTORS
330
1AEBC
102
}
330
1AEBC
100
AcDbDictionary
  0
XRECORD
  5
1BD22
102
{ACAD_REACTORS
330
1BD21
102
}
330
1BD21
100
AcDbXrecord
340
1F
  0
XRECORD
  5
1BD24
102
{ACAD_REACTORS
330
1BD23
102
}
330
1BD23
100
AcDbXrecord
340
17E82
  0
GROUP
  5
5EBB
102
{ACAD_REACTORS
330
D
102
}
330
D
100
AcDbGroup
300

 70
     1
 71
     1
  0
GROUP
  5
1171E
102
{ACAD_REACTORS
330
D
102
}
330
D
100
AcDbGroup
300

 70
     1
 71
     1
  0
GROUP
  5
118AE
102
{ACAD_REACTORS
330
D
102
}
330
D
100
AcDbGroup
300

 70
     1
 71
     1
  0
GROUP
  5
118A9
102
{ACAD_REACTORS
330
D
102
}
330
D
100
AcDbGroup
300

 70
     1
 71
     1
  0
GROUP
  5
118B8
102
{ACAD_REACTORS
330
D
102
}
330
D
100
AcDbGroup
300

 70
     1
 71
     1
  0
GROUP
  5
118B3
102
{ACAD_REACTORS
330
D
102
}
330
D
100
AcDbGroup
300

 70
     1
 71
     1
  0
GROUP
  5
11DE3
102
{ACAD_REACTORS
330
D
102
}
330
D
100
AcDbGroup
300

 70
     1
 71
     1
  0
GROUP
  5
118CA
102
{ACAD_REACTORS
330
D
102
}
330
D
100
AcDbGroup
300

 70
     1
 71
     1
  0
GROUP
  5
11DE7
102
{ACAD_REACTORS
330
D
102
}
330
D
100
AcDbGroup
300

 70
     1
 71
     1
  0
GROUP
  5
C936
102
{ACAD_REACTORS
330
D
102
}
330
D
100
AcDbGroup
300

 70
     1
 71
     1
  0
GROUP
  5
9CB3
102
{ACAD_REACTORS
330
D
102
}
330
D
100
AcDbGroup
300

 70
     1
 71
     1
  0
GROUP
  5
C863
102
{ACAD_REACTORS
330
D
102
}
330
D
100
AcDbGroup
300

 70
     1
 71
     1
  0
GROUP
  5
AA18
102
{ACAD_REACTORS
330
D
102
}
330
D
100
AcDbGroup
300

 70
     1
 71
     1
  0
GROUP
  5
A922
102
{ACAD_REACTORS
330
D
102
}
330
D
100
AcDbGroup
300

 70
     1
 71
     1
  0
GROUP
  5
168BF
102
{ACAD_REACTORS
330
D
102
}
330
D
100
AcDbGroup
300

 70
     1
 71
     1
  0
GROUP
  5
C7BC
102
{ACAD_REACTORS
330
D
102
}
330
D
100
AcDbGroup
300

 70
     1
 71
     1
  0
GROUP
  5
1737E
102
{ACAD_REACTORS
330
D
102
}
330
D
100
AcDbGroup
300

 70
     1
 71
     1
  0
GROUP
  5
1736D
102
{ACAD_REACTORS
330
D
102
}
330
D
100
AcDbGroup
300

 70
     1
 71
     1
  0
GROUP
  5
11719
102
{ACAD_REACTORS
330
D
102
}
330
D
100
AcDbGroup
300

 70
     1
 71
     1
  0
GROUP
  5
1112B
102
{ACAD_REACTORS
330
D
102
}
330
D
100
AcDbGroup
300

 70
     1
 71
     1
  0
GROUP
  5
9A76
102
{ACAD_REACTORS
330
D
102
}
330
D
100
AcDbGroup
300

 70
     1
 71
     1
  0
GROUP
  5
112D5
102
{ACAD_REACTORS
330
D
102
}
330
D
100
AcDbGroup
300

 70
     1
 71
     1
  0
GROUP
  5
118DA
102
{ACAD_REACTORS
330
D
102
}
330
D
100
AcDbGroup
300

 70
     1
 71
     1
  0
GROUP
  5
116D5
102
{ACAD_REACTORS
330
D
102
}
330
D
100
AcDbGroup
300

 70
     1
 71
     1
  0
GROUP
  5
116D0
102
{ACAD_REACTORS
330
D
102
}
330
D
100
AcDbGroup
300

 70
     1
 71
     1
  0
GROUP
  5
A9F6
102
{ACAD_REACTORS
330
D
102
}
330
D
100
AcDbGroup
300

 70
     1
 71
     1
  0
MLINESTYLE
  5
18
102
{ACAD_REACTORS
330
17
102
}
330
17
100
AcDbMlineStyle
  2
STANDARD
 70
     0
  3

 62
   256
 51
90.0
 52
90.0
 71
     2
 49
0.5
 62
   256
  6
BYLAYER
 49
-0.5
 62
   256
  6
BYLAYER
  0
ACDBPLACEHOLDER
  5
F
102
{ACAD_REACTORS
330
E
102
}
330
E
100
AcDbPlaceHolder
280
     0
  0
XRECORD
  5
1BD0A
102
{ACAD_REACTORS
330
1BD00
102
}
330
1BD00
100
AcDbXrecord
 90
        0
  0
XRECORD
  5
1BD0E
102
{ACAD_REACTORS
330
1BD00
102
}
330
1BD00
100
AcDbXrecord
1000
DSTYLE
1002
{
1070
    79
 70
     2
1070
   179
 70
     2
1070
   279
 70
     2
1070
   341
340
31
1070
   342
340
31
1002
}
  0
XRECORD
  5
1BD0B
102
{ACAD_REACTORS
330
1BD00
102
}
330
1BD00
100
AcDbXrecord
  1
{C60DF478-89DD-11D7-AE3C-00045A4313EC}
  0
XRECORD
  5
1BD03
102
{ACAD_REACTORS
330
1BD00
102
}
330
1BD00
100
AcDbXrecord
  1

  0
XRECORD
  5
1BD09
102
{ACAD_REACTORS
330
1BD00
102
}
330
1BD00
100
AcDbXrecord
 90
        4
  0
XRECORD
  5
1BD05
102
{ACAD_REACTORS
330
1BD00
102
}
330
1BD00
100
AcDbXrecord
340
1A
  0
XRECORD
  5
1BD08
102
{ACAD_REACTORS
330
1BD00
102
}
330
1BD00
100
AcDbXrecord
 90
    10269
  0
XRECORD
  5
1BD06
102
{ACAD_REACTORS
330
1BD00
102
}
330
1BD00
100
AcDbXrecord
340
19
  0
XRECORD
  5
1BD07
102
{ACAD_REACTORS
330
1BD00
102
}
330
1BD00
100
AcDbXrecord
340
E
  0
XRECORD
  5
1BD0D
102
{ACAD_REACTORS
330
1BD00
102
}
330
1BD00
100
AcDbXrecord
 40
0.0
  0
XRECORD
  5
1BD11
102
{ACAD_REACTORS
330
1BD00
102
}
330
1BD00
100
AcDbXrecord
340
0
  0
XRECORD
  5
1BD17
102
{ACAD_REACTORS
330
1BD00
102
}
330
1BD00
100
AcDbXrecord
 10
0.0
 20
0.0
 30
0.0
  0
XRECORD
  5
1BD13
102
{ACAD_REACTORS
330
1BD00
102
}
330
1BD00
100
AcDbXrecord
 10
0.0
 20
0.0
 30
0.0
  0
XRECORD
  5
1BD16
102
{ACAD_REACTORS
330
1BD00
102
}
330
1BD00
100
AcDbXrecord
 10
0.0
 20
0.0
 30
0.0
  0
XRECORD
  5
1BD14
102
{ACAD_REACTORS
330
1BD00
102
}
330
1BD00
100
AcDbXrecord
 10
0.0
 20
0.0
 30
0.0
  0
XRECORD
  5
1BD15
102
{ACAD_REACTORS
330
1BD00
102
}
330
1BD00
100
AcDbXrecord
 10
0.0
 20
0.0
 30
0.0
  0
XRECORD
  5
1BD12
102
{ACAD_REACTORS
330
1BD00
102
}
330
1BD00
100
AcDbXrecord
 10
0.0
 20
0.0
 30
0.0
  0
XRECORD
  5
1BD0F
102
{ACAD_REACTORS
330
1BD00
102
}
330
1BD00
100
AcDbXrecord
340
0
  0
XRECORD
  5
1BD10
102
{ACAD_REACTORS
330
1BD00
102
}
330
1BD00
100
AcDbXrecord
 70
     0
  0
XRECORD
  5
1BD04
102
{ACAD_REACTORS
330
1BD00
102
}
330
1BD00
100
AcDbXrecord
  1

  0
XRECORD
  5
1BD01
102
{ACAD_REACTORS
330
1BD00
102
}
330
1BD00
100
AcDbXrecord
 90
        1
  0
XRECORD
  5
1BD02
102
{ACAD_REACTORS
330
1BD00
102
}
330
1BD00
100
AcDbXrecord
 90
       70
  0
XRECORD
  5
1BD1A
102
{ACAD_REACTORS
330
1BD00
102
}
330
1BD00
100
AcDbXrecord
340
0
  0
XRECORD
  5
1BD20
102
{ACAD_REACTORS
330
1BD00
102
}
330
1BD00
100
AcDbXrecord
 10
0.0
 20
0.0
 30
0.0
  0
XRECORD
  5
1BD1C
102
{ACAD_REACTORS
330
1BD00
102
}
330
1BD00
100
AcDbXrecord
 10
0.0
 20
0.0
 30
0.0
  0
XRECORD
  5
1BD1F
102
{ACAD_REACTORS
330
1BD00
102
}
330
1BD00
100
AcDbXrecord
 10
0.0
 20
0.0
 30
0.0
  0
XRECORD
  5
1BD1D
102
{ACAD_REACTORS
330
1BD00
102
}
330
1BD00
100
AcDbXrecord
 10
0.0
 20
0.0
 30
0.0
  0
XRECORD
  5
1BD1E
102
{ACAD_REACTORS
330
1BD00
102
}
330
1BD00
100
AcDbXrecord
 10
0.0
 20
0.0
 30
0.0
  0
XRECORD
  5
1BD1B
102
{ACAD_REACTORS
330
1BD00
102
}
330
1BD00
100
AcDbXrecord
 10
0.0
 20
0.0
 30
0.0
  0
XRECORD
  5
1BD18
102
{ACAD_REACTORS
330
1BD00
102
}
330
1BD00
100
AcDbXrecord
340
0
  0
XRECORD
  5
1BD19
102
{ACAD_REACTORS
330
1BD00
102
}
330
1BD00
100
AcDbXrecord
 70
     0
  0
XRECORD
  5
1BD0C
102
{ACAD_REACTORS
330
1BD00
102
}
330
1BD00
100
AcDbXrecord
  1
{EF50A30E-2365-458D-B8B5-6AFE7288C317}
  0
DICTIONARYVAR
  5
2047
102
{ACAD_REACTORS
330
2046
102
}
330
2046
100
DictionaryVariables
280
     0
  1
96
  0
XRECORD
  5
1AEBE
102
{ACAD_REACTORS
330
1AEBD
102
}
330
1AEBD
100
AcDbXrecord
  1
0
  1
*0
  1
*
  1
*
 70
     0
  1
*
  1
*
  0
XRECORD
  5
1AEBF
102
{ACAD_REACTORS
330
1AEBD
102
}
330
1AEBD
100
AcDbXrecord
  1
11
  1
*11
  1
*
  1
*
 70
     0
  1
*
  1
*
  0
XRECORD
  5
1AEC0
102
{ACAD_REACTORS
330
1AEBD
102
}
330
1AEBD
100
AcDbXrecord
  1
150_
  1
150_*
  1
*
  1
*
 70
     0
  1
*
  1
*
  0
XRECORD
  5
1AEC1
102
{ACAD_REACTORS
330
1AEBD
102
}
330
1AEBD
100
AcDbXrecord
  1
160_
  1
160_*
  1
*
  1
*
 70
     0
  1
*
  1
*
  0
XRECORD
  5
1AEC2
102
{ACAD_REACTORS
330
1AEBD
102
}
330
1AEBD
100
AcDbXrecord
  1
170_
  1
170_*
  1
*
  1
*
 70
     0
  1
*
  1
*
  0
XRECORD
  5
1AEC3
102
{ACAD_REACTORS
330
1AEBD
102
}
330
1AEBD
100
AcDbXrecord
  1
171_
  1
171_*
  1
*
  1
*
 70
     0
  1
*
  1
*
  0
XRECORD
  5
1AEC4
102
{ACAD_REACTORS
330
1AEBD
102
}
330
1AEBD
100
AcDbXrecord
  1
350_
  1
350_*
  1
*
  1
*
 70
     0
  1
*
  1
*
  0
XRECORD
  5
1AEC5
102
{ACAD_REACTORS
330
1AEBD
102
}
330
1AEBD
100
AcDbXrecord
  1
4
  1
*4
  1
*
  1
*
 70
     0
  1
*
  1
*
  0
XRECORD
  5
1AEC6
102
{ACAD_REACTORS
330
1AEBD
102
}
330
1AEBD
100
AcDbXrecord
  1
5
  1
*5
  1
*
  1
*
 70
     0
  1
*
  1
*
  0
XRECORD
  5
1AEC7
102
{ACAD_REACTORS
330
1AEBD
102
}
330
1AEBD
100
AcDbXrecord
  1
7
  1
*7
  1
*
  1
*
 70
     0
  1
*
  1
*
  0
XRECORD
  5
1AEC8
102
{ACAD_REACTORS
330
1AEBD
102
}
330
1AEBD
100
AcDbXrecord
  1
kiseki
  1
kiseki*
  1
*
  1
*
 70
     0
  1
*
  1
*
  0
ENDSEC
  0
EOF
