  0
SECTION
  2
HEADER
  9
$ACADVER
  1
AC1014
  9
$ACADMAINTVER
 70
     9
  9
$DWGCODEPAGE
  3
ANSI_932
  9
$INSBASE
 10
0.0
 20
0.0
 30
0.0
  9
$EXTMIN
 10
-1645.450295871688
 20
264.8321311964023
 30
0.0
  9
$EXTMAX
 10
210.9805219669829
 20
1245.401818783141
 30
0.0
  9
$LIMMIN
 10
0.0
 20
0.0
  9
$LIMMAX
 10
420.0
 20
297.0
  9
$ORTHOMODE
 70
     1
  9
$REGENMODE
 70
     1
  9
$FILLMODE
 70
     1
  9
$QTEXTMODE
 70
     0
  9
$MIRRTEXT
 70
     0
  9
$DRAGMODE
 70
     2
  9
$LTSCALE
 40
1.0
  9
$OSMODE
 70
    37
  9
$ATTMODE
 70
     1
  9
$TEXTSIZE
 40
2.5
  9
$TRACEWID
 40
1.0
  9
$TEXTSTYLE
  7
STANDARD
  9
$CLAYER
  8
想像線
  9
$CELTYPE
  6
BYLAYER
  9
$CECOLOR
 62
   256
  9
$CELTSCALE
 40
5.0
  9
$DELOBJ
 70
     1
  9
$DISPSILH
 70
     0
  9
$DIMSCALE
 40
5.0
  9
$DIMASZ
 40
2.5
  9
$DIMEXO
 40
0.8
  9
$DIMDLI
 40
3.75
  9
$DIMRND
 40
0.0
  9
$DIMDLE
 40
0.0
  9
$DIMEXE
 40
1.0
  9
$DIMTP
 40
0.026
  9
$DIMTM
 40
0.0
  9
$DIMTXT
 40
3.0
  9
$DIMCEN
 40
2.5
  9
$DIMTSZ
 40
0.0
  9
$DIMTOL
 70
     0
  9
$DIMLIM
 70
     0
  9
$DIMTIH
 70
     0
  9
$DIMTOH
 70
     0
  9
$DIMSE1
 70
     0
  9
$DIMSE2
 70
     0
  9
$DIMTAD
 70
     1
  9
$DIMZIN
 70
     8
  9
$DIMBLK
  1
OPEN30
  9
$DIMASO
 70
     1
  9
$DIMSHO
 70
     1
  9
$DIMPOST
  1

  9
$DIMAPOST
  1

  9
$DIMALT
 70
     0
  9
$DIMALTD
 70
     3
  9
$DIMALTF
 40
0.03937007874016
  9
$DIMLFAC
 40
1.0
  9
$DIMTOFL
 70
     1
  9
$DIMTVP
 40
0.0
  9
$DIMTIX
 70
     0
  9
$DIMSOXD
 70
     0
  9
$DIMSAH
 70
     0
  9
$DIMBLK1
  1

  9
$DIMBLK2
  1

  9
$DIMSTYLE
  2
ISO-25
  9
$DIMCLRD
 70
     4
  9
$DIMCLRE
 70
     4
  9
$DIMCLRT
 70
     0
  9
$DIMTFAC
 40
1.0
  9
$DIMGAP
 40
0.5
  9
$DIMJUST
 70
     0
  9
$DIMSD1
 70
     0
  9
$DIMSD2
 70
     0
  9
$DIMTOLJ
 70
     0
  9
$DIMTZIN
 70
     8
  9
$DIMALTZ
 70
     0
  9
$DIMALTTZ
 70
     0
  9
$DIMFIT
 70
     1
  9
$DIMUPT
 70
     0
  9
$DIMUNIT
 70
     2
  9
$DIMDEC
 70
     2
  9
$DIMTDEC
 70
     2
  9
$DIMALTU
 70
     2
  9
$DIMALTTD
 70
     3
  9
$DIMTXSTY
  7
STANDARD
  9
$DIMAUNIT
 70
     0
  9
$LUNITS
 70
     2
  9
$LUPREC
 70
     4
  9
$SKETCHINC
 40
1.0
  9
$FILLETRAD
 40
0.0
  9
$AUNITS
 70
     0
  9
$AUPREC
 70
     0
  9
$MENU
  1
.
  9
$ELEVATION
 40
0.0
  9
$PELEVATION
 40
0.0
  9
$THICKNESS
 40
0.0
  9
$LIMCHECK
 70
     0
  9
$BLIPMODE
 70
     0
  9
$CHAMFERA
 40
5.0
  9
$CHAMFERB
 40
5.0
  9
$CHAMFERC
 40
20.0
  9
$CHAMFERD
 40
0.0
  9
$SKPOLY
 70
     0
  9
$TDCREATE
 40
2452779.409065161
  9
$TDUPDATE
 40
2455579.547456852
  9
$TDINDWG
 40
5.5227420486
  9
$TDUSRTIMER
 40
5.5227414931
  9
$USRTIMER
 70
     1
  9
$ANGBASE
 50
0.0
  9
$ANGDIR
 70
     0
  9
$PDMODE
 70
     0
  9
$PDSIZE
 40
0.0
  9
$PLINEWID
 40
0.0
  9
$COORDS
 70
     0
  9
$SPLFRAME
 70
     0
  9
$SPLINETYPE
 70
     6
  9
$SPLINESEGS
 70
     8
  9
$ATTDIA
 70
     0
  9
$ATTREQ
 70
     1
  9
$HANDLING
 70
-16383
  9
$HANDSEED
  5
1C7E8
  9
$SURFTAB1
 70
     6
  9
$SURFTAB2
 70
     6
  9
$SURFTYPE
 70
     6
  9
$SURFU
 70
     6
  9
$SURFV
 70
     6
  9
$UCSNAME
  2

  9
$UCSORG
 10
0.0
 20
0.0
 30
0.0
  9
$UCSXDIR
 10
1.0
 20
0.0
 30
0.0
  9
$UCSYDIR
 10
0.0
 20
1.0
 30
0.0
  9
$PUCSNAME
  2

  9
$PUCSORG
 10
0.0
 20
0.0
 30
0.0
  9
$PUCSXDIR
 10
1.0
 20
0.0
 30
0.0
  9
$PUCSYDIR
 10
0.0
 20
1.0
 30
0.0
  9
$USERI1
 70
     0
  9
$USERI2
 70
     0
  9
$USERI3
 70
     0
  9
$USERI4
 70
     0
  9
$USERI5
 70
     0
  9
$USERR1
 40
88.0
  9
$USERR2
 40
0.0
  9
$USERR3
 40
0.0
  9
$USERR4
 40
0.0
  9
$USERR5
 40
0.0
  9
$WORLDVIEW
 70
     1
  9
$SHADEDGE
 70
     3
  9
$SHADEDIF
 70
    70
  9
$TILEMODE
 70
     0
  9
$MAXACTVP
 70
    64
  9
$PINSBASE
 10
0.0
 20
0.0
 30
0.0
  9
$PLIMCHECK
 70
     0
  9
$PEXTMIN
 10
0.0
 20
0.0
 30
0.0
  9
$PEXTMAX
 10
400.0
 20
288.0
 30
0.0
  9
$PLIMMIN
 10
-11.92955113178647
 20
-5.848066529385242
  9
$PLIMMAX
 10
411.9417606827761
 20
293.8528820987993
  9
$UNITMODE
 70
     0
  9
$VISRETAIN
 70
     1
  9
$PLINEGEN
 70
     0
  9
$PSLTSCALE
 70
     0
  9
$TREEDEPTH
 70
  3020
  9
$PICKSTYLE
 70
     0
  9
$CMLSTYLE
  2
STANDARD
  9
$CMLJUST
 70
     0
  9
$CMLSCALE
 40
20.0
  9
$PROXYGRAPHICS
 70
     1
  9
$MEASUREMENT
 70
     1
  0
ENDSEC
  0
SECTION
  2
CLASSES
  0
CLASS
  1
ACDBDICTIONARYWDFLT
  2
AcDbDictionaryWithDefault
  3
AutoCAD 2000
 90
        0
280
     0
281
     0
  0
CLASS
  1
ACDBPLACEHOLDER
  2
AcDbPlaceHolder
  3
AutoCAD 2000
 90
        0
280
     0
281
     0
  0
CLASS
  1
LAYOUT
  2
AcDbLayout
  3
AutoCAD 2000
 90
        0
280
     0
281
     0
  0
CLASS
  1
DICTIONARYVAR
  2
AcDbDictionaryVar
  3
AutoCAD 2000
 90
        0
280
     0
281
     0
  0
CLASS
  1
LONG_TRANSACTION
  2
AcDbLongTransaction
  3
AutoCAD 2000
 90
        0
280
     0
281
     0
  0
CLASS
  1
LWPOLYLINE
  2
AcDbPolyline
  3
AutoCAD 2000
 90
        0
280
     0
281
     1
  0
CLASS
  1
HATCH
  2
AcDbHatch
  3
AutoCAD 2000
 90
        0
280
     0
281
     1
  0
CLASS
  1
XRECORD
  2
AcDbXrecord
  3
AutoCAD 2000
 90
        0
280
     0
281
     0
  0
ENDSEC
  0
SECTION
  2
TABLES
  0
TABLE
  2
VPORT
  5
8
330
0
100
AcDbSymbolTable
 70
     4
  0
VPORT
  5
1C7C2
330
8
100
AcDbSymbolTableRecord
100
AcDbViewportTableRecord
  2
*ACTIVE
 70
     0
 10
0.0
 20
0.0
 11
1.0
 21
1.0
 12
-717.2239872689369
 22
755.1065699827955
 13
1867.375483990628
 23
944.572700858702
 14
10.0
 24
10.0
 15
10.0
 25
10.0
 16
0.0
 26
0.0
 36
1.0
 17
0.0
 27
0.0
 37
0.0
 40
1221.10286888503
 41
1.527918781725888
 42
50.0
 43
0.0
 44
0.0
 50
0.0
 51
0.0
 71
     0
 72
  1000
 73
     1
 74
     0
 75
     0
 76
     0
 77
     0
 78
     0
  0
ENDTAB
  0
TABLE
  2
LTYPE
  5
5
330
0
100
AcDbSymbolTable
 70
     4
  0
LTYPE
  5
14
330
5
100
AcDbSymbolTableRecord
100
AcDbLinetypeTableRecord
  2
BYBLOCK
 70
     0
  3

 72
    65
 73
     0
 40
0.0
  0
LTYPE
  5
15
330
5
100
AcDbSymbolTableRecord
100
AcDbLinetypeTableRecord
  2
BYLAYER
 70
     0
  3

 72
    65
 73
     0
 40
0.0
  0
LTYPE
  5
16
330
5
100
AcDbSymbolTableRecord
100
AcDbLinetypeTableRecord
  2
CONTINUOUS
 70
     0
  3
Solid line
 72
    65
 73
     0
 40
0.0
  0
LTYPE
  5
158
330
5
100
AcDbSymbolTableRecord
100
AcDbLinetypeTableRecord
  2
HIDDEN
 70
     0
  3
Hidden __ __ __ __ __ __ __ __ __ __ __ __ __ _
 72
    65
 73
     2
 40
9.524999999999996
 49
6.349999999999997
 74
     0
 49
-3.174999999999998
 74
     0
  0
LTYPE
  5
159
330
5
100
AcDbSymbolTableRecord
100
AcDbLinetypeTableRecord
  2
CENTER
 70
     0
  3
Center ____ _ ____ _ ____ _ ____ _ ____ _ ____
 72
    65
 73
     4
 40
50.8
 49
31.75
 74
     0
 49
-6.349999999999997
 74
     0
 49
6.349999999999997
 74
     0
 49
-6.349999999999997
 74
     0
  0
LTYPE
  5
15A
330
5
100
AcDbSymbolTableRecord
100
AcDbLinetypeTableRecord
  2
PHANTOM
 70
     0
  3
Phantom ______  __  __  ______  __  __  ______
 72
    65
 73
     6
 40
63.5
 49
31.75
 74
     0
 49
-6.349999999999997
 74
     0
 49
6.349999999999997
 74
     0
 49
-6.349999999999997
 74
     0
 49
6.349999999999997
 74
     0
 49
-6.349999999999997
 74
     0
  0
ENDTAB
  0
TABLE
  2
LAYER
  5
2
102
{ACAD_XDICTIONARY
360
1BFBC
102
}
330
0
100
AcDbSymbolTable
 70
    15
  0
LAYER
  5
10
330
2
100
AcDbSymbolTableRecord
100
AcDbLayerTableRecord
  2
0
 70
     0
 62
     7
  6
CONTINUOUS
  0
LAYER
  5
38
330
2
100
AcDbSymbolTableRecord
100
AcDbLayerTableRecord
  2
M_VIEW
 70
     0
 62
    -1
  6
CONTINUOUS
  0
LAYER
  5
3A
330
2
100
AcDbSymbolTableRecord
100
AcDbLayerTableRecord
  2
WAKUMOJI
 70
     0
 62
     7
  6
CONTINUOUS
  0
LAYER
  5
15B
330
2
100
AcDbSymbolTableRecord
100
AcDbLayerTableRecord
  2
外形線
 70
     0
 62
     7
  6
CONTINUOUS
  0
LAYER
  5
15C
330
2
100
AcDbSymbolTableRecord
100
AcDbLayerTableRecord
  2
細線
 70
     0
 62
     7
  6
CONTINUOUS
  0
LAYER
  5
15D
330
2
100
AcDbSymbolTableRecord
100
AcDbLayerTableRecord
  2
破線
 70
     0
 62
     7
  6
HIDDEN
  0
LAYER
  5
15E
330
2
100
AcDbSymbolTableRecord
100
AcDbLayerTableRecord
  2
中心線
 70
     0
 62
     7
  6
CENTER
  0
LAYER
  5
15F
330
2
100
AcDbSymbolTableRecord
100
AcDbLayerTableRecord
  2
想像線
 70
     0
 62
     7
  6
PHANTOM
  0
LAYER
  5
161
330
2
100
AcDbSymbolTableRecord
100
AcDbLayerTableRecord
  2
DEFPOINTS
 70
     0
 62
    -7
  6
CONTINUOUS
  0
LAYER
  5
3D0
330
2
100
AcDbSymbolTableRecord
100
AcDbLayerTableRecord
  2
実線
 70
     0
 62
     7
  6
CONTINUOUS
  0
LAYER
  5
2150
330
2
100
AcDbSymbolTableRecord
100
AcDbLayerTableRecord
  2
寸法
 70
     0
 62
     7
  6
CONTINUOUS
  0
LAYER
  5
1899B
330
2
100
AcDbSymbolTableRecord
100
AcDbLayerTableRecord
  2
HIDDEN
 70
     0
 62
     7
  6
HIDDEN
  0
ENDTAB
  0
TABLE
  2
STYLE
  5
3
330
0
100
AcDbSymbolTable
 70
     4
  0
STYLE
  5
11
330
3
100
AcDbSymbolTableRecord
100
AcDbTextStyleTableRecord
  2
STANDARD
 70
     0
 40
0.0
 41
0.8
 50
0.0
 71
     0
 42
2.5
  3
simplex.shx
  4
bigfont.shx
  0
ENDTAB
  0
TABLE
  2
VIEW
  5
6
330
0
100
AcDbSymbolTable
 70
     0
  0
ENDTAB
  0
TABLE
  2
UCS
  5
7
330
0
100
AcDbSymbolTable
 70
     0
  0
ENDTAB
  0
TABLE
  2
APPID
  5
9
330
0
100
AcDbSymbolTable
 70
     1
  0
APPID
  5
12
330
9
100
AcDbSymbolTableRecord
100
AcDbRegAppTableRecord
  2
ACAD
 70
     0
  0
ENDTAB
  0
TABLE
  2
DIMSTYLE
  5
A
330
0
100
AcDbSymbolTable
 70
     3
  0
DIMSTYLE
105
27
102
{ACAD_REACTORS
330
1C0BA
330
1C021
330
1C020
330
1C01C
102
}
330
A
100
AcDbSymbolTableRecord
100
AcDbDimStyleTableRecord
  2
ISO-25
 70
     0
  3

  4

  5
OPEN30
  6

  7

 40
5.0
 41
2.5
 42
0.8
 43
3.75
 44
1.0
 45
0.0
 46
0.0
 47
0.0
 48
0.0
140
3.0
141
2.5
142
0.0
143
0.03937007874016
144
1.0
145
0.0
146
1.0
147
0.5
 71
     0
 72
     0
 73
     0
 74
     0
 75
     0
 76
     0
 77
     1
 78
     8
170
     0
171
     3
172
     1
173
     0
174
     0
175
     0
176
     4
177
     4
178
     0
270
     2
271
     2
272
     2
273
     2
274
     3
340
11
275
     0
280
     0
281
     0
282
     0
283
     0
284
     8
285
     0
286
     0
287
     5
288
     0
  0
DIMSTYLE
105
3DE
330
A
100
AcDbSymbolTableRecord
100
AcDbDimStyleTableRecord
  2
STANDARD
 70
     0
  3

  4

  5
OPEN30
  6

  7

 40
3.0
 41
2.5
 42
0.5
 43
0.38
 44
1.0
 45
0.0
 46
3.0
 47
0.0
 48
0.0
140
3.2
141
0.09
142
0.0
143
25.4
144
1.0
145
0.5
146
1.0
147
0.5
 71
     0
 72
     0
 73
     0
 74
     0
 75
     0
 76
     0
 77
     1
 78
     8
170
     0
171
     2
172
     1
173
     0
174
     0
175
     0
176
     4
177
     4
178
     0
270
     2
271
     2
272
     2
273
     2
274
     2
340
11
275
     0
280
     0
281
     0
282
     0
283
     1
284
     0
285
     0
286
     0
287
     5
288
     0
  0
ENDTAB
  0
TABLE
  2
BLOCK_RECORD
  5
1
330
0
100
AcDbSymbolTable
 70
    37
  0
BLOCK_RECORD
  5
1F
102
{ACAD_XDICTIONARY
360
1C7E4
102
}
330
1
100
AcDbSymbolTableRecord
100
AcDbBlockTableRecord
  2
*MODEL_SPACE
  0
BLOCK_RECORD
  5
17E82
102
{ACAD_XDICTIONARY
360
1C7E6
102
}
330
1
100
AcDbSymbolTableRecord
100
AcDbBlockTableRecord
  2
*PAPER_SPACE
  0
BLOCK_RECORD
  5
31
330
1
100
AcDbSymbolTableRecord
100
AcDbBlockTableRecord
  2
_OPEN30
  0
ENDTAB
  0
ENDSEC
  0
SECTION
  2
BLOCKS
  0
BLOCK
  5
20
330
1F
100
AcDbEntity
  8
0
100
AcDbBlockBegin
  2
*MODEL_SPACE
 70
     0
 10
0.0
 20
0.0
 30
0.0
  3
*MODEL_SPACE
  1

  0
ENDBLK
  5
21
330
1F
100
AcDbEntity
  8
0
100
AcDbBlockEnd
  0
BLOCK
  5
17FDE
330
17E82
100
AcDbEntity
 67
     1
  8
0
100
AcDbBlockBegin
  2
*PAPER_SPACE
 70
     0
 10
0.0
 20
0.0
 30
0.0
  3
*PAPER_SPACE
  1

  0
ENDBLK
  5
17FDF
330
17E82
100
AcDbEntity
 67
     1
  8
0
100
AcDbBlockEnd
  0
BLOCK
  5
35
330
31
100
AcDbEntity
  8
0
100
AcDbBlockBegin
  2
_OPEN30
 70
     0
 10
0.0
 20
0.0
 30
0.0
  3
_OPEN30
  1

  0
LINE
  5
32
330
31
100
AcDbEntity
  8
0
  6
BYBLOCK
 62
     0
100
AcDbLine
 10
-1.0
 20
0.26794919
 30
0.0
 11
0.0
 21
0.0
 31
0.0
  0
LINE
  5
33
330
31
100
AcDbEntity
  8
0
  6
BYBLOCK
 62
     0
100
AcDbLine
 10
0.0
 20
0.0
 30
0.0
 11
-1.0
 21
-0.26794919
 31
0.0
  0
LINE
  5
34
330
31
100
AcDbEntity
  8
0
  6
BYBLOCK
 62
     0
100
AcDbLine
 10
0.0
 20
0.0
 30
0.0
 11
-1.0
 21
0.0
 31
0.0
  0
ENDBLK
  5
36
330
31
100
AcDbEntity
  8
0
100
AcDbBlockEnd
  0
ENDSEC
  0
SECTION
  2
ENTITIES
  0
CIRCLE
  5
F38
330
1F
100
AcDbEntity
  8
外形線
100
AcDbCircle
 10
-1323.448916495345
 20
767.2938062227609
 30
0.0
 40
315.0000000000001
  0
CIRCLE
  5
F3A
330
1F
100
AcDbEntity
  8
中心線
100
AcDbCircle
 10
-111.0208574093606
 20
767.2938062227663
 30
0.0
 40
290.0000000000001
  0
CIRCLE
  5
F3B
330
1F
100
AcDbEntity
  8
外形線
100
AcDbCircle
 10
-111.0208574093606
 20
767.2938062227663
 30
0.0
 40
139.9999999999995
  0
LINE
  5
F3E
330
1F
100
AcDbEntity
  8
中心線
100
AcDbLine
 10
-111.0208574093606
 20
445.2924268464226
 30
0.0
 11
-111.0208574093606
 21
1089.295185599109
 31
0.0
  0
CIRCLE
  5
F3F
330
1F
100
AcDbEntity
  8
外形線
100
AcDbCircle
 10
-1323.448916495345
 20
767.2938062227609
 30
0.0
 40
249.9999999999985
  0
CIRCLE
  5
F42
330
1F
100
AcDbEntity
  8
中心線
100
AcDbCircle
 10
-1323.448916495345
 20
767.2938062227609
 30
0.0
 40
200.0
  0
CIRCLE
  5
F43
330
1F
100
AcDbEntity
  8
外形線
100
AcDbCircle
 10
-1323.448916495345
 20
767.2938062227609
 30
0.0
 40
150.0
  0
LINE
  5
F44
330
1F
100
AcDbEntity
  8
中心線
100
AcDbLine
 10
-1323.448916495344
 20
412.8380755481218
 30
0.0
 11
-1323.448916495345
 21
1121.749536897399
 31
0.0
  0
LINE
  5
F5A
330
1F
100
AcDbEntity
  8
中心線
100
AcDbLine
 10
-1645.450295871688
 20
767.2938062227609
 30
0.0
 11
-1001.447537119001
 21
767.2938062227609
 31
0.0
  0
LINE
  5
F5B
330
1F
100
AcDbEntity
  8
中心線
100
AcDbLine
 10
210.9805219669829
 20
767.2938062227663
 30
0.0
 11
-433.0222367857043
 21
767.2938062227663
 31
0.0
  0
CIRCLE
  5
F5C
330
1F
100
AcDbEntity
  8
外形線
100
AcDbCircle
 10
-111.0208574093606
 20
477.2938062227658
 30
0.0
 40
6.400000000000241
  0
CIRCLE
  5
F5D
330
1F
100
AcDbEntity
  8
細線
100
AcDbCircle
 10
-111.0208574093606
 20
477.2938062227658
 30
0.0
 40
8.0
  0
CIRCLE
  5
F79
330
1F
100
AcDbEntity
  8
外形線
100
AcDbCircle
 10
178.9791425906389
 20
767.2938062227658
 30
0.0
 40
6.400000000000241
  0
CIRCLE
  5
F7A
330
1F
100
AcDbEntity
  8
細線
100
AcDbCircle
 10
178.9791425906389
 20
767.2938062227658
 30
0.0
 40
8.0
  0
CIRCLE
  5
F90
330
1F
100
AcDbEntity
  8
細線
100
AcDbCircle
 10
-111.0208574093606
 20
651.2938062227663
 30
0.0
 40
4.7
  0
LINE
  5
F9B
330
1F
100
AcDbEntity
  8
中心線
100
AcDbLine
 10
85.17119479569052
 20
571.1017540177137
 30
0.0
 11
102.9090234737839
 21
553.3639253396192
 31
0.0
  0
CIRCLE
  5
F9C
330
1F
100
AcDbEntity
  8
外形線
100
AcDbCircle
 10
94.0401091347376
 20
562.2328396786671
 30
0.0
 40
6.400000000000241
  0
CIRCLE
  5
F9D
330
1F
100
AcDbEntity
  8
細線
100
AcDbCircle
 10
94.0401091347376
 20
562.2328396786671
 30
0.0
 40
8.0
  0
ARC
  5
12A4
330
1F
100
AcDbEntity
  8
細線
100
AcDbCircle
 10
-109.0208574093606
 20
649.2938062227663
 30
0.0
 40
1.5
100
AcDbArc
 50
90.0
 51
180.0
  0
ARC
  5
12A5
330
1F
100
AcDbEntity
  8
細線
100
AcDbCircle
 10
-113.0208574093606
 20
649.2938062227663
 30
0.0
 40
1.5
100
AcDbArc
 50
0.0
 51
90.0
  0
LINE
  5
12A6
330
1F
100
AcDbEntity
  8
細線
100
AcDbLine
 10
-109.0208574093606
 20
650.7938062227663
 30
0.0
 11
-108.9208574093609
 21
650.7938062227663
 31
0.0
  0
LINE
  5
12A7
330
1F
100
AcDbEntity
  8
細線
100
AcDbLine
 10
-110.5208574093607
 20
653.3938062227661
 30
0.0
 11
-110.5208574093607
 21
653.293806222766
 31
0.0
  0
ARC
  5
12A8
330
1F
100
AcDbEntity
  8
細線
100
AcDbCircle
 10
-109.0208574093606
 20
653.2938062227663
 30
0.0
 40
1.5
100
AcDbArc
 50
180.0
 51
270.0
  0
LINE
  5
12A9
330
1F
100
AcDbEntity
  8
細線
100
AcDbLine
 10
-111.0208574093606
 20
653.3938062227661
 30
0.0
 11
-110.5208574093607
 21
653.3938062227661
 31
0.0
  0
LINE
  5
12AA
330
1F
100
AcDbEntity
  8
細線
100
AcDbLine
 10
-108.9208574093609
 20
651.7938062227663
 30
0.0
 11
-108.9208574093609
 21
651.2938062227663
 31
0.0
  0
LINE
  5
12AB
330
1F
100
AcDbEntity
  8
細線
100
AcDbLine
 10
-108.9208574093609
 20
650.7938062227663
 30
0.0
 11
-108.9208574093609
 21
651.2938062227663
 31
0.0
  0
LINE
  5
12AC
330
1F
100
AcDbEntity
  8
細線
100
AcDbLine
 10
-109.0208574093606
 20
651.7938062227663
 30
0.0
 11
-108.9208574093609
 21
651.7938062227663
 31
0.0
  0
ARC
  5
12AD
330
1F
100
AcDbEntity
  8
細線
100
AcDbCircle
 10
-113.0208574093606
 20
653.2938062227663
 30
0.0
 40
1.5
100
AcDbArc
 50
270.0
 51
0.0
  0
LINE
  5
12AE
330
1F
100
AcDbEntity
  8
細線
100
AcDbLine
 10
-113.1208574093607
 20
651.7938062227663
 30
0.0
 11
-113.1208574093607
 21
651.2938062227663
 31
0.0
  0
LINE
  5
12AF
330
1F
100
AcDbEntity
  8
細線
100
AcDbLine
 10
-113.0208574093606
 20
651.7938062227663
 30
0.0
 11
-113.1208574093607
 21
651.7938062227663
 31
0.0
  0
LINE
  5
12B0
330
1F
100
AcDbEntity
  8
細線
100
AcDbLine
 10
-113.1208574093607
 20
650.7938062227663
 30
0.0
 11
-113.1208574093607
 21
651.2938062227663
 31
0.0
  0
LINE
  5
12B1
330
1F
100
AcDbEntity
  8
細線
100
AcDbLine
 10
-113.0208574093606
 20
650.7938062227663
 30
0.0
 11
-113.1208574093607
 21
650.7938062227663
 31
0.0
  0
LINE
  5
12B2
330
1F
100
AcDbEntity
  8
細線
100
AcDbLine
 10
-111.5208574093607
 20
653.3938062227661
 30
0.0
 11
-111.5208574093607
 21
653.293806222766
 31
0.0
  0
LINE
  5
12B3
330
1F
100
AcDbEntity
  8
細線
100
AcDbLine
 10
-111.0208574093606
 20
653.3938062227661
 30
0.0
 11
-111.5208574093607
 21
653.3938062227661
 31
0.0
  0
LINE
  5
12B5
330
1F
100
AcDbEntity
  8
細線
100
AcDbLine
 10
-111.0208574093606
 20
649.1938062227663
 30
0.0
 11
-110.5208574093607
 21
649.1938062227663
 31
0.0
  0
LINE
  5
12B6
330
1F
100
AcDbEntity
  8
細線
100
AcDbLine
 10
-110.5208574093607
 20
649.1938062227663
 30
0.0
 11
-110.5208574093607
 21
649.293806222766
 31
0.0
  0
LINE
  5
12B7
330
1F
100
AcDbEntity
  8
細線
100
AcDbLine
 10
-111.5208574093607
 20
649.1938062227663
 30
0.0
 11
-111.5208574093607
 21
649.293806222766
 31
0.0
  0
LINE
  5
12B8
330
1F
100
AcDbEntity
  8
細線
100
AcDbLine
 10
-111.0208574093606
 20
649.1938062227663
 30
0.0
 11
-111.5208574093607
 21
649.1938062227663
 31
0.0
  0
CIRCLE
  5
12BA
330
1F
100
AcDbEntity
  8
細線
100
AcDbCircle
 10
-10.56191057036335
 20
709.2938062227712
 30
0.0
 40
4.7
  0
ARC
  5
12BB
330
1F
100
AcDbEntity
  8
細線
100
AcDbCircle
 10
-13.29396137793216
 20
708.5617554152021
 30
0.0
 40
1.5
100
AcDbArc
 50
330.0000000000023
 51
59.99999999999985
  0
LINE
  5
12BD
330
1F
100
AcDbEntity
  8
細線
100
AcDbLine
 10
-8.743257222416104
 20
708.2438062227713
 30
0.0
 11
-8.493257222416104
 21
708.6768189246632
 31
0.0
  0
ARC
  5
12BE
330
1F
100
AcDbEntity
  8
細線
100
AcDbCircle
 10
-9.829859762794511
 20
706.5617554152021
 30
0.0
 40
1.5
100
AcDbArc
 50
59.99999999999985
 51
150.0000000000031
  0
LINE
  5
12BF
330
1F
100
AcDbEntity
  8
細線
100
AcDbLine
 10
-12.0449232722558
 20
707.7251528748241
 30
0.0
 11
-11.61191057036327
 21
707.475152874824
 31
0.0
  0
LINE
  5
12C0
330
1F
100
AcDbEntity
  8
細線
100
AcDbLine
 10
-11.99492327225559
 20
707.8117554152021
 30
0.0
 11
-12.0449232722558
 21
707.7251528748241
 31
0.0
  0
LINE
  5
12C1
330
1F
100
AcDbEntity
  8
細線
100
AcDbLine
 10
-11.17889786847126
 20
707.225152874824
 30
0.0
 11
-11.61191057036327
 21
707.475152874824
 31
0.0
  0
LINE
  5
12C2
330
1F
100
AcDbEntity
  8
細線
100
AcDbLine
 10
-11.12889786847131
 20
707.3117554152021
 30
0.0
 11
-11.17889786847126
 21
707.225152874824
 31
0.0
  0
LINE
  5
12C3
330
1F
100
AcDbEntity
  8
細線
100
AcDbLine
 10
-8.993257222416104
 20
707.8107935208791
 30
0.0
 11
-9.079859762794511
 21
707.860793520879
 31
0.0
  0
LINE
  5
12C4
330
1F
100
AcDbEntity
  8
細線
100
AcDbLine
 10
-8.743257222416104
 20
708.2438062227713
 30
0.0
 11
-8.993257222416104
 21
707.8107935208791
 31
0.0
  0
ARC
  5
12C5
330
1F
100
AcDbEntity
  8
細線
100
AcDbCircle
 10
-7.829859762794512
 20
710.0258570303398
 30
0.0
 40
1.5
100
AcDbArc
 50
150.0000000000031
 51
239.9999999999998
  0
LINE
  5
12C6
330
1F
100
AcDbEntity
  8
細線
100
AcDbLine
 10
-9.128897868471312
 20
710.7758570303401
 30
0.0
 11
-9.078897868471358
 21
710.8624595707185
 31
0.0
  0
LINE
  5
12C7
330
1F
100
AcDbEntity
  8
細線
100
AcDbLine
 10
-12.13056391831059
 20
710.776818924663
 30
0.0
 11
-12.04396137793241
 21
710.7268189246635
 31
0.0
  0
ARC
  5
12C8
330
1F
100
AcDbEntity
  8
細線
100
AcDbCircle
 10
-11.29396137793218
 20
712.0258570303398
 30
0.0
 40
1.5
100
AcDbArc
 50
239.9999999999998
 51
330.0000000000023
  0
LINE
  5
12C9
330
1F
100
AcDbEntity
  8
細線
100
AcDbLine
 10
-12.3805639183106
 20
710.3438062227712
 30
0.0
 11
-12.13056391831059
 21
710.776818924663
 31
0.0
  0
LINE
  5
12CA
330
1F
100
AcDbEntity
  8
細線
100
AcDbLine
 10
-9.944923272255893
 20
711.3624595707185
 30
0.0
 11
-9.511910570363395
 21
711.1124595707186
 31
0.0
  0
LINE
  5
12CB
330
1F
100
AcDbEntity
  8
細線
100
AcDbLine
 10
-9.078897868471358
 20
710.8624595707185
 30
0.0
 11
-9.511910570363395
 21
711.1124595707186
 31
0.0
  0
LINE
  5
12CC
330
1F
100
AcDbEntity
  8
細線
100
AcDbLine
 10
-9.994923272255617
 20
711.2758570303401
 30
0.0
 11
-9.944923272255893
 21
711.3624595707185
 31
0.0
  0
LINE
  5
12CD
330
1F
100
AcDbEntity
  8
細線
100
AcDbLine
 10
-12.63056391831059
 20
709.9107935208791
 30
0.0
 11
-12.54396137793241
 21
709.860793520879
 31
0.0
  0
LINE
  5
12CE
330
1F
100
AcDbEntity
  8
細線
100
AcDbLine
 10
-12.3805639183106
 20
710.3438062227712
 30
0.0
 11
-12.63056391831059
 21
709.9107935208791
 31
0.0
  0
LINE
  5
12CF
330
1F
100
AcDbEntity
  8
細線
100
AcDbLine
 10
-8.493257222416104
 20
708.6768189246632
 30
0.0
 11
-8.579859762794512
 21
708.7268189246636
 31
0.0
  0
CIRCLE
  5
12D1
330
1F
100
AcDbEntity
  8
細線
100
AcDbCircle
 10
-10.56191057036335
 20
825.2938062227615
 30
0.0
 40
4.7
  0
ARC
  5
12D2
330
1F
100
AcDbEntity
  8
細線
100
AcDbCircle
 10
-9.829859762794511
 20
828.0258570303301
 30
0.0
 40
1.5
100
AcDbArc
 50
209.9999999999976
 51
300.0000000000001
  0
ARC
  5
12D3
330
1F
100
AcDbEntity
  8
細線
100
AcDbCircle
 10
-7.829859762794512
 20
824.5617554151927
 30
0.0
 40
1.5
100
AcDbArc
 50
120.0000000000001
 51
209.9999999999976
  0
LINE
  5
12D4
330
1F
100
AcDbEntity
  8
細線
100
AcDbLine
 10
-11.12889786847108
 20
827.2758570303304
 30
0.0
 11
-11.17889786847126
 21
827.3624595707085
 31
0.0
  0
LINE
  5
12D5
330
1F
100
AcDbEntity
  8
細線
100
AcDbLine
 10
-12.63056391831059
 20
824.6768189246536
 30
0.0
 11
-12.54396137793218
 21
824.7268189246536
 31
0.0
  0
ARC
  5
12D6
330
1F
100
AcDbEntity
  8
細線
100
AcDbCircle
 10
-13.29396137793216
 20
826.0258570303301
 30
0.0
 40
1.5
100
AcDbArc
 50
300.0000000000001
 51
29.99999999999677
  0
LINE
  5
12D7
330
1F
100
AcDbEntity
  8
細線
100
AcDbLine
 10
-12.3805639183106
 20
824.2438062227613
 30
0.0
 11
-12.63056391831059
 21
824.6768189246536
 31
0.0
  0
LINE
  5
12D8
330
1F
100
AcDbEntity
  8
細線
100
AcDbLine
 10
-12.04492327225557
 20
826.8624595707086
 30
0.0
 11
-11.61191057036327
 21
827.1124595707084
 31
0.0
  0
LINE
  5
12D9
330
1F
100
AcDbEntity
  8
細線
100
AcDbLine
 10
-11.17889786847126
 20
827.3624595707085
 30
0.0
 11
-11.61191057036327
 21
827.1124595707084
 31
0.0
  0
LINE
  5
12DA
330
1F
100
AcDbEntity
  8
細線
100
AcDbLine
 10
-11.99492327225559
 20
826.7758570303302
 30
0.0
 11
-12.04492327225557
 21
826.8624595707086
 31
0.0
  0
ARC
  5
12DB
330
1F
100
AcDbEntity
  8
細線
100
AcDbCircle
 10
-11.29396137793218
 20
822.5617554151927
 30
0.0
 40
1.5
100
AcDbArc
 50
29.99999999999677
 51
120.0000000000001
  0
LINE
  5
12DC
330
1F
100
AcDbEntity
  8
細線
100
AcDbLine
 10
-9.944923272255664
 20
823.2251528748143
 30
0.0
 11
-9.511910570363395
 21
823.4751528748143
 31
0.0
  0
LINE
  5
12DD
330
1F
100
AcDbEntity
  8
細線
100
AcDbLine
 10
-9.994923272255617
 20
823.3117554151924
 30
0.0
 11
-9.944923272255664
 21
823.2251528748143
 31
0.0
  0
LINE
  5
12DE
330
1F
100
AcDbEntity
  8
細線
100
AcDbLine
 10
-9.078897868471358
 20
823.7251528748142
 30
0.0
 11
-9.511910570363395
 21
823.4751528748143
 31
0.0
  0
LINE
  5
12DF
330
1F
100
AcDbEntity
  8
細線
100
AcDbLine
 10
-9.128897868471083
 20
823.8117554151925
 30
0.0
 11
-9.078897868471358
 21
823.7251528748142
 31
0.0
  0
LINE
  5
12E0
330
1F
100
AcDbEntity
  8
細線
100
AcDbLine
 10
-12.13056391831059
 20
823.810793520869
 30
0.0
 11
-12.04396137793216
 21
823.8607935208692
 31
0.0
  0
LINE
  5
12E1
330
1F
100
AcDbEntity
  8
細線
100
AcDbLine
 10
-12.3805639183106
 20
824.2438062227613
 30
0.0
 11
-12.13056391831059
 21
823.810793520869
 31
0.0
  0
LINE
  5
12E3
330
1F
100
AcDbEntity
  8
細線
100
AcDbLine
 10
-8.743257222416104
 20
826.3438062227612
 30
0.0
 11
-8.993257222416104
 21
826.7768189246535
 31
0.0
  0
LINE
  5
12E4
330
1F
100
AcDbEntity
  8
細線
100
AcDbLine
 10
-8.993257222416104
 20
826.7768189246535
 30
0.0
 11
-9.079859762794511
 21
826.7268189246536
 31
0.0
  0
LINE
  5
12E5
330
1F
100
AcDbEntity
  8
細線
100
AcDbLine
 10
-8.493257222416104
 20
825.9107935208689
 30
0.0
 11
-8.579859762794512
 21
825.8607935208692
 31
0.0
  0
LINE
  5
12E6
330
1F
100
AcDbEntity
  8
細線
100
AcDbLine
 10
-8.743257222416104
 20
826.3438062227612
 30
0.0
 11
-8.493257222416104
 21
825.9107935208689
 31
0.0
  0
CIRCLE
  5
12EA
330
1F
100
AcDbEntity
  8
細線
100
AcDbCircle
 10
-211.4798042483585
 20
709.2938062227712
 30
0.0
 40
4.7
  0
ARC
  5
12EB
330
1F
100
AcDbEntity
  8
細線
100
AcDbCircle
 10
-208.7477534407899
 20
708.5617554152021
 30
0.0
 40
1.5
100
AcDbArc
 50
120.0000000000001
 51
209.9999999999976
  0
LINE
  5
12ED
330
1F
100
AcDbEntity
  8
細線
100
AcDbLine
 10
-213.2984575963055
 20
708.2438062227713
 30
0.0
 11
-213.5484575963054
 21
708.6768189246637
 31
0.0
  0
ARC
  5
12EE
330
1F
100
AcDbEntity
  8
細線
100
AcDbCircle
 10
-212.2118550559275
 20
706.5617554152021
 30
0.0
 40
1.5
100
AcDbArc
 50
29.99999999999677
 51
120.0000000000001
  0
LINE
  5
12EF
330
1F
100
AcDbEntity
  8
細線
100
AcDbLine
 10
-210.9128169502505
 20
707.3117554152021
 30
0.0
 11
-210.8628169502508
 21
707.225152874824
 31
0.0
  0
LINE
  5
12F0
330
1F
100
AcDbEntity
  8
細線
100
AcDbLine
 10
-209.9967915464661
 20
707.7251528748241
 30
0.0
 11
-210.429804248358
 21
707.475152874824
 31
0.0
  0
LINE
  5
12F1
330
1F
100
AcDbEntity
  8
細線
100
AcDbLine
 10
-210.8628169502508
 20
707.225152874824
 30
0.0
 11
-210.429804248358
 21
707.475152874824
 31
0.0
  0
LINE
  5
12F2
330
1F
100
AcDbEntity
  8
細線
100
AcDbLine
 10
-210.0467915464659
 20
707.8117554152021
 30
0.0
 11
-209.9967915464661
 21
707.7251528748241
 31
0.0
  0
LINE
  5
12F3
330
1F
100
AcDbEntity
  8
細線
100
AcDbLine
 10
-213.2984575963055
 20
708.2438062227713
 30
0.0
 11
-213.0484575963055
 21
707.8107935208792
 31
0.0
  0
LINE
  5
12F4
330
1F
100
AcDbEntity
  8
細線
100
AcDbLine
 10
-213.0484575963055
 20
707.8107935208792
 30
0.0
 11
-212.9618550559269
 21
707.8607935208792
 31
0.0
  0
ARC
  5
12F5
330
1F
100
AcDbEntity
  8
細線
100
AcDbCircle
 10
-214.2118550559275
 20
710.0258570303398
 30
0.0
 40
1.5
100
AcDbArc
 50
300.0000000000001
 51
29.99999999999677
  0
LINE
  5
12F6
330
1F
100
AcDbEntity
  8
細線
100
AcDbLine
 10
-209.411150900411
 20
709.9107935208791
 30
0.0
 11
-209.4977534407894
 21
709.860793520879
 31
0.0
  0
LINE
  5
12F7
330
1F
100
AcDbEntity
  8
細線
100
AcDbLine
 10
-209.661150900411
 20
710.3438062227712
 30
0.0
 11
-209.411150900411
 21
709.9107935208791
 31
0.0
  0
ARC
  5
12F8
330
1F
100
AcDbEntity
  8
細線
100
AcDbCircle
 10
-210.7477534407899
 20
712.0258570303398
 30
0.0
 40
1.5
100
AcDbArc
 50
209.9999999999976
 51
300.0000000000001
  0
LINE
  5
12F9
330
1F
100
AcDbEntity
  8
細線
100
AcDbLine
 10
-212.0967915464662
 20
711.3624595707185
 30
0.0
 11
-212.5298042483581
 21
711.1124595707186
 31
0.0
  0
LINE
  5
12FA
330
1F
100
AcDbEntity
  8
細線
100
AcDbLine
 10
-212.0467915464659
 20
711.2758570303401
 30
0.0
 11
-212.0967915464662
 21
711.3624595707185
 31
0.0
  0
LINE
  5
12FB
330
1F
100
AcDbEntity
  8
細線
100
AcDbLine
 10
-212.9628169502505
 20
710.8624595707185
 30
0.0
 11
-212.5298042483581
 21
711.1124595707186
 31
0.0
  0
LINE
  5
12FC
330
1F
100
AcDbEntity
  8
細線
100
AcDbLine
 10
-212.9128169502505
 20
710.7758570303401
 30
0.0
 11
-212.9628169502505
 21
710.8624595707185
 31
0.0
  0
LINE
  5
12FD
330
1F
100
AcDbEntity
  8
細線
100
AcDbLine
 10
-209.911150900411
 20
710.7768189246635
 30
0.0
 11
-209.9977534407893
 21
710.7268189246635
 31
0.0
  0
LINE
  5
12FE
330
1F
100
AcDbEntity
  8
細線
100
AcDbLine
 10
-209.661150900411
 20
710.3438062227712
 30
0.0
 11
-209.911150900411
 21
710.7768189246635
 31
0.0
  0
LINE
  5
12FF
330
1F
100
AcDbEntity
  8
細線
100
AcDbLine
 10
-213.5484575963054
 20
708.6768189246637
 30
0.0
 11
-213.461855055927
 21
708.7268189246636
 31
0.0
  0
CIRCLE
  5
1301
330
1F
100
AcDbEntity
  8
細線
100
AcDbCircle
 10
-211.4798042483585
 20
825.2938062227615
 30
0.0
 40
4.7
  0
ARC
  5
1302
330
1F
100
AcDbEntity
  8
細線
100
AcDbCircle
 10
-214.2118550559275
 20
824.5617554151927
 30
0.0
 40
1.5
100
AcDbArc
 50
330.0000000000023
 51
59.99999999999985
  0
ARC
  5
1303
330
1F
100
AcDbEntity
  8
細線
100
AcDbCircle
 10
-212.2118550559275
 20
828.0258570303301
 30
0.0
 40
1.5
100
AcDbArc
 50
239.9999999999998
 51
330.0000000000023
  0
LINE
  5
1304
330
1F
100
AcDbEntity
  8
細線
100
AcDbLine
 10
-212.9128169502505
 20
823.8117554151925
 30
0.0
 11
-212.9628169502505
 21
823.7251528748142
 31
0.0
  0
LINE
  5
1305
330
1F
100
AcDbEntity
  8
細線
100
AcDbLine
 10
-209.9111509004115
 20
823.8107935208693
 30
0.0
 11
-209.9977534407893
 21
823.8607935208694
 31
0.0
  0
ARC
  5
1306
330
1F
100
AcDbEntity
  8
細線
100
AcDbCircle
 10
-210.7477534407899
 20
822.5617554151927
 30
0.0
 40
1.5
100
AcDbArc
 50
59.99999999999985
 51
150.0000000000031
  0
LINE
  5
1307
330
1F
100
AcDbEntity
  8
細線
100
AcDbLine
 10
-209.6611509004115
 20
824.2438062227616
 30
0.0
 11
-209.9111509004115
 21
823.8107935208693
 31
0.0
  0
LINE
  5
1308
330
1F
100
AcDbEntity
  8
細線
100
AcDbLine
 10
-212.0967915464662
 20
823.2251528748143
 30
0.0
 11
-212.5298042483585
 21
823.4751528748143
 31
0.0
  0
LINE
  5
1309
330
1F
100
AcDbEntity
  8
細線
100
AcDbLine
 10
-212.9628169502505
 20
823.7251528748142
 30
0.0
 11
-212.5298042483585
 21
823.4751528748143
 31
0.0
  0
LINE
  5
130A
330
1F
100
AcDbEntity
  8
細線
100
AcDbLine
 10
-212.0467915464664
 20
823.3117554151929
 30
0.0
 11
-212.0967915464662
 21
823.2251528748143
 31
0.0
  0
ARC
  5
130B
330
1F
100
AcDbEntity
  8
細線
100
AcDbCircle
 10
-208.7477534407899
 20
826.0258570303301
 30
0.0
 40
1.5
100
AcDbArc
 50
150.0000000000031
 51
239.9999999999998
  0
LINE
  5
130C
330
1F
100
AcDbEntity
  8
細線
100
AcDbLine
 10
-209.9967915464661
 20
826.8624595707089
 30
0.0
 11
-210.4298042483585
 21
827.1124595707089
 31
0.0
  0
LINE
  5
130D
330
1F
100
AcDbEntity
  8
細線
100
AcDbLine
 10
-210.0467915464664
 20
826.7758570303305
 30
0.0
 11
-209.9967915464661
 21
826.8624595707089
 31
0.0
  0
LINE
  5
130E
330
1F
100
AcDbEntity
  8
細線
100
AcDbLine
 10
-210.8628169502508
 20
827.362459570709
 30
0.0
 11
-210.4298042483585
 21
827.1124595707089
 31
0.0
  0
LINE
  5
130F
330
1F
100
AcDbEntity
  8
細線
100
AcDbLine
 10
-210.9128169502505
 20
827.2758570303306
 30
0.0
 11
-210.8628169502508
 21
827.362459570709
 31
0.0
  0
LINE
  5
1310
330
1F
100
AcDbEntity
  8
細線
100
AcDbLine
 10
-209.4111509004114
 20
824.6768189246537
 30
0.0
 11
-209.4977534407894
 21
824.7268189246538
 31
0.0
  0
LINE
  5
1311
330
1F
100
AcDbEntity
  8
細線
100
AcDbLine
 10
-209.6611509004115
 20
824.2438062227616
 30
0.0
 11
-209.4111509004114
 21
824.6768189246537
 31
0.0
  0
LINE
  5
1313
330
1F
100
AcDbEntity
  8
細線
100
AcDbLine
 10
-213.2984575963059
 20
826.3438062227617
 30
0.0
 11
-213.5484575963059
 21
825.9107935208692
 31
0.0
  0
LINE
  5
1314
330
1F
100
AcDbEntity
  8
細線
100
AcDbLine
 10
-213.5484575963059
 20
825.9107935208692
 30
0.0
 11
-213.4618550559275
 21
825.8607935208695
 31
0.0
  0
LINE
  5
1315
330
1F
100
AcDbEntity
  8
細線
100
AcDbLine
 10
-213.0484575963059
 20
826.7768189246536
 30
0.0
 11
-212.9618550559275
 21
826.7268189246539
 31
0.0
  0
LINE
  5
1316
330
1F
100
AcDbEntity
  8
細線
100
AcDbLine
 10
-213.2984575963059
 20
826.3438062227617
 30
0.0
 11
-213.0484575963059
 21
826.7768189246536
 31
0.0
  0
LINE
  5
1397
330
1F
100
AcDbEntity
  8
中心線
100
AcDbLine
 10
-307.2129096144132
 20
571.1017540177143
 30
0.0
 11
-324.9507382925077
 21
553.3639253396207
 31
0.0
  0
CIRCLE
  5
1398
330
1F
100
AcDbEntity
  8
外形線
100
AcDbCircle
 10
-316.08182395346
 20
562.2328396786672
 30
0.0
 40
6.400000000000241
  0
CIRCLE
  5
1399
330
1F
100
AcDbEntity
  8
細線
100
AcDbCircle
 10
-316.08182395346
 20
562.2328396786672
 30
0.0
 40
8.0
  0
CIRCLE
  5
1432
330
1F
100
AcDbEntity
  8
外形線
100
AcDbCircle
 10
-401.0208574093611
 20
767.2938062227665
 30
0.0
 40
6.400000000000241
  0
CIRCLE
  5
1433
330
1F
100
AcDbEntity
  8
細線
100
AcDbCircle
 10
-401.0208574093611
 20
767.2938062227665
 30
0.0
 40
8.0
  0
LINE
  5
15E8
330
1F
100
AcDbEntity
  8
細線
100
AcDbLine
 10
-1171.430967302913
 20
1034.596617886476
 30
0.0
 11
-1171.517569843292
 21
1034.646617886475
 31
0.0
  0
LINE
  5
15E9
330
1F
100
AcDbEntity
  8
細線
100
AcDbLine
 10
-1172.017569843291
 20
1033.780592482691
 30
0.0
 11
-1171.767569843292
 21
1034.213605184584
 31
0.0
  0
LINE
  5
15EA
330
1F
100
AcDbEntity
  8
細線
100
AcDbLine
 10
-1171.517569843292
 20
1034.646617886475
 30
0.0
 11
-1171.767569843292
 21
1034.213605184584
 31
0.0
  0
LINE
  5
15EB
330
1F
100
AcDbEntity
  8
細線
100
AcDbLine
 10
-1171.930967302914
 20
1033.730592482692
 30
0.0
 11
-1172.017569843291
 21
1033.780592482691
 31
0.0
  0
LINE
  5
15EC
330
1F
100
AcDbEntity
  8
細線
100
AcDbLine
 10
-1168.898916495345
 20
1034.982258532531
 30
0.0
 11
-1169.331929197235
 21
1035.232258532529
 31
0.0
  0
LINE
  5
15ED
330
1F
100
AcDbEntity
  8
細線
100
AcDbLine
 10
-1169.331929197235
 20
1035.232258532529
 30
0.0
 11
-1169.381929197238
 21
1035.145655992153
 31
0.0
  0
LINE
  5
15EE
330
1F
100
AcDbEntity
  8
細線
100
AcDbLine
 10
-1168.465903793453
 20
1034.732258532531
 30
0.0
 11
-1168.515903793453
 21
1034.645655992153
 31
0.0
  0
LINE
  5
15EF
330
1F
100
AcDbEntity
  8
細線
100
AcDbLine
 10
-1168.898916495345
 20
1034.982258532531
 30
0.0
 11
-1168.465903793453
 21
1034.732258532531
 31
0.0
  0
ARC
  5
15F0
330
1F
100
AcDbEntity
  8
細線
100
AcDbCircle
 10
-1167.216865687776
 20
1033.895655992153
 30
0.0
 40
1.5
100
AcDbArc
 50
149.9999999999998
 51
240.000000000003
  0
LINE
  5
15F1
330
1F
100
AcDbEntity
  8
細線
100
AcDbLine
 10
-1168.380263147398
 20
1031.680592482691
 30
0.0
 11
-1168.130263147398
 21
1032.113605184584
 31
0.0
  0
LINE
  5
15F2
330
1F
100
AcDbEntity
  8
細線
100
AcDbLine
 10
-1168.466865687776
 20
1031.730592482692
 30
0.0
 11
-1168.380263147398
 21
1031.680592482691
 31
0.0
  0
LINE
  5
15F3
330
1F
100
AcDbEntity
  8
細線
100
AcDbLine
 10
-1167.880263147398
 20
1032.546617886475
 30
0.0
 11
-1168.130263147398
 21
1032.113605184584
 31
0.0
  0
LINE
  5
15F4
330
1F
100
AcDbEntity
  8
細線
100
AcDbLine
 10
-1167.966865687776
 20
1032.596617886476
 30
0.0
 11
-1167.880263147398
 21
1032.546617886475
 31
0.0
  0
ARC
  5
15F5
330
1F
100
AcDbEntity
  8
細線
100
AcDbCircle
 10
-1170.680967302913
 20
1035.895655992153
 30
0.0
 40
1.5
100
AcDbArc
 50
240.000000000003
 51
329.9999999999998
  0
LINE
  5
15F7
330
1F
100
AcDbEntity
  8
細線
100
AcDbLine
 10
-1171.431929197238
 20
1031.594951836636
 30
0.0
 11
-1171.381929197238
 21
1031.681554377015
 31
0.0
  0
LINE
  5
15F8
330
1F
100
AcDbEntity
  8
細線
100
AcDbLine
 10
-1170.998916495345
 20
1031.344951836634
 30
0.0
 11
-1171.431929197238
 21
1031.594951836636
 31
0.0
  0
LINE
  5
15F9
330
1F
100
AcDbEntity
  8
細線
100
AcDbLine
 10
-1170.565903793453
 20
1031.094951836637
 30
0.0
 11
-1170.515903793453
 21
1031.181554377015
 31
0.0
  0
LINE
  5
15FA
330
1F
100
AcDbEntity
  8
細線
100
AcDbLine
 10
-1170.998916495345
 20
1031.344951836634
 30
0.0
 11
-1170.565903793453
 21
1031.094951836637
 31
0.0
  0
CIRCLE
  5
15FC
330
1F
100
AcDbEntity
  8
細線
100
AcDbCircle
 10
-1169.948916495344
 20
1033.163605184584
 30
0.0
 40
4.7
  0
ARC
  5
15FD
330
1F
100
AcDbEntity
  8
細線
100
AcDbCircle
 10
-1172.680967302914
 20
1032.431554377015
 30
0.0
 40
1.5
100
AcDbArc
 50
329.9999999999998
 51
60.00000000000236
  0
ARC
  5
15FE
330
1F
100
AcDbEntity
  8
細線
100
AcDbCircle
 10
-1169.216865687776
 20
1030.431554377015
 30
0.0
 40
1.5
100
AcDbArc
 50
60.00000000000236
 51
149.9999999999998
  0
CIRCLE
  5
164A
330
1F
100
AcDbEntity
  8
細線
100
AcDbCircle
 10
-1323.448916495345
 20
967.2938062227611
 30
0.0
 40
8.0
  0
CIRCLE
  5
164B
330
1F
100
AcDbEntity
  8
外形線
100
AcDbCircle
 10
-1323.448916495345
 20
967.2938062227611
 30
0.0
 40
6.400000000000241
  0
LINE
  5
1656
330
1F
100
AcDbEntity
  8
細線
100
AcDbLine
 10
-1325.448916495346
 20
1074.793806222759
 30
0.0
 11
-1325.548916495345
 21
1074.793806222759
 31
0.0
  0
LINE
  5
1657
330
1F
100
AcDbEntity
  8
細線
100
AcDbLine
 10
-1325.548916495345
 20
1073.793806222758
 30
0.0
 11
-1325.548916495345
 21
1074.29380622276
 31
0.0
  0
LINE
  5
1658
330
1F
100
AcDbEntity
  8
細線
100
AcDbLine
 10
-1325.548916495345
 20
1074.793806222759
 30
0.0
 11
-1325.548916495345
 21
1074.29380622276
 31
0.0
  0
LINE
  5
1659
330
1F
100
AcDbEntity
  8
細線
100
AcDbLine
 10
-1325.448916495346
 20
1073.793806222758
 30
0.0
 11
-1325.548916495345
 21
1073.793806222758
 31
0.0
  0
LINE
  5
165A
330
1F
100
AcDbEntity
  8
細線
100
AcDbLine
 10
-1323.448916495346
 20
1076.39380622276
 30
0.0
 11
-1323.948916495345
 21
1076.39380622276
 31
0.0
  0
LINE
  5
165B
330
1F
100
AcDbEntity
  8
細線
100
AcDbLine
 10
-1323.948916495345
 20
1076.39380622276
 30
0.0
 11
-1323.948916495345
 21
1076.29380622276
 31
0.0
  0
LINE
  5
165C
330
1F
100
AcDbEntity
  8
細線
100
AcDbLine
 10
-1322.948916495346
 20
1076.39380622276
 30
0.0
 11
-1322.948916495346
 21
1076.29380622276
 31
0.0
  0
LINE
  5
165D
330
1F
100
AcDbEntity
  8
細線
100
AcDbLine
 10
-1323.448916495346
 20
1076.39380622276
 30
0.0
 11
-1322.948916495346
 21
1076.39380622276
 31
0.0
  0
ARC
  5
165E
330
1F
100
AcDbEntity
  8
細線
100
AcDbCircle
 10
-1321.448916495346
 20
1076.29380622276
 30
0.0
 40
1.5
100
AcDbArc
 50
180.0
 51
270.0
  0
LINE
  5
165F
330
1F
100
AcDbEntity
  8
細線
100
AcDbLine
 10
-1321.348916495346
 20
1073.793806222758
 30
0.0
 11
-1321.348916495346
 21
1074.29380622276
 31
0.0
  0
LINE
  5
1660
330
1F
100
AcDbEntity
  8
細線
100
AcDbLine
 10
-1321.448916495346
 20
1073.793806222758
 30
0.0
 11
-1321.348916495346
 21
1073.793806222758
 31
0.0
  0
LINE
  5
1661
330
1F
100
AcDbEntity
  8
細線
100
AcDbLine
 10
-1321.348916495346
 20
1074.793806222759
 30
0.0
 11
-1321.348916495346
 21
1074.29380622276
 31
0.0
  0
LINE
  5
1662
330
1F
100
AcDbEntity
  8
細線
100
AcDbLine
 10
-1321.448916495346
 20
1074.793806222759
 30
0.0
 11
-1321.348916495346
 21
1074.793806222759
 31
0.0
  0
ARC
  5
1663
330
1F
100
AcDbEntity
  8
細線
100
AcDbCircle
 10
-1325.448916495346
 20
1076.29380622276
 30
0.0
 40
1.5
100
AcDbArc
 50
270.0
 51
0.0
  0
LINE
  5
1664
330
1F
100
AcDbEntity
  8
細線
100
AcDbLine
 10
-1323.948916495345
 20
1072.19380622276
 30
0.0
 11
-1323.948916495345
 21
1072.29380622276
 31
0.0
  0
LINE
  5
1665
330
1F
100
AcDbEntity
  8
細線
100
AcDbLine
 10
-1323.448916495346
 20
1072.19380622276
 30
0.0
 11
-1323.948916495345
 21
1072.19380622276
 31
0.0
  0
LINE
  5
1666
330
1F
100
AcDbEntity
  8
細線
100
AcDbLine
 10
-1322.948916495346
 20
1072.19380622276
 30
0.0
 11
-1322.948916495346
 21
1072.29380622276
 31
0.0
  0
LINE
  5
1667
330
1F
100
AcDbEntity
  8
細線
100
AcDbLine
 10
-1323.448916495346
 20
1072.19380622276
 30
0.0
 11
-1322.948916495346
 21
1072.19380622276
 31
0.0
  0
LINE
  5
1668
330
1F
100
AcDbEntity
  8
中心線
 48
0.4
100
AcDbLine
 10
-1323.448916495346
 20
1068.29380622276
 30
0.0
 11
-1323.448916495346
 21
1080.29380622276
 31
0.0
  0
CIRCLE
  5
1669
330
1F
100
AcDbEntity
  8
細線
100
AcDbCircle
 10
-1323.448916495346
 20
1074.29380622276
 30
0.0
 40
4.7
  0
ARC
  5
166A
330
1F
100
AcDbEntity
  8
細線
100
AcDbCircle
 10
-1325.448916495346
 20
1072.29380622276
 30
0.0
 40
1.5
100
AcDbArc
 50
0.0
 51
90.0
  0
ARC
  5
166B
330
1F
100
AcDbEntity
  8
細線
100
AcDbCircle
 10
-1321.448916495346
 20
1072.29380622276
 30
0.0
 40
1.5
100
AcDbArc
 50
90.0
 51
180.0
  0
LINE
  5
167A
330
1F
100
AcDbEntity
  8
細線
100
AcDbLine
 10
-1015.948916495345
 20
769.2938062227616
 30
0.0
 11
-1015.948916495345
 21
769.3938062227617
 31
0.0
  0
LINE
  5
167B
330
1F
100
AcDbEntity
  8
細線
100
AcDbLine
 10
-1016.948916495345
 20
769.3938062227617
 30
0.0
 11
-1016.448916495342
 21
769.3938062227617
 31
0.0
  0
LINE
  5
167C
330
1F
100
AcDbEntity
  8
細線
100
AcDbLine
 10
-1015.948916495345
 20
769.3938062227617
 30
0.0
 11
-1016.448916495342
 21
769.3938062227617
 31
0.0
  0
LINE
  5
167D
330
1F
100
AcDbEntity
  8
細線
100
AcDbLine
 10
-1016.948916495345
 20
769.2938062227616
 30
0.0
 11
-1016.948916495345
 21
769.3938062227617
 31
0.0
  0
LINE
  5
167E
330
1F
100
AcDbEntity
  8
細線
100
AcDbLine
 10
-1014.348916495344
 20
767.2938062227616
 30
0.0
 11
-1014.348916495344
 21
767.7938062227616
 31
0.0
  0
LINE
  5
167F
330
1F
100
AcDbEntity
  8
細線
100
AcDbLine
 10
-1014.348916495344
 20
767.7938062227616
 30
0.0
 11
-1014.448916495344
 21
767.7938062227616
 31
0.0
  0
LINE
  5
1680
330
1F
100
AcDbEntity
  8
細線
100
AcDbLine
 10
-1014.348916495344
 20
766.7938062227616
 30
0.0
 11
-1014.448916495344
 21
766.7938062227616
 31
0.0
  0
LINE
  5
1681
330
1F
100
AcDbEntity
  8
細線
100
AcDbLine
 10
-1014.348916495344
 20
767.2938062227616
 30
0.0
 11
-1014.348916495344
 21
766.7938062227616
 31
0.0
  0
ARC
  5
1682
330
1F
100
AcDbEntity
  8
細線
100
AcDbCircle
 10
-1014.448916495344
 20
765.2938062227616
 30
0.0
 40
1.5
100
AcDbArc
 50
90.0
 51
180.0
  0
LINE
  5
1683
330
1F
100
AcDbEntity
  8
細線
100
AcDbLine
 10
-1016.948916495345
 20
765.1938062227615
 30
0.0
 11
-1016.448916495342
 21
765.1938062227615
 31
0.0
  0
LINE
  5
1684
330
1F
100
AcDbEntity
  8
細線
100
AcDbLine
 10
-1016.948916495345
 20
765.2938062227616
 30
0.0
 11
-1016.948916495345
 21
765.1938062227615
 31
0.0
  0
LINE
  5
1685
330
1F
100
AcDbEntity
  8
細線
100
AcDbLine
 10
-1015.948916495345
 20
765.1938062227615
 30
0.0
 11
-1016.448916495342
 21
765.1938062227615
 31
0.0
  0
LINE
  5
1686
330
1F
100
AcDbEntity
  8
細線
100
AcDbLine
 10
-1015.948916495345
 20
765.2938062227616
 30
0.0
 11
-1015.948916495345
 21
765.1938062227615
 31
0.0
  0
ARC
  5
1687
330
1F
100
AcDbEntity
  8
細線
100
AcDbCircle
 10
-1014.448916495344
 20
769.2938062227616
 30
0.0
 40
1.5
100
AcDbArc
 50
180.0
 51
270.0
  0
LINE
  5
1689
330
1F
100
AcDbEntity
  8
細線
100
AcDbLine
 10
-1018.548916495344
 20
767.7938062227616
 30
0.0
 11
-1018.448916495344
 21
767.7938062227616
 31
0.0
  0
LINE
  5
168A
330
1F
100
AcDbEntity
  8
細線
100
AcDbLine
 10
-1018.548916495344
 20
767.2938062227616
 30
0.0
 11
-1018.548916495344
 21
767.7938062227616
 31
0.0
  0
LINE
  5
168B
330
1F
100
AcDbEntity
  8
細線
100
AcDbLine
 10
-1018.548916495344
 20
766.7938062227616
 30
0.0
 11
-1018.448916495344
 21
766.7938062227616
 31
0.0
  0
LINE
  5
168C
330
1F
100
AcDbEntity
  8
細線
100
AcDbLine
 10
-1018.548916495344
 20
767.2938062227616
 30
0.0
 11
-1018.548916495344
 21
766.7938062227616
 31
0.0
  0
LINE
  5
168D
330
1F
100
AcDbEntity
  8
中心線
 48
0.4
100
AcDbLine
 10
-1022.448916495344
 20
767.2938062227616
 30
0.0
 11
-1010.448916495344
 21
767.2938062227616
 31
0.0
  0
CIRCLE
  5
168E
330
1F
100
AcDbEntity
  8
細線
100
AcDbCircle
 10
-1016.448916495342
 20
767.2938062227616
 30
0.0
 40
4.7
  0
ARC
  5
168F
330
1F
100
AcDbEntity
  8
細線
100
AcDbCircle
 10
-1018.448916495344
 20
769.2938062227616
 30
0.0
 40
1.5
100
AcDbArc
 50
270.0
 51
0.0
  0
ARC
  5
1690
330
1F
100
AcDbEntity
  8
細線
100
AcDbCircle
 10
-1018.448916495344
 20
765.2938062227616
 30
0.0
 40
1.5
100
AcDbArc
 50
0.0
 51
90.0
  0
CIRCLE
  5
169A
330
1F
100
AcDbEntity
  8
細線
100
AcDbCircle
 10
-1123.448916495344
 20
767.2938062227609
 30
0.0
 40
8.0
  0
CIRCLE
  5
169B
330
1F
100
AcDbEntity
  8
外形線
100
AcDbCircle
 10
-1123.448916495344
 20
767.2938062227609
 30
0.0
 40
6.400000000000241
  0
LINE
  5
169C
330
1F
100
AcDbEntity
  8
細線
100
AcDbLine
 10
-1056.962130235415
 20
918.7251528748143
 30
0.0
 11
-1056.529117533522
 21
918.9751528748143
 31
0.0
  0
ARC
  5
169D
330
1F
100
AcDbEntity
  8
細線
100
AcDbCircle
 10
-1056.847066725953
 20
923.5258570303303
 30
0.0
 40
1.5
100
AcDbArc
 50
210.0
 51
299.9999999999976
  0
CIRCLE
  5
16A0
330
1F
100
AcDbEntity
  8
細線
100
AcDbCircle
 10
-1057.579117533522
 20
920.7938062227617
 30
0.0
 40
4.7
  0
ARC
  5
16A1
330
1F
100
AcDbEntity
  8
細線
100
AcDbCircle
 10
-1058.311168341089
 20
918.0617554151927
 30
0.0
 40
1.5
100
AcDbArc
 50
30.00000000000013
 51
119.9999999999967
  0
LINE
  5
16A2
330
1F
100
AcDbEntity
  8
細線
100
AcDbLine
 10
-1055.760464185574
 20
921.8438062227617
 30
0.0
 11
-1056.010464185572
 21
922.2768189246536
 31
0.0
  0
LINE
  5
16A3
330
1F
100
AcDbEntity
  8
細線
100
AcDbLine
 10
-1056.010464185572
 20
922.2768189246536
 30
0.0
 11
-1056.097066725953
 21
922.2268189246539
 31
0.0
  0
LINE
  5
16A4
330
1F
100
AcDbEntity
  8
細線
100
AcDbLine
 10
-1055.510464185575
 20
921.4107935208696
 30
0.0
 11
-1055.597066725953
 21
921.3607935208695
 31
0.0
  0
LINE
  5
16A5
330
1F
100
AcDbEntity
  8
細線
100
AcDbLine
 10
-1055.760464185574
 20
921.8438062227617
 30
0.0
 11
-1055.510464185575
 21
921.4107935208696
 31
0.0
  0
ARC
  5
16A6
330
1F
100
AcDbEntity
  8
細線
100
AcDbCircle
 10
-1054.847066725953
 20
920.0617554151927
 30
0.0
 40
1.5
100
AcDbArc
 50
119.9999999999967
 51
210.0
  0
LINE
  5
16A7
330
1F
100
AcDbEntity
  8
細線
100
AcDbLine
 10
-1056.09610483163
 20
919.2251528748142
 30
0.0
 11
-1056.529117533522
 21
918.9751528748143
 31
0.0
  0
LINE
  5
16A8
330
1F
100
AcDbEntity
  8
細線
100
AcDbLine
 10
-1056.14610483163
 20
919.3117554151925
 30
0.0
 11
-1056.09610483163
 21
919.2251528748142
 31
0.0
  0
LINE
  5
16A9
330
1F
100
AcDbEntity
  8
細線
100
AcDbLine
 10
-1058.14610483163
 20
922.7758570303306
 30
0.0
 11
-1058.196104831629
 21
922.862459570709
 31
0.0
  0
LINE
  5
16AA
330
1F
100
AcDbEntity
  8
細線
100
AcDbLine
 10
-1059.062130235415
 20
922.3624595707091
 30
0.0
 11
-1058.629117533522
 21
922.6124595707092
 31
0.0
  0
LINE
  5
16AB
330
1F
100
AcDbEntity
  8
細線
100
AcDbLine
 10
-1058.196104831629
 20
922.862459570709
 30
0.0
 11
-1058.629117533522
 21
922.6124595707092
 31
0.0
  0
LINE
  5
16AC
330
1F
100
AcDbEntity
  8
細線
100
AcDbLine
 10
-1059.012130235415
 20
922.2758570303309
 30
0.0
 11
-1059.062130235415
 21
922.3624595707091
 31
0.0
  0
LINE
  5
16AD
330
1F
100
AcDbEntity
  8
細線
100
AcDbLine
 10
-1057.012130235415
 20
918.8117554151927
 30
0.0
 11
-1056.962130235415
 21
918.7251528748143
 31
0.0
  0
LINE
  5
16AE
330
1F
100
AcDbEntity
  8
細線
100
AcDbLine
 10
-1059.647770881467
 20
920.1768189246539
 30
0.0
 11
-1059.561168341091
 21
920.2268189246538
 31
0.0
  0
LINE
  5
16AF
330
1F
100
AcDbEntity
  8
細線
100
AcDbLine
 10
-1059.397770881469
 20
919.7438062227616
 30
0.0
 11
-1059.647770881467
 21
920.1768189246539
 31
0.0
  0
LINE
  5
16B0
330
1F
100
AcDbEntity
  8
細線
100
AcDbLine
 10
-1059.147770881468
 20
919.3107935208697
 30
0.0
 11
-1059.061168341089
 21
919.3607935208696
 31
0.0
  0
LINE
  5
16B1
330
1F
100
AcDbEntity
  8
細線
100
AcDbLine
 10
-1059.397770881469
 20
919.7438062227616
 30
0.0
 11
-1059.147770881468
 21
919.3107935208697
 31
0.0
  0
ARC
  5
16B2
330
1F
100
AcDbEntity
  8
細線
100
AcDbCircle
 10
-1060.311168341091
 20
921.5258570303303
 30
0.0
 40
1.5
100
AcDbArc
 50
299.9999999999976
 51
30.00000000000013
  0
CIRCLE
  5
16C1
330
1F
100
AcDbEntity
  8
細線
100
AcDbCircle
 10
-1182.027560258035
 20
908.7151624600704
 30
0.0
 40
8.0
  0
CIRCLE
  5
16C3
330
1F
100
AcDbEntity
  8
外形線
100
AcDbCircle
 10
-1182.027560258035
 20
908.7151624600704
 30
0.0
 40
6.400000000000241
  0
LINE
  5
16D4
330
1F
100
AcDbEntity
  8
細線
100
AcDbLine
 10
-1056.962130235413
 20
615.8624595707086
 30
0.0
 11
-1056.529117533522
 21
615.6124595707086
 31
0.0
  0
ARC
  5
16D5
330
1F
100
AcDbEntity
  8
細線
100
AcDbCircle
 10
-1056.847066725953
 20
611.0617554151922
 30
0.0
 40
1.5
100
AcDbArc
 50
60.00000000000236
 51
149.9999999999998
  0
CIRCLE
  5
16D8
330
1F
100
AcDbEntity
  8
細線
100
AcDbCircle
 10
-1057.579117533522
 20
613.7938062227614
 30
0.0
 40
4.7
  0
ARC
  5
16D9
330
1F
100
AcDbEntity
  8
細線
100
AcDbCircle
 10
-1058.311168341089
 20
616.5258570303302
 30
0.0
 40
1.5
100
AcDbArc
 50
240.000000000003
 51
329.9999999999998
  0
LINE
  5
16DA
330
1F
100
AcDbEntity
  8
細線
100
AcDbLine
 10
-1056.146104831628
 20
615.2758570303302
 30
0.0
 11
-1056.096104831629
 21
615.3624595707086
 31
0.0
  0
LINE
  5
16DB
330
1F
100
AcDbEntity
  8
細線
100
AcDbLine
 10
-1056.096104831629
 20
615.3624595707086
 30
0.0
 11
-1056.529117533522
 21
615.6124595707086
 31
0.0
  0
LINE
  5
16DC
330
1F
100
AcDbEntity
  8
細線
100
AcDbLine
 10
-1055.760464185574
 20
612.7438062227612
 30
0.0
 11
-1055.510464185575
 21
613.1768189246537
 31
0.0
  0
LINE
  5
16DD
330
1F
100
AcDbEntity
  8
細線
100
AcDbLine
 10
-1055.510464185575
 20
613.1768189246537
 30
0.0
 11
-1055.597066725953
 21
613.2268189246538
 31
0.0
  0
LINE
  5
16DE
330
1F
100
AcDbEntity
  8
細線
100
AcDbLine
 10
-1056.010464185572
 20
612.3107935208694
 30
0.0
 11
-1056.097066725953
 21
612.3607935208691
 31
0.0
  0
LINE
  5
16DF
330
1F
100
AcDbEntity
  8
細線
100
AcDbLine
 10
-1055.760464185574
 20
612.7438062227612
 30
0.0
 11
-1056.010464185572
 21
612.3107935208694
 31
0.0
  0
ARC
  5
16E0
330
1F
100
AcDbEntity
  8
細線
100
AcDbCircle
 10
-1054.847066725953
 20
614.5258570303302
 30
0.0
 40
1.5
100
AcDbArc
 50
149.9999999999998
 51
240.000000000003
  0
LINE
  5
16E1
330
1F
100
AcDbEntity
  8
細線
100
AcDbLine
 10
-1057.012130235412
 20
615.7758570303302
 30
0.0
 11
-1056.962130235413
 21
615.8624595707086
 31
0.0
  0
LINE
  5
16E2
330
1F
100
AcDbEntity
  8
細線
100
AcDbLine
 10
-1059.062130235413
 20
612.2251528748141
 30
0.0
 11
-1058.629117533522
 21
611.9751528748142
 31
0.0
  0
LINE
  5
16E3
330
1F
100
AcDbEntity
  8
細線
100
AcDbLine
 10
-1059.012130235414
 20
612.3117554151924
 30
0.0
 11
-1059.062130235413
 21
612.2251528748141
 31
0.0
  0
LINE
  5
16E4
330
1F
100
AcDbEntity
  8
細線
100
AcDbLine
 10
-1058.196104831629
 20
611.7251528748141
 30
0.0
 11
-1058.629117533522
 21
611.9751528748142
 31
0.0
  0
LINE
  5
16E5
330
1F
100
AcDbEntity
  8
細線
100
AcDbLine
 10
-1058.146104831628
 20
611.8117554151925
 30
0.0
 11
-1058.196104831629
 21
611.7251528748141
 31
0.0
  0
LINE
  5
16E6
330
1F
100
AcDbEntity
  8
細線
100
AcDbLine
 10
-1059.147770881468
 20
615.2768189246536
 30
0.0
 11
-1059.061168341089
 21
615.2268189246536
 31
0.0
  0
LINE
  5
16E7
330
1F
100
AcDbEntity
  8
細線
100
AcDbLine
 10
-1059.397770881469
 20
614.8438062227612
 30
0.0
 11
-1059.147770881468
 21
615.2768189246536
 31
0.0
  0
LINE
  5
16E8
330
1F
100
AcDbEntity
  8
細線
100
AcDbLine
 10
-1059.647770881467
 20
614.4107935208692
 30
0.0
 11
-1059.561168341091
 21
614.3607935208692
 31
0.0
  0
LINE
  5
16E9
330
1F
100
AcDbEntity
  8
細線
100
AcDbLine
 10
-1059.397770881469
 20
614.8438062227612
 30
0.0
 11
-1059.647770881467
 21
614.4107935208692
 31
0.0
  0
ARC
  5
16EA
330
1F
100
AcDbEntity
  8
細線
100
AcDbCircle
 10
-1060.311168341091
 20
613.0617554151926
 30
0.0
 40
1.5
100
AcDbArc
 50
329.9999999999998
 51
60.00000000000236
  0
CIRCLE
  5
16EE
330
1F
100
AcDbEntity
  8
細線
100
AcDbCircle
 10
-1182.027560258035
 20
625.8724499854515
 30
0.0
 40
8.0
  0
CIRCLE
  5
16F0
330
1F
100
AcDbEntity
  8
外形線
100
AcDbCircle
 10
-1182.027560258035
 20
625.8724499854515
 30
0.0
 40
6.400000000000241
  0
CIRCLE
  5
1725
330
1F
100
AcDbEntity
  8
細線
100
AcDbCircle
 10
-1323.448916495345
 20
567.2938062227611
 30
0.0
 40
8.0
  0
CIRCLE
  5
1726
330
1F
100
AcDbEntity
  8
外形線
100
AcDbCircle
 10
-1323.448916495345
 20
567.2938062227611
 30
0.0
 40
6.400000000000241
  0
CIRCLE
  5
1740
330
1F
100
AcDbEntity
  8
細線
100
AcDbCircle
 10
-1169.948916495344
 20
501.4240072609383
 30
0.0
 40
4.7
  0
LINE
  5
1741
330
1F
100
AcDbEntity
  8
細線
100
AcDbLine
 10
-1167.966865687775
 20
501.9909945590462
 30
0.0
 11
-1167.880263147397
 21
502.0409945590464
 31
0.0
  0
LINE
  5
1742
330
1F
100
AcDbEntity
  8
細線
100
AcDbLine
 10
-1168.380263147396
 20
502.907019962831
 30
0.0
 11
-1168.130263147397
 21
502.4740072609387
 31
0.0
  0
LINE
  5
1743
330
1F
100
AcDbEntity
  8
細線
100
AcDbLine
 10
-1167.880263147397
 20
502.0409945590464
 30
0.0
 11
-1168.130263147397
 21
502.4740072609387
 31
0.0
  0
LINE
  5
1744
330
1F
100
AcDbEntity
  8
細線
100
AcDbLine
 10
-1168.466865687775
 20
502.8570199628307
 30
0.0
 11
-1168.380263147396
 21
502.907019962831
 31
0.0
  0
LINE
  5
1745
330
1F
100
AcDbEntity
  8
細線
100
AcDbLine
 10
-1168.898916495342
 20
499.6053539129913
 30
0.0
 11
-1168.465903793452
 21
499.8553539129914
 31
0.0
  0
LINE
  5
1746
330
1F
100
AcDbEntity
  8
細線
100
AcDbLine
 10
-1168.465903793452
 20
499.8553539129914
 30
0.0
 11
-1168.515903793452
 21
499.9419564533699
 31
0.0
  0
LINE
  5
1747
330
1F
100
AcDbEntity
  8
細線
100
AcDbLine
 10
-1169.331929197235
 20
499.3553539129914
 30
0.0
 11
-1169.381929197237
 21
499.4419564533699
 31
0.0
  0
LINE
  5
1748
330
1F
100
AcDbEntity
  8
細線
100
AcDbLine
 10
-1168.898916495342
 20
499.6053539129913
 30
0.0
 11
-1169.331929197235
 21
499.3553539129914
 31
0.0
  0
ARC
  5
1749
330
1F
100
AcDbEntity
  8
細線
100
AcDbCircle
 10
-1170.680967302913
 20
498.6919564533693
 30
0.0
 40
1.5
100
AcDbArc
 50
30.00000000000013
 51
119.9999999999967
  0
LINE
  5
174A
330
1F
100
AcDbEntity
  8
細線
100
AcDbLine
 10
-1172.017569843291
 20
500.8070199628306
 30
0.0
 11
-1171.767569843292
 21
500.3740072609383
 31
0.0
  0
LINE
  5
174B
330
1F
100
AcDbEntity
  8
細線
100
AcDbLine
 10
-1171.930967302913
 20
500.857019962831
 30
0.0
 11
-1172.017569843291
 21
500.8070199628306
 31
0.0
  0
LINE
  5
174C
330
1F
100
AcDbEntity
  8
細線
100
AcDbLine
 10
-1171.517569843292
 20
499.9409945590463
 30
0.0
 11
-1171.767569843292
 21
500.3740072609383
 31
0.0
  0
LINE
  5
174D
330
1F
100
AcDbEntity
  8
細線
100
AcDbLine
 10
-1171.430967302913
 20
499.9909945590465
 30
0.0
 11
-1171.517569843292
 21
499.9409945590463
 31
0.0
  0
ARC
  5
174E
330
1F
100
AcDbEntity
  8
細線
100
AcDbCircle
 10
-1167.216865687775
 20
500.6919564533695
 30
0.0
 40
1.5
100
AcDbArc
 50
119.9999999999967
 51
210.0
  0
LINE
  5
1750
330
1F
100
AcDbEntity
  8
細線
100
AcDbLine
 10
-1170.565903793452
 20
503.492660608886
 30
0.0
 11
-1170.515903793452
 21
503.4060580685076
 31
0.0
  0
LINE
  5
1751
330
1F
100
AcDbEntity
  8
細線
100
AcDbLine
 10
-1170.998916495344
 20
503.242660608886
 30
0.0
 11
-1170.565903793452
 21
503.492660608886
 31
0.0
  0
LINE
  5
1752
330
1F
100
AcDbEntity
  8
細線
100
AcDbLine
 10
-1171.431929197236
 20
502.992660608886
 30
0.0
 11
-1171.381929197237
 21
502.9060580685076
 31
0.0
  0
LINE
  5
1753
330
1F
100
AcDbEntity
  8
細線
100
AcDbLine
 10
-1170.998916495344
 20
503.242660608886
 30
0.0
 11
-1171.431929197236
 21
502.992660608886
 31
0.0
  0
ARC
  5
1754
330
1F
100
AcDbEntity
  8
細線
100
AcDbCircle
 10
-1169.216865687775
 20
504.1560580685071
 30
0.0
 40
1.5
100
AcDbArc
 50
210.0
 51
299.9999999999976
  0
ARC
  5
1755
330
1F
100
AcDbEntity
  8
細線
100
AcDbCircle
 10
-1172.680967302913
 20
502.1560580685071
 30
0.0
 40
1.5
100
AcDbArc
 50
299.9999999999976
 51
30.00000000000013
  0
LINE
  5
1764
330
1F
100
AcDbEntity
  8
細線
100
AcDbLine
 10
-1321.448916495342
 20
459.793806222761
 30
0.0
 11
-1321.348916495344
 21
459.793806222761
 31
0.0
  0
LINE
  5
1765
330
1F
100
AcDbEntity
  8
細線
100
AcDbLine
 10
-1321.348916495344
 20
460.793806222761
 30
0.0
 11
-1321.348916495344
 21
460.293806222761
 31
0.0
  0
LINE
  5
1766
330
1F
100
AcDbEntity
  8
細線
100
AcDbLine
 10
-1321.348916495344
 20
459.793806222761
 30
0.0
 11
-1321.348916495344
 21
460.293806222761
 31
0.0
  0
LINE
  5
1767
330
1F
100
AcDbEntity
  8
細線
100
AcDbLine
 10
-1321.448916495342
 20
460.793806222761
 30
0.0
 11
-1321.348916495344
 21
460.793806222761
 31
0.0
  0
LINE
  5
1768
330
1F
100
AcDbEntity
  8
細線
100
AcDbLine
 10
-1323.448916495344
 20
458.1938062227611
 30
0.0
 11
-1322.948916495342
 21
458.1938062227611
 31
0.0
  0
LINE
  5
1769
330
1F
100
AcDbEntity
  8
細線
100
AcDbLine
 10
-1322.948916495342
 20
458.1938062227611
 30
0.0
 11
-1322.948916495342
 21
458.2938062227611
 31
0.0
  0
LINE
  5
176A
330
1F
100
AcDbEntity
  8
細線
100
AcDbLine
 10
-1323.948916495343
 20
458.1938062227611
 30
0.0
 11
-1323.948916495343
 21
458.2938062227611
 31
0.0
  0
LINE
  5
176B
330
1F
100
AcDbEntity
  8
細線
100
AcDbLine
 10
-1323.448916495344
 20
458.1938062227611
 30
0.0
 11
-1323.948916495343
 21
458.1938062227611
 31
0.0
  0
ARC
  5
176C
330
1F
100
AcDbEntity
  8
細線
100
AcDbCircle
 10
-1325.448916495344
 20
458.293806222761
 30
0.0
 40
1.5
100
AcDbArc
 50
0.0
 51
90.0
  0
LINE
  5
176D
330
1F
100
AcDbEntity
  8
細線
100
AcDbLine
 10
-1325.548916495344
 20
460.793806222761
 30
0.0
 11
-1325.548916495344
 21
460.293806222761
 31
0.0
  0
LINE
  5
176E
330
1F
100
AcDbEntity
  8
細線
100
AcDbLine
 10
-1325.448916495344
 20
460.793806222761
 30
0.0
 11
-1325.548916495344
 21
460.793806222761
 31
0.0
  0
LINE
  5
176F
330
1F
100
AcDbEntity
  8
細線
100
AcDbLine
 10
-1325.548916495344
 20
459.793806222761
 30
0.0
 11
-1325.548916495344
 21
460.293806222761
 31
0.0
  0
LINE
  5
1770
330
1F
100
AcDbEntity
  8
細線
100
AcDbLine
 10
-1325.448916495344
 20
459.793806222761
 30
0.0
 11
-1325.548916495344
 21
459.793806222761
 31
0.0
  0
ARC
  5
1771
330
1F
100
AcDbEntity
  8
細線
100
AcDbCircle
 10
-1321.448916495342
 20
458.293806222761
 30
0.0
 40
1.5
100
AcDbArc
 50
90.0
 51
180.0
  0
LINE
  5
1772
330
1F
100
AcDbEntity
  8
細線
100
AcDbLine
 10
-1322.948916495342
 20
462.3938062227608
 30
0.0
 11
-1322.948916495342
 21
462.2938062227611
 31
0.0
  0
LINE
  5
1773
330
1F
100
AcDbEntity
  8
細線
100
AcDbLine
 10
-1323.448916495344
 20
462.3938062227608
 30
0.0
 11
-1322.948916495342
 21
462.3938062227608
 31
0.0
  0
LINE
  5
1774
330
1F
100
AcDbEntity
  8
細線
100
AcDbLine
 10
-1323.948916495343
 20
462.3938062227608
 30
0.0
 11
-1323.948916495343
 21
462.2938062227611
 31
0.0
  0
LINE
  5
1775
330
1F
100
AcDbEntity
  8
細線
100
AcDbLine
 10
-1323.448916495344
 20
462.3938062227608
 30
0.0
 11
-1323.948916495343
 21
462.3938062227608
 31
0.0
  0
CIRCLE
  5
1777
330
1F
100
AcDbEntity
  8
細線
100
AcDbCircle
 10
-1323.448916495344
 20
460.2938062227608
 30
0.0
 40
4.7
  0
ARC
  5
1778
330
1F
100
AcDbEntity
  8
細線
100
AcDbCircle
 10
-1321.448916495342
 20
462.293806222761
 30
0.0
 40
1.5
100
AcDbArc
 50
180.0
 51
270.0
  0
ARC
  5
1779
330
1F
100
AcDbEntity
  8
細線
100
AcDbCircle
 10
-1325.448916495344
 20
462.293806222761
 30
0.0
 40
1.5
100
AcDbArc
 50
270.0
 51
0.0
  0
LINE
  5
178D
330
1F
100
AcDbEntity
  8
中心線
100
AcDbLine
 10
85.17119479569101
 20
963.485858427818
 30
0.0
 11
102.9090234737853
 21
981.2236871059116
 31
0.0
  0
CIRCLE
  5
178E
330
1F
100
AcDbEntity
  8
外形線
100
AcDbCircle
 10
94.04010913473824
 20
972.3547727668652
 30
0.0
 40
6.400000000000241
  0
CIRCLE
  5
178F
330
1F
100
AcDbEntity
  8
細線
100
AcDbCircle
 10
94.04010913473824
 20
972.3547727668652
 30
0.0
 40
8.0
  0
CIRCLE
  5
179F
330
1F
100
AcDbEntity
  8
細線
100
AcDbCircle
 10
-111.0208574093606
 20
883.2938062227663
 30
0.0
 40
4.7
  0
LINE
  5
17A0
330
1F
100
AcDbEntity
  8
細線
100
AcDbLine
 10
-111.0208574093606
 20
885.3938062227662
 30
0.0
 11
-111.5208574093607
 21
885.3938062227662
 31
0.0
  0
LINE
  5
17A1
330
1F
100
AcDbEntity
  8
細線
100
AcDbLine
 10
-111.5208574093607
 20
885.3938062227662
 30
0.0
 11
-111.5208574093607
 21
885.2938062227662
 31
0.0
  0
LINE
  5
17A2
330
1F
100
AcDbEntity
  8
細線
100
AcDbLine
 10
-110.5208574093607
 20
885.3938062227662
 30
0.0
 11
-110.5208574093607
 21
885.2938062227662
 31
0.0
  0
LINE
  5
17A3
330
1F
100
AcDbEntity
  8
細線
100
AcDbLine
 10
-111.0208574093606
 20
885.3938062227662
 30
0.0
 11
-110.5208574093607
 21
885.3938062227662
 31
0.0
  0
ARC
  5
17A4
330
1F
100
AcDbEntity
  8
細線
100
AcDbCircle
 10
-113.0208574093606
 20
885.2938062227662
 30
0.0
 40
1.5
100
AcDbArc
 50
270.0
 51
0.0
  0
LINE
  5
17A5
330
1F
100
AcDbEntity
  8
細線
100
AcDbLine
 10
-113.0208574093606
 20
883.7938062227662
 30
0.0
 11
-113.1208574093607
 21
883.7938062227662
 31
0.0
  0
LINE
  5
17A6
330
1F
100
AcDbEntity
  8
細線
100
AcDbLine
 10
-111.5208574093607
 20
881.1938062227664
 30
0.0
 11
-111.5208574093607
 21
881.2938062227663
 31
0.0
  0
ARC
  5
17A7
330
1F
100
AcDbEntity
  8
細線
100
AcDbCircle
 10
-113.0208574093606
 20
881.2938062227663
 30
0.0
 40
1.5
100
AcDbArc
 50
0.0
 51
90.0
  0
LINE
  5
17A8
330
1F
100
AcDbEntity
  8
細線
100
AcDbLine
 10
-111.0208574093606
 20
881.1938062227664
 30
0.0
 11
-111.5208574093607
 21
881.1938062227664
 31
0.0
  0
LINE
  5
17A9
330
1F
100
AcDbEntity
  8
細線
100
AcDbLine
 10
-113.1208574093607
 20
882.7938062227662
 30
0.0
 11
-113.1208574093607
 21
883.2938062227663
 31
0.0
  0
LINE
  5
17AA
330
1F
100
AcDbEntity
  8
細線
100
AcDbLine
 10
-113.1208574093607
 20
883.7938062227662
 30
0.0
 11
-113.1208574093607
 21
883.2938062227663
 31
0.0
  0
LINE
  5
17AB
330
1F
100
AcDbEntity
  8
細線
100
AcDbLine
 10
-113.0208574093606
 20
882.7938062227662
 30
0.0
 11
-113.1208574093607
 21
882.7938062227662
 31
0.0
  0
ARC
  5
17AC
330
1F
100
AcDbEntity
  8
細線
100
AcDbCircle
 10
-109.0208574093606
 20
885.2938062227662
 30
0.0
 40
1.5
100
AcDbArc
 50
180.0
 51
270.0
  0
ARC
  5
17AD
330
1F
100
AcDbEntity
  8
細線
100
AcDbCircle
 10
-109.0208574093606
 20
881.2938062227663
 30
0.0
 40
1.5
100
AcDbArc
 50
90.0
 51
180.0
  0
LINE
  5
17AE
330
1F
100
AcDbEntity
  8
細線
100
AcDbLine
 10
-108.9208574093609
 20
882.7938062227662
 30
0.0
 11
-108.9208574093609
 21
883.2938062227663
 31
0.0
  0
LINE
  5
17AF
330
1F
100
AcDbEntity
  8
細線
100
AcDbLine
 10
-109.0208574093606
 20
882.7938062227662
 30
0.0
 11
-108.9208574093609
 21
882.7938062227662
 31
0.0
  0
LINE
  5
17B0
330
1F
100
AcDbEntity
  8
細線
100
AcDbLine
 10
-108.9208574093609
 20
883.7938062227662
 30
0.0
 11
-108.9208574093609
 21
883.2938062227663
 31
0.0
  0
LINE
  5
17B1
330
1F
100
AcDbEntity
  8
細線
100
AcDbLine
 10
-109.0208574093606
 20
883.7938062227662
 30
0.0
 11
-108.9208574093609
 21
883.7938062227662
 31
0.0
  0
LINE
  5
17B2
330
1F
100
AcDbEntity
  8
細線
100
AcDbLine
 10
-110.5208574093607
 20
881.1938062227664
 30
0.0
 11
-110.5208574093607
 21
881.2938062227663
 31
0.0
  0
LINE
  5
17B3
330
1F
100
AcDbEntity
  8
細線
100
AcDbLine
 10
-111.0208574093606
 20
881.1938062227664
 30
0.0
 11
-110.5208574093607
 21
881.1938062227664
 31
0.0
  0
CIRCLE
  5
17C7
330
1F
100
AcDbEntity
  8
外形線
100
AcDbCircle
 10
-111.0208574093606
 20
1057.293806222765
 30
0.0
 40
6.400000000000241
  0
CIRCLE
  5
17C8
330
1F
100
AcDbEntity
  8
細線
100
AcDbCircle
 10
-111.0208574093606
 20
1057.293806222765
 30
0.0
 40
8.0
  0
CIRCLE
  5
17CF
330
1F
100
AcDbEntity
  8
外形線
100
AcDbCircle
 10
-170.9135862682939
 20
1068.39488730656
 30
0.0
 40
6.5
  0
LINE
  5
1814
330
1F
100
AcDbEntity
  8
中心線
100
AcDbLine
 10
-307.2129096144128
 20
963.4858584278184
 30
0.0
 11
-324.9507382925063
 21
981.2236871059127
 31
0.0
  0
CIRCLE
  5
1815
330
1F
100
AcDbEntity
  8
外形線
100
AcDbCircle
 10
-316.08182395346
 20
972.3547727668654
 30
0.0
 40
6.400000000000241
  0
CIRCLE
  5
1816
330
1F
100
AcDbEntity
  8
細線
100
AcDbCircle
 10
-316.08182395346
 20
972.3547727668654
 30
0.0
 40
8.0
  0
LINE
  5
19A0
330
1F
100
AcDbEntity
  8
細線
100
AcDbLine
 10
-1478.930967302915
 20
1032.596617886475
 30
0.0
 11
-1479.017569843293
 21
1032.546617886475
 31
0.0
  0
LINE
  5
19A1
330
1F
100
AcDbEntity
  8
細線
100
AcDbLine
 10
-1478.517569843293
 20
1031.680592482691
 30
0.0
 11
-1478.767569843293
 21
1032.113605184582
 31
0.0
  0
LINE
  5
19A2
330
1F
100
AcDbEntity
  8
細線
100
AcDbLine
 10
-1479.017569843293
 20
1032.546617886475
 30
0.0
 11
-1478.767569843293
 21
1032.113605184582
 31
0.0
  0
LINE
  5
19A3
330
1F
100
AcDbEntity
  8
細線
100
AcDbLine
 10
-1478.430967302915
 20
1031.730592482688
 30
0.0
 11
-1478.517569843293
 21
1031.680592482691
 31
0.0
  0
LINE
  5
19A4
330
1F
100
AcDbEntity
  8
細線
100
AcDbLine
 10
-1477.998916495346
 20
1034.982258532531
 30
0.0
 11
-1478.431929197236
 21
1034.732258532531
 31
0.0
  0
LINE
  5
19A5
330
1F
100
AcDbEntity
  8
細線
100
AcDbLine
 10
-1478.431929197236
 20
1034.732258532531
 30
0.0
 11
-1478.381929197237
 21
1034.645655992151
 31
0.0
  0
LINE
  5
19A6
330
1F
100
AcDbEntity
  8
細線
100
AcDbLine
 10
-1477.565903793454
 20
1035.232258532529
 30
0.0
 11
-1477.515903793453
 21
1035.145655992151
 31
0.0
  0
LINE
  5
19A7
330
1F
100
AcDbEntity
  8
細線
100
AcDbLine
 10
-1477.998916495346
 20
1034.982258532531
 30
0.0
 11
-1477.565903793454
 21
1035.232258532529
 31
0.0
  0
ARC
  5
19A8
330
1F
100
AcDbEntity
  8
細線
100
AcDbCircle
 10
-1476.216865687777
 20
1035.895655992151
 30
0.0
 40
1.5
100
AcDbArc
 50
210.0
 51
299.9999999999976
  0
LINE
  5
19A9
330
1F
100
AcDbEntity
  8
細線
100
AcDbLine
 10
-1474.880263147398
 20
1033.780592482691
 30
0.0
 11
-1475.130263147399
 21
1034.213605184584
 31
0.0
  0
LINE
  5
19AA
330
1F
100
AcDbEntity
  8
細線
100
AcDbLine
 10
-1474.966865687777
 20
1033.730592482691
 30
0.0
 11
-1474.880263147398
 21
1033.780592482691
 31
0.0
  0
LINE
  5
19AB
330
1F
100
AcDbEntity
  8
細線
100
AcDbLine
 10
-1475.380263147398
 20
1034.646617886475
 30
0.0
 11
-1475.130263147399
 21
1034.213605184584
 31
0.0
  0
LINE
  5
19AC
330
1F
100
AcDbEntity
  8
細線
100
AcDbLine
 10
-1475.466865687777
 20
1034.596617886475
 30
0.0
 11
-1475.380263147398
 21
1034.646617886475
 31
0.0
  0
ARC
  5
19AD
330
1F
100
AcDbEntity
  8
細線
100
AcDbCircle
 10
-1479.680967302915
 20
1033.895655992151
 30
0.0
 40
1.5
100
AcDbArc
 50
299.9999999999976
 51
30.00000000000013
  0
LINE
  5
19AF
330
1F
100
AcDbEntity
  8
細線
100
AcDbLine
 10
-1476.331929197236
 20
1031.094951836636
 30
0.0
 11
-1476.381929197238
 21
1031.181554377011
 31
0.0
  0
LINE
  5
19B0
330
1F
100
AcDbEntity
  8
細線
100
AcDbLine
 10
-1475.898916495346
 20
1031.344951836633
 30
0.0
 11
-1476.331929197236
 21
1031.094951836636
 31
0.0
  0
LINE
  5
19B1
330
1F
100
AcDbEntity
  8
細線
100
AcDbLine
 10
-1475.465903793454
 20
1031.594951836636
 30
0.0
 11
-1475.515903793453
 21
1031.681554377014
 31
0.0
  0
LINE
  5
19B2
330
1F
100
AcDbEntity
  8
細線
100
AcDbLine
 10
-1475.898916495346
 20
1031.344951836633
 30
0.0
 11
-1475.465903793454
 21
1031.594951836636
 31
0.0
  0
CIRCLE
  5
19B4
330
1F
100
AcDbEntity
  8
細線
100
AcDbCircle
 10
-1476.948916495346
 20
1033.163605184583
 30
0.0
 40
4.7
  0
ARC
  5
19B5
330
1F
100
AcDbEntity
  8
細線
100
AcDbCircle
 10
-1477.680967302914
 20
1030.431554377015
 30
0.0
 40
1.5
100
AcDbArc
 50
30.00000000000013
 51
119.9999999999967
  0
ARC
  5
19B6
330
1F
100
AcDbEntity
  8
細線
100
AcDbCircle
 10
-1474.216865687777
 20
1032.431554377015
 30
0.0
 40
1.5
100
AcDbArc
 50
119.9999999999967
 51
210.0
  0
CIRCLE
  5
19EB
330
1F
100
AcDbEntity
  8
細線
100
AcDbCircle
 10
-1464.870272732654
 20
908.7151624600707
 30
0.0
 40
8.0
  0
CIRCLE
  5
19EC
330
1F
100
AcDbEntity
  8
外形線
100
AcDbCircle
 10
-1464.870272732654
 20
908.7151624600707
 30
0.0
 40
6.400000000000241
  0
LINE
  5
19F7
330
1F
100
AcDbEntity
  8
細線
100
AcDbLine
 10
-1590.751728159061
 20
919.3117554151918
 30
0.0
 11
-1590.80172815906
 21
919.2251528748132
 31
0.0
  0
LINE
  5
19F8
330
1F
100
AcDbEntity
  8
細線
100
AcDbLine
 10
-1589.935702755274
 20
918.7251528748133
 30
0.0
 11
-1590.368715457168
 21
918.9751528748134
 31
0.0
  0
LINE
  5
19F9
330
1F
100
AcDbEntity
  8
細線
100
AcDbLine
 10
-1590.80172815906
 20
919.2251528748132
 30
0.0
 11
-1590.368715457168
 21
918.9751528748134
 31
0.0
  0
LINE
  5
19FA
330
1F
100
AcDbEntity
  8
細線
100
AcDbLine
 10
-1589.885702755275
 20
918.8117554151917
 30
0.0
 11
-1589.935702755274
 21
918.7251528748133
 31
0.0
  0
LINE
  5
19FB
330
1F
100
AcDbEntity
  8
細線
100
AcDbLine
 10
-1591.137368805116
 20
921.8438062227603
 30
0.0
 11
-1591.387368805116
 21
921.4107935208684
 31
0.0
  0
LINE
  5
19FC
330
1F
100
AcDbEntity
  8
細線
100
AcDbLine
 10
-1591.387368805116
 20
921.4107935208684
 30
0.0
 11
-1591.300766264737
 21
921.3607935208683
 31
0.0
  0
LINE
  5
19FD
330
1F
100
AcDbEntity
  8
細線
100
AcDbLine
 10
-1590.887368805116
 20
922.2768189246524
 30
0.0
 11
-1590.800766264736
 21
922.2268189246527
 31
0.0
  0
LINE
  5
19FE
330
1F
100
AcDbEntity
  8
細線
100
AcDbLine
 10
-1591.137368805116
 20
921.8438062227603
 30
0.0
 11
-1590.887368805116
 21
922.2768189246524
 31
0.0
  0
ARC
  5
19FF
330
1F
100
AcDbEntity
  8
細線
100
AcDbCircle
 10
-1590.050766264736
 20
923.5258570303294
 30
0.0
 40
1.5
100
AcDbArc
 50
240.000000000003
 51
329.9999999999998
  0
LINE
  5
1A00
330
1F
100
AcDbEntity
  8
細線
100
AcDbLine
 10
-1587.835702755276
 20
922.3624595707079
 30
0.0
 11
-1588.268715457167
 21
922.6124595707075
 31
0.0
  0
LINE
  5
1A01
330
1F
100
AcDbEntity
  8
細線
100
AcDbLine
 10
-1587.885702755276
 20
922.2758570303296
 30
0.0
 11
-1587.835702755276
 21
922.3624595707079
 31
0.0
  0
LINE
  5
1A02
330
1F
100
AcDbEntity
  8
細線
100
AcDbLine
 10
-1588.70172815906
 20
922.8624595707078
 30
0.0
 11
-1588.268715457167
 21
922.6124595707075
 31
0.0
  0
LINE
  5
1A03
330
1F
100
AcDbEntity
  8
細線
100
AcDbLine
 10
-1588.751728159061
 20
922.7758570303294
 30
0.0
 11
-1588.70172815906
 21
922.8624595707078
 31
0.0
  0
ARC
  5
1A04
330
1F
100
AcDbEntity
  8
細線
100
AcDbCircle
 10
-1592.050766264736
 20
920.0617554151918
 30
0.0
 40
1.5
100
AcDbArc
 50
329.9999999999998
 51
60.00000000000236
  0
LINE
  5
1A06
330
1F
100
AcDbEntity
  8
細線
100
AcDbLine
 10
-1587.750062109219
 20
919.3107935208685
 30
0.0
 11
-1587.8366646496
 21
919.3607935208683
 31
0.0
  0
LINE
  5
1A07
330
1F
100
AcDbEntity
  8
細線
100
AcDbLine
 10
-1587.500062109221
 20
919.7438062227606
 30
0.0
 11
-1587.750062109219
 21
919.3107935208685
 31
0.0
  0
LINE
  5
1A08
330
1F
100
AcDbEntity
  8
細線
100
AcDbLine
 10
-1587.25006210922
 20
920.1768189246527
 30
0.0
 11
-1587.336664649598
 21
920.2268189246526
 31
0.0
  0
LINE
  5
1A09
330
1F
100
AcDbEntity
  8
細線
100
AcDbLine
 10
-1587.500062109221
 20
919.7438062227606
 30
0.0
 11
-1587.25006210922
 21
920.1768189246527
 31
0.0
  0
CIRCLE
  5
1A0B
330
1F
100
AcDbEntity
  8
細線
100
AcDbCircle
 10
-1589.318715457168
 20
920.7938062227603
 30
0.0
 40
4.7
  0
ARC
  5
1A0C
330
1F
100
AcDbEntity
  8
細線
100
AcDbCircle
 10
-1588.5866646496
 20
918.0617554151918
 30
0.0
 40
1.5
100
AcDbArc
 50
60.00000000000236
 51
149.9999999999998
  0
ARC
  5
1A0D
330
1F
100
AcDbEntity
  8
細線
100
AcDbCircle
 10
-1586.5866646496
 20
921.5258570303294
 30
0.0
 40
1.5
100
AcDbArc
 50
149.9999999999998
 51
240.000000000003
  0
CIRCLE
  5
1A14
330
1F
100
AcDbEntity
  8
細線
100
AcDbCircle
 10
-1523.448916495343
 20
767.2938062227609
 30
0.0
 40
8.0
  0
CIRCLE
  5
1A15
330
1F
100
AcDbEntity
  8
外形線
100
AcDbCircle
 10
-1523.448916495343
 20
767.2938062227609
 30
0.0
 40
6.400000000000241
  0
CIRCLE
  5
1A1E
330
1F
100
AcDbEntity
  8
外形線
100
AcDbCircle
 10
-1464.870272732655
 20
625.8724499854515
 30
0.0
 40
8.0
  0
CIRCLE
  5
1A1F
330
1F
100
AcDbEntity
  8
外形線
100
AcDbCircle
 10
-1464.870272732655
 20
625.8724499854515
 30
0.0
 40
6.400000000000241
  0
CIRCLE
  5
1A20
330
1F
100
AcDbEntity
  8
外形線
100
AcDbCircle
 10
-1464.870272732654
 20
625.8724499854516
 30
0.0
 40
6.400000000000241
  0
CIRCLE
  5
1A21
330
1F
100
AcDbEntity
  8
細線
100
AcDbCircle
 10
-1464.870272732654
 20
625.8724499854516
 30
0.0
 40
8.0
  0
LINE
  5
1A22
330
1F
100
AcDbEntity
  8
中心線
100
AcDbLine
 10
-1456.001358393606
 20
634.7413643244983
 30
0.0
 11
-1473.739187071702
 21
617.0035356464052
 31
0.0
  0
LINE
  5
1A2A
330
1F
100
AcDbEntity
  8
外形線
100
AcDbLine
 10
-1552.203833072215
 20
721.7916242167111
 30
0.0
 11
-1555.014960449049
 21
724.9971004916408
 31
0.0
  0
LINE
  5
1A2B
330
1F
100
AcDbEntity
  8
外形線
100
AcDbLine
 10
-1553.574293334984
 20
717.7543784449817
 30
0.0
 11
-1557.75588085388
 21
716.9226089721933
 31
0.0
  0
CIRCLE
  5
1A2D
330
1F
100
AcDbEntity
  8
外形線
100
AcDbCircle
 10
-1556.385420591109
 20
720.9598547439227
 30
0.0
 40
8.0
  0
LINE
  5
1A2F
330
1F
100
AcDbEntity
  8
外形線
100
AcDbLine
 10
-1552.203832227231
 20
721.791624384789
 30
0.0
 11
-1553.574292731427
 21
717.7543785650375
 31
0.0
  0
LINE
  5
1A33
330
1F
100
AcDbEntity
  8
外形線
100
AcDbLine
 10
-1560.567008110003
 20
720.1280852711342
 30
0.0
 11
-1559.196547726519
 21
724.1653310668747
 31
0.0
  0
LINE
  5
1A35
330
1F
100
AcDbEntity
  8
外形線
100
AcDbLine
 10
-1555.014960328337
 20
724.9971005156517
 30
0.0
 11
-1559.196547847231
 21
724.1653310428635
 31
0.0
  0
LINE
  5
1A36
330
1F
100
AcDbEntity
  8
外形線
100
AcDbLine
 10
-1557.755881457441
 20
716.9226088521376
 30
0.0
 11
-1560.567008954986
 21
720.1280851030561
 31
0.0
  0
LINE
  5
1A41
330
1F
100
AcDbEntity
  8
細線
100
AcDbLine
 10
-1588.75172815906
 20
611.8117554151912
 30
0.0
 11
-1588.70172815906
 21
611.7251528748131
 31
0.0
  0
LINE
  5
1A42
330
1F
100
AcDbEntity
  8
細線
100
AcDbLine
 10
-1587.835702755275
 20
612.2251528748131
 30
0.0
 11
-1588.268715457167
 21
611.9751528748131
 31
0.0
  0
LINE
  5
1A43
330
1F
100
AcDbEntity
  8
細線
100
AcDbLine
 10
-1588.70172815906
 20
611.7251528748131
 30
0.0
 11
-1588.268715457167
 21
611.9751528748131
 31
0.0
  0
LINE
  5
1A44
330
1F
100
AcDbEntity
  8
細線
100
AcDbLine
 10
-1587.885702755275
 20
612.3117554151916
 30
0.0
 11
-1587.835702755275
 21
612.2251528748131
 31
0.0
  0
LINE
  5
1A45
330
1F
100
AcDbEntity
  8
細線
100
AcDbLine
 10
-1591.137368805115
 20
612.7438062227606
 30
0.0
 11
-1590.887368805115
 21
612.3107935208682
 31
0.0
  0
LINE
  5
1A46
330
1F
100
AcDbEntity
  8
細線
100
AcDbLine
 10
-1590.887368805115
 20
612.3107935208682
 30
0.0
 11
-1590.800766264736
 21
612.3607935208682
 31
0.0
  0
LINE
  5
1A47
330
1F
100
AcDbEntity
  8
細線
100
AcDbLine
 10
-1591.387368805115
 20
613.1768189246528
 30
0.0
 11
-1591.300766264736
 21
613.2268189246526
 31
0.0
  0
LINE
  5
1A48
330
1F
100
AcDbEntity
  8
細線
100
AcDbLine
 10
-1591.137368805115
 20
612.7438062227606
 30
0.0
 11
-1591.387368805115
 21
613.1768189246528
 31
0.0
  0
ARC
  5
1A49
330
1F
100
AcDbEntity
  8
細線
100
AcDbCircle
 10
-1592.050766264736
 20
614.525857030329
 30
0.0
 40
1.5
100
AcDbArc
 50
299.9999999999976
 51
30.00000000000013
  0
LINE
  5
1A4A
330
1F
100
AcDbEntity
  8
細線
100
AcDbLine
 10
-1589.935702755274
 20
615.8624595707077
 30
0.0
 11
-1590.368715457167
 21
615.6124595707077
 31
0.0
  0
LINE
  5
1A4B
330
1F
100
AcDbEntity
  8
細線
100
AcDbLine
 10
-1589.885702755275
 20
615.7758570303292
 30
0.0
 11
-1589.935702755274
 21
615.8624595707077
 31
0.0
  0
LINE
  5
1A4C
330
1F
100
AcDbEntity
  8
細線
100
AcDbLine
 10
-1590.80172815906
 20
615.3624595707078
 30
0.0
 11
-1590.368715457167
 21
615.6124595707077
 31
0.0
  0
LINE
  5
1A4D
330
1F
100
AcDbEntity
  8
細線
100
AcDbLine
 10
-1590.75172815906
 20
615.2758570303292
 30
0.0
 11
-1590.80172815906
 21
615.3624595707078
 31
0.0
  0
ARC
  5
1A4E
330
1F
100
AcDbEntity
  8
細線
100
AcDbCircle
 10
-1590.050766264736
 20
611.0617554151912
 30
0.0
 40
1.5
100
AcDbArc
 50
30.00000000000013
 51
119.9999999999967
  0
LINE
  5
1A50
330
1F
100
AcDbEntity
  8
細線
100
AcDbLine
 10
-1587.25006210922
 20
614.4107935208682
 30
0.0
 11
-1587.336664649598
 21
614.3607935208684
 31
0.0
  0
LINE
  5
1A51
330
1F
100
AcDbEntity
  8
細線
100
AcDbLine
 10
-1587.50006210922
 20
614.8438062227604
 30
0.0
 11
-1587.25006210922
 21
614.4107935208682
 31
0.0
  0
LINE
  5
1A52
330
1F
100
AcDbEntity
  8
細線
100
AcDbLine
 10
-1587.750062109219
 20
615.2768189246526
 30
0.0
 11
-1587.836664649599
 21
615.2268189246528
 31
0.0
  0
LINE
  5
1A53
330
1F
100
AcDbEntity
  8
細線
100
AcDbLine
 10
-1587.50006210922
 20
614.8438062227604
 30
0.0
 11
-1587.750062109219
 21
615.2768189246526
 31
0.0
  0
CIRCLE
  5
1A55
330
1F
100
AcDbEntity
  8
細線
100
AcDbCircle
 10
-1589.318715457168
 20
613.7938062227602
 30
0.0
 40
4.7
  0
ARC
  5
1A56
330
1F
100
AcDbEntity
  8
細線
100
AcDbCircle
 10
-1586.586664649598
 20
613.0617554151911
 30
0.0
 40
1.5
100
AcDbArc
 50
119.9999999999967
 51
210.0
  0
ARC
  5
1A57
330
1F
100
AcDbEntity
  8
細線
100
AcDbCircle
 10
-1588.586664649599
 20
616.5258570303291
 30
0.0
 40
1.5
100
AcDbArc
 50
210.0
 51
299.9999999999976
  0
LINE
  5
1A59
330
1F
100
AcDbEntity
  8
細線
100
AcDbLine
 10
-1629.948916495346
 20
765.2938062227605
 30
0.0
 11
-1629.948916495346
 21
765.1938062227602
 31
0.0
  0
LINE
  5
1A5A
330
1F
100
AcDbEntity
  8
細線
100
AcDbLine
 10
-1630.948916495344
 20
765.1938062227602
 30
0.0
 11
-1630.448916495343
 21
765.1938062227602
 31
0.0
  0
LINE
  5
1A5B
330
1F
100
AcDbEntity
  8
細線
100
AcDbLine
 10
-1629.948916495346
 20
765.1938062227602
 30
0.0
 11
-1630.448916495343
 21
765.1938062227602
 31
0.0
  0
LINE
  5
1A5C
330
1F
100
AcDbEntity
  8
細線
100
AcDbLine
 10
-1630.948916495344
 20
765.2938062227605
 30
0.0
 11
-1630.948916495344
 21
765.1938062227602
 31
0.0
  0
LINE
  5
1A5D
330
1F
100
AcDbEntity
  8
細線
100
AcDbLine
 10
-1632.548916495346
 20
766.7938062227606
 30
0.0
 11
-1632.448916495343
 21
766.7938062227606
 31
0.0
  0
LINE
  5
1A5E
330
1F
100
AcDbEntity
  8
細線
100
AcDbLine
 10
-1632.548916495346
 20
767.2938062227606
 30
0.0
 11
-1632.548916495346
 21
766.7938062227606
 31
0.0
  0
LINE
  5
1A5F
330
1F
100
AcDbEntity
  8
細線
100
AcDbLine
 10
-1632.548916495346
 20
767.2938062227606
 30
0.0
 11
-1632.548916495346
 21
767.7938062227606
 31
0.0
  0
LINE
  5
1A60
330
1F
100
AcDbEntity
  8
細線
100
AcDbLine
 10
-1632.548916495346
 20
767.7938062227606
 30
0.0
 11
-1632.448916495343
 21
767.7938062227606
 31
0.0
  0
LINE
  5
1A61
330
1F
100
AcDbEntity
  8
細線
100
AcDbLine
 10
-1628.348916495346
 20
767.2938062227606
 30
0.0
 11
-1628.348916495346
 21
766.7938062227606
 31
0.0
  0
LINE
  5
1A62
330
1F
100
AcDbEntity
  8
細線
100
AcDbLine
 10
-1628.348916495346
 20
766.7938062227606
 30
0.0
 11
-1628.448916495345
 21
766.7938062227606
 31
0.0
  0
LINE
  5
1A63
330
1F
100
AcDbEntity
  8
細線
100
AcDbLine
 10
-1628.348916495346
 20
767.7938062227606
 30
0.0
 11
-1628.448916495345
 21
767.7938062227606
 31
0.0
  0
LINE
  5
1A64
330
1F
100
AcDbEntity
  8
細線
100
AcDbLine
 10
-1628.348916495346
 20
767.2938062227606
 30
0.0
 11
-1628.348916495346
 21
767.7938062227606
 31
0.0
  0
LINE
  5
1A65
330
1F
100
AcDbEntity
  8
細線
100
AcDbLine
 10
-1630.948916495344
 20
769.2938062227606
 30
0.0
 11
-1630.948916495344
 21
769.3938062227602
 31
0.0
  0
LINE
  5
1A66
330
1F
100
AcDbEntity
  8
細線
100
AcDbLine
 10
-1630.948916495344
 20
769.3938062227602
 30
0.0
 11
-1630.448916495343
 21
769.3938062227602
 31
0.0
  0
LINE
  5
1A67
330
1F
100
AcDbEntity
  8
細線
100
AcDbLine
 10
-1629.948916495346
 20
769.2938062227606
 30
0.0
 11
-1629.948916495346
 21
769.3938062227602
 31
0.0
  0
LINE
  5
1A68
330
1F
100
AcDbEntity
  8
細線
100
AcDbLine
 10
-1629.948916495346
 20
769.3938062227602
 30
0.0
 11
-1630.448916495343
 21
769.3938062227602
 31
0.0
  0
ARC
  5
1A69
330
1F
100
AcDbEntity
  8
細線
100
AcDbCircle
 10
-1628.448916495345
 20
769.2938062227606
 30
0.0
 40
1.5
100
AcDbArc
 50
180.0
 51
270.0
  0
ARC
  5
1A6A
330
1F
100
AcDbEntity
  8
細線
100
AcDbCircle
 10
-1632.448916495343
 20
769.2938062227606
 30
0.0
 40
1.5
100
AcDbArc
 50
270.0
 51
0.0
  0
CIRCLE
  5
1A6C
330
1F
100
AcDbEntity
  8
細線
100
AcDbCircle
 10
-1630.448916495343
 20
767.2938062227606
 30
0.0
 40
4.7
  0
ARC
  5
1A6D
330
1F
100
AcDbEntity
  8
細線
100
AcDbCircle
 10
-1628.448916495345
 20
765.2938062227605
 30
0.0
 40
1.5
100
AcDbArc
 50
90.0
 51
180.0
  0
ARC
  5
1A6E
330
1F
100
AcDbEntity
  8
細線
100
AcDbCircle
 10
-1632.448916495343
 20
765.2938062227605
 30
0.0
 40
1.5
100
AcDbArc
 50
0.0
 51
90.0
  0
CIRCLE
  5
1A70
330
1F
100
AcDbEntity
  8
細線
100
AcDbCircle
 10
-1476.948916495342
 20
501.4240072609378
 30
0.0
 40
4.7
  0
LINE
  5
1A71
330
1F
100
AcDbEntity
  8
細線
100
AcDbLine
 10
-1475.466865687776
 20
499.9909945590457
 30
0.0
 11
-1475.380263147395
 21
499.9409945590456
 31
0.0
  0
LINE
  5
1A72
330
1F
100
AcDbEntity
  8
細線
100
AcDbLine
 10
-1474.880263147396
 20
500.8070199628298
 30
0.0
 11
-1475.130263147397
 21
500.3740072609376
 31
0.0
  0
LINE
  5
1A73
330
1F
100
AcDbEntity
  8
細線
100
AcDbLine
 10
-1475.380263147395
 20
499.9409945590456
 30
0.0
 11
-1475.130263147397
 21
500.3740072609376
 31
0.0
  0
LINE
  5
1A74
330
1F
100
AcDbEntity
  8
細線
100
AcDbLine
 10
-1474.966865687775
 20
500.8570199628299
 30
0.0
 11
-1474.880263147396
 21
500.8070199628298
 31
0.0
  0
LINE
  5
1A75
330
1F
100
AcDbEntity
  8
細線
100
AcDbLine
 10
-1477.998916495343
 20
499.6053539129905
 30
0.0
 11
-1477.565903793452
 21
499.3553539129903
 31
0.0
  0
LINE
  5
1A76
330
1F
100
AcDbEntity
  8
細線
100
AcDbLine
 10
-1477.565903793452
 20
499.3553539129903
 30
0.0
 11
-1477.515903793452
 21
499.4419564533688
 31
0.0
  0
LINE
  5
1A77
330
1F
100
AcDbEntity
  8
細線
100
AcDbLine
 10
-1478.431929197236
 20
499.8553539129905
 30
0.0
 11
-1478.381929197237
 21
499.9419564533688
 31
0.0
  0
LINE
  5
1A78
330
1F
100
AcDbEntity
  8
細線
100
AcDbLine
 10
-1477.998916495343
 20
499.6053539129905
 30
0.0
 11
-1478.431929197236
 21
499.8553539129905
 31
0.0
  0
ARC
  5
1A79
330
1F
100
AcDbEntity
  8
細線
100
AcDbCircle
 10
-1479.680967302912
 20
500.6919564533689
 30
0.0
 40
1.5
100
AcDbArc
 50
329.9999999999998
 51
60.00000000000236
  0
LINE
  5
1A7A
330
1F
100
AcDbEntity
  8
細線
100
AcDbLine
 10
-1478.517569843292
 20
502.9070199628302
 30
0.0
 11
-1478.767569843292
 21
502.4740072609378
 31
0.0
  0
LINE
  5
1A7B
330
1F
100
AcDbEntity
  8
細線
100
AcDbLine
 10
-1478.430967302912
 20
502.8570199628298
 30
0.0
 11
-1478.517569843292
 21
502.9070199628302
 31
0.0
  0
LINE
  5
1A7C
330
1F
100
AcDbEntity
  8
細線
100
AcDbLine
 10
-1479.017569843292
 20
502.0409945590459
 30
0.0
 11
-1478.767569843292
 21
502.4740072609378
 31
0.0
  0
LINE
  5
1A7D
330
1F
100
AcDbEntity
  8
細線
100
AcDbLine
 10
-1478.930967302912
 20
501.9909945590456
 30
0.0
 11
-1479.017569843292
 21
502.0409945590459
 31
0.0
  0
ARC
  5
1A7E
330
1F
100
AcDbEntity
  8
細線
100
AcDbCircle
 10
-1476.216865687776
 20
498.691956453369
 30
0.0
 40
1.5
100
AcDbArc
 50
60.00000000000236
 51
149.9999999999998
  0
LINE
  5
1A80
330
1F
100
AcDbEntity
  8
細線
100
AcDbLine
 10
-1475.465903793453
 20
502.9926606088849
 30
0.0
 11
-1475.515903793452
 21
502.9060580685067
 31
0.0
  0
LINE
  5
1A81
330
1F
100
AcDbEntity
  8
細線
100
AcDbLine
 10
-1475.898916495343
 20
503.242660608885
 30
0.0
 11
-1475.465903793453
 21
502.9926606088849
 31
0.0
  0
LINE
  5
1A82
330
1F
100
AcDbEntity
  8
細線
100
AcDbLine
 10
-1476.331929197236
 20
503.4926606088848
 30
0.0
 11
-1476.381929197237
 21
503.4060580685067
 31
0.0
  0
LINE
  5
1A83
330
1F
100
AcDbEntity
  8
細線
100
AcDbLine
 10
-1475.898916495343
 20
503.242660608885
 30
0.0
 11
-1476.331929197236
 21
503.4926606088848
 31
0.0
  0
ARC
  5
1A84
330
1F
100
AcDbEntity
  8
細線
100
AcDbCircle
 10
-1474.216865687774
 20
502.1560580685067
 30
0.0
 40
1.5
100
AcDbArc
 50
149.9999999999998
 51
240.000000000003
  0
ARC
  5
1A85
330
1F
100
AcDbEntity
  8
細線
100
AcDbCircle
 10
-1477.680967302912
 20
504.1560580685066
 30
0.0
 40
1.5
100
AcDbArc
 50
240.000000000003
 51
329.9999999999998
  0
LINE
  5
204A
330
1F
100
AcDbEntity
  8
中心線
100
AcDbLine
 10
-1190.896474597082
 20
634.7413643244987
 30
0.0
 11
-1173.158645918989
 21
617.0035356464043
 31
0.0
  0
LINE
  5
204B
330
1F
100
AcDbEntity
  8
中心線
100
AcDbLine
 10
-1190.896474597082
 20
899.8462481210241
 30
0.0
 11
-1173.158645918988
 21
917.5840767991173
 31
0.0
  0
LINE
  5
204C
330
1F
100
AcDbEntity
  8
中心線
100
AcDbLine
 10
-1456.001358393608
 20
899.8462481210237
 30
0.0
 11
-1473.739187071701
 21
917.5840767991182
 31
0.0
  0
CIRCLE
  5
23A2
330
1F
100
AcDbEntity
  8
外形線
100
AcDbCircle
 10
-1520.922949417194
 20
635.3458758805992
 30
0.0
 40
8.0
  0
LINE
  5
23A5
330
1F
100
AcDbEntity
  8
外形線
100
AcDbLine
 10
-1521.201796299526
 20
639.6002570540952
 30
0.0
 11
-1524.746775024853
 21
637.2315779979531
 31
0.0
  0
LINE
  5
23A6
330
1F
100
AcDbEntity
  8
外形線
100
AcDbLine
 10
-1517.099123809534
 20
633.4601737632453
 30
0.0
 11
-1520.644102534862
 21
631.0914947071032
 31
0.0
  0
LINE
  5
23A7
330
1F
100
AcDbEntity
  8
外形線
100
AcDbLine
 10
-1517.37796997552
 20
637.7145554153869
 30
0.0
 11
-1517.099123297861
 21
633.4601741051351
 31
0.0
  0
LINE
  5
23A8
330
1F
100
AcDbEntity
  8
外形線
100
AcDbLine
 10
-1517.377970691866
 20
637.7145549367416
 30
0.0
 11
-1521.20179640186
 21
639.6002569857174
 31
0.0
  0
LINE
  5
23A9
330
1F
100
AcDbEntity
  8
外形線
100
AcDbLine
 10
-1524.467928142521
 20
632.9771968244569
 30
0.0
 11
-1524.746774922518
 21
637.2315780663305
 31
0.0
  0
LINE
  5
23AA
330
1F
100
AcDbEntity
  8
外形線
100
AcDbLine
 10
-1520.644103046535
 20
631.0914943652139
 30
0.0
 11
-1524.467928858864
 21
632.977196345812
 31
0.0
  0
CIRCLE
  5
23AC
330
1F
100
AcDbEntity
  8
外形線
100
AcDbCircle
 10
-1455.396846837493
 20
569.8197733009029
 30
0.0
 40
8.0
  0
LINE
  5
23AF
330
1F
100
AcDbEntity
  8
外形線
100
AcDbLine
 10
-1457.282548954847
 20
573.6435989085621
 30
0.0
 11
-1459.651228010987
 21
570.0986201832347
 31
0.0
  0
LINE
  5
23B0
330
1F
100
AcDbEntity
  8
外形線
100
AcDbLine
 10
-1451.142465663997
 20
569.5409264185712
 30
0.0
 11
-1453.511144720138
 21
565.995947693244
 31
0.0
  0
LINE
  5
23B1
330
1F
100
AcDbEntity
  8
外形線
100
AcDbLine
 10
-1453.028167302703
 20
573.3647527425741
 30
0.0
 11
-1451.142465322107
 21
569.5409269302452
 31
0.0
  0
LINE
  5
23B2
330
1F
100
AcDbEntity
  8
外形線
100
AcDbLine
 10
-1453.02816778135
 20
573.3647520262308
 30
0.0
 11
-1457.282549023224
 21
573.6435988062273
 31
0.0
  0
LINE
  5
23B3
330
1F
100
AcDbEntity
  8
外形線
100
AcDbLine
 10
-1457.765525893635
 20
566.2747945755755
 30
0.0
 11
-1459.651227942611
 21
570.0986202855695
 31
0.0
  0
LINE
  5
23B4
330
1F
100
AcDbEntity
  8
外形線
100
AcDbLine
 10
-1453.511145062027
 20
565.9959471815702
 30
0.0
 11
-1457.76552637228
 21
566.2747938592326
 31
0.0
  0
CIRCLE
  5
23B6
330
1F
100
AcDbEntity
  8
外形線
100
AcDbCircle
 10
-1369.782867974167
 20
534.3573021269934
 30
0.0
 40
8.0
  0
LINE
  5
23B9
330
1F
100
AcDbEntity
  8
外形線
100
AcDbLine
 10
-1372.988344273108
 20
537.1684293831151
 30
0.0
 11
-1373.820113745896
 21
532.9868418642213
 31
0.0
  0
LINE
  5
23BA
330
1F
100
AcDbEntity
  8
外形線
100
AcDbLine
 10
-1365.745622202437
 20
535.7277623897653
 30
0.0
 11
-1366.577391675225
 21
531.5461748708717
 31
0.0
  0
LINE
  5
23BB
330
1F
100
AcDbEntity
  8
外形線
100
AcDbLine
 10
-1368.951098333301
 20
538.5388904908721
 30
0.0
 11
-1365.745622082382
 21
535.7277629933255
 31
0.0
  0
LINE
  5
23BC
330
1F
100
AcDbEntity
  8
外形線
100
AcDbLine
 10
-1368.951098501378
 20
538.5388896458874
 30
0.0
 11
-1372.988344297118
 21
537.1684292624033
 31
0.0
  0
LINE
  5
23BD
330
1F
100
AcDbEntity
  8
外形線
100
AcDbLine
 10
-1370.614637446954
 20
530.1757146080997
 30
0.0
 11
-1373.820113721885
 21
532.9868419849336
 31
0.0
  0
LINE
  5
23BE
330
1F
100
AcDbEntity
  8
外形線
100
AcDbLine
 10
-1366.577391795281
 20
531.5461742673114
 30
0.0
 11
-1370.614637615032
 21
530.1757137631151
 31
0.0
  0
CIRCLE
  5
23C0
330
1F
100
AcDbEntity
  8
外形線
100
AcDbCircle
 10
-1277.114965016507
 20
534.3573021269967
 30
0.0
 40
8.0
  0
LINE
  5
23C3
330
1F
100
AcDbEntity
  8
外形線
100
AcDbLine
 10
-1281.152210788236
 20
535.7277623897685
 30
0.0
 11
-1280.320441315446
 21
531.5461748708749
 31
0.0
  0
LINE
  5
23C4
330
1F
100
AcDbEntity
  8
外形線
100
AcDbLine
 10
-1273.909488717565
 20
537.1684293831186
 30
0.0
 11
-1273.077719244777
 21
532.986841864225
 31
0.0
  0
LINE
  5
23C5
330
1F
100
AcDbEntity
  8
外形線
100
AcDbLine
 10
-1277.946734657373
 20
538.5388904908751
 30
0.0
 11
-1273.909488837621
 21
537.1684299866788
 31
0.0
  0
LINE
  5
23C6
330
1F
100
AcDbEntity
  8
外形線
100
AcDbLine
 10
-1277.946734489295
 20
538.5388896458906
 30
0.0
 11
-1281.152210764224
 21
535.7277622690568
 31
0.0
  0
LINE
  5
23C7
330
1F
100
AcDbEntity
  8
外形線
100
AcDbLine
 10
-1276.283195543718
 20
530.1757146081031
 30
0.0
 11
-1280.320441339458
 21
531.5461749915868
 31
0.0
  0
LINE
  5
23C8
330
1F
100
AcDbEntity
  8
外形線
100
AcDbLine
 10
-1273.077719124722
 20
532.9868412606646
 30
0.0
 11
-1276.28319537564
 21
530.1757137631185
 31
0.0
  0
CIRCLE
  5
23CA
330
1F
100
AcDbEntity
  8
外形線
100
AcDbCircle
 10
-1191.500986153183
 20
569.8197733009123
 30
0.0
 40
8.0
  0
LINE
  5
23CD
330
1F
100
AcDbEntity
  8
外形線
100
AcDbLine
 10
-1195.755367326678
 20
569.5409264185804
 30
0.0
 11
-1193.386688270537
 21
565.9959476932532
 31
0.0
  0
LINE
  5
23CE
330
1F
100
AcDbEntity
  8
外形線
100
AcDbLine
 10
-1189.615284035829
 20
573.6435989085716
 30
0.0
 11
-1187.246604979687
 21
570.0986201832442
 31
0.0
  0
LINE
  5
23CF
330
1F
100
AcDbEntity
  8
外形線
100
AcDbLine
 10
-1193.869665687969
 20
573.3647527425834
 30
0.0
 11
-1189.615284377719
 21
573.6435994202452
 31
0.0
  0
LINE
  5
23D0
330
1F
100
AcDbEntity
  8
外形線
100
AcDbLine
 10
-1193.869665209325
 20
573.3647520262402
 30
0.0
 11
-1195.755367258301
 21
569.5409263162462
 31
0.0
  0
LINE
  5
23D1
330
1F
100
AcDbEntity
  8
外形線
100
AcDbLine
 10
-1189.13230709704
 20
566.2747945755852
 30
0.0
 11
-1193.386688338913
 21
565.9959477955879
 31
0.0
  0
LINE
  5
23D2
330
1F
100
AcDbEntity
  8
外形線
100
AcDbLine
 10
-1187.246604637796
 20
570.0986196715708
 30
0.0
 11
-1189.132306618396
 21
566.274793859242
 31
0.0
  0
CIRCLE
  5
23D4
330
1F
100
AcDbEntity
  8
外形線
100
AcDbCircle
 10
-1125.974883573487
 20
635.3458758806131
 30
0.0
 40
8.0
  0
LINE
  5
23D7
330
1F
100
AcDbEntity
  8
外形線
100
AcDbLine
 10
-1129.798709181146
 20
633.4601737632594
 30
0.0
 11
-1126.253730455818
 21
631.0914947071172
 31
0.0
  0
LINE
  5
23D8
330
1F
100
AcDbEntity
  8
外形線
100
AcDbLine
 10
-1125.696036691155
 20
639.6002570541091
 30
0.0
 11
-1122.151057965828
 21
637.2315779979672
 31
0.0
  0
LINE
  5
23D9
330
1F
100
AcDbEntity
  8
外形線
100
AcDbLine
 10
-1129.519863015157
 20
637.7145554154008
 30
0.0
 11
-1125.696037202829
 21
639.6002573959982
 31
0.0
  0
LINE
  5
23DA
330
1F
100
AcDbEntity
  8
外形線
100
AcDbLine
 10
-1129.519862298811
 20
637.7145549367558
 30
0.0
 11
-1129.798709078811
 21
633.4601736948817
 31
0.0
  0
LINE
  5
23DB
330
1F
100
AcDbEntity
  8
外形線
100
AcDbLine
 10
-1122.429904848159
 20
632.9771968244713
 30
0.0
 11
-1126.253730558153
 21
631.0914947754951
 31
0.0
  0
LINE
  5
23DC
330
1F
100
AcDbEntity
  8
外形線
100
AcDbLine
 10
-1122.151057454153
 20
637.2315776560777
 30
0.0
 11
-1122.429904131813
 21
632.9771963458257
 31
0.0
  0
CIRCLE
  5
23DE
330
1F
100
AcDbEntity
  8
外形線
100
AcDbCircle
 10
-1090.512412399577
 20
720.9598547439391
 30
0.0
 40
8.0
  0
LINE
  5
23E1
330
1F
100
AcDbEntity
  8
外形線
100
AcDbLine
 10
-1093.323539655699
 20
717.7543784449983
 30
0.0
 11
-1089.141952136805
 21
716.9226089722099
 31
0.0
  0
LINE
  5
23E2
330
1F
100
AcDbEntity
  8
外形線
100
AcDbLine
 10
-1091.882872662349
 20
724.9971005156685
 30
0.0
 11
-1087.701285143455
 21
724.1653310428802
 31
0.0
  0
LINE
  5
23E3
330
1F
100
AcDbEntity
  8
外形線
100
AcDbLine
 10
-1094.694000763456
 20
721.7916243848054
 30
0.0
 11
-1091.882873265909
 21
724.9971006357237
 31
0.0
  0
LINE
  5
23E4
330
1F
100
AcDbEntity
  8
外形線
100
AcDbLine
 10
-1094.693999918471
 20
721.7916242167278
 30
0.0
 11
-1093.323539534986
 21
717.7543784209874
 31
0.0
  0
LINE
  5
23E5
330
1F
100
AcDbEntity
  8
外形線
100
AcDbLine
 10
-1086.330824880682
 20
720.1280852711508
 30
0.0
 11
-1089.141952257516
 21
716.922608996221
 31
0.0
  0
LINE
  5
23E6
330
1F
100
AcDbEntity
  8
外形線
100
AcDbLine
 10
-1087.701284539894
 20
724.1653309228245
 30
0.0
 11
-1086.330824035699
 21
720.128085103073
 31
0.0
  0
CIRCLE
  5
23E8
330
1F
100
AcDbEntity
  8
外形線
100
AcDbCircle
 10
-1090.51241239958
 20
813.6277577015993
 30
0.0
 40
8.0
  0
LINE
  5
23EB
330
1F
100
AcDbEntity
  8
外形線
100
AcDbLine
 10
-1091.882872662351
 20
809.5905119298702
 30
0.0
 11
-1087.701285143459
 21
810.4222814026586
 31
0.0
  0
LINE
  5
23EC
330
1F
100
AcDbEntity
  8
外形線
100
AcDbLine
 10
-1093.323539655701
 20
816.8332340005406
 30
0.0
 11
-1089.141952136807
 21
817.665003473329
 31
0.0
  0
LINE
  5
23ED
330
1F
100
AcDbEntity
  8
外形線
100
AcDbLine
 10
-1094.694000763458
 20
812.7959880607331
 30
0.0
 11
-1093.323540259262
 21
816.8332338804846
 31
0.0
  0
LINE
  5
23EE
330
1F
100
AcDbEntity
  8
外形線
100
AcDbLine
 10
-1094.693999918475
 20
812.7959882288111
 30
0.0
 11
-1091.88287254164
 21
809.5905119538816
 31
0.0
  0
LINE
  5
23EF
330
1F
100
AcDbEntity
  8
外形線
100
AcDbLine
 10
-1086.330824880687
 20
814.4595271743881
 30
0.0
 11
-1087.701285264167
 21
810.4222813786476
 31
0.0
  0
LINE
  5
23F0
330
1F
100
AcDbEntity
  8
外形線
100
AcDbLine
 10
-1089.141951533249
 20
817.6650035933844
 30
0.0
 11
-1086.330824035703
 21
814.4595273424657
 31
0.0
  0
CIRCLE
  5
23F2
330
1F
100
AcDbEntity
  8
外形線
100
AcDbCircle
 10
-1125.974883573495
 20
899.2417365649227
 30
0.0
 40
8.0
  0
LINE
  5
23F5
330
1F
100
AcDbEntity
  8
外形線
100
AcDbLine
 10
-1125.696036691164
 20
894.9873553914272
 30
0.0
 11
-1122.151057965836
 21
897.3560344475695
 31
0.0
  0
LINE
  5
23F6
330
1F
100
AcDbEntity
  8
外形線
100
AcDbLine
 10
-1129.798709181154
 20
901.1274386822767
 30
0.0
 11
-1126.253730455827
 21
903.4961177384191
 31
0.0
  0
LINE
  5
23F7
330
1F
100
AcDbEntity
  8
外形線
100
AcDbLine
 10
-1129.519863015167
 20
896.8730570301355
 30
0.0
 11
-1129.798709692827
 21
901.1274383403872
 31
0.0
  0
LINE
  5
23F8
330
1F
100
AcDbEntity
  8
外形線
100
AcDbLine
 10
-1129.519862298824
 20
896.8730575087807
 30
0.0
 11
-1125.69603658883
 21
894.9873554598051
 31
0.0
  0
LINE
  5
23F9
330
1F
100
AcDbEntity
  8
外形線
100
AcDbLine
 10
-1122.429904848168
 20
901.6104156210653
 30
0.0
 11
-1122.151058068171
 21
897.3560343791914
 31
0.0
  0
LINE
  5
23FA
330
1F
100
AcDbEntity
  8
外形線
100
AcDbLine
 10
-1126.253729944153
 20
903.4961180803083
 30
0.0
 11
-1122.429904131826
 21
901.6104160997103
 31
0.0
  0
CIRCLE
  5
23FC
330
1F
100
AcDbEntity
  8
外形線
100
AcDbCircle
 10
-1191.500986153195
 20
964.767839144619
 30
0.0
 40
8.0
  0
LINE
  5
23FF
330
1F
100
AcDbEntity
  8
外形線
100
AcDbLine
 10
-1189.615284035843
 20
960.9440135369602
 30
0.0
 11
-1187.246604979701
 21
964.4889922622878
 31
0.0
  0
LINE
  5
2400
330
1F
100
AcDbEntity
  8
外形線
100
AcDbLine
 10
-1195.755367326692
 20
965.0466860269514
 30
0.0
 11
-1193.386688270551
 21
968.5916647522784
 31
0.0
  0
LINE
  5
2401
330
1F
100
AcDbEntity
  8
外形線
100
AcDbLine
 10
-1193.869665687985
 20
961.2228597029483
 30
0.0
 11
-1195.755367668582
 21
965.0466855152775
 31
0.0
  0
LINE
  5
2402
330
1F
100
AcDbEntity
  8
外形線
100
AcDbLine
 10
-1193.869665209339
 20
961.2228604192917
 30
0.0
 11
-1189.615283967466
 21
960.9440136392947
 31
0.0
  0
LINE
  5
2403
330
1F
100
AcDbEntity
  8
外形線
100
AcDbLine
 10
-1189.132307097054
 20
968.3128178699467
 30
0.0
 11
-1187.246605048079
 21
964.4889921599526
 31
0.0
  0
LINE
  5
2404
330
1F
100
AcDbEntity
  8
外形線
100
AcDbLine
 10
-1193.386687928661
 20
968.5916652639519
 30
0.0
 11
-1189.13230661841
 21
968.3128185862898
 31
0.0
  0
CIRCLE
  5
2406
330
1F
100
AcDbEntity
  8
外形線
100
AcDbCircle
 10
-1277.114965016522
 20
1000.230310318529
 30
0.0
 40
8.0
  0
LINE
  5
2409
330
1F
100
AcDbEntity
  8
外形線
100
AcDbLine
 10
-1273.909488717582
 20
997.4191830624077
 30
0.0
 11
-1273.077719244793
 21
1001.600770581301
 31
0.0
  0
LINE
  5
240A
330
1F
100
AcDbEntity
  8
外形線
100
AcDbLine
 10
-1281.152210788252
 20
998.859850055757
 30
0.0
 11
-1280.320441315464
 21
1003.041437574651
 31
0.0
  0
LINE
  5
240B
330
1F
100
AcDbEntity
  8
外形線
100
AcDbLine
 10
-1277.946734657389
 20
996.0487219546504
 30
0.0
 11
-1281.152210908308
 21
998.8598494521967
 31
0.0
  0
LINE
  5
240C
330
1F
100
AcDbEntity
  8
外形線
100
AcDbLine
 10
-1277.946734489311
 20
996.0487227996352
 30
0.0
 11
-1273.909488693571
 21
997.4191831831188
 31
0.0
  0
LINE
  5
240D
330
1F
100
AcDbEntity
  8
外形線
100
AcDbLine
 10
-1276.283195543735
 20
1004.411897837422
 30
0.0
 11
-1273.077719268805
 21
1001.600770460589
 31
0.0
  0
LINE
  5
240E
330
1F
100
AcDbEntity
  8
外形線
100
AcDbLine
 10
-1280.320441195408
 20
1003.04143817821
 30
0.0
 11
-1276.283195375657
 21
1004.411898682403
 31
0.0
  0
CIRCLE
  5
2410
330
1F
100
AcDbEntity
  8
外形線
100
AcDbCircle
 10
-1369.782867974183
 20
1000.230310318525
 30
0.0
 40
8.0
  0
LINE
  5
2413
330
1F
100
AcDbEntity
  8
外形線
100
AcDbLine
 10
-1365.745622202454
 20
998.8598500557539
 30
0.0
 11
-1366.577391675243
 21
1003.041437574647
 31
0.0
  0
LINE
  5
2414
330
1F
100
AcDbEntity
  8
外形線
100
AcDbLine
 10
-1372.988344273124
 20
997.4191830624036
 30
0.0
 11
-1373.820113745913
 21
1001.600770581297
 31
0.0
  0
LINE
  5
2415
330
1F
100
AcDbEntity
  8
外形線
100
AcDbLine
 10
-1368.951098333315
 20
996.0487219546472
 30
0.0
 11
-1372.988344153067
 21
997.4191824588437
 31
0.0
  0
LINE
  5
2416
330
1F
100
AcDbEntity
  8
外形線
100
AcDbLine
 10
-1368.951098501395
 20
996.0487227996315
 30
0.0
 11
-1365.745622226465
 21
998.8598501764654
 31
0.0
  0
LINE
  5
2417
330
1F
100
AcDbEntity
  8
外形線
100
AcDbLine
 10
-1370.614637446972
 20
1004.411897837419
 30
0.0
 11
-1366.57739165123
 21
1003.041437453934
 31
0.0
  0
LINE
  5
2418
330
1F
100
AcDbEntity
  8
外形線
100
AcDbLine
 10
-1373.820113865968
 20
1001.600771184857
 30
0.0
 11
-1370.614637615048
 21
1004.411898682403
 31
0.0
  0
CIRCLE
  5
241A
330
1F
100
AcDbEntity
  8
外形線
100
AcDbCircle
 10
-1455.396846837506
 20
964.7678391446104
 30
0.0
 40
8.0
  0
LINE
  5
241D
330
1F
100
AcDbEntity
  8
外形線
100
AcDbLine
 10
-1451.142465664011
 20
965.0466860269425
 30
0.0
 11
-1453.511144720152
 21
968.5916647522695
 31
0.0
  0
LINE
  5
241E
330
1F
100
AcDbEntity
  8
外形線
100
AcDbLine
 10
-1457.28254895486
 20
960.9440135369512
 30
0.0
 11
-1459.651228011002
 21
964.4889922622782
 31
0.0
  0
LINE
  5
241F
330
1F
100
AcDbEntity
  8
外形線
100
AcDbLine
 10
-1453.028167302719
 20
961.2228597029393
 30
0.0
 11
-1457.282548612971
 21
960.9440130252774
 31
0.0
  0
LINE
  5
2420
330
1F
100
AcDbEntity
  8
外形線
100
AcDbLine
 10
-1453.028167781364
 20
961.2228604192823
 30
0.0
 11
-1451.142465732389
 21
965.0466861292764
 31
0.0
  0
LINE
  5
2421
330
1F
100
AcDbEntity
  8
外形線
100
AcDbLine
 10
-1457.765525893649
 20
968.3128178699375
 30
0.0
 11
-1453.511144651774
 21
968.5916646499347
 31
0.0
  0
LINE
  5
2422
330
1F
100
AcDbEntity
  8
外形線
100
AcDbLine
 10
-1459.651228352892
 20
964.4889927739521
 30
0.0
 11
-1457.765526372294
 21
968.3128185862809
 31
0.0
  0
CIRCLE
  5
2424
330
1F
100
AcDbEntity
  8
外形線
100
AcDbCircle
 10
-1520.922949417203
 20
899.2417365649096
 30
0.0
 40
8.0
  0
LINE
  5
2427
330
1F
100
AcDbEntity
  8
外形線
100
AcDbLine
 10
-1517.099123809544
 20
901.1274386822632
 30
0.0
 11
-1520.644102534871
 21
903.4961177384056
 31
0.0
  0
LINE
  5
2428
330
1F
100
AcDbEntity
  8
外形線
100
AcDbLine
 10
-1521.201796299535
 20
894.9873553914136
 30
0.0
 11
-1524.746775024862
 21
897.3560344475554
 31
0.0
  0
LINE
  5
2429
330
1F
100
AcDbEntity
  8
外形線
100
AcDbLine
 10
-1517.37796997553
 20
896.873057030122
 30
0.0
 11
-1521.201795787861
 21
894.9873550495242
 31
0.0
  0
LINE
  5
242A
330
1F
100
AcDbEntity
  8
外形線
100
AcDbLine
 10
-1517.377970691875
 20
896.8730575087668
 30
0.0
 11
-1517.099123911878
 21
901.1274387506407
 31
0.0
  0
LINE
  5
242B
330
1F
100
AcDbEntity
  8
外形線
100
AcDbLine
 10
-1524.46792814253
 20
901.6104156210516
 30
0.0
 11
-1520.644102432537
 21
903.4961176700276
 31
0.0
  0
LINE
  5
242C
330
1F
100
AcDbEntity
  8
外形線
100
AcDbLine
 10
-1524.746775536535
 20
897.356034789445
 30
0.0
 11
-1524.467928858872
 21
901.6104160996968
 31
0.0
  0
CIRCLE
  5
242E
330
1F
100
AcDbEntity
  8
外形線
100
AcDbCircle
 10
-1556.385420591112
 20
813.6277577015839
 30
0.0
 40
8.0
  0
LINE
  5
2431
330
1F
100
AcDbEntity
  8
外形線
100
AcDbLine
 10
-1553.574293334991
 20
816.8332340005246
 30
0.0
 11
-1557.755880853885
 21
817.6650034733127
 31
0.0
  0
LINE
  5
2432
330
1F
100
AcDbEntity
  8
外形線
100
AcDbLine
 10
-1555.014960328341
 20
809.5905119298542
 30
0.0
 11
-1559.196547847234
 21
810.4222814026426
 31
0.0
  0
LINE
  5
2433
330
1F
100
AcDbEntity
  8
外形線
100
AcDbLine
 10
-1552.203832227234
 20
812.7959880607175
 30
0.0
 11
-1555.01495972478
 21
809.590511809799
 31
0.0
  0
LINE
  5
2434
330
1F
100
AcDbEntity
  8
外形線
100
AcDbLine
 10
-1552.203833072218
 20
812.7959882287948
 30
0.0
 11
-1553.574293455703
 21
816.8332340245353
 31
0.0
  0
LINE
  5
2435
330
1F
100
AcDbEntity
  8
外形線
100
AcDbLine
 10
-1560.567008110006
 20
814.4595271743719
 30
0.0
 11
-1557.755880733173
 21
817.6650034493016
 31
0.0
  0
LINE
  5
2436
330
1F
100
AcDbEntity
  8
外形線
100
AcDbLine
 10
-1559.196548450795
 20
810.4222815226982
 30
0.0
 11
-1560.567008954991
 21
814.4595273424499
 31
0.0
  0
CIRCLE
  5
243A
330
1F
100
AcDbEntity
  8
外形線
100
AcDbCircle
 10
-281.5809189463638
 20
1022.554977199658
 30
0.0
 40
6.5
  0
LINE
  5
243B
330
1F
100
AcDbEntity
  8
外形線
100
AcDbLine
 10
-283.1130519167145
 20
1019.448118893434
 30
0.0
 11
-285.0376036498301
 21
1022.328414107763
 31
0.0
  0
LINE
  5
243C
330
1F
100
AcDbEntity
  8
外形線
100
AcDbLine
 10
-279.6563668243496
 20
1019.674681403299
 30
0.0
 11
-283.1130516389288
 21
1019.4481184777
 31
0.0
  0
LINE
  5
243D
330
1F
100
AcDbEntity
  8
外形線
100
AcDbLine
 10
-279.6563672132492
 20
1019.674681985329
 30
0.0
 11
-278.1242342984559
 21
1022.781540374698
 31
0.0
  0
LINE
  5
243E
330
1F
100
AcDbEntity
  8
外形線
100
AcDbLine
 10
-278.1242342428991
 20
1022.781540291552
 30
0.0
 11
-280.0487859760145
 21
1025.66183550588
 31
0.0
  0
LINE
  5
243F
330
1F
100
AcDbEntity
  8
外形線
100
AcDbLine
 10
-283.5054706794803
 20
1025.435272413986
 30
0.0
 11
-280.048785920457
 21
1025.661835422734
 31
0.0
  0
LINE
  5
2440
330
1F
100
AcDbEntity
  8
外形線
100
AcDbLine
 10
-285.0376039276151
 20
1022.328414523496
 30
0.0
 11
-283.5054710683798
 21
1025.435272996015
 31
0.0
  0
CIRCLE
  5
2443
330
1F
100
AcDbEntity
  8
外形線
100
AcDbCircle
 10
-366.2820283862321
 20
937.8538677597992
 30
0.0
 40
6.5
  0
LINE
  5
2444
330
1F
100
AcDbEntity
  8
外形線
100
AcDbLine
 10
-366.5085914781275
 20
934.3971830563335
 30
0.0
 11
-369.3888866924559
 21
936.3217347894487
 31
0.0
  0
LINE
  5
2445
330
1F
100
AcDbEntity
  8
外形線
100
AcDbLine
 10
-363.4017325898753
 20
935.9293156377839
 30
0.0
 11
-366.5085910623925
 21
934.3971827785487
 31
0.0
  0
LINE
  5
2446
330
1F
100
AcDbEntity
  8
外形線
100
AcDbLine
 10
-363.4017331719043
 20
935.9293160266831
 30
0.0
 11
-363.1751701631567
 21
939.3860007857066
 31
0.0
  0
LINE
  5
2447
330
1F
100
AcDbEntity
  8
外形線
100
AcDbLine
 10
-363.1751700800098
 20
939.3860007301492
 30
0.0
 11
-366.0554652943383
 21
941.3105524632642
 31
0.0
  0
LINE
  5
2448
330
1F
100
AcDbEntity
  8
外形線
100
AcDbLine
 10
-369.1623236005615
 20
939.7784194929142
 30
0.0
 11
-366.0554652111914
 21
941.3105524077083
 31
0.0
  0
LINE
  5
2449
330
1F
100
AcDbEntity
  8
外形線
100
AcDbLine
 10
-369.3888871081911
 20
936.3217350672343
 30
0.0
 11
-369.1623241825908
 21
939.7784198818138
 31
0.0
  0
CIRCLE
  5
244C
330
1F
100
AcDbEntity
  8
外形線
100
AcDbCircle
 10
-412.1219384931483
 20
827.1865350817352
 30
0.0
 40
6.5
  0
LINE
  5
244D
330
1F
100
AcDbEntity
  8
外形線
100
AcDbLine
 10
-411.0084395296475
 20
823.9062728922046
 30
0.0
 11
-414.4059793887484
 21
824.582085588845
 31
0.0
  0
LINE
  5
244E
330
1F
100
AcDbEntity
  8
外形線
100
AcDbLine
 10
-408.7243979474983
 20
826.510722248531
 30
0.0
 11
-411.0084390392548
 21
823.9062727946601
 31
0.0
  0
LINE
  5
244F
330
1F
100
AcDbEntity
  8
外形線
100
AcDbLine
 10
-408.7243986340483
 20
826.5107223850936
 30
0.0
 11
-409.8378976956293
 21
829.7909845941337
 31
0.0
  0
LINE
  5
2450
330
1F
100
AcDbEntity
  8
外形線
100
AcDbLine
 10
-409.8378975975506
 20
829.7909845746241
 30
0.0
 11
-413.235437456652
 21
830.4667972712648
 31
0.0
  0
LINE
  5
2451
330
1F
100
AcDbEntity
  8
外形線
100
AcDbLine
 10
-415.5194783522508
 20
827.8623477783751
 30
0.0
 11
-413.2354373585734
 21
830.4667972517565
 31
0.0
  0
LINE
  5
2452
330
1F
100
AcDbEntity
  8
外形線
100
AcDbLine
 10
-414.4059798791416
 20
824.5820856863909
 30
0.0
 11
-415.5194790388009
 21
827.8623479149384
 31
0.0
  0
CIRCLE
  5
2455
330
1F
100
AcDbEntity
  8
外形線
100
AcDbCircle
 10
-412.1219384931563
 20
707.4010773638327
 30
0.0
 40
6.5
  0
LINE
  5
2456
330
1F
100
AcDbEntity
  8
外形線
100
AcDbLine
 10
-409.8378975975577
 20
704.7966278709422
 30
0.0
 11
-413.2354374566586
 21
704.1208151743018
 31
0.0
  0
LINE
  5
2457
330
1F
100
AcDbEntity
  8
外形線
100
AcDbLine
 10
-408.7243979475053
 20
708.0768901970355
 30
0.0
 11
-409.8378971071655
 21
704.7966279684875
 31
0.0
  0
LINE
  5
2458
330
1F
100
AcDbEntity
  8
外形線
100
AcDbLine
 10
-408.7243986340551
 20
708.0768900604721
 30
0.0
 11
-411.0084396277333
 21
710.6813395338531
 31
0.0
  0
LINE
  5
2459
330
1F
100
AcDbEntity
  8
外形線
100
AcDbLine
 10
-411.0084395296548
 20
710.6813395533618
 30
0.0
 11
-414.4059793887556
 21
710.0055268567212
 31
0.0
  0
LINE
  5
245A
330
1F
100
AcDbEntity
  8
外形線
100
AcDbLine
 10
-415.5194783522579
 20
706.7252646671909
 30
0.0
 11
-414.4059792906777
 21
710.0055268762307
 31
0.0
  0
LINE
  5
245B
330
1F
100
AcDbEntity
  8
外形線
100
AcDbLine
 10
-413.235437947052
 20
704.1208150767564
 30
0.0
 11
-415.5194790388081
 21
706.7252645306274
 31
0.0
  0
CIRCLE
  5
245E
330
1F
100
AcDbEntity
  8
外形線
100
AcDbCircle
 10
-366.2820283862529
 20
596.7337446857632
 30
0.0
 40
6.5
  0
LINE
  5
245F
330
1F
100
AcDbEntity
  8
外形線
100
AcDbLine
 10
-363.1751700800295
 20
595.2016117154125
 30
0.0
 11
-366.0554652943577
 21
593.2770599822969
 31
0.0
  0
LINE
  5
2460
330
1F
100
AcDbEntity
  8
外形線
100
AcDbLine
 10
-363.4017325898947
 20
598.6582968077772
 30
0.0
 11
-363.1751696642951
 21
595.2016119931977
 31
0.0
  0
LINE
  5
2461
330
1F
100
AcDbEntity
  8
外形線
100
AcDbLine
 10
-363.4017331719235
 20
598.6582964188777
 30
0.0
 11
-366.5085915612943
 21
600.1904293336711
 31
0.0
  0
LINE
  5
2462
330
1F
100
AcDbEntity
  8
外形線
100
AcDbLine
 10
-366.5085914781471
 20
600.1904293892278
 30
0.0
 11
-369.3888866924756
 21
598.2658776561122
 31
0.0
  0
LINE
  5
2463
330
1F
100
AcDbEntity
  8
外形線
100
AcDbLine
 10
-369.1623236005808
 20
594.8091929526466
 30
0.0
 11
-369.3888866093292
 21
598.2658777116697
 31
0.0
  0
LINE
  5
2464
330
1F
100
AcDbEntity
  8
外形線
100
AcDbLine
 10
-366.0554657100931
 20
593.2770597045117
 30
0.0
 11
-369.1623241826097
 21
594.809192563747
 31
0.0
  0
CIRCLE
  5
2467
330
1F
100
AcDbEntity
  8
外形線
100
AcDbCircle
 10
-281.5809189463938
 20
512.0326352458946
 30
0.0
 40
6.5
  0
LINE
  5
2468
330
1F
100
AcDbEntity
  8
外形線
100
AcDbLine
 10
-278.1242342429282
 20
511.8060721539994
 30
0.0
 11
-280.0487859760433
 21
508.925776939671
 31
0.0
  0
LINE
  5
2469
330
1F
100
AcDbEntity
  8
外形線
100
AcDbLine
 10
-279.6563668243783
 20
514.9129310422515
 30
0.0
 11
-278.1242339651435
 21
511.8060725697343
 31
0.0
  0
LINE
  5
246A
330
1F
100
AcDbEntity
  8
外形線
100
AcDbLine
 10
-279.6563672132774
 20
514.9129304602227
 30
0.0
 11
-283.1130519723008
 21
515.1394934689704
 31
0.0
  0
LINE
  5
246B
330
1F
100
AcDbEntity
  8
外形線
100
AcDbLine
 10
-283.1130519167436
 20
515.1394935521167
 30
0.0
 11
-285.0376036498587
 21
512.2591983377883
 31
0.0
  0
LINE
  5
246C
330
1F
100
AcDbEntity
  8
外形線
100
AcDbLine
 10
-283.5054706795085
 20
509.1523400315653
 30
0.0
 11
-285.0376035943026
 21
512.2591984209356
 31
0.0
  0
LINE
  5
246D
330
1F
100
AcDbEntity
  8
外形線
100
AcDbLine
 10
-280.0487862538289
 20
508.9257765239358
 30
0.0
 11
-283.5054710684078
 21
509.1523394495361
 31
0.0
  0
CIRCLE
  5
2470
330
1F
100
AcDbEntity
  8
外形線
100
AcDbCircle
 10
-170.9135862683301
 20
466.1927251389783
 30
0.0
 40
6.5
  0
LINE
  5
2471
330
1F
100
AcDbEntity
  8
外形線
100
AcDbLine
 10
-167.6333240787988
 20
467.3062241024793
 30
0.0
 11
-168.3091367754395
 21
463.9086842433782
 31
0.0
  0
LINE
  5
2472
330
1F
100
AcDbEntity
  8
外形線
100
AcDbLine
 10
-170.237773435125
 20
469.5902656846285
 30
0.0
 11
-167.6333239812541
 21
467.3062245928718
 31
0.0
  0
LINE
  5
2473
330
1F
100
AcDbEntity
  8
外形線
100
AcDbLine
 10
-170.2377735716881
 20
469.5902649980786
 30
0.0
 11
-173.5180357807279
 21
468.4767659364976
 31
0.0
  0
LINE
  5
2474
330
1F
100
AcDbEntity
  8
外形線
100
AcDbLine
 10
-173.5180357612186
 20
468.4767660345761
 30
0.0
 11
-174.1938484578589
 21
465.079226175475
 31
0.0
  0
LINE
  5
2475
330
1F
100
AcDbEntity
  8
外形線
100
AcDbLine
 10
-171.5893989649694
 20
462.7951852798758
 30
0.0
 11
-174.1938484383508
 21
465.0792262735533
 31
0.0
  0
LINE
  5
2476
330
1F
100
AcDbEntity
  8
外形線
100
AcDbLine
 10
-168.3091368729851
 20
463.9086837529853
 30
0.0
 11
-171.5893991015325
 21
462.7951845933258
 31
0.0
  0
CIRCLE
  5
2479
330
1F
100
AcDbEntity
  8
外形線
100
AcDbCircle
 10
-51.12812855042739
 20
466.1927251389703
 30
0.0
 40
6.5
  0
LINE
  5
247A
330
1F
100
AcDbEntity
  8
外形線
100
AcDbLine
 10
-48.52367905753681
 20
468.4767660345693
 30
0.0
 11
-47.8478663608962
 21
465.0792261754681
 31
0.0
  0
LINE
  5
247B
330
1F
100
AcDbEntity
  8
外形線
100
AcDbLine
 10
-51.80394138362999
 20
469.5902656846216
 30
0.0
 11
-48.52367915508239
 21
468.4767665249617
 31
0.0
  0
LINE
  5
247C
330
1F
100
AcDbEntity
  8
外形線
100
AcDbLine
 10
-51.80394124706663
 20
469.5902649980719
 30
0.0
 11
-54.40839072044764
 21
467.3062240043939
 31
0.0
  0
LINE
  5
247D
330
1F
100
AcDbEntity
  8
外形線
100
AcDbLine
 10
-54.40839073995629
 20
467.3062241024721
 30
0.0
 11
-53.73257804331569
 21
463.9086842433711
 31
0.0
  0
LINE
  5
247E
330
1F
100
AcDbEntity
  8
外形線
100
AcDbLine
 10
-50.45231585378542
 20
462.7951852798694
 30
0.0
 11
-53.73257806282527
 21
463.9086843414495
 31
0.0
  0
LINE
  5
247F
330
1F
100
AcDbEntity
  8
外形線
100
AcDbLine
 10
-47.84786626335105
 20
465.0792256850751
 30
0.0
 11
-50.45231571722206
 21
462.7951845933191
 31
0.0
  0
CIRCLE
  5
2482
330
1F
100
AcDbEntity
  8
外形線
100
AcDbCircle
 10
59.53920412764205
 20
512.0326352458745
 30
0.0
 40
6.5
  0
LINE
  5
2483
330
1F
100
AcDbEntity
  8
外形線
100
AcDbLine
 10
61.07133709799267
 20
515.1394935520977
 30
0.0
 11
62.99588883110821
 21
512.2591983377691
 31
0.0
  0
LINE
  5
2484
330
1F
100
AcDbEntity
  8
外形線
100
AcDbLine
 10
57.61465200562816
 20
514.9129310422322
 30
0.0
 11
61.0713368202073
 21
515.1394939678318
 31
0.0
  0
LINE
  5
2485
330
1F
100
AcDbEntity
  8
外形線
100
AcDbLine
 10
57.61465239452718
 20
514.9129304602036
 30
0.0
 11
56.08251947973393
 21
511.8060720708326
 31
0.0
  0
LINE
  5
2486
330
1F
100
AcDbEntity
  8
外形線
100
AcDbLine
 10
56.08251942417746
 20
511.8060721539798
 30
0.0
 11
58.00707115729299
 21
508.9257769396515
 31
0.0
  0
LINE
  5
2487
330
1F
100
AcDbEntity
  8
外形線
100
AcDbLine
 10
61.46375586075849
 20
509.1523400315463
 30
0.0
 11
58.00707110173561
 21
508.9257770227978
 31
0.0
  0
LINE
  5
2488
330
1F
100
AcDbEntity
  8
外形線
100
AcDbLine
 10
62.99588910889362
 20
512.259197922034
 30
0.0
 11
61.46375624965799
 21
509.1523394495172
 31
0.0
  0
CIRCLE
  5
248B
330
1F
100
AcDbEntity
  8
外形線
100
AcDbCircle
 10
144.2403135675105
 20
596.7337446857327
 30
0.0
 40
6.5
  0
LINE
  5
248C
330
1F
100
AcDbEntity
  8
外形線
100
AcDbLine
 10
144.4668766594058
 20
600.1904293891988
 30
0.0
 11
147.3471718737346
 21
598.2658776560837
 31
0.0
  0
LINE
  5
248D
330
1F
100
AcDbEntity
  8
外形線
100
AcDbLine
 10
141.3600177711535
 20
598.6582968077486
 30
0.0
 11
144.466876243671
 21
600.1904296669835
 31
0.0
  0
LINE
  5
248E
330
1F
100
AcDbEntity
  8
外形線
100
AcDbLine
 10
141.3600183531825
 20
598.6582964188496
 30
0.0
 11
141.1334553444353
 21
595.2016116598261
 31
0.0
  0
LINE
  5
248F
330
1F
100
AcDbEntity
  8
外形線
100
AcDbLine
 10
141.1334552612884
 20
595.2016117153832
 30
0.0
 11
144.0137504756169
 21
593.2770599822681
 31
0.0
  0
LINE
  5
2490
330
1F
100
AcDbEntity
  8
外形線
100
AcDbLine
 10
147.1206087818399
 20
594.8091929526184
 30
0.0
 11
144.0137503924694
 21
593.2770600378244
 31
0.0
  0
LINE
  5
2491
330
1F
100
AcDbEntity
  8
外形線
100
AcDbLine
 10
147.3471722894696
 20
598.2658773782982
 30
0.0
 11
147.1206093638691
 21
594.8091925637187
 31
0.0
  0
CIRCLE
  5
2494
330
1F
100
AcDbEntity
  8
外形線
100
AcDbCircle
 10
190.080223674428
 20
707.4010773637967
 30
0.0
 40
6.5
  0
LINE
  5
2495
330
1F
100
AcDbEntity
  8
外形線
100
AcDbLine
 10
188.9667247109259
 20
710.6813395533272
 30
0.0
 11
192.364264570027
 21
710.0055268566867
 31
0.0
  0
LINE
  5
2496
330
1F
100
AcDbEntity
  8
外形線
100
AcDbLine
 10
186.682683128777
 20
708.0768901970014
 30
0.0
 11
188.9667242205334
 21
710.6813396508719
 31
0.0
  0
LINE
  5
2497
330
1F
100
AcDbEntity
  8
外形線
100
AcDbLine
 10
186.6826838153269
 20
708.0768900604379
 30
0.0
 11
187.796182876908
 21
704.7966278513983
 31
0.0
  0
LINE
  5
2498
330
1F
100
AcDbEntity
  8
外形線
100
AcDbLine
 10
187.7961827788294
 20
704.7966278709077
 30
0.0
 11
191.1937226379304
 21
704.1208151742671
 31
0.0
  0
LINE
  5
2499
330
1F
100
AcDbEntity
  8
外形線
100
AcDbLine
 10
193.4777635335293
 20
706.725264667157
 30
0.0
 11
191.1937225398521
 21
704.1208151937752
 31
0.0
  0
LINE
  5
249A
330
1F
100
AcDbEntity
  8
外形線
100
AcDbLine
 10
192.3642650604199
 20
710.0055267591415
 30
0.0
 11
193.4777642200796
 21
706.7252645305935
 31
0.0
  0
CIRCLE
  5
249D
330
1F
100
AcDbEntity
  8
外形線
100
AcDbCircle
 10
190.0802236744348
 20
827.1865350816995
 30
0.0
 40
6.5
  0
LINE
  5
249E
330
1F
100
AcDbEntity
  8
外形線
100
AcDbLine
 10
187.7961827788363
 20
829.7909845745897
 30
0.0
 11
191.1937226379373
 21
830.4667972712305
 31
0.0
  0
LINE
  5
249F
330
1F
100
AcDbEntity
  8
外形線
100
AcDbLine
 10
186.6826831287839
 20
826.5107222484967
 30
0.0
 11
187.7961822884437
 21
829.7909844770442
 31
0.0
  0
LINE
  5
24A0
330
1F
100
AcDbEntity
  8
外形線
100
AcDbLine
 10
186.6826838153338
 20
826.5107223850598
 30
0.0
 11
188.9667248090118
 21
823.9062729116788
 31
0.0
  0
LINE
  5
24A1
330
1F
100
AcDbEntity
  8
外形線
100
AcDbLine
 10
188.9667247109329
 20
823.9062728921702
 30
0.0
 11
192.3642645700341
 21
824.5820855888107
 31
0.0
  0
LINE
  5
24A2
330
1F
100
AcDbEntity
  8
外形線
100
AcDbLine
 10
193.4777635335363
 20
827.8623477783412
 30
0.0
 11
192.3642644719559
 21
824.5820855693013
 31
0.0
  0
LINE
  5
24A3
330
1F
100
AcDbEntity
  8
外形線
100
AcDbLine
 10
191.1937231283304
 20
830.4667973687756
 30
0.0
 11
193.4777642200865
 21
827.8623479149045
 31
0.0
  0
CIRCLE
  5
24A6
330
1F
100
AcDbEntity
  8
外形線
100
AcDbCircle
 10
144.2403135675313
 20
937.8538677597687
 30
0.0
 40
6.5
  0
LINE
  5
24A7
330
1F
100
AcDbEntity
  8
外形線
100
AcDbLine
 10
141.1334552613079
 20
939.3860007301196
 30
0.0
 11
144.013750475636
 21
941.3105524632353
 31
0.0
  0
LINE
  5
24A8
330
1F
100
AcDbEntity
  8
外形線
100
AcDbLine
 10
141.3600177711733
 20
935.929315637755
 30
0.0
 11
141.1334548455736
 21
939.3860004523345
 31
0.0
  0
LINE
  5
24A9
330
1F
100
AcDbEntity
  8
外形線
100
AcDbLine
 10
141.360018353202
 20
935.9293160266544
 30
0.0
 11
144.4668767425729
 21
934.397183111861
 31
0.0
  0
LINE
  5
24AA
330
1F
100
AcDbEntity
  8
外形線
100
AcDbLine
 10
144.4668766594259
 20
934.3971830563043
 30
0.0
 11
147.3471718737541
 21
936.3217347894201
 31
0.0
  0
LINE
  5
24AB
330
1F
100
AcDbEntity
  8
外形線
100
AcDbLine
 10
147.1206087818593
 20
939.7784194928854
 30
0.0
 11
147.3471717906075
 21
936.3217347338622
 31
0.0
  0
LINE
  5
24AC
330
1F
100
AcDbEntity
  8
外形線
100
AcDbLine
 10
144.0137508913714
 20
941.3105527410206
 30
0.0
 11
147.1206093638883
 21
939.778419881785
 31
0.0
  0
CIRCLE
  5
24AF
330
1F
100
AcDbEntity
  8
外形線
100
AcDbCircle
 10
59.53920412767252
 20
1022.554977199636
 30
0.0
 40
6.5
  0
LINE
  5
24B0
330
1F
100
AcDbEntity
  8
外形線
100
AcDbLine
 10
56.08251942420679
 20
1022.781540291533
 30
0.0
 11
58.00707115732212
 21
1025.661835505861
 31
0.0
  0
LINE
  5
24B1
330
1F
100
AcDbEntity
  8
外形線
100
AcDbLine
 10
57.61465200565726
 20
1019.674681403281
 30
0.0
 11
56.08251914642233
 21
1022.781539875798
 31
0.0
  0
LINE
  5
24B2
330
1F
100
AcDbEntity
  8
外形線
100
AcDbLine
 10
57.61465239455628
 20
1019.674681985309
 30
0.0
 11
61.07133715357965
 21
1019.448118976562
 31
0.0
  0
LINE
  5
24B3
330
1F
100
AcDbEntity
  8
外形線
100
AcDbLine
 10
61.07133709802247
 20
1019.448118893415
 30
0.0
 11
62.99588883113756
 21
1022.328414107743
 31
0.0
  0
LINE
  5
24B4
330
1F
100
AcDbEntity
  8
外形線
100
AcDbLine
 10
61.4637558607874
 20
1025.435272413967
 30
0.0
 11
62.99588877558131
 21
1022.328414024596
 31
0.0
  0
LINE
  5
24B5
330
1F
100
AcDbEntity
  8
外形線
100
AcDbLine
 10
58.00707143510772
 20
1025.661835921596
 30
0.0
 11
61.46375624968687
 21
1025.435272995996
 31
0.0
  0
CIRCLE
  5
24B8
330
1F
100
AcDbEntity
  8
外形線
100
AcDbCircle
 10
-51.12812855039099
 20
1068.394887306554
 30
0.0
 40
6.5
  0
LINE
  5
24B9
330
1F
100
AcDbEntity
  8
外形線
100
AcDbLine
 10
-54.40839073992174
 20
1067.281388343052
 30
0.0
 11
-53.73257804328114
 21
1070.678928202154
 31
0.0
  0
LINE
  5
24BA
330
1F
100
AcDbEntity
  8
外形線
100
AcDbLine
 10
-51.80394138359543
 20
1064.997346760903
 30
0.0
 11
-54.40839083746642
 21
1067.281387852661
 31
0.0
  0
LINE
  5
24BB
330
1F
100
AcDbEntity
  8
外形線
100
AcDbLine
 10
-51.80394124703252
 20
1064.997347447454
 30
0.0
 11
-48.52367903799268
 21
1066.110846509035
 31
0.0
  0
LINE
  5
24BC
330
1F
100
AcDbEntity
  8
外形線
100
AcDbLine
 10
-48.52367905750179
 20
1066.110846410954
 30
0.0
 11
-47.84786636086164
 21
1069.508386270057
 31
0.0
  0
LINE
  5
24BD
330
1F
100
AcDbEntity
  8
外形線
100
AcDbLine
 10
-50.45231585375131
 20
1071.792427165654
 30
0.0
 11
-47.84786638036985
 21
1069.508386171979
 31
0.0
  0
LINE
  5
24BE
330
1F
100
AcDbEntity
  8
外形線
100
AcDbLine
 10
-53.73257794573556
 20
1070.678928692547
 30
0.0
 11
-50.45231571718796
 21
1071.792427852207
 31
0.0
  0
CIRCLE
  5
3754
330
1F
100
AcDbEntity
  8
外形線
100
AcDbCircle
 10
-1380.948916495343
 20
767.2938062227609
 30
0.0
 40
6.5
  0
CIRCLE
  5
3756
330
1F
100
AcDbEntity
  8
外形線
100
AcDbCircle
 10
-1323.448916495345
 20
767.2938062227609
 30
0.0
 40
50.0
  0
CIRCLE
  5
3757
330
1F
100
AcDbEntity
  8
外形線
100
AcDbCircle
 10
-1265.948916495345
 20
767.2938062227607
 30
0.0
 40
6.5
  0
LINE
  5
3758
330
1F
100
AcDbEntity
  8
外形線
100
AcDbLine
 10
-1291.234814633992
 20
717.4973450786978
 30
0.0
 11
-1292.966865345345
 21
714.4973449120474
 31
0.0
  0
LINE
  5
3759
330
1F
100
AcDbEntity
  8
外形線
100
AcDbLine
 10
-1296.430967645345
 20
720.4973460982637
 30
0.0
 11
-1292.966865933992
 21
720.4973459316136
 31
0.0
  0
LINE
  5
375A
330
1F
100
AcDbEntity
  8
外形線
100
AcDbLine
 10
-1292.966865683992
 20
720.4973454986006
 30
0.0
 11
-1291.234814883992
 21
717.4973455117108
 31
0.0
  0
LINE
  5
375B
330
1F
100
AcDbEntity
  8
外形線
100
AcDbLine
 10
-1292.966865695345
 20
714.497345518265
 30
0.0
 11
-1296.430967356698
 21
714.4973455983131
 31
0.0
  0
CIRCLE
  5
375C
330
1F
100
AcDbEntity
  8
外形線
100
AcDbCircle
 10
-1294.698916495345
 20
717.4973455051557
 30
0.0
 40
5.7
  0
CIRCLE
  5
375D
330
1F
100
AcDbEntity
  8
外形線
100
AcDbCircle
 10
-1294.698916495345
 20
717.4973455051557
 30
0.0
 40
6.5
  0
LINE
  5
375E
330
1F
100
AcDbEntity
  8
外形線
100
AcDbLine
 10
-1298.163018106698
 20
717.4973454986009
 30
0.0
 11
-1296.430967306698
 21
714.4973455117106
 31
0.0
  0
LINE
  5
375F
330
1F
100
AcDbEntity
  8
外形線
100
AcDbLine
 10
-1296.430967295345
 20
720.4973454920459
 30
0.0
 11
-1298.163018056698
 21
717.4973454119981
 31
0.0
  0
CIRCLE
  5
3761
330
1F
100
AcDbEntity
  8
外形線
100
AcDbCircle
 10
-1352.198916495344
 20
717.4973455051562
 30
0.0
 40
5.7
  0
LINE
  5
3763
330
1F
100
AcDbEntity
  8
外形線
100
AcDbLine
 10
-1348.734814883991
 20
717.497345498601
 30
0.0
 11
-1350.466865683991
 21
714.4973455117106
 31
0.0
  0
LINE
  5
3764
330
1F
100
AcDbEntity
  8
外形線
100
AcDbLine
 10
-1350.466865345345
 20
720.4973460982643
 30
0.0
 11
-1348.734814633992
 21
717.4973459316137
 31
0.0
  0
CIRCLE
  5
3765
330
1F
100
AcDbEntity
  8
外形線
100
AcDbCircle
 10
-1352.198916495344
 20
717.4973455051562
 30
0.0
 40
6.5
  0
LINE
  5
3766
330
1F
100
AcDbEntity
  8
外形線
100
AcDbLine
 10
-1350.466865695345
 20
720.4973454920462
 30
0.0
 11
-1353.930967356697
 21
720.4973454119985
 31
0.0
  0
LINE
  5
3767
330
1F
100
AcDbEntity
  8
外形線
100
AcDbLine
 10
-1350.466865933992
 20
714.4973450786977
 30
0.0
 11
-1353.930967645345
 21
714.4973449120477
 31
0.0
  0
LINE
  5
3768
330
1F
100
AcDbEntity
  8
外形線
100
AcDbLine
 10
-1353.930967295345
 20
714.497345518265
 30
0.0
 11
-1355.663018056698
 21
717.4973455983131
 31
0.0
  0
LINE
  5
3769
330
1F
100
AcDbEntity
  8
外形線
100
AcDbLine
 10
-1353.930967306699
 20
720.497345498601
 30
0.0
 11
-1355.663018106698
 21
717.4973455117108
 31
0.0
  0
LINE
  5
376A
330
1F
100
AcDbEntity
  8
外形線
100
AcDbLine
 10
-1267.680967295343
 20
770.2938062227612
 30
0.0
 11
-1264.216865695344
 21
770.2938062227612
 31
0.0
  0
LINE
  5
376B
330
1F
100
AcDbEntity
  8
外形線
100
AcDbLine
 10
-1267.680967295345
 20
764.2938062227612
 30
0.0
 11
-1264.216865695344
 21
764.2938062227612
 31
0.0
  0
LINE
  5
376C
330
1F
100
AcDbEntity
  8
外形線
100
AcDbLine
 10
-1269.413018795344
 20
767.2938062227609
 30
0.0
 11
-1267.680967795345
 21
770.2938062227612
 31
0.0
  0
LINE
  5
376D
330
1F
100
AcDbEntity
  8
外形線
100
AcDbLine
 10
-1269.413018095345
 20
767.2938062227609
 30
0.0
 11
-1267.680967195345
 21
764.2938062227612
 31
0.0
  0
CIRCLE
  5
376E
330
1F
100
AcDbEntity
  8
外形線
100
AcDbCircle
 10
-1265.948916495345
 20
767.2938062227607
 30
0.0
 40
5.7
  0
LINE
  5
376F
330
1F
100
AcDbEntity
  8
外形線
100
AcDbLine
 10
-1264.216865195345
 20
770.2938062227612
 30
0.0
 11
-1262.484814195345
 21
767.2938062227609
 31
0.0
  0
LINE
  5
3770
330
1F
100
AcDbEntity
  8
外形線
100
AcDbLine
 10
-1262.484814895344
 20
767.2938062227609
 30
0.0
 11
-1264.216865795344
 21
764.2938062227612
 31
0.0
  0
LINE
  5
3771
330
1F
100
AcDbEntity
  8
外形線
100
AcDbLine
 10
-1292.966865683992
 20
814.0902669469216
 30
0.0
 11
-1291.234814883991
 21
817.0902669338119
 31
0.0
  0
LINE
  5
3772
330
1F
100
AcDbEntity
  8
外形線
100
AcDbLine
 10
-1296.430967645345
 20
814.0902663472584
 30
0.0
 11
-1298.163018356698
 21
817.090266513909
 31
0.0
  0
CIRCLE
  5
3773
330
1F
100
AcDbEntity
  8
外形線
100
AcDbCircle
 10
-1294.698916495345
 20
817.0902669403664
 30
0.0
 40
5.7
  0
CIRCLE
  5
3774
330
1F
100
AcDbEntity
  8
外形線
100
AcDbCircle
 10
-1294.698916495345
 20
817.0902669403664
 30
0.0
 40
6.5
  0
LINE
  5
3776
330
1F
100
AcDbEntity
  8
外形線
100
AcDbLine
 10
-1296.430967295345
 20
814.0902669534764
 30
0.0
 11
-1292.96686563399
 21
814.0902670335243
 31
0.0
  0
LINE
  5
3777
330
1F
100
AcDbEntity
  8
外形線
100
AcDbLine
 10
-1296.430967056698
 20
820.0902673668249
 30
0.0
 11
-1292.966865345345
 21
820.0902675334749
 31
0.0
  0
LINE
  5
3778
330
1F
100
AcDbEntity
  8
外形線
100
AcDbLine
 10
-1292.966865695345
 20
820.0902669272572
 30
0.0
 11
-1291.23481493399
 21
817.0902668472095
 31
0.0
  0
LINE
  5
3779
330
1F
100
AcDbEntity
  8
外形線
100
AcDbLine
 10
-1298.163018106698
 20
817.0902669469217
 30
0.0
 11
-1296.430967306698
 21
820.0902669338118
 31
0.0
  0
LINE
  5
377A
330
1F
100
AcDbEntity
  8
外形線
100
AcDbLine
 10
-1350.466865695345
 20
814.0902669534765
 30
0.0
 11
-1348.734814933992
 21
817.0902670335243
 31
0.0
  0
CIRCLE
  5
377B
330
1F
100
AcDbEntity
  8
外形線
100
AcDbCircle
 10
-1352.198916495344
 20
817.0902669403668
 30
0.0
 40
5.7
  0
LINE
  5
377D
330
1F
100
AcDbEntity
  8
外形線
100
AcDbLine
 10
-1348.734814883991
 20
817.0902669469217
 30
0.0
 11
-1350.466865683991
 21
820.0902669338118
 31
0.0
  0
CIRCLE
  5
377E
330
1F
100
AcDbEntity
  8
外形線
100
AcDbCircle
 10
-1352.198916495344
 20
817.0902669403668
 30
0.0
 40
6.5
  0
LINE
  5
377F
330
1F
100
AcDbEntity
  8
外形線
100
AcDbLine
 10
-1382.680967795343
 20
764.2938062227612
 30
0.0
 11
-1384.413018795346
 21
767.2938062227609
 31
0.0
  0
LINE
  5
3780
330
1F
100
AcDbEntity
  8
外形線
100
AcDbLine
 10
-1384.413018095346
 20
767.2938062227609
 30
0.0
 11
-1382.680967195345
 21
770.2938062227612
 31
0.0
  0
LINE
  5
3781
330
1F
100
AcDbEntity
  8
外形線
100
AcDbLine
 10
-1377.484814195343
 20
767.2938062227615
 30
0.0
 11
-1379.216865195346
 21
764.2938062227612
 31
0.0
  0
LINE
  5
3782
330
1F
100
AcDbEntity
  8
外形線
100
AcDbLine
 10
-1377.484814895344
 20
767.2938062227609
 30
0.0
 11
-1379.216865795346
 21
770.2938062227615
 31
0.0
  0
CIRCLE
  5
3783
330
1F
100
AcDbEntity
  8
外形線
100
AcDbCircle
 10
-1380.948916495343
 20
767.2938062227609
 30
0.0
 40
5.7
  0
LINE
  5
3784
330
1F
100
AcDbEntity
  8
外形線
100
AcDbLine
 10
-1379.216865695345
 20
764.2938062227612
 30
0.0
 11
-1382.680967295343
 21
764.2938062227612
 31
0.0
  0
LINE
  5
3785
330
1F
100
AcDbEntity
  8
外形線
100
AcDbLine
 10
-1379.216865695345
 20
770.2938062227612
 30
0.0
 11
-1382.680967295343
 21
770.2938062227612
 31
0.0
  0
LINE
  5
3786
330
1F
100
AcDbEntity
  8
外形線
100
AcDbLine
 10
-1353.930967306699
 20
814.090266946922
 30
0.0
 11
-1355.663018106698
 21
817.0902669338119
 31
0.0
  0
LINE
  5
3787
330
1F
100
AcDbEntity
  8
外形線
100
AcDbLine
 10
-1350.466865345345
 20
814.0902663472589
 30
0.0
 11
-1353.930967056697
 21
814.090266513909
 31
0.0
  0
LINE
  5
3788
330
1F
100
AcDbEntity
  8
外形線
100
AcDbLine
 10
-1353.930967295345
 20
820.0902669272572
 30
0.0
 11
-1350.466865633991
 21
820.0902668472092
 31
0.0
  0
LINE
  5
3789
330
1F
100
AcDbEntity
  8
外形線
100
AcDbLine
 10
-1355.663018356698
 20
817.0902673668248
 30
0.0
 11
-1353.930967645345
 21
820.090267533475
 31
0.0
  0
LINE
  5
3794
330
1F
100
AcDbEntity
  8
想像線
 48
0.5
100
AcDbLine
 10
-1360.948916495344
 20
1080.793806222762
 30
0.0
 11
-1285.948916495346
 21
1080.793806222762
 31
0.0
  0
LINE
  5
3795
330
1F
100
AcDbEntity
  8
想像線
 48
0.5
100
AcDbLine
 10
-1360.948916495346
 20
1092.79380622276
 30
0.0
 11
-1360.948916495344
 21
1080.793806222762
 31
0.0
  0
LINE
  5
3796
330
1F
100
AcDbEntity
  8
想像線
 48
0.5
100
AcDbLine
 10
-1285.948916495345
 20
1092.79380622276
 30
0.0
 11
-1360.948916495346
 21
1092.79380622276
 31
0.0
  0
LINE
  5
3797
330
1F
100
AcDbEntity
  8
想像線
 48
0.5
100
AcDbLine
 10
-1334.448916495345
 20
1109.293806222759
 30
0.0
 11
-1334.448916495345
 21
1098.29380622276
 31
0.0
  0
LINE
  5
3798
330
1F
100
AcDbEntity
  8
想像線
 48
0.5
100
AcDbLine
 10
-1352.448916495346
 20
1109.293806222759
 30
0.0
 11
-1352.448916495346
 21
1098.29380622276
 31
0.0
  0
LINE
  5
3799
330
1F
100
AcDbEntity
  8
想像線
 48
0.5
100
AcDbLine
 10
-1355.448916495346
 20
1095.293806222761
 30
0.0
 11
-1331.448916495346
 21
1095.293806222761
 31
0.0
  0
LINE
  5
379A
330
1F
100
AcDbEntity
  8
想像線
 48
0.5
100
AcDbLine
 10
-1354.198916495346
 20
1098.29380622276
 30
0.0
 11
-1332.698916495345
 21
1098.29380622276
 31
0.0
  0
LINE
  5
379B
330
1F
100
AcDbEntity
  8
想像線
 48
0.5
100
AcDbLine
 10
-1355.448916495346
 20
1095.293806222761
 30
0.0
 11
-1355.448916495346
 21
1092.79380622276
 31
0.0
  0
LINE
  5
379C
330
1F
100
AcDbEntity
  8
想像線
 48
0.5
100
AcDbLine
 10
-1354.198916495346
 20
1098.29380622276
 30
0.0
 11
-1354.198916495346
 21
1095.293806222761
 31
0.0
  0
LINE
  5
379D
330
1F
100
AcDbEntity
  8
想像線
 48
0.5
100
AcDbLine
 10
-1331.448916495346
 20
1095.293806222761
 30
0.0
 11
-1331.448916495346
 21
1092.79380622276
 31
0.0
  0
LINE
  5
379E
330
1F
100
AcDbEntity
  8
想像線
 48
0.5
100
AcDbLine
 10
-1332.698916495345
 20
1098.29380622276
 30
0.0
 11
-1332.698916495345
 21
1095.293806222761
 31
0.0
  0
LINE
  5
37A0
330
1F
100
AcDbEntity
  8
想像線
 48
0.5
100
AcDbLine
 10
-1335.448916495346
 20
1110.293806222758
 30
0.0
 11
-1351.448916495344
 21
1110.293806222758
 31
0.0
  0
LINE
  5
37A1
330
1F
100
AcDbEntity
  8
想像線
 48
0.5
100
AcDbLine
 10
-1352.448916495346
 20
1109.293806222759
 30
0.0
 11
-1351.448916495344
 21
1110.293806222758
 31
0.0
  0
LINE
  5
37A2
330
1F
100
AcDbEntity
  8
想像線
 48
0.5
100
AcDbLine
 10
-1334.448916495345
 20
1109.293806222759
 30
0.0
 11
-1335.448916495346
 21
1110.293806222758
 31
0.0
  0
LINE
  5
37A3
330
1F
100
AcDbEntity
  8
想像線
 48
0.5
100
AcDbLine
 10
-1292.698916495346
 20
1098.29380622276
 30
0.0
 11
-1314.198916495346
 21
1098.29380622276
 31
0.0
  0
LINE
  5
37A4
330
1F
100
AcDbEntity
  8
想像線
 48
0.5
100
AcDbLine
 10
-1291.448916495346
 20
1095.293806222761
 30
0.0
 11
-1315.448916495346
 21
1095.293806222761
 31
0.0
  0
LINE
  5
37A5
330
1F
100
AcDbEntity
  8
想像線
 48
0.5
100
AcDbLine
 10
-1294.448916495346
 20
1109.293806222759
 30
0.0
 11
-1294.448916495346
 21
1098.29380622276
 31
0.0
  0
LINE
  5
37A6
330
1F
100
AcDbEntity
  8
想像線
 48
0.5
100
AcDbLine
 10
-1312.448916495346
 20
1109.293806222759
 30
0.0
 11
-1312.448916495346
 21
1098.29380622276
 31
0.0
  0
LINE
  5
37A7
330
1F
100
AcDbEntity
  8
想像線
 48
0.5
100
AcDbLine
 10
-1314.198916495346
 20
1098.29380622276
 30
0.0
 11
-1314.198916495346
 21
1095.293806222761
 31
0.0
  0
LINE
  5
37A8
330
1F
100
AcDbEntity
  8
想像線
 48
0.5
100
AcDbLine
 10
-1315.448916495346
 20
1095.293806222761
 30
0.0
 11
-1315.448916495346
 21
1092.79380622276
 31
0.0
  0
LINE
  5
37A9
330
1F
100
AcDbEntity
  8
想像線
 48
0.5
100
AcDbLine
 10
-1312.448916495346
 20
1109.293806222759
 30
0.0
 11
-1311.448916495346
 21
1110.293806222758
 31
0.0
  0
LINE
  5
37AB
330
1F
100
AcDbEntity
  8
想像線
 48
0.5
100
AcDbLine
 10
-1294.448916495346
 20
1109.293806222759
 30
0.0
 11
-1295.448916495346
 21
1110.293806222758
 31
0.0
  0
LINE
  5
37AC
330
1F
100
AcDbEntity
  8
想像線
 48
0.5
100
AcDbLine
 10
-1311.448916495346
 20
1110.293806222758
 30
0.0
 11
-1295.448916495346
 21
1110.293806222758
 31
0.0
  0
LINE
  5
37AD
330
1F
100
AcDbEntity
  8
想像線
 48
0.5
100
AcDbLine
 10
-1292.698916495346
 20
1098.29380622276
 30
0.0
 11
-1292.698916495346
 21
1095.293806222761
 31
0.0
  0
LINE
  5
37AE
330
1F
100
AcDbEntity
  8
想像線
 48
0.5
100
AcDbLine
 10
-1291.448916495346
 20
1095.293806222761
 30
0.0
 11
-1291.448916495345
 21
1092.79380622276
 31
0.0
  0
LINE
  5
37AF
330
1F
100
AcDbEntity
  8
想像線
 48
0.5
100
AcDbLine
 10
-1285.948916495346
 20
1080.793806222762
 30
0.0
 11
-1285.948916495345
 21
1092.79380622276
 31
0.0
  0
LINE
  5
37B0
330
1F
100
AcDbEntity
  8
中心線
100
AcDbLine
 10
-1303.448916495346
 20
1113.147041640804
 30
0.0
 11
-1303.448916495346
 21
1075.114240365715
 31
0.0
  0
LINE
  5
37B1
330
1F
100
AcDbEntity
  8
中心線
100
AcDbLine
 10
-1343.448916495346
 20
1113.147041640804
 30
0.0
 11
-1343.448916495346
 21
1075.114240365715
 31
0.0
  0
CIRCLE
  5
37B2
330
1F
100
AcDbEntity
  8
細線
100
AcDbCircle
 10
-1323.448916495345
 20
767.2938062227609
 30
0.0
 40
313.0000000000001
  0
LINE
  5
37B4
330
1F
100
AcDbEntity
  8
想像線
 48
0.5
100
AcDbLine
 10
-1311.448916495346
 20
424.2938062227611
 30
0.0
 11
-1295.448916495346
 21
424.2938062227611
 31
0.0
  0
LINE
  5
37B6
330
1F
100
AcDbEntity
  8
想像線
 48
0.5
100
AcDbLine
 10
-1291.448916495346
 20
439.2938062227608
 30
0.0
 11
-1315.448916495346
 21
439.2938062227608
 31
0.0
  0
LINE
  5
37B7
330
1F
100
AcDbEntity
  8
想像線
 48
0.5
100
AcDbLine
 10
-1292.698916495346
 20
436.2938062227608
 30
0.0
 11
-1314.198916495346
 21
436.2938062227613
 31
0.0
  0
LINE
  5
37B8
330
1F
100
AcDbEntity
  8
想像線
 48
0.5
100
AcDbLine
 10
-1285.948916495346
 20
441.7938062227608
 30
0.0
 11
-1360.948916495346
 21
441.7938062227608
 31
0.0
  0
LINE
  5
37B9
330
1F
100
AcDbEntity
  8
想像線
 48
0.5
100
AcDbLine
 10
-1335.448916495346
 20
424.2938062227611
 30
0.0
 11
-1351.448916495344
 21
424.2938062227611
 31
0.0
  0
LINE
  5
37BB
330
1F
100
AcDbEntity
  8
想像線
 48
0.5
100
AcDbLine
 10
-1354.198916495346
 20
436.2938062227608
 30
0.0
 11
-1332.698916495346
 21
436.2938062227613
 31
0.0
  0
LINE
  5
37BC
330
1F
100
AcDbEntity
  8
想像線
 48
0.5
100
AcDbLine
 10
-1355.448916495346
 20
439.2938062227608
 30
0.0
 11
-1331.448916495346
 21
439.2938062227608
 31
0.0
  0
LINE
  5
37BD
330
1F
100
AcDbEntity
  8
想像線
 48
0.5
100
AcDbLine
 10
-1352.448916495346
 20
425.2938062227618
 30
0.0
 11
-1352.448916495346
 21
436.2938062227613
 31
0.0
  0
LINE
  5
37BE
330
1F
100
AcDbEntity
  8
想像線
 48
0.5
100
AcDbLine
 10
-1355.448916495346
 20
439.2938062227608
 30
0.0
 11
-1355.448916495346
 21
441.7938062227608
 31
0.0
  0
LINE
  5
37BF
330
1F
100
AcDbEntity
  8
想像線
 48
0.5
100
AcDbLine
 10
-1354.198916495346
 20
436.2938062227613
 30
0.0
 11
-1354.198916495346
 21
439.2938062227608
 31
0.0
  0
LINE
  5
37C0
330
1F
100
AcDbEntity
  8
想像線
 48
0.5
100
AcDbLine
 10
-1352.448916495346
 20
425.2938062227611
 30
0.0
 11
-1351.448916495344
 21
424.2938062227611
 31
0.0
  0
LINE
  5
37C1
330
1F
100
AcDbEntity
  8
想像線
 48
0.5
100
AcDbLine
 10
-1312.448916495346
 20
425.2938062227611
 30
0.0
 11
-1312.448916495346
 21
436.2938062227613
 31
0.0
  0
LINE
  5
37C2
330
1F
100
AcDbEntity
  8
想像線
 48
0.5
100
AcDbLine
 10
-1334.448916495346
 20
425.2938062227611
 30
0.0
 11
-1334.448916495346
 21
436.2938062227613
 31
0.0
  0
LINE
  5
37C3
330
1F
100
AcDbEntity
  8
想像線
 48
0.5
100
AcDbLine
 10
-1332.698916495346
 20
436.2938062227613
 30
0.0
 11
-1332.698916495346
 21
439.2938062227608
 31
0.0
  0
LINE
  5
37C4
330
1F
100
AcDbEntity
  8
想像線
 48
0.5
100
AcDbLine
 10
-1331.448916495346
 20
439.2938062227608
 30
0.0
 11
-1331.448916495346
 21
441.7938062227608
 31
0.0
  0
LINE
  5
37C5
330
1F
100
AcDbEntity
  8
想像線
 48
0.5
100
AcDbLine
 10
-1315.448916495346
 20
439.2938062227608
 30
0.0
 11
-1315.448916495346
 21
441.7938062227608
 31
0.0
  0
LINE
  5
37C6
330
1F
100
AcDbEntity
  8
想像線
 48
0.5
100
AcDbLine
 10
-1314.198916495346
 20
436.2938062227613
 30
0.0
 11
-1314.198916495346
 21
439.2938062227608
 31
0.0
  0
LINE
  5
37C7
330
1F
100
AcDbEntity
  8
想像線
 48
0.5
100
AcDbLine
 10
-1334.448916495346
 20
425.2938062227611
 30
0.0
 11
-1335.448916495346
 21
424.2938062227611
 31
0.0
  0
LINE
  5
37C8
330
1F
100
AcDbEntity
  8
想像線
 48
0.5
100
AcDbLine
 10
-1312.448916495346
 20
425.2938062227611
 30
0.0
 11
-1311.448916495346
 21
424.2938062227611
 31
0.0
  0
LINE
  5
37C9
330
1F
100
AcDbEntity
  8
想像線
 48
0.5
100
AcDbLine
 10
-1294.448916495346
 20
425.2938062227618
 30
0.0
 11
-1294.448916495346
 21
436.2938062227613
 31
0.0
  0
LINE
  5
37CA
330
1F
100
AcDbEntity
  8
想像線
 48
0.5
100
AcDbLine
 10
-1291.448916495346
 20
439.2938062227608
 30
0.0
 11
-1291.448916495346
 21
441.7938062227608
 31
0.0
  0
LINE
  5
37CB
330
1F
100
AcDbEntity
  8
想像線
 48
0.5
100
AcDbLine
 10
-1292.698916495346
 20
436.2938062227613
 30
0.0
 11
-1292.698916495346
 21
439.2938062227608
 31
0.0
  0
LINE
  5
37CC
330
1F
100
AcDbEntity
  8
想像線
 48
0.5
100
AcDbLine
 10
-1294.448916495346
 20
425.2938062227611
 30
0.0
 11
-1295.448916495346
 21
424.2938062227611
 31
0.0
  0
LINE
  5
37CD
330
1F
100
AcDbEntity
  8
想像線
 48
0.5
100
AcDbLine
 10
-1285.948916495346
 20
453.7938062227608
 30
0.0
 11
-1285.948916495346
 21
441.7938062227608
 31
0.0
  0
LINE
  5
37CE
330
1F
100
AcDbEntity
  8
中心線
100
AcDbLine
 10
-1303.448916495346
 20
421.4405708047183
 30
0.0
 11
-1303.448916495346
 21
459.4733720798076
 31
0.0
  0
LINE
  5
37CF
330
1F
100
AcDbEntity
  8
中心線
100
AcDbLine
 10
-1343.448916495346
 20
421.4405708047183
 30
0.0
 11
-1343.448916495346
 21
459.4733720798076
 31
0.0
  0
LINE
  5
37D0
330
1F
100
AcDbEntity
  8
想像線
 48
0.5
100
AcDbLine
 10
-1360.948916495346
 20
441.7938062227608
 30
0.0
 11
-1360.948916495346
 21
453.7938062227608
 31
0.0
  0
LINE
  5
37D1
330
1F
100
AcDbEntity
  8
想像線
 48
0.5
100
AcDbLine
 10
-1360.948916495346
 20
453.7938062227608
 30
0.0
 11
-1285.948916495346
 21
453.7938062227608
 31
0.0
  0
CIRCLE
  5
38CF
330
1F
100
AcDbEntity
  8
外形線
100
AcDbCircle
 10
-111.0208574093606
 20
767.2938062227663
 30
0.0
 40
125.0
  0
CIRCLE
  5
556E
330
1F
100
AcDbEntity
  8
細線
100
AcDbCircle
 10
-1560.948916495343
 20
767.2938062227621
 30
0.0
 40
4.0
  0
CIRCLE
  5
556F
330
1F
100
AcDbEntity
  8
0
100
AcDbCircle
 10
-1560.948916495343
 20
767.2938062227621
 30
0.0
 40
3.20000000000012
  0
CIRCLE
  5
5570
330
1F
100
AcDbEntity
  8
細線
100
AcDbCircle
 10
-1523.448916495343
 20
767.2938062227621
 30
0.0
 40
8.0
  0
CIRCLE
  5
5572
330
1F
100
AcDbEntity
  8
細線
100
AcDbCircle
 10
-1464.870272732654
 20
908.7151624600718
 30
0.0
 40
8.0
  0
CIRCLE
  5
5576
330
1F
100
AcDbEntity
  8
細線
100
AcDbCircle
 10
-1323.448916495345
 20
967.2938062227611
 30
0.0
 40
8.0
  0
CIRCLE
  5
5577
330
1F
100
AcDbEntity
  8
細線
100
AcDbCircle
 10
-1182.027560258035
 20
908.7151624600707
 30
0.0
 40
8.0
  0
CIRCLE
  5
5578
330
1F
100
AcDbEntity
  8
細線
100
AcDbCircle
 10
-1182.027560258035
 20
908.7151624600707
 30
0.0
 40
8.0
  0
CIRCLE
  5
557C
330
1F
100
AcDbEntity
  8
0
100
AcDbCircle
 10
-1085.948916495346
 20
767.2938062227621
 30
0.0
 40
3.20000000000012
  0
CIRCLE
  5
557D
330
1F
100
AcDbEntity
  8
細線
100
AcDbCircle
 10
-1085.948916495346
 20
767.2938062227621
 30
0.0
 40
4.0
  0
CIRCLE
  5
557F
330
1F
100
AcDbEntity
  8
細線
100
AcDbCircle
 10
-1123.448916495344
 20
767.2938062227621
 30
0.0
 40
8.0
  0
CIRCLE
  5
5581
330
1F
100
AcDbEntity
  8
細線
100
AcDbCircle
 10
-1182.027560258035
 20
625.8724499854523
 30
0.0
 40
8.0
  0
CIRCLE
  5
5584
330
1F
100
AcDbEntity
  8
細線
100
AcDbCircle
 10
-1323.448916495345
 20
567.2938062227621
 30
0.0
 40
8.0
  0
CIRCLE
  5
5585
330
1F
100
AcDbEntity
  8
0
100
AcDbCircle
 10
-1323.448916495345
 20
529.793806222763
 30
0.0
 40
3.20000000000012
  0
CIRCLE
  5
5586
330
1F
100
AcDbEntity
  8
細線
100
AcDbCircle
 10
-1323.448916495345
 20
529.793806222763
 30
0.0
 40
4.0
  0
CIRCLE
  5
5588
330
1F
100
AcDbEntity
  8
細線
100
AcDbCircle
 10
-1464.870272732654
 20
625.8724499854523
 30
0.0
 40
8.0
  0
CIRCLE
  5
558A
330
1F
100
AcDbEntity
  8
0
100
AcDbCircle
 10
-1323.448916495345
 20
1004.79380622276
 30
0.0
 40
3.20000000000012
  0
CIRCLE
  5
558B
330
1F
100
AcDbEntity
  8
細線
100
AcDbCircle
 10
-1323.448916495345
 20
1004.79380622276
 30
0.0
 40
4.0
  0
CIRCLE
  5
558C
330
1F
100
AcDbEntity
  8
細線
100
AcDbCircle
 10
-1323.448916495345
 20
629.7938062227621
 30
0.0
 40
6.0
  0
CIRCLE
  5
558D
330
1F
100
AcDbEntity
  8
外形線
100
AcDbCircle
 10
-1323.448916495345
 20
629.7938062227621
 30
0.0
 40
4.800000000000181
  0
ARC
  5
558F
330
1F
100
AcDbEntity
  8
中心線
100
AcDbCircle
 10
-1323.448916495345
 20
767.2938062227621
 30
0.0
 40
137.4999999999995
100
AcDbArc
 50
175.9905042767178
 51
184.0094957232819
  0
CIRCLE
  5
5590
330
1F
100
AcDbEntity
  8
外形線
100
AcDbCircle
 10
-1460.948916495343
 20
767.2938062227609
 30
0.0
 40
4.800000000000181
  0
CIRCLE
  5
5591
330
1F
100
AcDbEntity
  8
細線
100
AcDbCircle
 10
-1460.948916495343
 20
767.2938062227609
 30
0.0
 40
6.0
  0
CIRCLE
  5
5592
330
1F
100
AcDbEntity
  8
細線
100
AcDbCircle
 10
-1323.448916495345
 20
904.7938062227611
 30
0.0
 40
6.0
  0
CIRCLE
  5
5593
330
1F
100
AcDbEntity
  8
外形線
100
AcDbCircle
 10
-1323.448916495345
 20
904.7938062227611
 30
0.0
 40
4.800000000000181
  0
CIRCLE
  5
5596
330
1F
100
AcDbEntity
  8
外形線
100
AcDbCircle
 10
-1185.948916495344
 20
767.2938062227621
 30
0.0
 40
4.800000000000181
  0
CIRCLE
  5
5597
330
1F
100
AcDbEntity
  8
細線
100
AcDbCircle
 10
-1185.948916495344
 20
767.2938062227621
 30
0.0
 40
6.0
  0
LINE
  5
5FF3
330
1F
100
AcDbEntity
  8
中心線
 48
0.4
100
AcDbLine
 10
-1007.948916495345
 20
767.2938062227615
 30
0.0
 11
-986.0755864360317
 21
767.2938062227615
 31
0.0
  0
CIRCLE
  5
9BEF
330
1F
100
AcDbEntity
  8
細線
100
AcDbCircle
 10
172.6101590715989
 20
884.7776199588505
 30
0.0
 40
3.0
  0
CIRCLE
  5
9BF0
330
1F
100
AcDbEntity
  8
外形線
100
AcDbCircle
 10
172.6101590715989
 20
884.7776199588505
 30
0.0
 40
2.475000000000134
  0
CIRCLE
  5
9BF2
330
1F
100
AcDbEntity
  8
外形線
100
AcDbCircle
 10
172.6101590715989
 20
884.7776199588505
 30
0.0
 40
3.5
  0
CIRCLE
  5
9BF4
330
1F
100
AcDbEntity
  8
外形線
100
AcDbCircle
 10
6.46295632671422
 20
483.6627897418035
 30
0.0
 40
3.5
  0
CIRCLE
  5
9BF5
330
1F
100
AcDbEntity
  8
細線
100
AcDbCircle
 10
6.46295632671422
 20
483.6627897418035
 30
0.0
 40
3.0
  0
CIRCLE
  5
9BF6
330
1F
100
AcDbEntity
  8
外形線
100
AcDbCircle
 10
6.46295632671422
 20
483.6627897418035
 30
0.0
 40
2.475000000000134
  0
CIRCLE
  5
9BF7
330
1F
100
AcDbEntity
  8
細線
100
AcDbCircle
 10
-394.651873890333
 20
649.8099924866878
 30
0.0
 40
3.0
  0
CIRCLE
  5
9BF8
330
1F
100
AcDbEntity
  8
外形線
100
AcDbCircle
 10
-394.651873890333
 20
649.8099924866878
 30
0.0
 40
2.475000000000134
  0
CIRCLE
  5
9BFA
330
1F
100
AcDbEntity
  8
外形線
100
AcDbCircle
 10
-394.651873890333
 20
649.8099924866878
 30
0.0
 40
3.5
  0
CIRCLE
  5
9BFD
330
1F
100
AcDbEntity
  8
外形線
100
AcDbCircle
 10
-228.5046711454488
 20
1050.924822703735
 30
0.0
 40
2.475000000000134
  0
CIRCLE
  5
9BFE
330
1F
100
AcDbEntity
  8
細線
100
AcDbCircle
 10
-228.5046711454488
 20
1050.924822703735
 30
0.0
 40
3.0
  0
CIRCLE
  5
9BFF
330
1F
100
AcDbEntity
  8
外形線
100
AcDbCircle
 10
-228.5046711454488
 20
1050.924822703735
 30
0.0
 40
3.5
  0
LINE
  5
9C21
330
1F
100
AcDbEntity
  8
外形線
100
AcDbLine
 10
-173.5180357612198
 20
1066.110846410954
 30
0.0
 11
-174.1938484578604
 21
1069.508386270057
 31
0.0
  0
LINE
  5
9C22
330
1F
100
AcDbEntity
  8
外形線
100
AcDbLine
 10
-171.5893989649704
 20
1071.792427165654
 30
0.0
 11
-174.193848438352
 21
1069.508386171979
 31
0.0
  0
LINE
  5
9C23
330
1F
100
AcDbEntity
  8
外形線
100
AcDbLine
 10
-170.2377735716894
 20
1064.997347447454
 30
0.0
 11
-173.5180357807294
 21
1066.110846509035
 31
0.0
  0
LINE
  5
9C24
330
1F
100
AcDbEntity
  8
外形線
100
AcDbLine
 10
-167.6333240788003
 20
1067.281388343052
 30
0.0
 11
-168.3091367754409
 21
1070.678928202154
 31
0.0
  0
LINE
  5
9C25
330
1F
100
AcDbEntity
  8
外形線
100
AcDbLine
 10
-170.2377734351264
 20
1064.997346760903
 30
0.0
 11
-167.6333239812555
 21
1067.281387852661
 31
0.0
  0
LINE
  5
9C26
330
1F
100
AcDbEntity
  8
外形線
100
AcDbLine
 10
-168.3091368729859
 20
1070.678928692547
 30
0.0
 11
-171.5893991015339
 21
1071.792427852207
 31
0.0
  0
LINE
  5
9CD2
330
1F
100
AcDbEntity
  8
外形線
100
AcDbLine
 10
-788.0313583906609
 20
1080.29380622276
 30
0.0
 11
-788.0313583906586
 21
767.2938062227609
 31
0.0
  0
LINE
  5
9CD3
330
1F
100
AcDbEntity
  8
外形線
100
AcDbLine
 10
-786.0313583906607
 20
1080.29380622276
 30
0.0
 11
-786.0313583906586
 21
767.2938062227609
 31
0.0
  0
LINE
  5
9CD4
330
1F
100
AcDbEntity
  8
外形線
100
AcDbLine
 10
-706.0313583906602
 20
1082.29380622276
 30
0.0
 11
-706.0313583906649
 21
767.2938062227614
 31
0.0
  0
LINE
  5
9CD5
330
1F
100
AcDbEntity
  8
外形線
100
AcDbLine
 10
-671.0313583906609
 20
1082.29380622276
 30
0.0
 11
-671.0313583906604
 21
767.2938062227609
 31
0.0
  0
LINE
  5
9D51
330
1F
100
AcDbEntity
  8
外形線
100
AcDbLine
 10
-667.0313583906609
 20
627.2938062227612
 30
0.0
 11
-667.0313583906609
 21
767.2938062227609
 31
0.0
  0
LINE
  5
9D52
330
1F
100
AcDbEntity
  8
破線
100
AcDbLine
 10
-671.0313583906609
 20
652.2938062227612
 30
0.0
 11
-671.0313583906609
 21
767.2938062227609
 31
0.0
  0
LINE
  5
9D58
330
1F
100
AcDbEntity
  8
外形線
100
AcDbLine
 10
-671.0313583906607
 20
452.2938062227614
 30
0.0
 11
-671.0313583906606
 21
767.2938062227609
 31
0.0
  0
LINE
  5
9D59
330
1F
100
AcDbEntity
  8
外形線
100
AcDbLine
 10
-706.0313583906602
 20
452.2938062227611
 30
0.0
 11
-706.031358390665
 21
767.293806222761
 31
0.0
  0
LINE
  5
9D5A
330
1F
100
AcDbEntity
  8
外形線
100
AcDbLine
 10
-796.0313583906605
 20
542.7938062227622
 30
0.0
 11
-796.0313583906605
 21
767.2938062227609
 31
0.0
  0
LINE
  5
9D5B
330
1F
100
AcDbEntity
  8
外形線
100
AcDbLine
 10
-792.0313583906605
 20
517.7938062227625
 30
0.0
 11
-792.0313583906584
 21
767.2938062227609
 31
0.0
  0
LINE
  5
9D5C
330
1F
100
AcDbEntity
  8
外形線
100
AcDbLine
 10
-788.0313583906609
 20
454.2938062227611
 30
0.0
 11
-788.0313583906586
 21
767.2938062227609
 31
0.0
  0
LINE
  5
9D5D
330
1F
100
AcDbEntity
  8
外形線
100
AcDbLine
 10
-786.0313583906607
 20
454.2938062227611
 30
0.0
 11
-786.0313583906586
 21
767.2938062227609
 31
0.0
  0
LINE
  5
9D60
330
1F
100
AcDbEntity
  8
破線
100
AcDbLine
 10
-671.5313583906593
 20
717.2938062227553
 30
0.0
 11
-792.0313583906589
 21
717.2938062227609
 31
0.0
  0
LINE
  5
9D61
330
1F
100
AcDbEntity
  8
中心線
100
AcDbLine
 10
-728.7625025780696
 20
477.293806222761
 30
0.0
 11
-667.6616077264575
 21
477.293806222761
 31
0.0
  0
LINE
  5
9D62
330
1F
100
AcDbEntity
  8
外形線
100
AcDbLine
 10
-671.0313583906607
 20
452.2938062227614
 30
0.0
 11
-784.0313583906609
 21
452.293806222761
 31
0.0
  0
LINE
  5
9D6A
330
1F
100
AcDbEntity
  8
外形線
100
AcDbLine
 10
-791.5313583906605
 20
517.2938062227625
 30
0.0
 11
-792.0313583906605
 21
517.7938062227625
 31
0.0
  0
LINE
  5
9D6B
330
1F
100
AcDbEntity
  8
外形線
100
AcDbLine
 10
-791.5313583906605
 20
517.2938062227625
 30
0.0
 11
-788.0313583906604
 21
517.2938062227618
 31
0.0
  0
LINE
  5
9D6E
330
1F
100
AcDbEntity
  8
外形線
100
AcDbLine
 10
-788.0313583906609
 20
454.2938062227611
 30
0.0
 11
-786.0313583906607
 21
454.2938062227611
 31
0.0
  0
LINE
  5
9D6F
330
1F
100
AcDbEntity
  8
外形線
100
AcDbLine
 10
-786.0313583906607
 20
454.293806222761
 30
0.0
 11
-784.0313583906609
 21
452.293806222761
 31
0.0
  0
LINE
  5
9D70
330
1F
100
AcDbEntity
  8
外形線
100
AcDbLine
 10
-788.0313583906605
 20
464.9938062227608
 30
0.0
 11
-788.0313583906605
 21
455.5938062227609
 31
0.0
  0
LINE
  5
9D71
330
1F
100
AcDbEntity
  8
外形線
100
AcDbLine
 10
-788.260969630455
 20
455.5938062227609
 30
0.0
 11
-788.0313583906605
 21
455.5938062227609
 31
0.0
  0
ARC
  5
9D72
330
1F
100
AcDbEntity
  8
外形線
100
AcDbCircle
 10
-784.5313583906604
 20
460.293806222761
 30
0.0
 40
6.000000000000047
100
AcDbArc
 50
128.4332063408554
 51
231.5667936591441
  0
LINE
  5
9D73
330
1F
100
AcDbEntity
  8
外形線
100
AcDbLine
 10
-788.260969630455
 20
464.9938062227608
 30
0.0
 11
-788.0313583906605
 21
464.9938062227608
 31
0.0
  0
LINE
  5
9D74
330
1F
100
AcDbEntity
  8
中心線
 48
0.1
100
AcDbLine
 10
-793.5313583906605
 20
460.293806222761
 30
0.0
 11
-778.0313583906607
 21
460.293806222761
 31
0.0
  0
LINE
  5
9D76
330
1F
100
AcDbEntity
  8
外形線
100
AcDbLine
 10
-795.5313583906604
 20
542.2938062227622
 30
0.0
 11
-796.0313583906605
 21
542.7938062227622
 31
0.0
  0
LINE
  5
9D77
330
1F
100
AcDbEntity
  8
外形線
100
AcDbLine
 10
-795.5313583906604
 20
542.2938062227622
 30
0.0
 11
-792.0313583906605
 21
542.2938062227622
 31
0.0
  0
LINE
  5
9D78
330
1F
100
AcDbEntity
  8
中心線
100
AcDbLine
 10
-799.8392571036911
 20
567.2938062227611
 30
0.0
 11
-755.696358981942
 21
567.2938062227611
 31
0.0
  0
LINE
  5
9D7A
330
1F
100
AcDbEntity
  8
破線
100
AcDbLine
 10
-796.0313583906605
 20
617.2938062227611
 30
0.0
 11
-792.0313583906597
 21
617.2938062227611
 31
0.0
  0
LINE
  5
9DAC
330
1F
100
AcDbEntity
  8
外形線
100
AcDbLine
 10
-671.0313583906606
 20
627.2938062227617
 30
0.0
 11
-667.0313583906609
 21
627.2938062227612
 31
0.0
  0
LINE
  5
9DAD
330
1F
100
AcDbEntity
  8
破線
100
AcDbLine
 10
-667.0313583906609
 20
642.2938062227611
 30
0.0
 11
-671.0313583906609
 21
642.2938062227611
 31
0.0
  0
LINE
  5
9DB6
330
1F
100
AcDbEntity
  8
破線
100
AcDbLine
 10
-691.4110780995827
 20
714.0938062227612
 30
0.0
 11
-671.0313583906606
 21
714.0938062227612
 31
0.0
  0
LINE
  5
9DED
330
1F
100
AcDbEntity
  8
破線
100
AcDbLine
 10
-671.5313583906593
 20
817.2938062227672
 30
0.0
 11
-792.0313583906589
 21
817.2938062227611
 31
0.0
  0
LINE
  5
9DEE
330
1F
100
AcDbEntity
  8
中心線
100
AcDbLine
 10
-801.3204246781825
 20
767.2938062227609
 30
0.0
 11
-659.8156784045262
 21
767.2938062227609
 31
0.0
  0
LINE
  5
9DF0
330
1F
100
AcDbEntity
  8
外形線
100
AcDbLine
 10
-792.0313583906605
 20
1016.79380622276
 30
0.0
 11
-792.0313583906584
 21
767.2938062227609
 31
0.0
  0
LINE
  5
9DF1
330
1F
100
AcDbEntity
  8
外形線
100
AcDbLine
 10
-796.0313583906605
 20
991.7938062227603
 30
0.0
 11
-796.0313583906605
 21
767.2938062227609
 31
0.0
  0
LINE
  5
9DF4
330
1F
100
AcDbEntity
  8
中心線
100
AcDbLine
 10
-799.8392571036911
 20
967.2938062227611
 30
0.0
 11
-755.696358981942
 21
967.2938062227611
 31
0.0
  0
LINE
  5
9DF6
330
1F
100
AcDbEntity
  8
破線
100
AcDbLine
 10
-796.0313583906605
 20
917.2938062227611
 30
0.0
 11
-792.0313583906597
 21
917.2938062227611
 31
0.0
  0
LINE
  5
9DF7
330
1F
100
AcDbEntity
  8
外形線
100
AcDbLine
 10
-791.5313583906605
 20
1017.29380622276
 30
0.0
 11
-792.0313583906605
 21
1016.79380622276
 31
0.0
  0
LINE
  5
9DF8
330
1F
100
AcDbEntity
  8
外形線
100
AcDbLine
 10
-795.5313583906604
 20
992.2938062227602
 30
0.0
 11
-796.0313583906605
 21
991.7938062227603
 31
0.0
  0
LINE
  5
9DF9
330
1F
100
AcDbEntity
  8
外形線
100
AcDbLine
 10
-791.5313583906605
 20
1017.29380622276
 30
0.0
 11
-788.0313583906604
 21
1017.29380622276
 31
0.0
  0
LINE
  5
9DFA
330
1F
100
AcDbEntity
  8
外形線
100
AcDbLine
 10
-795.5313583906604
 20
992.2938062227602
 30
0.0
 11
-792.0313583906605
 21
992.2938062227602
 31
0.0
  0
LINE
  5
9DFF
330
1F
100
AcDbEntity
  8
外形線
100
AcDbLine
 10
-667.0313583906609
 20
907.2938062227612
 30
0.0
 11
-667.0313583906609
 21
767.2938062227609
 31
0.0
  0
LINE
  5
9E03
330
1F
100
AcDbEntity
  8
破線
100
AcDbLine
 10
-671.0313583906609
 20
882.2938062227612
 30
0.0
 11
-671.0313583906609
 21
767.2938062227609
 31
0.0
  0
LINE
  5
9E04
330
1F
100
AcDbEntity
  8
破線
100
AcDbLine
 10
-691.4110780995827
 20
820.4938062227611
 30
0.0
 11
-671.0313583906606
 21
820.4938062227611
 31
0.0
  0
LINE
  5
9E0A
330
1F
100
AcDbEntity
  8
破線
100
AcDbLine
 10
-667.0313583906609
 20
892.2938062227611
 30
0.0
 11
-671.0313583906609
 21
892.2938062227611
 31
0.0
  0
LINE
  5
9E22
330
1F
100
AcDbEntity
  8
外形線
100
AcDbLine
 10
-667.0313583906609
 20
828.6359114859196
 30
0.0
 11
-667.0313583906609
 21
873.9517009596033
 31
0.0
  0
LINE
  5
9E2B
330
1F
100
AcDbEntity
  8
外形線
100
AcDbLine
 10
-671.0313583906606
 20
907.2938062227606
 30
0.0
 11
-667.0313583906609
 21
907.2938062227612
 31
0.0
  0
LINE
  5
9E3A
330
1F
100
AcDbEntity
  8
中心線
100
AcDbLine
 10
-728.7625025780696
 20
1057.293806222759
 30
0.0
 11
-667.6616077264575
 21
1057.293806222759
 31
0.0
  0
LINE
  5
9E3B
330
1F
100
AcDbEntity
  8
外形線
100
AcDbLine
 10
-671.0313583906609
 20
1082.29380622276
 30
0.0
 11
-784.0313583906609
 21
1082.29380622276
 31
0.0
  0
LINE
  5
9E4F
330
1F
100
AcDbEntity
  8
外形線
100
AcDbLine
 10
-786.0313583906607
 20
1080.29380622276
 30
0.0
 11
-784.0313583906609
 21
1082.29380622276
 31
0.0
  0
LINE
  5
9E50
330
1F
100
AcDbEntity
  8
外形線
100
AcDbLine
 10
-788.0313583906609
 20
1080.29380622276
 30
0.0
 11
-786.0313583906607
 21
1080.29380622276
 31
0.0
  0
ARC
  5
9E51
330
1F
100
AcDbEntity
  8
外形線
100
AcDbCircle
 10
-784.5313583906604
 20
1074.29380622276
 30
0.0
 40
6.000000000000047
100
AcDbArc
 50
128.4332063408554
 51
231.5667936591441
  0
LINE
  5
9E52
330
1F
100
AcDbEntity
  8
外形線
100
AcDbLine
 10
-788.260969630455
 20
1078.993806222759
 30
0.0
 11
-788.0313583906605
 21
1078.993806222759
 31
0.0
  0
LINE
  5
9E53
330
1F
100
AcDbEntity
  8
外形線
100
AcDbLine
 10
-788.260969630455
 20
1069.593806222761
 30
0.0
 11
-788.0313583906605
 21
1069.593806222761
 31
0.0
  0
LINE
  5
9E54
330
1F
100
AcDbEntity
  8
外形線
100
AcDbLine
 10
-788.0313583906605
 20
1069.593806222761
 30
0.0
 11
-788.0313583906605
 21
1078.993806222759
 31
0.0
  0
LINE
  5
9E55
330
1F
100
AcDbEntity
  8
中心線
 48
0.1
100
AcDbLine
 10
-793.5313583906605
 20
1074.29380622276
 30
0.0
 11
-778.0313583906607
 21
1074.29380622276
 31
0.0
  0
CIRCLE
  5
18654
330
1F
100
AcDbEntity
  8
外形線
100
AcDbCircle
 10
-111.0208574093606
 20
767.2938062227663
 30
0.0
 40
315.0
  0
LINE
  5
1867A
330
1F
100
AcDbEntity
  8
中心線
100
AcDbLine
 10
-768.5313583906605
 20
1113.277761995226
 30
0.0
 11
-768.5313583906605
 21
1073.17812086765
 31
0.0
  0
LINE
  5
1867B
330
1F
100
AcDbEntity
  8
想像線
 48
0.5
100
AcDbLine
 10
-777.5313583906607
 20
1109.293806222759
 30
0.0
 11
-777.5313583906607
 21
1098.29380622276
 31
0.0
  0
LINE
  5
1867C
330
1F
100
AcDbEntity
  8
想像線
 48
0.5
100
AcDbLine
 10
-759.531358390661
 20
1109.293806222759
 30
0.0
 11
-759.531358390661
 21
1098.29380622276
 31
0.0
  0
LINE
  5
1867D
330
1F
100
AcDbEntity
  8
想像線
 48
0.5
100
AcDbLine
 10
-751.0313583906605
 20
1092.79380622276
 30
0.0
 11
-851.031358390661
 21
1092.793806222762
 31
0.0
  0
LINE
  5
1867E
330
1F
100
AcDbEntity
  8
想像線
 48
0.5
100
AcDbLine
 10
-746.0313583906605
 20
1080.793806222762
 30
0.0
 11
-851.031358390661
 21
1080.793806222762
 31
0.0
  0
LINE
  5
18681
330
1F
100
AcDbEntity
  8
想像線
 48
0.5
100
AcDbLine
 10
-851.031358390661
 20
1092.793806222762
 30
0.0
 11
-851.031358390661
 21
1080.79380622276
 31
0.0
  0
LINE
  5
18682
330
1F
100
AcDbEntity
  8
想像線
 48
0.5
100
AcDbLine
 10
-833.5313583906609
 20
1081.793806222759
 30
0.0
 11
-833.5313583906609
 21
1091.793806222762
 31
0.0
  0
LINE
  5
18683
330
1F
100
AcDbEntity
  8
想像線
 48
0.5
100
AcDbLine
 10
-833.5313583906609
 20
1081.793806222759
 30
0.0
 11
-834.5313583906611
 21
1080.79380622276
 31
0.0
  0
LINE
  5
18684
330
1F
100
AcDbEntity
  8
想像線
 48
0.5
100
AcDbLine
 10
-833.5313583906609
 20
1091.793806222762
 30
0.0
 11
-834.5313583906611
 21
1092.793806222762
 31
0.0
  0
LINE
  5
18685
330
1F
100
AcDbEntity
  8
想像線
 48
0.5
100
AcDbLine
 10
-798.531358390661
 20
1081.793806222759
 30
0.0
 11
-798.531358390661
 21
1091.793806222762
 31
0.0
  0
LINE
  5
18686
330
1F
100
AcDbEntity
  8
中心線
100
AcDbLine
 10
-816.031358390661
 20
1096.407317309658
 30
0.0
 11
-816.031358390661
 21
1078.015635021524
 31
0.0
  0
LINE
  5
18688
330
1F
100
AcDbEntity
  8
想像線
 48
0.5
100
AcDbLine
 10
-798.531358390661
 20
1091.793806222762
 30
0.0
 11
-797.531358390661
 21
1092.793806222762
 31
0.0
  0
LINE
  5
1868E
330
1F
100
AcDbEntity
  8
想像線
 48
0.5
100
AcDbLine
 10
-756.5313583906609
 20
1095.293806222761
 30
0.0
 11
-780.531358390661
 21
1095.293806222761
 31
0.0
  0
LINE
  5
1868F
330
1F
100
AcDbEntity
  8
想像線
 48
0.5
100
AcDbLine
 10
-757.781358390661
 20
1098.293806222762
 30
0.0
 11
-779.2813583906609
 21
1098.29380622276
 31
0.0
  0
LINE
  5
18690
330
1F
100
AcDbEntity
  8
想像線
 48
0.5
100
AcDbLine
 10
-780.531358390661
 20
1095.293806222761
 30
0.0
 11
-780.531358390661
 21
1092.793806222762
 31
0.0
  0
LINE
  5
18691
330
1F
100
AcDbEntity
  8
想像線
 48
0.5
100
AcDbLine
 10
-779.2813583906609
 20
1098.29380622276
 30
0.0
 11
-779.2813583906609
 21
1095.293806222761
 31
0.0
  0
LINE
  5
18692
330
1F
100
AcDbEntity
  8
想像線
 48
0.5
100
AcDbLine
 10
-756.5313583906609
 20
1095.293806222761
 30
0.0
 11
-756.5313583906605
 21
1092.793806222762
 31
0.0
  0
LINE
  5
18693
330
1F
100
AcDbEntity
  8
想像線
 48
0.5
100
AcDbLine
 10
-757.781358390661
 20
1098.29380622276
 30
0.0
 11
-757.781358390661
 21
1095.293806222761
 31
0.0
  0
LINE
  5
18694
330
1F
100
AcDbEntity
  8
想像線
 48
0.5
100
AcDbLine
 10
-751.0313583906605
 20
1092.79380622276
 30
0.0
 11
-751.0313583906605
 21
1080.79380622276
 31
0.0
  0
LINE
  5
18695
330
1F
100
AcDbEntity
  8
想像線
 48
0.5
100
AcDbLine
 10
-746.0313583906605
 20
1082.29380622276
 30
0.0
 11
-746.0313583906605
 21
1080.793806222762
 31
0.0
  0
LINE
  5
18696
330
1F
100
AcDbEntity
  8
想像線
 48
0.5
100
AcDbLine
 10
-760.5313583906609
 20
1110.293806222758
 30
0.0
 11
-776.5313583906601
 21
1110.293806222758
 31
0.0
  0
LINE
  5
18697
330
1F
100
AcDbEntity
  8
想像線
 48
0.5
100
AcDbLine
 10
-777.5313583906607
 20
1109.293806222759
 30
0.0
 11
-776.5313583906601
 21
1110.293806222758
 31
0.0
  0
LINE
  5
18698
330
1F
100
AcDbEntity
  8
想像線
 48
0.5
100
AcDbLine
 10
-759.531358390661
 20
1109.293806222759
 30
0.0
 11
-760.5313583906609
 21
1110.293806222758
 31
0.0
  0
LINE
  5
186AA
330
1F
100
AcDbEntity
  8
想像線
 48
0.5
100
AcDbLine
 10
-798.531358390661
 20
442.7938062227606
 30
0.0
 11
-797.531358390661
 21
441.7938062227606
 31
0.0
  0
LINE
  5
1880B
330
1F
100
AcDbEntity
  8
中心線
100
AcDbLine
 10
-98.71585740936053
 20
662.1680400892004
 30
0.0
 11
-98.71585740936053
 21
667.8095723563314
 31
0.0
  0
ARC
  5
1880C
330
1F
100
AcDbEntity
  8
実線
100
AcDbCircle
 10
-97.59775225438033
 20
663.8707010677847
 30
0.0
 40
2.846893988330908
100
AcDbArc
 50
270.0
 51
0.0
  0
ARC
  5
1880D
330
1F
100
AcDbEntity
  8
実線
100
AcDbCircle
 10
-124.4439625643412
 20
663.8707010677847
 30
0.0
 40
2.846893988330908
100
AcDbArc
 50
180.0
 51
270.0
  0
LINE
  5
1880E
330
1F
100
AcDbEntity
  8
中心線
100
AcDbLine
 10
-123.32585740936
 20
662.1680400892004
 30
0.0
 11
-123.32585740936
 21
667.8095723563314
 31
0.0
  0
LINE
  5
18812
330
1F
100
AcDbEntity
  8
実線
100
AcDbLine
 10
-97.59775225438033
 20
661.0238070794553
 30
0.0
 11
-124.4439625643412
 21
661.0238070794543
 31
0.0
  0
CIRCLE
  5
18858
330
1F
100
AcDbEntity
  8
外形線
100
AcDbCircle
 10
-111.0208574093606
 20
851.2938062227663
 30
0.0
 40
20.5
  0
LWPOLYLINE
  5
18859
330
1F
100
AcDbEntity
  8
外形線
100
AcDbPolyline
 90
       12
 70
   129
 43
0.0
 10
-90.52085740936012
 20
860.9442048625032
 42
0.0418357922730061
 10
-92.41336703070215
 20
864.2221276804784
 10
-109.1283477880199
 20
873.8725263202146
 42
0.041835792273005
 10
-112.913367030702
 20
873.8725263202146
 10
-129.6283477880183
 20
864.2221276804793
 42
0.0418357922730106
 10
-131.52085740936
 20
860.9442048625023
 10
-131.52085740936
 20
841.6434075830306
 42
0.0418357922730243
 10
-129.6283477880183
 20
838.3654847650531
 10
-112.913367030702
 20
828.7150861253175
 42
0.041835792273011
 10
-109.1283477880184
 20
828.7150861253175
 10
-92.41336703070215
 20
838.3654847650531
 42
0.0418357922730047
 10
-90.52085740936147
 20
841.6434075830292
  0
ARC
  5
18862
330
1F
100
AcDbEntity
  8
実線
100
AcDbCircle
 10
-97.59775225438033
 20
690.7169113777459
 30
0.0
 40
2.846893988330908
100
AcDbArc
 50
0.0
 51
90.0
  0
ARC
  5
18864
330
1F
100
AcDbEntity
  8
中心線
100
AcDbCircle
 10
-111.0208574093606
 20
767.2938062227663
 30
0.0
 40
90.0
100
AcDbArc
 50
259.0932247089091
 51
324.6969831732898
  0
CIRCLE
  5
18865
330
1F
100
AcDbEntity
  8
実線
100
AcDbCircle
 10
-111.0208574093606
 20
677.2938062227662
 30
0.0
 40
12.70000000000017
  0
CIRCLE
  5
18866
330
1F
100
AcDbEntity
  8
細線
 48
5.0
100
AcDbCircle
 10
-111.0208574093606
 20
677.2938062227662
 30
0.0
 40
12.01300000000008
  0
CIRCLE
  5
18867
330
1F
100
AcDbEntity
  8
寸法
 48
0.5
100
AcDbCircle
 10
-98.71585740936053
 20
689.5988062227665
 30
0.0
 40
1.524999999999999
  0
LINE
  5
18868
330
1F
100
AcDbEntity
  8
中心線
100
AcDbLine
 10
-98.71585740936053
 20
692.4195723563319
 30
0.0
 11
-98.71585740936053
 21
686.778040089201
 31
0.0
  0
CIRCLE
  5
18869
330
1F
100
AcDbEntity
  8
寸法
 48
0.5
100
AcDbCircle
 10
-123.325857409361
 20
689.5988062227665
 30
0.0
 40
1.524999999999999
  0
LINE
  5
1886A
330
1F
100
AcDbEntity
  8
実線
100
AcDbLine
 10
-127.2908565526718
 20
690.7169113777459
 30
0.0
 11
-127.2908565526718
 21
663.8707010677847
 31
0.0
  0
LINE
  5
1886B
330
1F
100
AcDbEntity
  8
中心線
100
AcDbLine
 10
-123.32585740936
 20
692.4195723563319
 30
0.0
 11
-123.32585740936
 21
686.778040089201
 31
0.0
  0
ARC
  5
1886C
330
1F
100
AcDbEntity
  8
0
100
AcDbCircle
 10
-111.0208574093626
 20
677.2938062227662
 30
0.0
 40
10.13620525815749
100
AcDbArc
 50
183.3073621796749
 51
176.692637820325
  0
CIRCLE
  5
1886D
330
1F
100
AcDbEntity
  8
寸法
 48
0.5
100
AcDbCircle
 10
-117.0830352358511
 20
680.7938062227663
 30
0.0
 40
1.0
  0
CIRCLE
  5
1886E
330
1F
100
AcDbEntity
  8
寸法
 48
0.5
100
AcDbCircle
 10
-117.0830352358521
 20
673.7938062227645
 30
0.0
 40
1.0
  0
CIRCLE
  5
1886F
330
1F
100
AcDbEntity
  8
寸法
 48
0.5
100
AcDbCircle
 10
-123.325857409361
 20
664.988806222766
 30
0.0
 40
1.524999999999999
  0
LINE
  5
18870
330
1F
100
AcDbEntity
  8
0
100
AcDbLine
 10
-121.1401799228829
 20
677.8785872953516
 30
0.0
 11
-119.987500522348
 21
677.8785872953516
 31
0.0
  0
LINE
  5
18871
330
1F
100
AcDbEntity
  8
0
100
AcDbLine
 10
-121.1401799228829
 20
676.7090251501797
 30
0.0
 11
-119.987500522348
 21
676.7090251501797
 31
0.0
  0
LINE
  5
18872
330
1F
100
AcDbEntity
  8
中心線
100
AcDbLine
 10
-126.1466235429254
 20
664.9888062227659
 30
0.0
 11
-120.5050912757946
 21
664.9888062227659
 31
0.0
  0
LINE
  5
18873
330
1F
100
AcDbEntity
  8
0
100
AcDbLine
 10
-119.987500522348
 20
677.8785872953516
 30
0.0
 11
-119.987500522348
 21
676.7090251501797
 31
0.0
  0
CIRCLE
  5
18874
330
1F
100
AcDbEntity
  8
寸法
 48
0.5
100
AcDbCircle
 10
-111.0208574093606
 20
670.2938062227663
 30
0.0
 40
1.0
  0
CIRCLE
  5
18875
330
1F
100
AcDbEntity
  8
寸法
 48
0.5
100
AcDbCircle
 10
-104.9586795828694
 20
673.7938062227653
 30
0.0
 40
1.0
  0
CIRCLE
  5
18876
330
1F
100
AcDbEntity
  8
寸法
 48
0.5
100
AcDbCircle
 10
-104.9586795828701
 20
680.7938062227663
 30
0.0
 40
1.0
  0
CIRCLE
  5
18877
330
1F
100
AcDbEntity
  8
寸法
 48
0.5
100
AcDbCircle
 10
-111.0208574093606
 20
684.2938062227663
 30
0.0
 40
1.0
  0
CIRCLE
  5
18878
330
1F
100
AcDbEntity
  8
寸法
 48
0.5
100
AcDbCircle
 10
-111.0208574093606
 20
677.2938062227662
 30
0.0
 40
1.0
  0
CIRCLE
  5
18879
330
1F
100
AcDbEntity
  8
寸法
 48
0.5
100
AcDbCircle
 10
-98.71585740936144
 20
664.988806222766
 30
0.0
 40
1.524999999999999
  0
LINE
  5
1887A
330
1F
100
AcDbEntity
  8
中心線
100
AcDbLine
 10
-95.89509127579503
 20
664.9888062227659
 30
0.0
 11
-101.536623542926
 21
664.9888062227659
 31
0.0
  0
LINE
  5
1887B
330
1F
100
AcDbEntity
  8
実線
100
AcDbLine
 10
-97.59775225438033
 20
693.5638053660762
 30
0.0
 11
-124.4439625643412
 21
693.563805366077
 31
0.0
  0
ARC
  5
1887C
330
1F
100
AcDbEntity
  8
実線
100
AcDbCircle
 10
-124.4439625643412
 20
690.7169113777459
 30
0.0
 40
2.846893988330908
100
AcDbArc
 50
90.0
 51
180.0
  0
LINE
  5
1887D
330
1F
100
AcDbEntity
  8
中心線
100
AcDbLine
 10
-126.1466235429254
 20
689.5988062227663
 30
0.0
 11
-120.5050912757946
 21
689.5988062227663
 31
0.0
  0
LINE
  5
1887E
330
1F
100
AcDbEntity
  8
中心線
100
AcDbLine
 10
-95.89509127579503
 20
689.5988062227663
 30
0.0
 11
-101.536623542926
 21
689.5988062227663
 31
0.0
  0
LINE
  5
18880
330
1F
100
AcDbEntity
  8
実線
100
AcDbLine
 10
-58.10249509067626
 20
710.5565127699652
 30
0.0
 11
-43.69761372211678
 21
685.6065263626177
 31
0.0
  0
LINE
  5
18881
330
1F
100
AcDbEntity
  8
実線
100
AcDbLine
 10
-44.81586452156398
 20
681.4331575634759
 30
0.0
 11
-69.76585092891172
 21
667.0282761949164
 31
0.0
  0
CIRCLE
  5
18883
330
1F
100
AcDbEntity
  8
寸法
 48
0.5
100
AcDbCircle
 10
-69.05194632261054
 20
687.6015198821646
 30
0.0
 40
1.0
  0
CIRCLE
  5
18884
330
1F
100
AcDbEntity
  8
寸法
 48
0.5
100
AcDbCircle
 10
-73.9524163003548
 20
688.307310344403
 30
0.0
 40
1.0
  0
LINE
  5
18885
330
1F
100
AcDbEntity
  8
実線
100
AcDbLine
 10
-88.34410109661211
 20
693.0965134017114
 30
0.0
 11
-73.93921972805265
 21
668.1465269943636
 31
0.0
  0
LINE
  5
18886
330
1F
100
AcDbEntity
  8
中心線
100
AcDbLine
 10
-75.52243261046578
 20
705.8087308824057
 30
0.0
 11
-56.51928220826494
 21
672.8943088819222
 31
0.0
  0
ARC
  5
18887
330
1F
100
AcDbEntity
  8
0
100
AcDbCircle
 10
-66.02085740936627
 20
689.3515198821646
 30
0.0
 40
11.40323091542728
100
AcDbArc
 50
213.3073621796738
 51
206.6926378203336
  0
CIRCLE
  5
18888
330
1F
100
AcDbEntity
  8
実線
100
AcDbCircle
 10
-66.02085740936536
 20
689.3515198821643
 30
0.0
 40
14.28750000000034
  0
CIRCLE
  5
18889
330
1F
100
AcDbEntity
  8
細線
 48
5.0
100
AcDbCircle
 10
-66.02085740936536
 20
689.3515198821643
 30
0.0
 40
13.52350000000031
  0
LINE
  5
1888A
330
1F
100
AcDbEntity
  8
実線
100
AcDbLine
 10
-94.75085826604979
 20
690.7169113777459
 30
0.0
 11
-94.75085826604979
 21
663.8707010677847
 31
0.0
  0
LINE
  5
1888B
330
1F
100
AcDbEntity
  8
中心線
100
AcDbLine
 10
-73.57823740834238
 20
669.417127745342
 30
0.0
 11
-68.33518255045373
 21
672.4442068789203
 31
0.0
  0
ARC
  5
1888C
330
1F
100
AcDbEntity
  8
実線
100
AcDbCircle
 10
-71.29340992875905
 20
669.6740859942109
 30
0.0
 40
3.055117999694486
100
AcDbArc
 50
209.9999999999988
 51
300.0000000000005
  0
LINE
  5
1888D
330
1F
100
AcDbEntity
  8
0
100
AcDbLine
 10
-76.2088359242166
 20
684.2291406408839
 30
0.0
 11
-75.0858050755246
 21
684.8775228036847
 31
0.0
  0
LINE
  5
1888E
330
1F
100
AcDbEntity
  8
0
100
AcDbLine
 10
-75.55095721755742
 20
683.0896612957317
 30
0.0
 11
-74.42792636886543
 21
683.7380434585333
 31
0.0
  0
LINE
  5
1888F
330
1F
100
AcDbEntity
  8
0
100
AcDbLine
 10
-75.0858050755246
 20
684.8775228036847
 30
0.0
 11
-74.42792636886543
 21
683.7380434585333
 31
0.0
  0
CIRCLE
  5
18890
330
1F
100
AcDbEntity
  8
寸法
 48
0.5
100
AcDbCircle
 10
-70.89094884143332
 20
683.0046931598335
 30
0.0
 40
1.0
  0
CIRCLE
  5
18891
330
1F
100
AcDbEntity
  8
寸法
 48
0.5
100
AcDbCircle
 10
-64.9766478716042
 20
681.4199609911748
 30
0.0
 40
1.0
  0
CIRCLE
  5
18892
330
1F
100
AcDbEntity
  8
寸法
 48
0.5
100
AcDbCircle
 10
-59.67403068703378
 20
684.4814284500952
 30
0.0
 40
1.0
  0
LINE
  5
18893
330
1F
100
AcDbEntity
  8
中心線
100
AcDbLine
 10
-69.44317041260865
 20
668.3091398831874
 30
0.0
 11
-72.47024954618654
 21
673.5521947410759
 31
0.0
  0
CIRCLE
  5
18894
330
1F
100
AcDbEntity
  8
寸法
 48
0.5
100
AcDbCircle
 10
-70.95670997939805
 20
670.9306673121317
 30
0.0
 40
1.524999999999999
  0
CIRCLE
  5
18895
330
1F
100
AcDbEntity
  8
寸法
 48
0.5
100
AcDbCircle
 10
-72.36768413169511
 20
694.2216113142326
 30
0.0
 40
1.0
  0
LINE
  5
18896
330
1F
100
AcDbEntity
  8
実線
100
AcDbLine
 10
-62.27586388981809
 20
711.6747635694126
 30
0.0
 11
-87.22585029716583
 21
697.2698822008529
 31
0.0
  0
LINE
  5
18897
330
1F
100
AcDbEntity
  8
中心線
100
AcDbLine
 10
-85.95524954618623
 20
696.908899881142
 30
0.0
 11
-82.9281704126083
 21
691.6658450232532
 31
0.0
  0
ARC
  5
18898
330
1F
100
AcDbEntity
  8
実線
100
AcDbCircle
 10
-85.69829129731852
 20
694.6240724015582
 30
0.0
 40
3.055117999694486
100
AcDbArc
 50
120.0000000000005
 51
209.9999999999988
  0
LINE
  5
18899
330
1F
100
AcDbEntity
  8
中心線
100
AcDbLine
 10
-87.06323740834113
 20
692.7738328854083
 30
0.0
 11
-81.8201825504534
 21
695.8009120189862
 31
0.0
  0
CIRCLE
  5
1889A
330
1F
100
AcDbEntity
  8
寸法
 48
0.5
100
AcDbCircle
 10
-84.44170997939773
 20
694.2873724521972
 30
0.0
 40
1.524999999999999
  0
CIRCLE
  5
1889B
330
1F
100
AcDbEntity
  8
寸法
 48
0.5
100
AcDbCircle
 10
-67.06506694712652
 20
697.2830787731536
 30
0.0
 40
1.0
  0
CIRCLE
  5
1889C
330
1F
100
AcDbEntity
  8
寸法
 48
0.5
100
AcDbCircle
 10
-62.98976849611927
 20
691.1015198821643
 30
0.0
 40
1.0
  0
LINE
  5
1889D
330
1F
100
AcDbEntity
  8
中心線
100
AcDbLine
 10
-62.59854440612116
 20
710.3938998811412
 30
0.0
 11
-59.57146527254328
 21
705.1508450232532
 31
0.0
  0
ARC
  5
1889E
330
1F
100
AcDbEntity
  8
実線
100
AcDbCircle
 10
-60.74830488997077
 20
709.0289537701182
 30
0.0
 40
3.055117999694486
100
AcDbArc
 50
29.99999999999891
 51
120.0000000000005
  0
LINE
  5
1889F
330
1F
100
AcDbEntity
  8
中心線
100
AcDbLine
 10
-58.46347741038744
 20
709.2859120189857
 30
0.0
 11
-63.70653226827608
 21
706.2588328854077
 31
0.0
  0
CIRCLE
  5
188A0
330
1F
100
AcDbEntity
  8
寸法
 48
0.5
100
AcDbCircle
 10
-61.08500483933267
 20
707.7723724521968
 30
0.0
 40
1.524999999999999
  0
CIRCLE
  5
188A1
330
1F
100
AcDbEntity
  8
寸法
 48
0.5
100
AcDbCircle
 10
-61.15076597729558
 20
695.6983466044947
 30
0.0
 40
1.0
  0
CIRCLE
  5
188A2
330
1F
100
AcDbEntity
  8
寸法
 48
0.5
100
AcDbCircle
 10
-58.08929851837411
 20
690.3957294199263
 30
0.0
 40
1.0
  0
LINE
  5
188A3
330
1F
100
AcDbEntity
  8
中心線
100
AcDbLine
 10
-44.97847741038778
 20
685.9292068789202
 30
0.0
 11
-50.22153226827549
 21
682.9021277453429
 31
0.0
  0
CIRCLE
  5
188A4
330
1F
100
AcDbEntity
  8
寸法
 48
0.5
100
AcDbCircle
 10
-47.60000483933207
 20
684.4156673121315
 30
0.0
 40
1.524999999999999
  0
ARC
  5
188A5
330
1F
100
AcDbEntity
  8
実線
100
AcDbCircle
 10
-46.34342352141128
 20
684.0789673627702
 30
0.0
 40
3.055117999694486
100
AcDbArc
 50
300.0000000000005
 51
29.99999999999891
  0
LINE
  5
188A6
330
1F
100
AcDbEntity
  8
中心線
100
AcDbLine
 10
-46.08646527254268
 20
681.794139883187
 30
0.0
 11
-49.11354440612058
 21
687.0371947410757
 31
0.0
  0
ARC
  5
188BB
330
1F
100
AcDbEntity
  8
中心線
100
AcDbCircle
 10
-111.0208574093606
 20
767.2938062227663
 30
0.0
 40
84.0
100
AcDbArc
 50
72.04478708289433
 51
134.855987555296
  0
HATCH
  5
188BD
330
1F
100
AcDbEntity
  8
0
100
AcDbHatch
 10
0.0
 20
0.0
 30
0.0
210
0.0
220
0.0
230
1.0
  2
SOLID
 70
     1
 71
     0
 91
        2
 92
        7
 72
     1
 73
     1
 93
        3
 10
-111.0208574093604
 20
844.793806222766
 42
0.0
 10
-111.0208574093604
 20
851.2938062227664
 42
0.0
 10
-117.5208574093605
 20
851.2938062227661
 42
0.4142135623730951
 97
        0
 92
        7
 72
     1
 73
     1
 93
        3
 10
-104.5208574093605
 20
851.2938062227661
 42
0.4142135623730951
 10
-111.0208574093604
 20
857.7938062227662
 42
0.0
 10
-111.0208574093604
 20
851.2938062227664
 42
0.0
 97
        0
 75
     0
 76
     1
 47
0.1348330763457408
 98
        2
 10
-113.501546995236
 20
847.5851818351411
 10
-109.0520564397285
 20
853.1156796382028
  0
CIRCLE
  5
188BE
330
1F
100
AcDbEntity
  8
外形線
100
AcDbCircle
 10
-111.0208574093606
 20
851.2938062227663
 30
0.0
 40
6.5
  0
CIRCLE
  5
188BF
330
1F
100
AcDbEntity
  8
外形線
100
AcDbCircle
 10
-111.0208574093606
 20
851.2938062227663
 30
0.0
 40
12.5
  0
CIRCLE
  5
188C0
330
1F
100
AcDbEntity
  8
外形線
100
AcDbCircle
 10
-111.0208574093606
 20
851.2938062227663
 30
0.0
 40
14.0
  0
LINE
  5
18BA2
330
1F
100
AcDbEntity
  8
外形線
100
AcDbLine
 10
-509.8354781201947
 20
1127.14346417397
 30
0.0
 11
-509.835478120194
 21
1038.045449753639
 31
0.0
  0
LINE
  5
18BA3
330
1F
100
AcDbEntity
  8
外形線
100
AcDbLine
 10
-522.8354781201947
 20
1127.14346417397
 30
0.0
 11
-522.8354781201943
 21
1038.04544217225
 31
0.0
  0
LINE
  5
18BA5
330
1F
100
AcDbEntity
  8
中心線
100
AcDbLine
 10
-516.3354781201957
 20
1245.401818783141
 30
0.0
 11
-516.3354781201941
 21
881.2938062227615
 31
0.0
  0
LINE
  5
18BAB
330
1F
100
AcDbEntity
  8
0
100
AcDbLine
 10
-498.8854781201951
 20
1191.64346417397
 30
0.0
 11
-498.8854781201951
 21
1180.908299298168
 31
0.0
  0
LINE
  5
18BAC
330
1F
100
AcDbEntity
  8
0
100
AcDbLine
 10
-533.7854781201956
 20
1191.64346417397
 30
0.0
 11
-533.7854781201953
 21
1180.908299298168
 31
0.0
  0
LINE
  5
18BAD
330
1F
100
AcDbEntity
  8
0
100
AcDbLine
 10
-506.9354781201954
 20
1170.843464173968
 30
0.0
 11
-506.9354781201954
 21
1127.14346417397
 31
0.0
  0
LINE
  5
18BAE
330
1F
100
AcDbEntity
  8
0
100
AcDbLine
 10
-525.7354781201953
 20
1170.843464173968
 30
0.0
 11
-525.7354781201953
 21
1127.14346417397
 31
0.0
  0
LINE
  5
18BAF
330
1F
100
AcDbEntity
  8
0
100
AcDbLine
 10
-525.7354781201953
 20
1127.14346417397
 30
0.0
 11
-506.9354781201954
 21
1127.14346417397
 31
0.0
  0
LINE
  5
18BB0
330
1F
100
AcDbEntity
  8
0
100
AcDbLine
 10
-528.6354781201952
 20
1183.543464173969
 30
0.0
 11
-504.0354781201958
 21
1183.543464173969
 31
0.0
  0
LINE
  5
18BB1
330
1F
100
AcDbEntity
  8
0
100
AcDbLine
 10
-528.6354781201952
 20
1170.843464173968
 30
0.0
 11
-504.0354781201958
 21
1170.843464173968
 31
0.0
  0
CIRCLE
  5
18BB2
330
1F
100
AcDbEntity
  8
0
100
AcDbCircle
 10
-504.0354781201958
 20
1177.19346417397
 30
0.0
 40
4.25
  0
CIRCLE
  5
18BB3
330
1F
100
AcDbEntity
  8
0
100
AcDbCircle
 10
-528.6354781201952
 20
1177.19346417397
 30
0.0
 40
4.25
  0
ARC
  5
18BB4
330
1F
100
AcDbEntity
  8
0
100
AcDbCircle
 10
-528.6354781201952
 20
1177.19346417397
 30
0.0
 40
6.350000000000022
100
AcDbArc
 50
90.0
 51
270.0
  0
LINE
  5
18BB5
330
1F
100
AcDbEntity
  8
0
100
AcDbLine
 10
-509.8354781201955
 20
1183.543464173969
 30
0.0
 11
-509.8354781201955
 21
1170.843464173968
 31
0.0
  0
LINE
  5
18BB6
330
1F
100
AcDbEntity
  8
0
100
AcDbLine
 10
-522.835478120195
 20
1183.543464173969
 30
0.0
 11
-522.835478120195
 21
1170.843464173968
 31
0.0
  0
LINE
  5
18BB7
330
1F
100
AcDbEntity
  8
0
100
AcDbLine
 10
-528.6354781201952
 20
1181.443464173969
 30
0.0
 11
-528.6354781201952
 21
1172.943464173969
 31
0.0
  0
LINE
  5
18BB8
330
1F
100
AcDbEntity
  8
0
100
AcDbLine
 10
-504.0354781201958
 20
1181.443464173969
 30
0.0
 11
-504.0354781201958
 21
1172.943464173969
 31
0.0
  0
ARC
  5
18BB9
330
1F
100
AcDbEntity
  8
0
100
AcDbCircle
 10
-504.0354781201958
 20
1177.19346417397
 30
0.0
 40
6.350000000000022
100
AcDbArc
 50
270.0
 51
90.0
  0
LINE
  5
18BBC
330
1F
100
AcDbEntity
  8
0
100
AcDbLine
 10
-500.0729781201951
 20
1239.92346417397
 30
0.0
 11
-500.0729781201951
 21
1224.02346417397
 31
0.0
  0
LINE
  5
18BBD
330
1F
100
AcDbEntity
  8
0
100
AcDbLine
 10
-498.8729781201953
 20
1238.723464173969
 30
0.0
 11
-498.8729781201953
 21
1220.92346417397
 31
0.0
  0
LINE
  5
18BBE
330
1F
100
AcDbEntity
  8
0
100
AcDbLine
 10
-532.5979781201956
 20
1239.92346417397
 30
0.0
 11
-532.5979781201956
 21
1224.02346417397
 31
0.0
  0
LINE
  5
18BBF
330
1F
100
AcDbEntity
  8
0
100
AcDbLine
 10
-533.7979781201956
 20
1238.723464173969
 30
0.0
 11
-533.7979781201956
 21
1220.92346417397
 31
0.0
  0
LINE
  5
18BC0
330
1F
100
AcDbEntity
  8
0
100
AcDbLine
 10
-532.210478120195
 20
1224.02346417397
 30
0.0
 11
-500.460478120195
 21
1224.02346417397
 31
0.0
  0
LINE
  5
18BC1
330
1F
100
AcDbEntity
  8
0
100
AcDbLine
 10
-536.5804781201951
 20
1216.42346417397
 30
0.0
 11
-496.0904781201951
 21
1216.42346417397
 31
0.0
  0
LINE
  5
18BC2
330
1F
100
AcDbEntity
  8
0
100
AcDbLine
 10
-536.5804781201951
 20
1217.92346417397
 30
0.0
 11
-496.0904781201951
 21
1217.92346417397
 31
0.0
  0
LINE
  5
18BC3
330
1F
100
AcDbEntity
  8
0
100
AcDbLine
 10
-536.5804781201951
 20
1220.92346417397
 30
0.0
 11
-496.0904781201951
 21
1220.92346417397
 31
0.0
  0
LINE
  5
18BC4
330
1F
100
AcDbEntity
  8
HIDDEN
 48
0.5
100
AcDbLine
 10
-530.2167281201954
 20
1184.343464173968
 30
0.0
 11
-502.4542281201956
 21
1184.343464173968
 31
0.0
  0
LINE
  5
18BC5
330
1F
100
AcDbEntity
  8
0
100
AcDbLine
 10
-530.7854781201958
 20
1194.64346417397
 30
0.0
 11
-501.8854781201951
 21
1194.64346417397
 31
0.0
  0
LINE
  5
18BC6
330
1F
100
AcDbEntity
  8
0
100
AcDbLine
 10
-533.0067281201953
 20
1196.843464173968
 30
0.0
 11
-499.6642281201956
 21
1196.843464173968
 31
0.0
  0
LINE
  5
18BC7
330
1F
100
AcDbEntity
  8
HIDDEN
 48
0.5
100
AcDbLine
 10
-531.4167281201952
 20
1193.843464173967
 30
0.0
 11
-501.2542281201957
 21
1193.843464173967
 31
0.0
  0
LINE
  5
18BC8
330
1F
100
AcDbEntity
  8
0
100
AcDbLine
 10
-536.5804781201951
 20
1216.42346417397
 30
0.0
 11
-536.5804781201951
 21
1209.666104861089
 31
0.0
  0
LINE
  5
18BC9
330
1F
100
AcDbEntity
  8
0
100
AcDbLine
 10
-535.7017984637549
 20
1207.54478451753
 30
0.0
 11
-533.8854077766358
 21
1205.728393830409
 31
0.0
  0
ARC
  5
18BCA
330
1F
100
AcDbEntity
  8
0
100
AcDbCircle
 10
-536.0067281201954
 20
1203.607073486851
 30
0.0
 40
3.0
100
AcDbArc
 50
0.0
 51
45.0
  0
ARC
  5
18BCB
330
1F
100
AcDbEntity
  8
0
100
AcDbCircle
 10
-533.5804781201954
 20
1209.666104861089
 30
0.0
 40
3.0
100
AcDbArc
 50
180.0
 51
225.0
  0
LINE
  5
18BCC
330
1F
100
AcDbEntity
  8
HIDDEN
 48
0.5
100
AcDbLine
 10
-531.4167281201952
 20
1185.543464173969
 30
0.0
 11
-530.2167281201954
 21
1184.343464173968
 31
0.0
  0
ARC
  5
18BCD
330
1F
100
AcDbEntity
  8
0
100
AcDbCircle
 10
-530.7854781201958
 20
1191.64346417397
 30
0.0
 40
3.0
100
AcDbArc
 50
90.0
 51
180.0
  0
LINE
  5
18BCE
330
1F
100
AcDbEntity
  8
HIDDEN
 48
0.5
100
AcDbLine
 10
-531.4167281201952
 20
1193.843464173967
 30
0.0
 11
-531.4167281201952
 21
1185.543464173969
 31
0.0
  0
LINE
  5
18BCF
330
1F
100
AcDbEntity
  8
0
100
AcDbLine
 10
-530.2167281201948
 20
1196.843464173968
 30
0.0
 11
-530.2167281201948
 21
1194.64346417397
 31
0.0
  0
LINE
  5
18BD0
330
1F
100
AcDbEntity
  8
HIDDEN
 48
0.5
100
AcDbLine
 10
-530.2167281201948
 20
1194.64346417397
 30
0.0
 11
-530.2167281201954
 21
1184.343464173968
 31
0.0
  0
LINE
  5
18BD1
330
1F
100
AcDbEntity
  8
0
100
AcDbLine
 10
-533.0067281201953
 20
1203.607073486851
 30
0.0
 11
-533.0067281201953
 21
1196.843464173968
 31
0.0
  0
LINE
  5
18BD2
330
1F
100
AcDbEntity
  8
0
100
AcDbLine
 10
-532.3004781201952
 20
1217.92346417397
 30
0.0
 11
-532.3004781201952
 21
1216.42346417397
 31
0.0
  0
LINE
  5
18BD3
330
1F
100
AcDbEntity
  8
0
100
AcDbLine
 10
-536.5804781201951
 20
1220.92346417397
 30
0.0
 11
-536.5804781201951
 21
1217.92346417397
 31
0.0
  0
LINE
  5
18BD4
330
1F
100
AcDbEntity
  8
0
100
AcDbLine
 10
-532.5979781201956
 20
1224.02346417397
 30
0.0
 11
-533.7979781201956
 21
1221.945003204888
 31
0.0
  0
LINE
  5
18BD5
330
1F
100
AcDbEntity
  8
0
100
AcDbLine
 10
-496.0904781201951
 20
1216.42346417397
 30
0.0
 11
-496.0904781201951
 21
1209.666104861089
 31
0.0
  0
ARC
  5
18BD6
330
1F
100
AcDbEntity
  8
0
100
AcDbCircle
 10
-496.6642281201956
 20
1203.607073486851
 30
0.0
 40
3.0
100
AcDbArc
 50
135.0
 51
180.0
  0
LINE
  5
18BD7
330
1F
100
AcDbEntity
  8
0
100
AcDbLine
 10
-496.9691577766355
 20
1207.54478451753
 30
0.0
 11
-498.7855484637552
 21
1205.728393830409
 31
0.0
  0
ARC
  5
18BD8
330
1F
100
AcDbEntity
  8
0
100
AcDbCircle
 10
-499.0904781201951
 20
1209.666104861089
 30
0.0
 40
3.0
100
AcDbArc
 50
315.0
 51
0.0
  0
ARC
  5
18BD9
330
1F
100
AcDbEntity
  8
0
100
AcDbCircle
 10
-501.8854781201951
 20
1191.64346417397
 30
0.0
 40
3.0
100
AcDbArc
 50
0.0
 51
90.0
  0
LINE
  5
18BDA
330
1F
100
AcDbEntity
  8
HIDDEN
 48
0.5
100
AcDbLine
 10
-501.2542281201953
 20
1193.843464173967
 30
0.0
 11
-501.2542281201957
 21
1185.543464173969
 31
0.0
  0
LINE
  5
18BDB
330
1F
100
AcDbEntity
  8
0
100
AcDbLine
 10
-502.4542281201956
 20
1196.843464173968
 30
0.0
 11
-502.4542281201956
 21
1194.64346417397
 31
0.0
  0
LINE
  5
18BDC
330
1F
100
AcDbEntity
  8
HIDDEN
 48
0.5
100
AcDbLine
 10
-502.4542281201956
 20
1194.64346417397
 30
0.0
 11
-502.4542281201956
 21
1184.343464173968
 31
0.0
  0
LINE
  5
18BDD
330
1F
100
AcDbEntity
  8
HIDDEN
 48
0.5
100
AcDbLine
 10
-502.4542281201956
 20
1184.343464173968
 30
0.0
 11
-501.2542281201957
 21
1185.543464173969
 31
0.0
  0
LINE
  5
18BDE
330
1F
100
AcDbEntity
  8
0
100
AcDbLine
 10
-499.6642281201956
 20
1203.607073486851
 30
0.0
 11
-499.6642281201956
 21
1196.843464173968
 31
0.0
  0
LINE
  5
18BDF
330
1F
100
AcDbEntity
  8
0
100
AcDbLine
 10
-500.3704781201947
 20
1217.92346417397
 30
0.0
 11
-500.3704781201947
 21
1216.42346417397
 31
0.0
  0
LINE
  5
18BE0
330
1F
100
AcDbEntity
  8
0
100
AcDbLine
 10
-496.0904781201951
 20
1220.92346417397
 30
0.0
 11
-496.0904781201951
 21
1217.92346417397
 31
0.0
  0
LINE
  5
18BE1
330
1F
100
AcDbEntity
  8
0
100
AcDbLine
 10
-500.0729781201951
 20
1224.02346417397
 30
0.0
 11
-498.8729781201953
 21
1221.945003204885
 31
0.0
  0
LINE
  5
18BE3
330
1F
100
AcDbEntity
  8
0
100
AcDbLine
 10
-533.7979781201956
 20
1238.723464173969
 30
0.0
 11
-498.8729781201953
 21
1238.723464173969
 31
0.0
  0
LINE
  5
18BE4
330
1F
100
AcDbEntity
  8
0
100
AcDbLine
 10
-532.5979781201956
 20
1239.92346417397
 30
0.0
 11
-500.0729781201957
 21
1239.92346417397
 31
0.0
  0
LINE
  5
18BE6
330
1F
100
AcDbEntity
  8
0
100
AcDbLine
 10
-533.7979781201956
 20
1238.723464173969
 30
0.0
 11
-532.5979781201953
 21
1239.92346417397
 31
0.0
  0
LINE
  5
18BEA
330
1F
100
AcDbEntity
  8
0
100
AcDbLine
 10
-500.0729781201957
 20
1239.92346417397
 30
0.0
 11
-498.8729781201953
 21
1238.723464173969
 31
0.0
  0
ARC
  5
18BF3
330
1F
100
AcDbEntity
  8
外形線
100
AcDbCircle
 10
-546.3354781201941
 20
881.2938062227614
 30
0.0
 40
36.5
100
AcDbArc
 50
270.0
 51
0.0
  0
ARC
  5
18BF4
330
1F
100
AcDbEntity
  8
外形線
100
AcDbCircle
 10
-546.3354781201941
 20
881.2938062227614
 30
0.0
 40
23.5
100
AcDbArc
 50
270.0
 51
0.0
  0
ARC
  5
18BF5
330
1F
100
AcDbEntity
  8
中心線
100
AcDbCircle
 10
-546.3354781201941
 20
881.2938062227614
 30
0.0
 40
30.0
100
AcDbArc
 50
270.0
 51
0.0
  0
LINE
  5
18BF6
330
1F
100
AcDbEntity
  8
外形線
100
AcDbLine
 10
-509.8354781201944
 20
1030.241741026824
 30
0.0
 11
-509.835478120194
 21
881.2938062227615
 31
0.0
  0
LINE
  5
18BF7
330
1F
100
AcDbEntity
  8
外形線
100
AcDbLine
 10
-522.8354781201946
 20
1030.241733445439
 30
0.0
 11
-522.8354781201941
 21
881.2938062227615
 31
0.0
  0
ARC
  5
18BF9
330
1F
100
AcDbEntity
  8
細線
100
AcDbCircle
 10
-513.0854802507516
 20
1041.698766501936
 30
0.0
 40
4.889707262404326
100
AcDbArc
 50
228.3436741432111
 51
311.6563926847125
  0
ARC
  5
18BFA
330
1F
100
AcDbEntity
  8
細線
100
AcDbCircle
 10
-519.5854759896383
 20
1034.392125423951
 30
0.0
 40
4.889707262404326
100
AcDbArc
 50
48.34367414321118
 51
131.6563926847124
  0
ARC
  5
18BFB
330
1F
100
AcDbEntity
  8
細線
100
AcDbCircle
 10
-519.5854802507492
 20
1041.698762711242
 30
0.0
 40
4.889707262404326
100
AcDbArc
 50
228.3436741432111
 51
311.6563926847125
  0
ARC
  5
18BFC
330
1F
100
AcDbEntity
  8
細線
100
AcDbCircle
 10
-519.585475989638
 20
1026.588416697139
 30
0.0
 40
4.889707262404326
100
AcDbArc
 50
48.34367414321118
 51
131.6563926847124
  0
ARC
  5
18BFD
330
1F
100
AcDbEntity
  8
細線
100
AcDbCircle
 10
-513.0854802507512
 20
1033.895057775126
 30
0.0
 40
4.889707262404326
100
AcDbArc
 50
228.3436741432111
 51
311.6563926847125
  0
ARC
  5
18BFE
330
1F
100
AcDbEntity
  8
細線
100
AcDbCircle
 10
-513.08547598964
 20
1026.588420487835
 30
0.0
 40
4.889707262404326
100
AcDbArc
 50
48.34367414321118
 51
131.6563926847124
  0
LINE
  5
18C00
330
1F
100
AcDbEntity
  8
外形線
100
AcDbLine
 10
-546.3354781201941
 20
844.7938062227612
 30
0.0
 11
-627.0313583906617
 21
844.7938062227612
 31
0.0
  0
LINE
  5
18C01
330
1F
100
AcDbEntity
  8
外形線
100
AcDbLine
 10
-546.3354781201941
 20
857.7938062227612
 30
0.0
 11
-627.0313583906617
 21
857.7938062227612
 31
0.0
  0
LINE
  5
18C03
330
1F
100
AcDbEntity
  8
中心線
100
AcDbLine
 10
-546.3354781201941
 20
851.2938062227615
 30
0.0
 11
-676.3294176798015
 21
851.2938062227611
 31
0.0
  0
LINE
  5
18C06
330
1F
100
AcDbEntity
  8
外形線
100
AcDbLine
 10
-634.4222441416267
 20
873.9517009596033
 30
0.0
 11
-627.0313583906617
 21
865.2938062227612
 31
0.0
  0
ARC
  5
18C07
330
1F
100
AcDbEntity
  8
外形線
100
AcDbCircle
 10
-639.2646886224812
 20
869.0869143200391
 30
0.0
 40
6.864067132439955
100
AcDbArc
 50
314.8681282929233
 51
45.13187170707668
  0
LINE
  5
18C08
330
1F
100
AcDbEntity
  8
外形線
100
AcDbLine
 10
-632.4222441416267
 20
871.6088438167467
 30
0.0
 11
-632.4222441416265
 21
830.9787686287764
 31
0.0
  0
LINE
  5
18C09
330
1F
100
AcDbEntity
  8
外形線
100
AcDbLine
 10
-661.0313583906612
 20
873.9517009596033
 30
0.0
 11
-661.0313583906612
 21
828.6359114859196
 31
0.0
  0
LINE
  5
18C0A
330
1F
100
AcDbEntity
  8
外形線
100
AcDbLine
 10
-667.0313583906609
 20
828.6359114859196
 30
0.0
 11
-667.0313583906609
 21
873.9517009596033
 31
0.0
  0
LINE
  5
18C0B
330
1F
100
AcDbEntity
  8
外形線
100
AcDbLine
 10
-647.0313583906618
 20
873.9517009596033
 30
0.0
 11
-647.0313583906618
 21
828.6359114859198
 31
0.0
  0
LINE
  5
18C0C
330
1F
100
AcDbEntity
  8
外形線
100
AcDbLine
 10
-634.4222441416267
 20
828.6359114859196
 30
0.0
 11
-647.0313583906618
 21
828.6359114859196
 31
0.0
  0
LINE
  5
18C0D
330
1F
100
AcDbEntity
  8
外形線
100
AcDbLine
 10
-647.0313583906618
 20
841.6434075830261
 30
0.0
 11
-634.4222441416267
 21
841.6434075830263
 31
0.0
  0
LINE
  5
18C0E
330
1F
100
AcDbEntity
  8
外形線
100
AcDbLine
 10
-647.0313583906618
 20
838.3654847650483
 30
0.0
 11
-634.422244141627
 21
838.3654847650483
 31
0.0
  0
LINE
  5
18C0F
330
1F
100
AcDbEntity
  8
外形線
100
AcDbLine
 10
-647.0313583906618
 20
864.2221276804745
 30
0.0
 11
-634.422244141627
 21
864.2221276804745
 31
0.0
  0
LINE
  5
18C10
330
1F
100
AcDbEntity
  8
外形線
100
AcDbLine
 10
-647.0313583906618
 20
860.9442048624968
 30
0.0
 11
-634.4222441416267
 21
860.9442048624963
 31
0.0
  0
LINE
  5
18C11
330
1F
100
AcDbEntity
  8
外形線
100
AcDbLine
 10
-660.0313583906618
 20
869.5652347941885
 30
0.0
 11
-660.0313583906618
 21
833.0223776513344
 31
0.0
  0
LINE
  5
18C12
330
1F
100
AcDbEntity
  8
外形線
100
AcDbLine
 10
-661.0313583906612
 20
828.6359114859196
 30
0.0
 11
-667.0313583906609
 21
828.6359114859196
 31
0.0
  0
LINE
  5
18C13
330
1F
100
AcDbEntity
  8
外形線
100
AcDbLine
 10
-667.0313583906609
 20
841.6434075830263
 30
0.0
 11
-661.0313583906612
 21
841.6434075830263
 31
0.0
  0
LINE
  5
18C14
330
1F
100
AcDbEntity
  8
外形線
100
AcDbLine
 10
-667.0313583906609
 20
838.3654847650483
 30
0.0
 11
-661.0313583906612
 21
838.3654847650483
 31
0.0
  0
LINE
  5
18C15
330
1F
100
AcDbEntity
  8
外形線
100
AcDbLine
 10
-661.0313583906612
 20
836.0223776513342
 30
0.0
 11
-660.0313583906618
 21
836.0223776513342
 31
0.0
  0
LINE
  5
18C16
330
1F
100
AcDbEntity
  8
外形線
100
AcDbLine
 10
-660.0313583906618
 20
833.0223776513344
 30
0.0
 11
-647.0313583906618
 21
833.0223776513344
 31
0.0
  0
LINE
  5
18C17
330
1F
100
AcDbEntity
  8
外形線
100
AcDbLine
 10
-667.0313583906609
 20
864.2221276804745
 30
0.0
 11
-661.0313583906612
 21
864.2221276804745
 31
0.0
  0
LINE
  5
18C18
330
1F
100
AcDbEntity
  8
外形線
100
AcDbLine
 10
-667.0313583906609
 20
860.9442048624966
 30
0.0
 11
-661.0313583906612
 21
860.9442048624966
 31
0.0
  0
LINE
  5
18C19
330
1F
100
AcDbEntity
  8
外形線
100
AcDbLine
 10
-661.0313583906612
 20
866.5652347941886
 30
0.0
 11
-660.0313583906618
 21
866.5652347941886
 31
0.0
  0
LINE
  5
18C1A
330
1F
100
AcDbEntity
  8
外形線
100
AcDbLine
 10
-660.0313583906618
 20
869.5652347941885
 30
0.0
 11
-647.0313583906618
 21
869.5652347941885
 31
0.0
  0
ARC
  5
18C1B
330
1F
100
AcDbEntity
  8
外形線
100
AcDbCircle
 10
-656.7047926180752
 20
851.2938062227611
 30
0.0
 40
24.28254847644835
100
AcDbArc
 50
336.5829384421523
 51
23.4170615578476
  0
LINE
  5
18C1C
330
1F
100
AcDbEntity
  8
外形線
100
AcDbLine
 10
-627.0313583906617
 20
865.2938062227612
 30
0.0
 11
-627.0313583906617
 21
837.2938062227616
 31
0.0
  0
LINE
  5
18C1D
330
1F
100
AcDbEntity
  8
外形線
100
AcDbLine
 10
-634.4222441416267
 20
841.6434075830263
 30
0.0
 11
-634.4222441416267
 21
838.3654847650483
 31
0.0
  0
ARC
  5
18C1E
330
1F
100
AcDbEntity
  8
外形線
100
AcDbCircle
 10
-639.2646886224804
 20
833.5006981254839
 30
0.0
 40
6.864067132439955
100
AcDbArc
 50
314.8681282929233
 51
45.13187170707668
  0
LINE
  5
18C1F
330
1F
100
AcDbEntity
  8
外形線
100
AcDbLine
 10
-634.4222441416267
 20
828.6359114859196
 30
0.0
 11
-627.0313583906617
 21
837.2938062227616
 31
0.0
  0
LINE
  5
18C20
330
1F
100
AcDbEntity
  8
外形線
100
AcDbLine
 10
-634.4222441416267
 20
864.2221276804745
 30
0.0
 11
-634.4222441416267
 21
860.9442048624963
 31
0.0
  0
LINE
  5
18C21
330
1F
100
AcDbEntity
  8
外形線
100
AcDbLine
 10
-634.4222441416267
 20
873.9517009596033
 30
0.0
 11
-647.0313583906618
 21
873.9517009596033
 31
0.0
  0
LINE
  5
18C22
330
1F
100
AcDbEntity
  8
外形線
100
AcDbLine
 10
-661.0313583906612
 20
873.9517009596033
 30
0.0
 11
-667.0313583906609
 21
873.9517009596033
 31
0.0
  0
LINE
  5
18C44
330
1F
100
AcDbEntity
  8
外形線
100
AcDbLine
 10
-523.6533641366547
 20
336.8942399381598
 30
0.0
 11
-523.6533641366547
 21
380.5942399381597
 31
0.0
  0
LINE
  5
18C45
330
1F
100
AcDbEntity
  8
外形線
100
AcDbLine
 10
-504.853364136655
 20
336.8942399381596
 30
0.0
 11
-504.8533641366546
 21
380.5942399381597
 31
0.0
  0
LINE
  5
18C46
330
1F
100
AcDbEntity
  8
中心線
100
AcDbLine
 10
-514.2533641366552
 20
264.8321311964023
 30
0.0
 11
-514.2533641366546
 21
380.5942399381597
 31
0.0
  0
LINE
  5
18C49
330
1F
100
AcDbEntity
  8
外形線
100
AcDbLine
 10
-495.5983641366546
 20
291.3142399381596
 30
0.0
 11
-495.5983641366546
 21
298.0715992510403
 31
0.0
  0
LINE
  5
18C4A
330
1F
100
AcDbEntity
  8
外形線
100
AcDbLine
 10
-532.9083641366548
 20
291.3142399381598
 30
0.0
 11
-532.9083641366548
 21
298.0715992510403
 31
0.0
  0
LINE
  5
18C4B
330
1F
100
AcDbEntity
  8
外形線
100
AcDbLine
 10
-532.9083641366548
 20
286.8142399381596
 30
0.0
 11
-495.5983641366549
 21
286.8142399381596
 31
0.0
  0
LINE
  5
18C4C
330
1F
100
AcDbEntity
  8
外形線
100
AcDbLine
 10
-532.9083641366548
 20
289.8142399381597
 30
0.0
 11
-495.5983641366549
 21
289.8142399381597
 31
0.0
  0
LINE
  5
18C4D
330
1F
100
AcDbEntity
  8
外形線
100
AcDbLine
 10
-532.9083641366548
 20
291.3142399381598
 30
0.0
 11
-495.5983641366549
 21
291.3142399381596
 31
0.0
  0
LINE
  5
18C4E
330
1F
100
AcDbEntity
  8
外形線
100
AcDbLine
 10
-528.928364136655
 20
267.8142399381594
 30
0.0
 11
-499.5783641366549
 21
267.8142399381594
 31
0.0
  0
LINE
  5
18C4F
330
1F
100
AcDbEntity
  8
外形線
100
AcDbLine
 10
-530.1283641366548
 20
283.7142399381596
 30
0.0
 11
-498.3783641366548
 21
283.7142399381596
 31
0.0
  0
LINE
  5
18C50
330
1F
100
AcDbEntity
  8
細線
100
AcDbLine
 10
-530.1283641366548
 20
269.0142399381596
 30
0.0
 11
-498.3783641366548
 21
269.0142399381596
 31
0.0
  0
LINE
  5
18C51
330
1F
100
AcDbEntity
  8
細線
100
AcDbLine
 10
-528.928364136655
 20
267.8142399381594
 30
0.0
 11
-528.928364136655
 21
283.7142399381596
 31
0.0
  0
LINE
  5
18C52
330
1F
100
AcDbEntity
  8
外形線
100
AcDbLine
 10
-530.1283641366548
 20
269.0142399381596
 30
0.0
 11
-530.1283641366548
 21
286.8142399381596
 31
0.0
  0
LINE
  5
18C53
330
1F
100
AcDbEntity
  8
外形線
100
AcDbLine
 10
-530.1283641366548
 20
269.0142399381596
 30
0.0
 11
-528.928364136655
 21
267.8142399381594
 31
0.0
  0
LINE
  5
18C54
330
1F
100
AcDbEntity
  8
外形線
100
AcDbLine
 10
-532.9083641366548
 20
286.8142399381596
 30
0.0
 11
-532.9083641366548
 21
289.8142399381597
 31
0.0
  0
LINE
  5
18C55
330
1F
100
AcDbEntity
  8
細線
100
AcDbLine
 10
-528.928364136655
 20
283.7142399381596
 30
0.0
 11
-530.1283641366552
 21
285.7927009072422
 31
0.0
  0
LINE
  5
18C56
330
1F
100
AcDbEntity
  8
外形線
100
AcDbLine
 10
-528.6283641366548
 20
289.8142399381597
 30
0.0
 11
-528.6283641366548
 21
291.3142399381598
 31
0.0
  0
LINE
  5
18C57
330
1F
100
AcDbEntity
  8
細線
100
AcDbLine
 10
-499.5783641366549
 20
267.8142399381594
 30
0.0
 11
-499.5783641366549
 21
283.7142399381596
 31
0.0
  0
LINE
  5
18C58
330
1F
100
AcDbEntity
  8
外形線
100
AcDbLine
 10
-498.3783641366551
 20
269.0142399381596
 30
0.0
 11
-498.3783641366548
 21
286.8142399381596
 31
0.0
  0
LINE
  5
18C59
330
1F
100
AcDbEntity
  8
外形線
100
AcDbLine
 10
-499.5783641366549
 20
267.8142399381594
 30
0.0
 11
-498.3783641366551
 21
269.0142399381596
 31
0.0
  0
LINE
  5
18C5A
330
1F
100
AcDbEntity
  8
外形線
100
AcDbLine
 10
-495.5983641366549
 20
286.8142399381596
 30
0.0
 11
-495.5983641366549
 21
289.8142399381596
 31
0.0
  0
LINE
  5
18C5B
330
1F
100
AcDbEntity
  8
外形線
100
AcDbLine
 10
-499.8783641366546
 20
289.8142399381597
 30
0.0
 11
-499.8783641366546
 21
291.3142399381598
 31
0.0
  0
LINE
  5
18C5C
330
1F
100
AcDbEntity
  8
細線
100
AcDbLine
 10
-499.5783641366549
 20
283.7142399381596
 30
0.0
 11
-498.3783641366551
 21
285.7927009072422
 31
0.0
  0
LINE
  5
18C5D
330
1F
100
AcDbEntity
  8
外形線
100
AcDbLine
 10
-526.5533641366548
 20
336.8942399381598
 30
0.0
 11
-501.9533641366551
 21
336.8942399381596
 31
0.0
  0
LINE
  5
18C5E
330
1F
100
AcDbEntity
  8
外形線
100
AcDbLine
 10
-529.334614136655
 20
310.8942399381596
 30
0.0
 11
-499.1721141366548
 21
310.8942399381596
 31
0.0
  0
LINE
  5
18C5F
330
1F
100
AcDbEntity
  8
外形線
100
AcDbLine
 10
-528.7033641366551
 20
313.0942399381598
 30
0.0
 11
-499.8033641366546
 21
313.0942399381596
 31
0.0
  0
LINE
  5
18C60
330
1F
100
AcDbEntity
  8
外形線
100
AcDbLine
 10
-526.5533641366548
 20
324.1942399381597
 30
0.0
 11
-501.9533641366551
 21
324.1942399381597
 31
0.0
  0
LINE
  5
18C61
330
1F
100
AcDbEntity
  8
HIDDEN
 48
0.5
100
AcDbLine
 10
-529.334614136655
 20
313.8942399381598
 30
0.0
 11
-499.1721141366548
 21
313.8942399381598
 31
0.0
  0
LINE
  5
18C62
330
1F
100
AcDbEntity
  8
HIDDEN
 48
0.5
100
AcDbLine
 10
-528.1346141366547
 20
323.3942399381596
 30
0.0
 11
-500.3721141366553
 21
323.3942399381596
 31
0.0
  0
LINE
  5
18C63
330
1F
100
AcDbEntity
  8
外形線
100
AcDbLine
 10
-531.7033641366548
 20
316.0942399381598
 30
0.0
 11
-531.7033641366548
 21
326.8294048139586
 31
0.0
  0
LINE
  5
18C64
330
1F
100
AcDbEntity
  8
HIDDEN
 48
0.5
100
AcDbLine
 10
-528.1346141366547
 20
313.0942399381598
 30
0.0
 11
-528.1346141366547
 21
323.3942399381596
 31
0.0
  0
LINE
  5
18C65
330
1F
100
AcDbEntity
  8
HIDDEN
 48
0.5
100
AcDbLine
 10
-529.334614136655
 20
322.1942399381596
 30
0.0
 11
-528.1346141366547
 21
323.3942399381596
 31
0.0
  0
ARC
  5
18C66
330
1F
100
AcDbEntity
  8
外形線
100
AcDbCircle
 10
-528.7033641366551
 20
316.0942399381598
 30
0.0
 40
3.0
100
AcDbArc
 50
180.0
 51
270.0
  0
LINE
  5
18C67
330
1F
100
AcDbEntity
  8
HIDDEN
 48
0.5
100
AcDbLine
 10
-529.334614136655
 20
313.8942399381598
 30
0.0
 11
-529.334614136655
 21
322.1942399381596
 31
0.0
  0
LINE
  5
18C68
330
1F
100
AcDbEntity
  8
外形線
100
AcDbLine
 10
-532.0296844802144
 20
300.1929195945998
 30
0.0
 11
-530.2132937930954
 21
302.0093102817193
 31
0.0
  0
ARC
  5
18C69
330
1F
100
AcDbEntity
  8
外形線
100
AcDbCircle
 10
-532.3346141366548
 20
304.1306306252788
 30
0.0
 40
3.0
100
AcDbArc
 50
315.0
 51
0.0
  0
ARC
  5
18C6A
330
1F
100
AcDbEntity
  8
外形線
100
AcDbCircle
 10
-529.9083641366546
 20
298.0715992510403
 30
0.0
 40
3.0
100
AcDbArc
 50
135.0
 51
180.0
  0
LINE
  5
18C6B
330
1F
100
AcDbEntity
  8
外形線
100
AcDbLine
 10
-529.334614136655
 20
304.1306306252788
 30
0.0
 11
-529.334614136655
 21
310.8942399381596
 31
0.0
  0
LINE
  5
18C6C
330
1F
100
AcDbEntity
  8
外形線
100
AcDbLine
 10
-528.1346141366547
 20
310.8942399381596
 30
0.0
 11
-528.1346141366547
 21
313.0942399381598
 31
0.0
  0
ARC
  5
18C6D
330
1F
100
AcDbEntity
  8
外形線
100
AcDbCircle
 10
-526.5533641366548
 20
330.5442399381596
 30
0.0
 40
6.350000000000022
100
AcDbArc
 50
90.0
 51
270.0
  0
CIRCLE
  5
18C6E
330
1F
100
AcDbEntity
  8
外形線
100
AcDbCircle
 10
-526.5533641366548
 20
330.5442399381596
 30
0.0
 40
4.25
  0
LINE
  5
18C6F
330
1F
100
AcDbEntity
  8
外形線
100
AcDbLine
 10
-526.5533641366548
 20
326.2942399381596
 30
0.0
 11
-526.5533641366548
 21
334.7942399381596
 31
0.0
  0
LINE
  5
18C70
330
1F
100
AcDbEntity
  8
外形線
100
AcDbLine
 10
-520.7533641366548
 20
324.1942399381597
 30
0.0
 11
-520.7533641366548
 21
336.8942399381598
 31
0.0
  0
LINE
  5
18C71
330
1F
100
AcDbEntity
  8
外形線
100
AcDbLine
 10
-507.7533641366551
 20
324.1942399381597
 30
0.0
 11
-507.7533641366551
 21
336.8942399381596
 31
0.0
  0
LINE
  5
18C72
330
1F
100
AcDbEntity
  8
外形線
100
AcDbLine
 10
-496.803364136655
 20
316.0942399381596
 30
0.0
 11
-496.803364136655
 21
326.8294048139586
 31
0.0
  0
LINE
  5
18C73
330
1F
100
AcDbEntity
  8
HIDDEN
 48
0.5
100
AcDbLine
 10
-500.3721141366553
 20
323.3942399381596
 30
0.0
 11
-499.1721141366548
 21
322.1942399381596
 31
0.0
  0
LINE
  5
18C74
330
1F
100
AcDbEntity
  8
HIDDEN
 48
0.5
100
AcDbLine
 10
-500.3721141366549
 20
313.0942399381595
 30
0.0
 11
-500.3721141366549
 21
323.3942399381596
 31
0.0
  0
LINE
  5
18C75
330
1F
100
AcDbEntity
  8
外形線
100
AcDbLine
 10
-500.3721141366549
 20
310.8942399381596
 30
0.0
 11
-500.3721141366549
 21
313.0942399381595
 31
0.0
  0
ARC
  5
18C76
330
1F
100
AcDbEntity
  8
外形線
100
AcDbCircle
 10
-499.8033641366546
 20
316.0942399381596
 30
0.0
 40
3.0
100
AcDbArc
 50
270.0
 51
0.0
  0
LINE
  5
18C77
330
1F
100
AcDbEntity
  8
HIDDEN
 48
0.5
100
AcDbLine
 10
-499.1721141366548
 20
313.8942399381598
 30
0.0
 11
-499.1721141366548
 21
322.1942399381596
 31
0.0
  0
ARC
  5
18C78
330
1F
100
AcDbEntity
  8
外形線
100
AcDbCircle
 10
-498.5983641366551
 20
298.0715992510403
 30
0.0
 40
3.0
100
AcDbArc
 50
0.0
 51
45.0
  0
LINE
  5
18C79
330
1F
100
AcDbEntity
  8
外形線
100
AcDbLine
 10
-496.4770437930954
 20
300.1929195945998
 30
0.0
 11
-498.2934344802146
 21
302.0093102817193
 31
0.0
  0
ARC
  5
18C7A
330
1F
100
AcDbEntity
  8
外形線
100
AcDbCircle
 10
-496.1721141366551
 20
304.1306306252788
 30
0.0
 40
3.0
100
AcDbArc
 50
180.0
 51
225.0
  0
LINE
  5
18C7B
330
1F
100
AcDbEntity
  8
外形線
100
AcDbLine
 10
-499.1721141366548
 20
304.1306306252788
 30
0.0
 11
-499.1721141366548
 21
310.8942399381598
 31
0.0
  0
LINE
  5
18C7C
330
1F
100
AcDbEntity
  8
外形線
100
AcDbLine
 10
-501.9533641366551
 20
326.2942399381596
 30
0.0
 11
-501.9533641366551
 21
334.7942399381596
 31
0.0
  0
CIRCLE
  5
18C7D
330
1F
100
AcDbEntity
  8
外形線
100
AcDbCircle
 10
-501.9533641366551
 20
330.5442399381596
 30
0.0
 40
4.25
  0
ARC
  5
18C7E
330
1F
100
AcDbEntity
  8
外形線
100
AcDbCircle
 10
-501.9533641366551
 20
330.5442399381596
 30
0.0
 40
6.350000000000022
100
AcDbArc
 50
270.0
 51
90.0
  0
LINE
  5
18C7F
330
1F
100
AcDbEntity
  8
外形線
100
AcDbLine
 10
-518.4533641366551
 20
380.5942399381597
 30
0.0
 11
-518.4533641366551
 21
421.4622595744661
 31
0.0
  0
LINE
  5
18C80
330
1F
100
AcDbEntity
  8
外形線
100
AcDbLine
 10
-514.2533641366546
 20
380.5942399381597
 30
0.0
 11
-514.2533641366546
 21
421.4622595744661
 31
0.0
  0
LINE
  5
18C81
330
1F
100
AcDbEntity
  8
外形線
100
AcDbLine
 10
-510.0533641366546
 20
380.5942399381596
 30
0.0
 11
-510.0533641366546
 21
421.4622595744661
 31
0.0
  0
LINE
  5
18C82
330
1F
100
AcDbEntity
  8
外形線
100
AcDbLine
 10
-523.6533641366547
 20
380.5942399381597
 30
0.0
 11
-504.8533641366546
 21
380.5942399381597
 31
0.0
  0
LINE
  5
18C83
330
1F
100
AcDbEntity
  8
外形線
100
AcDbLine
 10
-518.6533641366549
 20
421.4622595744661
 30
0.0
 11
-509.8533641366546
 21
421.4622595744661
 31
0.0
  0
LINE
  5
18C84
330
1F
100
AcDbEntity
  8
外形線
100
AcDbLine
 10
-518.6533641366549
 20
426.4622595744663
 30
0.0
 11
-509.8533641366546
 21
426.4622595744659
 31
0.0
  0
LINE
  5
18C85
330
1F
100
AcDbEntity
  8
外形線
100
AcDbLine
 10
-509.8533641366546
 20
421.4622595744661
 30
0.0
 11
-509.8533641366546
 21
426.4622595744659
 31
0.0
  0
LINE
  5
18C86
330
1F
100
AcDbEntity
  8
外形線
100
AcDbLine
 10
-518.6533641366549
 20
421.4622595744661
 30
0.0
 11
-518.6533641366549
 21
426.4622595744663
 31
0.0
  0
ARC
  5
18C87
330
1F
100
AcDbEntity
  8
外形線
100
AcDbCircle
 10
-462.1533641366548
 20
434.9337661484552
 30
0.0
 40
47.9
100
AcDbArc
 50
149.9999999999993
 51
180.0
  0
ARC
  5
18C88
330
1F
100
AcDbEntity
  8
外形線
100
AcDbCircle
 10
-462.1533641366548
 20
434.9337661484552
 30
0.0
 40
52.1
100
AcDbArc
 50
149.9999999999993
 51
180.0
  0
LINE
  5
18C89
330
1F
100
AcDbEntity
  8
外形線
100
AcDbLine
 10
-514.2533641366546
 20
426.4622595744659
 30
0.0
 11
-514.2533641366546
 21
551.0135574927239
 31
0.0
  0
LINE
  5
18C8A
330
1F
100
AcDbEntity
  8
外形線
100
AcDbLine
 10
-518.4533641366551
 20
426.4622595744659
 30
0.0
 11
-518.4533641366551
 21
551.0135574927239
 31
0.0
  0
LINE
  5
18C8B
330
1F
100
AcDbEntity
  8
外形線
100
AcDbLine
 10
-481.031416499723
 20
506.436020307676
 30
0.0
 11
-507.2732876738244
 21
460.9837661484552
 31
0.0
  0
LINE
  5
18C8C
330
1F
100
AcDbEntity
  8
外形線
100
AcDbLine
 10
-477.3941098038283
 20
504.3360203076757
 30
0.0
 11
-503.6359809779296
 21
458.8837661484554
 31
0.0
  0
ARC
  5
18C8F
330
1F
100
AcDbEntity
  8
外形線
100
AcDbCircle
 10
-536.3533641366553
 20
657.2938062227621
 30
0.0
 40
17.9
100
AcDbArc
 50
0.0
 51
90.0
  0
ARC
  5
18C90
330
1F
100
AcDbEntity
  8
外形線
100
AcDbCircle
 10
-536.3533641366553
 20
657.2938062227621
 30
0.0
 40
22.1
100
AcDbArc
 50
0.0
 51
90.0
  0
LINE
  5
18C91
330
1F
100
AcDbEntity
  8
外形線
100
AcDbLine
 10
-474.6140333409971
 20
647.4237943129472
 30
0.0
 11
-474.6140333409971
 21
669.3515198821605
 31
0.0
  0
LINE
  5
18C92
330
1F
100
AcDbEntity
  8
外形線
100
AcDbLine
 10
-470.4140333409974
 20
647.4237943129472
 30
0.0
 11
-470.4140333409974
 21
669.3515198821605
 31
0.0
  0
ARC
  5
18C93
330
1F
100
AcDbEntity
  8
外形線
100
AcDbCircle
 10
-464.0140333409981
 20
621.9237943129463
 30
0.0
 40
2.999999999999971
100
AcDbArc
 50
270.0
 51
90.0
  0
ARC
  5
18C94
330
1F
100
AcDbEntity
  8
外形線
100
AcDbCircle
 10
-463.198714578179
 20
638.4237943129464
 30
0.0
 40
2.0
100
AcDbArc
 50
9.782407031821671
 51
90.0
  0
LINE
  5
18C95
330
1F
100
AcDbEntity
  8
外形線
100
AcDbLine
 10
-452.714033340997
 20
592.0237943129467
 30
0.0
 11
-464.6140333409971
 21
592.0237943129467
 31
0.0
  0
LINE
  5
18C96
330
1F
100
AcDbEntity
  8
外形線
100
AcDbLine
 10
-452.714033340997
 20
590.8237943129461
 30
0.0
 11
-464.6140333409971
 21
590.8237943129461
 31
0.0
  0
LINE
  5
18C97
330
1F
100
AcDbEntity
  8
外形線
100
AcDbLine
 10
-464.5140333409973
 20
599.4237943129474
 30
0.0
 11
-452.5140333409977
 21
599.4237943129474
 31
0.0
  0
LINE
  5
18C98
330
1F
100
AcDbEntity
  8
外形線
100
AcDbLine
 10
-464.5140333409973
 20
598.2237943129466
 30
0.0
 11
-459.5140333409976
 21
598.2237943129466
 31
0.0
  0
LINE
  5
18C99
330
1F
100
AcDbEntity
  8
細線
100
AcDbLine
 10
-459.9140333409973
 20
598.0237943129458
 30
0.0
 11
-485.1140333409983
 21
598.0237943129458
 31
0.0
  0
LINE
  5
18C9A
330
1F
100
AcDbEntity
  8
細線
100
AcDbLine
 10
-459.5140333409976
 20
593.7852515032755
 30
0.0
 11
-472.5140333409973
 21
593.7852515032755
 31
0.0
  0
CIRCLE
  5
18C9B
330
1F
100
AcDbEntity
  8
外形線
100
AcDbCircle
 10
-460.8640333409971
 20
561.8211787206646
 30
0.0
 40
1.75
  0
ARC
  5
18C9C
330
1F
100
AcDbEntity
  8
外形線
100
AcDbCircle
 10
-461.73156885769
 20
563.3237943129461
 30
0.0
 40
1.0
100
AcDbArc
 50
90.0
 51
149.9999999999993
  0
ARC
  5
18C9D
330
1F
100
AcDbEntity
  8
外形線
100
AcDbCircle
 10
-455.0672840450221
 20
544.6745604078978
 30
0.0
 40
10.0
100
AcDbArc
 50
135.0000000000092
 51
165.0000000000054
  0
ARC
  5
18C9E
330
1F
100
AcDbEntity
  8
外形線
100
AcDbCircle
 10
-461.7345890808397
 20
560.3237943129461
 30
0.0
 40
1.0
100
AcDbArc
 50
209.9999999192482
 51
270.0
  0
ARC
  5
18C9F
330
1F
100
AcDbEntity
  8
外形線
100
AcDbCircle
 10
-476.6640333409977
 20
559.6620823593838
 30
0.0
 40
10.0
100
AcDbArc
 50
180.0
 51
225.0000000000091
  0
ARC
  5
18CA1
330
1F
100
AcDbEntity
  8
外形線
100
AcDbCircle
 10
-522.5140333409973
 20
530.386020307676
 30
0.0
 40
52.1
100
AcDbArc
 50
329.9999999999993
 51
0.0
  0
ARC
  5
18CA2
330
1F
100
AcDbEntity
  8
細線
100
AcDbCircle
 10
-517.4033634483206
 20
549.8332551586578
 30
0.0
 40
1.579751577084181
100
AcDbArc
 50
48.34367414321118
 51
131.6563926847124
  0
ARC
  5
18CA3
330
1F
100
AcDbEntity
  8
細線
100
AcDbCircle
 10
-515.3033634483216
 20
549.8332563833436
 30
0.0
 40
1.579751577084181
100
AcDbArc
 50
48.34367414321118
 51
131.6563926847124
  0
ARC
  5
18CA4
330
1F
100
AcDbEntity
  8
細線
100
AcDbCircle
 10
-515.3033648249881
 20
552.19386227616
 30
0.0
 40
1.579751577084181
100
AcDbArc
 50
228.3436741432111
 51
311.6563926847125
  0
LINE
  5
18CA5
330
1F
100
AcDbEntity
  8
外形線
100
AcDbLine
 10
-474.6140333409971
 20
530.386020307676
 30
0.0
 11
-474.6140333409971
 21
537.3237943129461
 31
0.0
  0
LINE
  5
18CA6
330
1F
100
AcDbEntity
  8
外形線
100
AcDbLine
 10
-470.4140333409973
 20
530.386020307676
 30
0.0
 11
-470.4140333409974
 21
537.3237943129461
 31
0.0
  0
ARC
  5
18CA7
330
1F
100
AcDbEntity
  8
外形線
100
AcDbCircle
 10
-522.5140333409973
 20
530.386020307676
 30
0.0
 40
47.9
100
AcDbArc
 50
329.9999999999993
 51
0.0
  0
LINE
  5
18CA8
330
1F
100
AcDbEntity
  8
外形線
100
AcDbLine
 10
-469.6640333409978
 20
537.3237943129461
 30
0.0
 11
-475.3640333409978
 21
537.3237943129461
 31
0.0
  0
LINE
  5
18CA9
330
1F
100
AcDbEntity
  8
外形線
100
AcDbLine
 10
-472.5140333409973
 20
544.3237943129461
 30
0.0
 11
-478.7467063530185
 21
544.3237943129461
 31
0.0
  0
LINE
  5
18CAA
330
1F
100
AcDbEntity
  8
外形線
100
AcDbLine
 10
-469.6640333409978
 20
544.3237943129461
 30
0.0
 11
-469.6640333409978
 21
537.3237943129461
 31
0.0
  0
ARC
  5
18CAB
330
1F
100
AcDbEntity
  8
外形線
100
AcDbCircle
 10
-466.2813603289762
 20
545.3237943129461
 30
0.0
 40
1.0
100
AcDbArc
 50
270.0
 51
345.0000000000055
  0
LINE
  5
18CAC
330
1F
100
AcDbEntity
  8
外形線
100
AcDbLine
 10
-472.5140333409973
 20
544.3237943129461
 30
0.0
 11
-466.2813603289762
 21
544.3237943129461
 31
0.0
  0
LINE
  5
18CAD
330
1F
100
AcDbEntity
  8
外形線
100
AcDbLine
 10
-475.3640333409978
 20
537.3237943129461
 30
0.0
 11
-475.3640333409978
 21
544.3237943129461
 31
0.0
  0
ARC
  5
18CAE
330
1F
100
AcDbEntity
  8
外形線
100
AcDbCircle
 10
-489.9607826369726
 20
544.6745604078978
 30
0.0
 40
10.0
100
AcDbArc
 50
14.99999999999444
 51
44.99999999999078
  0
LINE
  5
18CAF
330
1F
100
AcDbEntity
  8
外形線
100
AcDbLine
 10
-483.7351011528634
 20
552.5910145475188
 30
0.0
 11
-482.8897148251058
 21
551.7456282197618
 31
0.0
  0
LINE
  5
18CB0
330
1F
100
AcDbEntity
  8
外形線
100
AcDbLine
 10
-480.3015243740818
 20
547.262750858923
 30
0.0
 11
-479.7126321793075
 21
545.0649752678437
 31
0.0
  0
ARC
  5
18CB1
330
1F
100
AcDbEntity
  8
外形線
100
AcDbCircle
 10
-478.7467063530185
 20
545.3237943129461
 30
0.0
 40
1.0
100
AcDbArc
 50
194.9999999999944
 51
270.0
  0
LINE
  5
18CB2
330
1F
100
AcDbEntity
  8
外形線
100
AcDbLine
 10
-464.7265423079129
 20
547.262750858923
 30
0.0
 11
-465.3154345026873
 21
545.0649752678437
 31
0.0
  0
LINE
  5
18CB3
330
1F
100
AcDbEntity
  8
外形線
100
AcDbLine
 10
-492.5140333409975
 20
612.2237943129468
 30
0.0
 11
-492.5140333409975
 21
598.2237943129466
 31
0.0
  0
LINE
  5
18CB4
330
1F
100
AcDbEntity
  8
外形線
100
AcDbLine
 10
-485.914033340998
 20
610.7237943129466
 30
0.0
 11
-485.914033340998
 21
602.7237943129466
 31
0.0
  0
LINE
  5
18CB5
330
1F
100
AcDbEntity
  8
外形線
100
AcDbLine
 10
-518.4533641366551
 20
559.0647179036356
 30
0.0
 11
-518.4533641366548
 21
657.2938062227621
 31
0.0
  0
LINE
  5
18CB6
330
1F
100
AcDbEntity
  8
外形線
100
AcDbLine
 10
-514.2533641366552
 20
559.0647179036356
 30
0.0
 11
-514.2533641366552
 21
657.2938062227617
 31
0.0
  0
ARC
  5
18CB7
330
1F
100
AcDbEntity
  8
細線
100
AcDbCircle
 10
-515.3033648249889
 20
560.2450226870721
 30
0.0
 40
1.579751577084181
100
AcDbArc
 50
228.3436741432111
 51
311.6563926847125
  0
ARC
  5
18CB8
330
1F
100
AcDbEntity
  8
細線
100
AcDbCircle
 10
-517.4033634483211
 20
557.8844155695699
 30
0.0
 40
1.579751577084181
100
AcDbArc
 50
48.34367414321118
 51
131.6563926847124
  0
ARC
  5
18CB9
330
1F
100
AcDbEntity
  8
細線
100
AcDbCircle
 10
-517.4033648249879
 20
560.2450214623866
 30
0.0
 40
1.579751577084181
100
AcDbArc
 50
228.3436741432111
 51
311.6563926847125
  0
LINE
  5
18CBA
330
1F
100
AcDbEntity
  8
外形線
100
AcDbLine
 10
-490.9240333409977
 20
584.5237943129467
 30
0.0
 11
-490.9240333409977
 21
582.5237943129467
 31
0.0
  0
LINE
  5
18CBB
330
1F
100
AcDbEntity
  8
外形線
100
AcDbLine
 10
-487.4240333409978
 20
584.5237943129467
 30
0.0
 11
-487.4240333409978
 21
582.5237943129467
 31
0.0
  0
LINE
  5
18CBC
330
1F
100
AcDbEntity
  8
外形線
100
AcDbLine
 10
-486.6640333409984
 20
590.8237943129461
 30
0.0
 11
-486.6640333409984
 21
559.4695216632754
 31
0.0
  0
LINE
  5
18CBD
330
1F
100
AcDbEntity
  8
外形線
100
AcDbLine
 10
-483.2964978243055
 20
564.3237943129461
 30
0.0
 11
-486.6640333409987
 21
564.3237943129461
 31
0.0
  0
LINE
  5
18CBE
330
1F
100
AcDbEntity
  8
外形線
100
AcDbLine
 10
-485.402991820259
 20
561.8211787206636
 30
0.0
 11
-483.0861295276681
 21
561.8211787206636
 31
0.0
  0
CIRCLE
  5
18CBF
330
1F
100
AcDbEntity
  8
外形線
100
AcDbCircle
 10
-484.1640333409984
 20
561.8211787206646
 30
0.0
 40
1.75
  0
LINE
  5
18CC0
330
1F
100
AcDbEntity
  8
外形線
100
AcDbLine
 10
-483.2934776011557
 20
559.323794312946
 30
0.0
 11
-486.6640333409984
 21
559.323794312946
 31
0.0
  0
LINE
  5
18CC1
330
1F
100
AcDbEntity
  8
外形線
100
AcDbLine
 10
-490.9240333409977
 20
582.5237943129467
 30
0.0
 11
-487.4240333409978
 21
582.5237943129467
 31
0.0
  0
ARC
  5
18CC2
330
1F
100
AcDbEntity
  8
外形線
100
AcDbCircle
 10
-489.174033340998
 20
585.3362943129467
 30
0.0
 40
3.312499999999939
100
AcDbArc
 50
238.1092081981567
 51
301.8907918018577
  0
ARC
  5
18CC3
330
1F
100
AcDbEntity
  8
外形線
100
AcDbCircle
 10
-482.4289623076138
 20
561.8211787301543
 30
0.0
 40
1.0
100
AcDbArc
 50
329.9999999999993
 51
30.00000000000054
  0
ARC
  5
18CC4
330
1F
100
AcDbEntity
  8
外形線
100
AcDbCircle
 10
-483.2964978243055
 20
563.3237943129461
 30
0.0
 40
1.0
100
AcDbArc
 50
30.00000000000054
 51
90.0
  0
LINE
  5
18CC5
330
1F
100
AcDbEntity
  8
外形線
100
AcDbLine
 10
-481.5629369038295
 20
561.3211787301543
 30
0.0
 11
-482.4274521966668
 21
559.8237943141667
 31
0.0
  0
LINE
  5
18CC6
330
1F
100
AcDbEntity
  8
外形線
100
AcDbLine
 10
-481.5629369038295
 20
562.3211787301543
 30
0.0
 11
-482.4304724205211
 21
563.823794312946
 31
0.0
  0
LINE
  5
18CC7
330
1F
100
AcDbEntity
  8
外形線
100
AcDbLine
 10
-484.1640333409982
 20
560.5397415364385
 30
0.0
 11
-484.1640333409982
 21
562.8144790600726
 31
0.0
  0
ARC
  5
18CC8
330
1F
100
AcDbEntity
  8
外形線
100
AcDbCircle
 10
-483.2934776011557
 20
560.3237943129461
 30
0.0
 40
1.0
100
AcDbArc
 50
270.0
 51
330.0000000807516
  0
ARC
  5
18CC9
330
1F
100
AcDbEntity
  8
外形線
100
AcDbCircle
 10
-462.5991043743815
 20
561.8211787301543
 30
0.0
 40
1.0
100
AcDbArc
 50
149.9999999999993
 51
210.0000000000004
  0
LINE
  5
18CCA
330
1F
100
AcDbEntity
  8
外形線
100
AcDbLine
 10
-463.4651297781661
 20
562.3211787301543
 30
0.0
 11
-462.5975942614742
 21
563.823794312946
 31
0.0
  0
LINE
  5
18CCB
330
1F
100
AcDbEntity
  8
外形線
100
AcDbLine
 10
-463.4651297781661
 20
561.3211787301543
 30
0.0
 11
-462.6006144853286
 21
559.8237943141667
 31
0.0
  0
LINE
  5
18CCC
330
1F
100
AcDbEntity
  8
細線
100
AcDbLine
 10
-485.5140333409972
 20
593.7852515032755
 30
0.0
 11
-472.5140333409973
 21
593.7852515032764
 31
0.0
  0
LINE
  5
18CCD
330
1F
100
AcDbEntity
  8
外形線
100
AcDbLine
 10
-485.5140333409972
 20
598.2237943129466
 30
0.0
 11
-480.5140333409974
 21
598.2237943129466
 31
0.0
  0
LINE
  5
18CCE
330
1F
100
AcDbEntity
  8
外形線
100
AcDbLine
 10
-492.3140333409983
 20
590.8237943129461
 30
0.0
 11
-480.4140333409984
 21
590.8237943129461
 31
0.0
  0
LINE
  5
18CCF
330
1F
100
AcDbEntity
  8
外形線
100
AcDbLine
 10
-492.3140333409983
 20
592.0237943129467
 30
0.0
 11
-480.4140333409984
 21
592.0237943129467
 31
0.0
  0
LINE
  5
18CD0
330
1F
100
AcDbEntity
  8
外形線
100
AcDbLine
 10
-492.5140333409975
 20
599.4237943129474
 30
0.0
 11
-480.5140333409974
 21
599.4237943129474
 31
0.0
  0
LINE
  5
18CD1
330
1F
100
AcDbEntity
  8
外形線
100
AcDbLine
 10
-491.9440333409981
 20
598.2237943129466
 30
0.0
 11
-491.9440333409981
 21
592.0237943129467
 31
0.0
  0
LINE
  5
18CD2
330
1F
100
AcDbEntity
  8
細線
100
AcDbLine
 10
-491.5140333409974
 20
604.4391347367906
 30
0.0
 11
-491.5140333409974
 21
609.4391347367907
 31
0.0
  0
ARC
  5
18CD3
330
1F
100
AcDbEntity
  8
外形線
100
AcDbCircle
 10
-491.3140333409983
 20
585.5237943129467
 30
0.0
 40
1.0
100
AcDbArc
 50
180.0
 51
270.0
  0
LINE
  5
18CD4
330
1F
100
AcDbEntity
  8
外形線
100
AcDbLine
 10
-492.3140333409983
 20
585.5237943129467
 30
0.0
 11
-492.3140333409983
 21
592.0237943129467
 31
0.0
  0
LINE
  5
18CD5
330
1F
100
AcDbEntity
  8
細線
100
AcDbLine
 10
-485.1140333409983
 20
598.0237943129458
 30
0.0
 11
-485.1140333409983
 21
592.0237943129467
 31
0.0
  0
LINE
  5
18CD6
330
1F
100
AcDbEntity
  8
細線
100
AcDbLine
 10
-486.4040333409981
 20
598.2237943129466
 30
0.0
 11
-486.4040333409981
 21
592.0237943129467
 31
0.0
  0
LINE
  5
18CD7
330
1F
100
AcDbEntity
  8
細線
100
AcDbLine
 10
-485.5140333409972
 20
598.2237943129466
 30
0.0
 11
-485.5140333409972
 21
593.7852515032755
 31
0.0
  0
LINE
  5
18CD8
330
1F
100
AcDbEntity
  8
細線
100
AcDbLine
 10
-486.6240333409974
 20
591.9237943129465
 30
0.0
 11
-486.6240333409979
 21
598.2237943129466
 31
0.0
  0
LINE
  5
18CD9
330
1F
100
AcDbEntity
  8
細線
100
AcDbLine
 10
-488.5140333409974
 20
609.4391347367907
 30
0.0
 11
-488.5140333409974
 21
604.4391347367906
 31
0.0
  0
LINE
  5
18CDA
330
1F
100
AcDbEntity
  8
細線
100
AcDbLine
 10
-489.6371206737951
 20
609.4391347367907
 30
0.0
 11
-489.6371206737951
 21
604.4391347367906
 31
0.0
  0
LINE
  5
18CDB
330
1F
100
AcDbEntity
  8
外形線
100
AcDbLine
 10
-491.3140333409983
 20
584.5237943129467
 30
0.0
 11
-486.6640333409984
 21
584.5237943129477
 31
0.0
  0
LINE
  5
18CDC
330
1F
100
AcDbEntity
  8
外形線
100
AcDbLine
 10
-486.4040333409981
 20
598.2237943129466
 30
0.0
 11
-491.9440333409981
 21
598.2237943129466
 31
0.0
  0
LINE
  5
18CDD
330
1F
100
AcDbEntity
  8
外形線
100
AcDbLine
 10
-492.5140333409975
 20
598.2237943129466
 30
0.0
 11
-485.5140333409972
 21
598.2237943129466
 31
0.0
  0
LINE
  5
18CDE
330
1F
100
AcDbEntity
  8
細線
100
AcDbLine
 10
-488.5140333409974
 20
604.4391347367906
 30
0.0
 11
-491.5140333409974
 21
604.4391347367906
 31
0.0
  0
LINE
  5
18CDF
330
1F
100
AcDbEntity
  8
外形線
100
AcDbLine
 10
-485.914033340998
 20
602.7237943129466
 30
0.0
 11
-492.5140333409975
 21
602.7237943129466
 31
0.0
  0
LINE
  5
18CE0
330
1F
100
AcDbEntity
  8
細線
100
AcDbLine
 10
-491.5140333409974
 20
609.4391347367907
 30
0.0
 11
-488.5140333409974
 21
609.4391347367907
 31
0.0
  0
LINE
  5
18CE1
330
1F
100
AcDbEntity
  8
外形線
100
AcDbLine
 10
-480.4140333409984
 20
590.8237943129461
 30
0.0
 11
-480.4140333409984
 21
593.323794312947
 31
0.0
  0
LINE
  5
18CE2
330
1F
100
AcDbEntity
  8
外形線
100
AcDbLine
 10
-480.5140333409974
 20
599.4237943129474
 30
0.0
 11
-480.5140333409974
 21
596.9237943129472
 31
0.0
  0
LINE
  5
18CE3
330
1F
100
AcDbEntity
  8
外形線
100
AcDbLine
 10
-464.6140333409971
 20
590.8237943129461
 30
0.0
 11
-464.6140333409971
 21
593.3237943129461
 31
0.0
  0
LINE
  5
18CE4
330
1F
100
AcDbEntity
  8
外形線
100
AcDbLine
 10
-464.6140333409971
 20
593.3237943129461
 30
0.0
 11
-464.6140333409971
 21
590.8237943129461
 31
0.0
  0
LINE
  5
18CE5
330
1F
100
AcDbEntity
  8
外形線
100
AcDbLine
 10
-464.5140333409973
 20
596.9237943129472
 30
0.0
 11
-464.5140333409973
 21
599.4237943129474
 31
0.0
  0
LINE
  5
18CE6
330
1F
100
AcDbEntity
  8
外形線
100
AcDbLine
 10
-480.4140333409984
 20
593.323794312947
 30
0.0
 11
-464.6140333409971
 21
593.3237943129461
 31
0.0
  0
LINE
  5
18CE7
330
1F
100
AcDbEntity
  8
外形線
100
AcDbLine
 10
-480.5140333409974
 20
596.9237943129472
 30
0.0
 11
-464.5140333409973
 21
596.9237943129472
 31
0.0
  0
LINE
  5
18CE8
330
1F
100
AcDbEntity
  8
外形線
100
AcDbLine
 10
-491.6740333409975
 20
632.4237943129474
 30
0.0
 11
-491.6740333409975
 21
639.823794312947
 31
0.0
  0
LINE
  5
18CE9
330
1F
100
AcDbEntity
  8
外形線
100
AcDbLine
 10
-486.6740333409977
 20
632.4237943129474
 30
0.0
 11
-486.6740333409977
 21
639.823794312947
 31
0.0
  0
LINE
  5
18CEA
330
1F
100
AcDbEntity
  8
外形線
100
AcDbLine
 10
-483.8002723353056
 20
638.7636081459621
 30
0.0
 11
-487.5140333409974
 21
617.2237943129466
 31
0.0
  0
LINE
  5
18CEB
330
1F
100
AcDbEntity
  8
外形線
100
AcDbLine
 10
-490.6740333409977
 20
632.4237943129474
 30
0.0
 11
-487.6740333409975
 21
632.4237943129474
 31
0.0
  0
LINE
  5
18CEC
330
1F
100
AcDbEntity
  8
外形線
100
AcDbLine
 10
-490.6740333409977
 20
631.4237941445508
 30
0.0
 11
-487.6740333409975
 21
631.4237947589507
 31
0.0
  0
LINE
  5
18CED
330
1F
100
AcDbEntity
  8
外形線
100
AcDbLine
 10
-486.6740333409977
 20
632.4237943129474
 30
0.0
 11
-487.6740333409975
 21
632.4237943129474
 31
0.0
  0
LINE
  5
18CEE
330
1F
100
AcDbEntity
  8
外形線
100
AcDbLine
 10
-486.6740333409977
 20
632.4237947225474
 30
0.0
 11
-487.6740333409975
 21
631.4237949793578
 31
0.0
  0
ARC
  5
18CEF
330
1F
100
AcDbEntity
  8
外形線
100
AcDbCircle
 10
-490.5140333409981
 20
617.2237943129466
 30
0.0
 40
3.0
100
AcDbArc
 50
270.0
 51
0.0
  0
LINE
  5
18CF0
330
1F
100
AcDbEntity
  8
外形線
100
AcDbLine
 10
-487.6740333409975
 20
616.2571506350595
 30
0.0
 11
-487.6740333409975
 21
631.4237949793578
 31
0.0
  0
LINE
  5
18CF1
330
1F
100
AcDbEntity
  8
外形線
100
AcDbLine
 10
-490.6740333409977
 20
614.1602859860502
 30
0.0
 11
-490.6740333409977
 21
631.4237941445508
 31
0.0
  0
ARC
  5
18CF2
330
1F
100
AcDbEntity
  8
外形線
100
AcDbCircle
 10
-490.5140333409981
 20
612.2237943129468
 30
0.0
 40
2.0
100
AcDbArc
 50
90.0
 51
180.0
  0
LINE
  5
18CF3
330
1F
100
AcDbEntity
  8
外形線
100
AcDbLine
 10
-492.5140333409975
 20
610.7237943129466
 30
0.0
 11
-485.914033340998
 21
610.7237943129466
 31
0.0
  0
LINE
  5
18CF4
330
1F
100
AcDbEntity
  8
外形線
100
AcDbLine
 10
-491.6740333409975
 20
632.4237943129474
 30
0.0
 11
-490.6740333409977
 21
632.4237943129474
 31
0.0
  0
LINE
  5
18CF5
330
1F
100
AcDbEntity
  8
外形線
100
AcDbLine
 10
-491.6740332897975
 20
632.4237943129474
 30
0.0
 11
-490.6740333409977
 21
631.4237941445508
 31
0.0
  0
LINE
  5
18CF6
330
1F
100
AcDbEntity
  8
外形線
100
AcDbLine
 10
-465.2640333409975
 20
634.6205437716197
 30
0.0
 11
-465.2640333409975
 21
630.4321381725467
 31
0.0
  0
CIRCLE
  5
18CF7
330
1F
100
AcDbEntity
  8
外形線
100
AcDbCircle
 10
-479.7640333409981
 20
632.4237943129465
 30
0.0
 40
3.0
  0
ARC
  5
18CF8
330
1F
100
AcDbEntity
  8
外形線
100
AcDbCircle
 10
-481.0140333409981
 20
621.9237943129463
 30
0.0
 40
2.999999999999971
100
AcDbArc
 50
90.0
 51
270.0
  0
LINE
  5
18CF9
330
1F
100
AcDbEntity
  8
外形線
100
AcDbLine
 10
-479.7640333409971
 20
634.6205437716197
 30
0.0
 11
-479.7640333409971
 21
630.7209937311036
 31
0.0
  0
LINE
  5
18CFA
330
1F
100
AcDbEntity
  8
外形線
100
AcDbLine
 10
-481.8879621625876
 20
632.4237943129474
 30
0.0
 11
-477.9161982324315
 21
632.4237943129474
 31
0.0
  0
LINE
  5
18CFB
330
1F
100
AcDbEntity
  8
外形線
100
AcDbLine
 10
-481.0140333409973
 20
624.9237943129474
 30
0.0
 11
-464.0140333409974
 21
624.9237943129474
 31
0.0
  0
ARC
  5
18CFC
330
1F
100
AcDbEntity
  8
外形線
100
AcDbCircle
 10
-472.5140333409981
 20
621.9237943129463
 30
0.0
 40
8.5
100
AcDbArc
 50
20.66731649349259
 51
159.3326835065074
  0
ARC
  5
18CFD
330
1F
100
AcDbEntity
  8
外形線
100
AcDbCircle
 10
-472.5140333409981
 20
621.9237943129463
 30
0.0
 40
8.5
100
AcDbArc
 50
200.6673164934924
 51
339.3326835065073
  0
LINE
  5
18CFE
330
1F
100
AcDbEntity
  8
外形線
100
AcDbLine
 10
-481.0140333409973
 20
618.9237943129474
 30
0.0
 11
-464.0140333409974
 21
618.9237943129474
 31
0.0
  0
CIRCLE
  5
18CFF
330
1F
100
AcDbEntity
  8
外形線
100
AcDbCircle
 10
-465.2640333409981
 20
632.4237943129465
 30
0.0
 40
3.0
  0
LINE
  5
18D00
330
1F
100
AcDbEntity
  8
外形線
100
AcDbLine
 10
-467.3729703451088
 20
632.4237943129474
 30
0.0
 11
-463.2567786356742
 21
632.4237943129474
 31
0.0
  0
LINE
  5
18D01
330
1F
100
AcDbEntity
  8
外形線
100
AcDbLine
 10
-491.6740333409975
 20
639.823794312947
 30
0.0
 11
-491.0740333409981
 21
640.4237943129474
 31
0.0
  0
LINE
  5
18D02
330
1F
100
AcDbEntity
  8
外形線
100
AcDbLine
 10
-487.2740333409981
 20
640.4237943129474
 30
0.0
 11
-486.6740333409977
 21
639.823794312947
 31
0.0
  0
LINE
  5
18D03
330
1F
100
AcDbEntity
  8
外形線
100
AcDbLine
 10
-491.0740333409981
 20
640.4237943129474
 30
0.0
 11
-487.2740333409981
 21
640.4237943129474
 31
0.0
  0
LINE
  5
18D04
330
1F
100
AcDbEntity
  8
外形線
100
AcDbLine
 10
-491.6740333409975
 20
639.823794312947
 30
0.0
 11
-486.6740333409977
 21
639.823794312947
 31
0.0
  0
LINE
  5
18D05
330
1F
100
AcDbEntity
  8
外形線
100
AcDbLine
 10
-469.6640333409978
 20
647.4237943129472
 30
0.0
 11
-475.3640333409978
 21
647.4237943129472
 31
0.0
  0
LINE
  5
18D06
330
1F
100
AcDbEntity
  8
外形線
100
AcDbLine
 10
-475.3640333409978
 20
640.4237943129474
 30
0.0
 11
-469.6640333409978
 21
640.4237943129474
 31
0.0
  0
LINE
  5
18D07
330
1F
100
AcDbEntity
  8
外形線
100
AcDbLine
 10
-469.6640333409978
 20
640.4237943129474
 30
0.0
 11
-469.6640333409978
 21
647.4237943129472
 31
0.0
  0
ARC
  5
18D08
330
1F
100
AcDbEntity
  8
外形線
100
AcDbCircle
 10
-481.8293521038172
 20
638.4237943129464
 30
0.0
 40
2.0
100
AcDbArc
 50
90.0
 51
170.2175929681783
  0
LINE
  5
18D09
330
1F
100
AcDbEntity
  8
外形線
100
AcDbLine
 10
-475.3640333409978
 20
647.4237943129472
 30
0.0
 11
-475.3640333409978
 21
640.4237943129474
 31
0.0
  0
LINE
  5
18D0A
330
1F
100
AcDbEntity
  8
外形線
100
AcDbLine
 10
-475.3640333409978
 20
640.4237943129474
 30
0.0
 11
-481.8293521038169
 21
640.4237943129474
 31
0.0
  0
LINE
  5
18D0B
330
1F
100
AcDbEntity
  8
外形線
100
AcDbLine
 10
-463.1987145781788
 20
640.4237943129474
 30
0.0
 11
-469.6640333409978
 21
640.4237943129474
 31
0.0
  0
ARC
  5
18D0C
330
1F
100
AcDbEntity
  8
外形線
100
AcDbCircle
 10
-468.3640333409971
 20
559.6620823593838
 30
0.0
 40
10.0
100
AcDbArc
 50
314.9999999999906
 51
0.0
  0
LINE
  5
18D0D
330
1F
100
AcDbEntity
  8
外形線
100
AcDbLine
 10
-461.2929655291313
 20
552.5910145475188
 30
0.0
 11
-462.1383518568891
 21
551.7456282197618
 31
0.0
  0
LINE
  5
18D0E
330
1F
100
AcDbEntity
  8
外形線
100
AcDbLine
 10
-452.5140333409977
 20
598.2237943129466
 30
0.0
 11
-452.5140333409977
 21
612.2237943129468
 31
0.0
  0
LINE
  5
18D0F
330
1F
100
AcDbEntity
  8
外形線
100
AcDbLine
 10
-459.1140333409978
 20
610.7237943129466
 30
0.0
 11
-459.1140333409978
 21
602.7237943129466
 31
0.0
  0
LINE
  5
18D10
330
1F
100
AcDbEntity
  8
外形線
100
AcDbLine
 10
-454.1040333409978
 20
584.5237943129467
 30
0.0
 11
-454.1040333409978
 21
582.5237943129467
 31
0.0
  0
LINE
  5
18D11
330
1F
100
AcDbEntity
  8
外形線
100
AcDbLine
 10
-457.6040333409978
 20
584.5237943129467
 30
0.0
 11
-457.6040333409978
 21
582.5237943129467
 31
0.0
  0
LINE
  5
18D12
330
1F
100
AcDbEntity
  8
外形線
100
AcDbLine
 10
-458.3640333409971
 20
590.8237943129461
 30
0.0
 11
-458.3640333409971
 21
559.6620823593838
 31
0.0
  0
LINE
  5
18D13
330
1F
100
AcDbEntity
  8
外形線
100
AcDbLine
 10
-461.73156885769
 20
564.3237943129461
 30
0.0
 11
-458.3640333409968
 21
564.3237943129461
 31
0.0
  0
LINE
  5
18D14
330
1F
100
AcDbEntity
  8
外形線
100
AcDbLine
 10
-459.6250748617363
 20
561.8211787206636
 30
0.0
 11
-461.9419371543274
 21
561.8211787206636
 31
0.0
  0
LINE
  5
18D15
330
1F
100
AcDbEntity
  8
外形線
100
AcDbLine
 10
-460.8640333409971
 20
560.5397415364385
 30
0.0
 11
-460.8640333409971
 21
562.8144790600726
 31
0.0
  0
ARC
  5
18D16
330
1F
100
AcDbEntity
  8
外形線
100
AcDbCircle
 10
-455.8540333409974
 20
585.3362943129467
 30
0.0
 40
3.312499999999939
100
AcDbArc
 50
238.1092081981422
 51
301.8907918018431
  0
LINE
  5
18D17
330
1F
100
AcDbEntity
  8
外形線
100
AcDbLine
 10
-454.1040333409978
 20
582.5237943129467
 30
0.0
 11
-457.6040333409978
 21
582.5237943129467
 31
0.0
  0
LINE
  5
18D18
330
1F
100
AcDbEntity
  8
外形線
100
AcDbLine
 10
-461.7345890808397
 20
559.323794312946
 30
0.0
 11
-458.3640333409971
 21
559.323794312946
 31
0.0
  0
LINE
  5
18D19
330
1F
100
AcDbEntity
  8
外形線
100
AcDbLine
 10
-458.6240333409973
 20
598.2237943129466
 30
0.0
 11
-453.0840333409973
 21
598.2237943129466
 31
0.0
  0
LINE
  5
18D1A
330
1F
100
AcDbEntity
  8
外形線
100
AcDbLine
 10
-453.0840333409973
 20
598.2237943129466
 30
0.0
 11
-453.0840333409973
 21
592.0237943129467
 31
0.0
  0
LINE
  5
18D1B
330
1F
100
AcDbEntity
  8
細線
100
AcDbLine
 10
-458.6240333409973
 20
598.2237943129466
 30
0.0
 11
-458.6240333409973
 21
592.0237943129467
 31
0.0
  0
LINE
  5
18D1C
330
1F
100
AcDbEntity
  8
細線
100
AcDbLine
 10
-459.9140333409973
 20
598.0237943129458
 30
0.0
 11
-459.9140333409973
 21
592.0237943129467
 31
0.0
  0
LINE
  5
18D1D
330
1F
100
AcDbEntity
  8
外形線
100
AcDbLine
 10
-459.5140333409976
 20
598.2237943129466
 30
0.0
 11
-452.5140333409977
 21
598.2237943129466
 31
0.0
  0
LINE
  5
18D1E
330
1F
100
AcDbEntity
  8
細線
100
AcDbLine
 10
-459.5140333409976
 20
593.7852515032755
 30
0.0
 11
-459.5140333409976
 21
598.2237943129466
 31
0.0
  0
LINE
  5
18D1F
330
1F
100
AcDbEntity
  8
外形線
100
AcDbLine
 10
-459.1140333409978
 20
602.7237943129466
 30
0.0
 11
-452.5140333409977
 21
602.7237943129466
 31
0.0
  0
LINE
  5
18D20
330
1F
100
AcDbEntity
  8
細線
100
AcDbLine
 10
-456.5140333409977
 20
604.4391347367906
 30
0.0
 11
-453.5140333409977
 21
604.4391347367906
 31
0.0
  0
LINE
  5
18D21
330
1F
100
AcDbEntity
  8
細線
100
AcDbLine
 10
-453.5140333409977
 20
609.4391347367907
 30
0.0
 11
-456.5140333409977
 21
609.4391347367907
 31
0.0
  0
LINE
  5
18D22
330
1F
100
AcDbEntity
  8
細線
100
AcDbLine
 10
-453.5140333409977
 20
604.4391347367906
 30
0.0
 11
-453.5140333409977
 21
609.4391347367907
 31
0.0
  0
LINE
  5
18D23
330
1F
100
AcDbEntity
  8
細線
100
AcDbLine
 10
-456.5140333409977
 20
609.4391347367907
 30
0.0
 11
-456.5140333409977
 21
604.4391347367906
 31
0.0
  0
LINE
  5
18D24
330
1F
100
AcDbEntity
  8
細線
100
AcDbLine
 10
-455.3909460082008
 20
609.4391347367907
 30
0.0
 11
-455.3909460082008
 21
604.4391347367906
 31
0.0
  0
LINE
  5
18D25
330
1F
100
AcDbEntity
  8
外形線
100
AcDbLine
 10
-453.7140333409968
 20
584.5237943129467
 30
0.0
 11
-458.3640333409971
 21
584.5237943129477
 31
0.0
  0
ARC
  5
18D26
330
1F
100
AcDbEntity
  8
外形線
100
AcDbCircle
 10
-453.7140333409968
 20
585.5237943129467
 30
0.0
 40
1.0
100
AcDbArc
 50
270.0
 51
0.0
  0
LINE
  5
18D27
330
1F
100
AcDbEntity
  8
外形線
100
AcDbLine
 10
-452.714033340997
 20
585.5237943129467
 30
0.0
 11
-452.714033340997
 21
592.0237943129467
 31
0.0
  0
LINE
  5
18D28
330
1F
100
AcDbEntity
  8
外形線
100
AcDbLine
 10
-458.3540333409978
 20
632.4237943129474
 30
0.0
 11
-458.3540333409978
 21
639.823794312947
 31
0.0
  0
LINE
  5
18D29
330
1F
100
AcDbEntity
  8
外形線
100
AcDbLine
 10
-453.3540333409978
 20
632.4237943129474
 30
0.0
 11
-453.3540333409978
 21
639.823794312947
 31
0.0
  0
LINE
  5
18D2A
330
1F
100
AcDbEntity
  8
外形線
100
AcDbLine
 10
-461.2277943466899
 20
638.7636081459621
 30
0.0
 11
-457.5140333409977
 21
617.2237943129466
 31
0.0
  0
LINE
  5
18D2B
330
1F
100
AcDbEntity
  8
外形線
100
AcDbLine
 10
-457.3540333409978
 20
631.4237941445508
 30
0.0
 11
-454.3540333409977
 21
631.4237947589507
 31
0.0
  0
LINE
  5
18D2C
330
1F
100
AcDbEntity
  8
外形線
100
AcDbLine
 10
-457.3540333409978
 20
632.4237943129474
 30
0.0
 11
-454.3540333409977
 21
632.4237943129474
 31
0.0
  0
LINE
  5
18D2D
330
1F
100
AcDbEntity
  8
外形線
100
AcDbLine
 10
-458.3540333409978
 20
632.4237943129474
 30
0.0
 11
-457.3540333409978
 21
632.4237943129474
 31
0.0
  0
LINE
  5
18D2E
330
1F
100
AcDbEntity
  8
外形線
100
AcDbLine
 10
-458.3540332897978
 20
632.4237943129474
 30
0.0
 11
-457.3540333409978
 21
631.4237941445508
 31
0.0
  0
LINE
  5
18D2F
330
1F
100
AcDbEntity
  8
外形線
100
AcDbLine
 10
-453.3540333409978
 20
632.4237943129474
 30
0.0
 11
-454.3540333409977
 21
632.4237943129474
 31
0.0
  0
LINE
  5
18D30
330
1F
100
AcDbEntity
  8
外形線
100
AcDbLine
 10
-453.3540333409978
 20
632.4237947225474
 30
0.0
 11
-454.3540333409977
 21
631.4237949793578
 31
0.0
  0
ARC
  5
18D31
330
1F
100
AcDbEntity
  8
外形線
100
AcDbCircle
 10
-454.5140333409981
 20
612.2237943129468
 30
0.0
 40
2.0
100
AcDbArc
 50
0.0
 51
90.0
  0
LINE
  5
18D32
330
1F
100
AcDbEntity
  8
外形線
100
AcDbLine
 10
-452.5140333409977
 20
610.7237943129466
 30
0.0
 11
-459.1140333409978
 21
610.7237943129466
 31
0.0
  0
ARC
  5
18D33
330
1F
100
AcDbEntity
  8
外形線
100
AcDbCircle
 10
-454.5140333409981
 20
617.2237943129466
 30
0.0
 40
3.0
100
AcDbArc
 50
180.0
 51
270.0
  0
LINE
  5
18D34
330
1F
100
AcDbEntity
  8
外形線
100
AcDbLine
 10
-457.3540333409978
 20
616.2571506350587
 30
0.0
 11
-457.3540333409978
 21
631.4237941445508
 31
0.0
  0
LINE
  5
18D35
330
1F
100
AcDbEntity
  8
外形線
100
AcDbLine
 10
-454.3540333409977
 20
614.1488196644805
 30
0.0
 11
-454.3540333409977
 21
631.4237949793578
 31
0.0
  0
LINE
  5
18D36
330
1F
100
AcDbEntity
  8
外形線
100
AcDbLine
 10
-458.3540333409978
 20
639.823794312947
 30
0.0
 11
-453.3540333409978
 21
639.823794312947
 31
0.0
  0
LINE
  5
18D37
330
1F
100
AcDbEntity
  8
外形線
100
AcDbLine
 10
-457.7540333409984
 20
640.4237943129474
 30
0.0
 11
-453.9540333409981
 21
640.4237943129474
 31
0.0
  0
LINE
  5
18D38
330
1F
100
AcDbEntity
  8
外形線
100
AcDbLine
 10
-458.3540333409978
 20
639.823794312947
 30
0.0
 11
-457.7540333409984
 21
640.4237943129474
 31
0.0
  0
LINE
  5
18D39
330
1F
100
AcDbEntity
  8
外形線
100
AcDbLine
 10
-453.9540333409981
 20
640.4237943129474
 30
0.0
 11
-453.3540333409978
 21
639.823794312947
 31
0.0
  0
LINE
  5
18D3A
330
1F
100
AcDbEntity
  8
外形線
100
AcDbLine
 10
-556.9389174457799
 20
675.1938062227625
 30
0.0
 11
-536.3533641366553
 21
675.1938062227625
 31
0.0
  0
LINE
  5
18D3B
330
1F
100
AcDbEntity
  8
外形線
100
AcDbLine
 10
-556.9389174457796
 20
679.3938062227622
 30
0.0
 11
-536.3533641366553
 21
679.3938062227625
 31
0.0
  0
LINE
  5
18D3C
330
1F
100
AcDbEntity
  8
外形線
100
AcDbLine
 10
-551.2989174457775
 20
687.2515198821602
 30
0.0
 11
-492.5140333409975
 21
687.2515198821602
 31
0.0
  0
LINE
  5
18D3D
330
1F
100
AcDbEntity
  8
外形線
100
AcDbLine
 10
-551.2989174457771
 20
691.4515198821605
 30
0.0
 11
-492.5140333409975
 21
691.4515198821605
 31
0.0
  0
ARC
  5
18D3E
330
1F
100
AcDbEntity
  8
外形線
100
AcDbCircle
 10
-492.5140333409975
 20
669.3515198821605
 30
0.0
 40
22.1
100
AcDbArc
 50
0.0
 51
90.0
  0
ARC
  5
18D3F
330
1F
100
AcDbEntity
  8
外形線
100
AcDbCircle
 10
-492.5140333409975
 20
669.3515198821605
 30
0.0
 40
17.9
100
AcDbArc
 50
0.0
 51
90.0
  0
ARC
  5
18D48
330
1F
100
AcDbEntity
  8
外形線
100
AcDbCircle
 10
-640.648366264679
 20
662.3662077975644
 30
0.0
 40
1.0
100
AcDbArc
 50
270.0
 51
359.9999999999868
  0
LINE
  5
18D49
330
1F
100
AcDbEntity
  8
外形線
100
AcDbLine
 10
-645.5460040599521
 20
661.3662077975645
 30
0.0
 11
-645.5460040599521
 21
693.2214046479582
 31
0.0
  0
ARC
  5
18D4A
330
1F
100
AcDbEntity
  8
外形線
100
AcDbCircle
 10
-610.1389174457782
 20
666.5938062227612
 30
0.0
 40
4.0
100
AcDbArc
 50
270.0
 51
0.0
  0
LINE
  5
18D4B
330
1F
100
AcDbEntity
  8
外形線
100
AcDbLine
 10
-665.4613583906617
 20
693.5638053660724
 30
0.0
 11
-665.4613583906617
 21
661.0238070794501
 31
0.0
  0
LINE
  5
18D4C
330
1F
100
AcDbEntity
  8
外形線
100
AcDbLine
 10
-667.0313583906606
 20
661.0238070794501
 30
0.0
 11
-665.4613583906617
 21
661.0238070794501
 31
0.0
  0
LINE
  5
18D4D
330
1F
100
AcDbEntity
  8
外形線
100
AcDbLine
 10
-640.648366264679
 20
661.3662077975645
 30
0.0
 11
-645.5460040599521
 21
661.3662077975645
 31
0.0
  0
LINE
  5
18D4E
330
1F
100
AcDbEntity
  8
外形線
100
AcDbLine
 10
-630.9389174457812
 20
689.7711881125251
 30
0.0
 11
-639.6483662646772
 21
689.7711881125251
 31
0.0
  0
LINE
  5
18D4F
330
1F
100
AcDbEntity
  8
外形線
100
AcDbLine
 10
-630.9389174457792
 20
664.8164243329972
 30
0.0
 11
-639.6483662646772
 21
664.8164243329972
 31
0.0
  0
LINE
  5
18D50
330
1F
100
AcDbEntity
  8
外形線
100
AcDbLine
 10
-633.8083662646721
 20
707.041404647958
 30
0.0
 11
-644.3060040599492
 21
707.041404647958
 31
0.0
  0
LINE
  5
18D51
330
1F
100
AcDbEntity
  8
中心線
100
AcDbLine
 10
-603.6161363758362
 20
677.2938062227622
 30
0.0
 11
-678.2099647447032
 21
677.2938062227607
 31
0.0
  0
LINE
  5
18D52
330
1F
100
AcDbEntity
  8
中心線
100
AcDbLine
 10
-603.6161363758362
 20
689.3515198821602
 30
0.0
 11
-678.2099647447032
 21
689.3515198821594
 31
0.0
  0
LINE
  5
18D53
330
1F
100
AcDbEntity
  8
外形線
100
AcDbLine
 10
-663.2389174457796
 20
665.6335700022889
 30
0.0
 11
-663.2389174457796
 21
688.9540424432338
 31
0.0
  0
LINE
  5
18D54
330
1F
100
AcDbEntity
  8
外形線
100
AcDbLine
 10
-639.6483662646788
 20
662.3662077975644
 30
0.0
 11
-639.6483662646763
 21
692.221404647958
 31
0.0
  0
LINE
  5
18D55
330
1F
100
AcDbEntity
  8
外形線
100
AcDbLine
 10
-646.3885237449915
 20
663.1060109471706
 30
0.0
 11
-646.3885237449924
 21
691.481601498352
 31
0.0
  0
LINE
  5
18D56
330
1F
100
AcDbEntity
  8
外形線
100
AcDbLine
 10
-659.0263190205817
 20
663.1060109471706
 30
0.0
 11
-659.0263190205826
 21
691.481601498352
 31
0.0
  0
LINE
  5
18D57
330
1F
100
AcDbEntity
  8
外形線
100
AcDbLine
 10
-660.7113583906614
 20
663.9485306322102
 30
0.0
 11
-660.7113583906622
 21
690.6390818133123
 31
0.0
  0
LINE
  5
18D58
330
1F
100
AcDbEntity
  8
外形線
100
AcDbLine
 10
-660.7113583906619
 20
689.9938062227612
 30
0.0
 11
-660.7113583906619
 21
664.5938062227614
 31
0.0
  0
LINE
  5
18D59
330
1F
100
AcDbEntity
  8
外形線
100
AcDbLine
 10
-660.7113583906614
 20
665.6335700022889
 30
0.0
 11
-663.2389174457796
 21
665.6335700022889
 31
0.0
  0
LINE
  5
18D5A
330
1F
100
AcDbEntity
  8
外形線
100
AcDbLine
 10
-665.4613583906617
 20
664.5938062227611
 30
0.0
 11
-660.7113583906614
 21
664.5938062227612
 31
0.0
  0
LINE
  5
18D5B
330
1F
100
AcDbEntity
  8
外形線
100
AcDbLine
 10
-646.3885237449915
 20
663.1060109471706
 30
0.0
 11
-659.0263190205817
 21
663.1060109471706
 31
0.0
  0
LINE
  5
18D5C
330
1F
100
AcDbEntity
  8
外形線
100
AcDbLine
 10
-645.5460040599521
 20
664.1190208876727
 30
0.0
 11
-646.3885237449915
 21
664.1190208876727
 31
0.0
  0
LINE
  5
18D5D
330
1F
100
AcDbEntity
  8
外形線
100
AcDbLine
 10
-659.0263190205826
 20
663.9485306322102
 30
0.0
 11
-660.7113583906614
 21
663.9485306322102
 31
0.0
  0
LINE
  5
18D5E
330
1F
100
AcDbEntity
  8
外形線
100
AcDbLine
 10
-661.4713583906592
 20
703.6390198821597
 30
0.0
 11
-664.6413583906599
 21
703.6390198821597
 31
0.0
  0
LINE
  5
18D5F
330
1F
100
AcDbEntity
  8
外形線
100
AcDbLine
 10
-660.7113583906614
 20
688.9540424432338
 30
0.0
 11
-663.2389174457796
 21
688.9540424432338
 31
0.0
  0
LINE
  5
18D60
330
1F
100
AcDbEntity
  8
外形線
100
AcDbLine
 10
-661.4713583906582
 20
702.7740424432338
 30
0.0
 11
-663.9989174457777
 21
702.7740424432338
 31
0.0
  0
LINE
  5
18D61
330
1F
100
AcDbEntity
  8
外形線
100
AcDbLine
 10
-665.4613583906617
 20
689.9938062227612
 30
0.0
 11
-660.7113583906622
 21
689.9938062227612
 31
0.0
  0
LINE
  5
18D62
330
1F
100
AcDbEntity
  8
外形線
100
AcDbLine
 10
-663.9989174457772
 20
694.5688462788182
 30
0.0
 11
-663.9989174457777
 21
702.7740424432338
 31
0.0
  0
LINE
  5
18D63
330
1F
100
AcDbEntity
  8
外形線
100
AcDbLine
 10
-667.0313583906606
 20
693.5638053660724
 30
0.0
 11
-665.4613583906617
 21
693.5638053660724
 31
0.0
  0
LINE
  5
18D64
330
1F
100
AcDbEntity
  8
外形線
100
AcDbLine
 10
-667.0313583906602
 20
706.8115192504135
 30
0.0
 11
-664.6413583906591
 21
706.8115192504135
 31
0.0
  0
LINE
  5
18D65
330
1F
100
AcDbEntity
  8
外形線
100
AcDbLine
 10
-664.6413583906591
 20
706.8115192504135
 30
0.0
 11
-664.6413583906596
 21
694.5688462788182
 31
0.0
  0
LINE
  5
18D66
330
1F
100
AcDbEntity
  8
外形線
100
AcDbLine
 10
-646.3885237449924
 20
691.481601498352
 30
0.0
 11
-659.0263190205826
 21
691.481601498352
 31
0.0
  0
ARC
  5
18D67
330
1F
100
AcDbEntity
  8
外形線
100
AcDbCircle
 10
-640.6483662646762
 20
692.221404647958
 30
0.0
 40
1.0
100
AcDbArc
 50
359.9999999999868
 51
90.0
  0
LINE
  5
18D68
330
1F
100
AcDbEntity
  8
外形線
100
AcDbLine
 10
-640.6483662646762
 20
693.221404647958
 30
0.0
 11
-645.5460040599521
 21
693.2214046479582
 31
0.0
  0
LINE
  5
18D69
330
1F
100
AcDbEntity
  8
外形線
100
AcDbLine
 10
-645.5460040599521
 20
690.4685915578498
 30
0.0
 11
-646.3885237449915
 21
690.4685915578498
 31
0.0
  0
LINE
  5
18D6A
330
1F
100
AcDbEntity
  8
外形線
100
AcDbLine
 10
-659.0263190205826
 20
690.6390818133123
 30
0.0
 11
-660.7113583906622
 21
690.6390818133123
 31
0.0
  0
LINE
  5
18D6B
330
1F
100
AcDbEntity
  8
外形線
100
AcDbLine
 10
-659.7863190205798
 20
704.4590818133122
 30
0.0
 11
-661.4713583906595
 21
704.4590818133125
 31
0.0
  0
LINE
  5
18D6C
330
1F
100
AcDbEntity
  8
外形線
100
AcDbLine
 10
-644.3060040599492
 20
704.2885915578493
 30
0.0
 11
-645.1485237449888
 21
704.2885915578493
 31
0.0
  0
LINE
  5
18D6D
330
1F
100
AcDbEntity
  8
外形線
100
AcDbLine
 10
-645.1485237449888
 20
705.3016014983517
 30
0.0
 11
-659.7863190205787
 21
705.3016014983517
 31
0.0
  0
LINE
  5
18D6E
330
1F
100
AcDbEntity
  8
外形線
100
AcDbLine
 10
-645.1485237449881
 20
694.5688462788182
 30
0.0
 11
-645.1485237449888
 21
705.3016014983517
 31
0.0
  0
LINE
  5
18D6F
330
1F
100
AcDbEntity
  8
外形線
100
AcDbLine
 10
-644.3060040599492
 20
694.5688462788182
 30
0.0
 11
-644.3060040599492
 21
707.041404647958
 31
0.0
  0
LINE
  5
18D70
330
1F
100
AcDbEntity
  8
外形線
100
AcDbLine
 10
-659.7863190205787
 20
694.5688462788182
 30
0.0
 11
-659.7863190205787
 21
705.3016014983517
 31
0.0
  0
LINE
  5
18D71
330
1F
100
AcDbEntity
  8
外形線
100
AcDbLine
 10
-661.4713583906595
 20
694.5688462788182
 30
0.0
 11
-661.4713583906595
 21
704.4590818133125
 31
0.0
  0
LINE
  5
18D72
330
1F
100
AcDbEntity
  8
外形線
100
AcDbLine
 10
-661.471358390659
 20
703.6390198821597
 30
0.0
 11
-661.4713583906592
 21
694.5688462788182
 31
0.0
  0
LINE
  5
18D75
330
1F
100
AcDbEntity
  8
外形線
100
AcDbLine
 10
-597.2989174457766
 20
697.7938062227609
 30
0.0
 11
-551.298917445777
 21
697.7938062227609
 31
0.0
  0
CIRCLE
  5
18D76
330
1F
100
AcDbEntity
  8
外形線
100
AcDbCircle
 10
-612.1389174457775
 20
687.9938062227616
 30
0.0
 40
3.75
  0
CIRCLE
  5
18D77
330
1F
100
AcDbEntity
  8
外形線
100
AcDbCircle
 10
-612.1389174457775
 20
687.9938062227616
 30
0.0
 40
3.0
  0
ARC
  5
18D78
330
1F
100
AcDbEntity
  8
外形線
100
AcDbCircle
 10
-610.1389174457803
 20
687.9938062227616
 30
0.0
 40
4.0
100
AcDbArc
 50
0.0
 51
90.0
  0
LINE
  5
18D79
330
1F
100
AcDbEntity
  8
外形線
100
AcDbLine
 10
-617.6389174458162
 20
677.2938062227614
 30
0.0
 11
-617.638917445782
 21
691.9938062227616
 31
0.0
  0
LINE
  5
18D7A
330
1F
100
AcDbEntity
  8
外形線
100
AcDbLine
 10
-629.9389174457802
 20
666.0714440180369
 30
0.0
 11
-629.9389174457802
 21
688.5161684274858
 31
0.0
  0
LINE
  5
18D7B
330
1F
100
AcDbEntity
  8
外形線
100
AcDbLine
 10
-629.9389174457792
 20
664.393806222761
 30
0.0
 11
-629.9389174457802
 21
690.1938062227612
 31
0.0
  0
LINE
  5
18D7C
330
1F
100
AcDbEntity
  8
外形線
100
AcDbLine
 10
-597.2989174457755
 20
684.2938062227614
 30
0.0
 11
-597.298917445777
 21
701.8938062227615
 31
0.0
  0
LINE
  5
18D7D
330
1F
100
AcDbEntity
  8
外形線
100
AcDbLine
 10
-617.6389174457782
 20
662.5938062227612
 30
0.0
 11
-610.1389174457782
 21
662.5938062227612
 31
0.0
  0
LINE
  5
18D7E
330
1F
100
AcDbEntity
  8
外形線
100
AcDbLine
 10
-617.6389174457892
 20
682.2938062227612
 30
0.0
 11
-606.1389174457782
 21
682.2938062227612
 31
0.0
  0
LINE
  5
18D7F
330
1F
100
AcDbEntity
  8
外形線
100
AcDbLine
 10
-617.6389174457892
 20
672.2938062227614
 30
0.0
 11
-606.1389174457782
 21
672.2938062227614
 31
0.0
  0
LINE
  5
18D80
330
1F
100
AcDbEntity
  8
外形線
100
AcDbLine
 10
-628.9389174457792
 20
663.3938062227612
 30
0.0
 11
-617.6389174457792
 21
663.3938062227612
 31
0.0
  0
LINE
  5
18D81
330
1F
100
AcDbEntity
  8
外形線
100
AcDbLine
 10
-617.6389174457782
 20
662.5938062227612
 30
0.0
 11
-617.6389174457956
 21
677.2938062227614
 31
0.0
  0
ARC
  5
18D82
330
1F
100
AcDbEntity
  8
外形線
100
AcDbCircle
 10
-628.9389174457792
 20
664.393806222761
 30
0.0
 40
1.0
100
AcDbArc
 50
180.0
 51
270.0
  0
ARC
  5
18D83
330
1F
100
AcDbEntity
  8
外形線
100
AcDbCircle
 10
-630.9389174457792
 20
665.8164243329974
 30
0.0
 40
1.0
100
AcDbArc
 50
270.0
 51
0.0
  0
CIRCLE
  5
18D84
330
1F
100
AcDbEntity
  8
外形線
100
AcDbCircle
 10
-612.1389174457775
 20
666.5938062227612
 30
0.0
 40
3.75
  0
LINE
  5
18D85
330
1F
100
AcDbEntity
  8
外形線
100
AcDbLine
 10
-615.096957337327
 20
667.0938062227612
 30
0.0
 11
-609.1808775542277
 21
667.0938062227612
 31
0.0
  0
LINE
  5
18D86
330
1F
100
AcDbEntity
  8
外形線
100
AcDbLine
 10
-615.096957337327
 20
666.0938062227613
 30
0.0
 11
-609.1808775542277
 21
666.0938062227613
 31
0.0
  0
CIRCLE
  5
18D87
330
1F
100
AcDbEntity
  8
外形線
100
AcDbCircle
 10
-612.1389174457775
 20
666.5938062227612
 30
0.0
 40
3.0
  0
LINE
  5
18D88
330
1F
100
AcDbEntity
  8
外形線
100
AcDbLine
 10
-615.096957337327
 20
687.4938062227612
 30
0.0
 11
-609.1808775542277
 21
687.4938062227612
 31
0.0
  0
LINE
  5
18D89
330
1F
100
AcDbEntity
  8
外形線
100
AcDbLine
 10
-606.1389174457782
 20
666.5938062227617
 30
0.0
 11
-606.1389174457803
 21
687.9938062227616
 31
0.0
  0
LINE
  5
18D8A
330
1F
100
AcDbEntity
  8
外形線
100
AcDbLine
 10
-617.6389174458129
 20
691.9938062227616
 30
0.0
 11
-610.1389174457803
 21
691.9938062227616
 31
0.0
  0
LINE
  5
18D8B
330
1F
100
AcDbEntity
  8
外形線
100
AcDbLine
 10
-620.0989174457762
 20
705.0938062227609
 30
0.0
 11
-608.7989174457759
 21
705.0938062227612
 31
0.0
  0
LINE
  5
18D8C
330
1F
100
AcDbEntity
  8
外形線
100
AcDbLine
 10
-628.9389174457802
 20
691.1938062227612
 30
0.0
 11
-617.6389174458111
 21
691.1938062227612
 31
0.0
  0
ARC
  5
18D8D
330
1F
100
AcDbEntity
  8
外形線
100
AcDbCircle
 10
-628.9389174457802
 20
690.1938062227612
 30
0.0
 40
1.0
100
AcDbArc
 50
90.0
 51
180.0
  0
ARC
  5
18D8E
330
1F
100
AcDbEntity
  8
外形線
100
AcDbCircle
 10
-630.9389174457812
 20
688.7711881125251
 30
0.0
 40
1.0
100
AcDbArc
 50
0.0
 51
90.0
  0
LINE
  5
18D8F
330
1F
100
AcDbEntity
  8
外形線
100
AcDbLine
 10
-622.0989174457779
 20
704.0586881125249
 30
0.0
 11
-632.8083662646737
 21
704.0586881125249
 31
0.0
  0
ARC
  5
18D90
330
1F
100
AcDbEntity
  8
外形線
100
AcDbCircle
 10
-622.0989174457779
 20
703.0586881125249
 30
0.0
 40
1.0
100
AcDbArc
 50
0.0
 51
90.0
  0
ARC
  5
18D91
330
1F
100
AcDbEntity
  8
外形線
100
AcDbCircle
 10
-633.8083662646721
 20
706.041404647958
 30
0.0
 40
1.0
100
AcDbArc
 50
359.9999999999868
 51
90.0
  0
ARC
  5
18D92
330
1F
100
AcDbEntity
  8
外形線
100
AcDbCircle
 10
-620.0989174457762
 20
704.0938062227609
 30
0.0
 40
1.0
100
AcDbArc
 50
90.0
 51
179.9999999999869
  0
LINE
  5
18D93
330
1F
100
AcDbEntity
  8
外形線
100
AcDbLine
 10
-621.0989174457766
 20
694.5688462788182
 30
0.0
 11
-621.0989174457762
 21
704.0938062227612
 31
0.0
  0
LINE
  5
18D94
330
1F
100
AcDbEntity
  8
外形線
100
AcDbLine
 10
-632.8083662646737
 20
694.5688462788182
 30
0.0
 11
-632.8083662646721
 21
706.041404647958
 31
0.0
  0
LINE
  5
18D95
330
1F
100
AcDbEntity
  8
外形線
100
AcDbLine
 10
-621.0989174457766
 20
694.5688462788182
 30
0.0
 11
-621.0989174457771
 21
702.8938062227608
 31
0.0
  0
LINE
  5
18D96
330
1F
100
AcDbEntity
  8
外形線
100
AcDbLine
 10
-615.096957337327
 20
688.4938062227615
 30
0.0
 11
-609.1808775542277
 21
688.4938062227615
 31
0.0
  0
LINE
  5
18D97
330
1F
100
AcDbEntity
  8
外形線
100
AcDbLine
 10
-608.7989174458027
 20
694.5688462788182
 30
0.0
 11
-608.7989174457759
 21
705.8938062227609
 31
0.0
  0
ARC
  5
18D98
330
1F
100
AcDbEntity
  8
外形線
100
AcDbCircle
 10
-601.2989174457751
 20
701.8938062227609
 30
0.0
 40
4.0
100
AcDbArc
 50
359.9999999999868
 51
90.0
  0
LINE
  5
18D99
330
1F
100
AcDbEntity
  8
外形線
100
AcDbLine
 10
-606.2569573373238
 20
702.3938062227609
 30
0.0
 11
-600.3408775542246
 21
702.3938062227609
 31
0.0
  0
LINE
  5
18D9A
330
1F
100
AcDbEntity
  8
外形線
100
AcDbLine
 10
-606.2569573373238
 20
701.3938062227611
 30
0.0
 11
-600.3408775542246
 21
701.3938062227611
 31
0.0
  0
CIRCLE
  5
18D9B
330
1F
100
AcDbEntity
  8
外形線
100
AcDbCircle
 10
-603.2989174457742
 20
701.8938062227609
 30
0.0
 40
3.0
  0
CIRCLE
  5
18D9C
330
1F
100
AcDbEntity
  8
外形線
100
AcDbCircle
 10
-603.2989174457742
 20
701.8938062227609
 30
0.0
 40
3.75
  0
LINE
  5
18D9D
330
1F
100
AcDbEntity
  8
外形線
100
AcDbLine
 10
-608.798917445786
 20
696.5813062227611
 30
0.0
 11
-597.2989174457751
 21
696.5813062227611
 31
0.0
  0
LINE
  5
18D9E
330
1F
100
AcDbEntity
  8
外形線
100
AcDbLine
 10
-608.7989174457759
 20
705.8938062227609
 30
0.0
 11
-601.2989174457751
 21
705.8938062227609
 31
0.0
  0
LINE
  5
18D9F
330
1F
100
AcDbEntity
  8
外形線
100
AcDbLine
 10
-551.2989174457779
 20
682.1938062227615
 30
0.0
 11
-551.298917445777
 21
697.7938062227609
 31
0.0
  0
LINE
  5
18DA0
330
1F
100
AcDbEntity
  8
外形線
100
AcDbLine
 10
-556.9389174457815
 20
682.1938062227614
 30
0.0
 11
-551.298917445777
 21
682.1938062227615
 31
0.0
  0
LINE
  5
18DA1
330
1F
100
AcDbEntity
  8
外形線
100
AcDbLine
 10
-556.9389174457776
 20
670.2938062227614
 30
0.0
 11
-556.938917445782
 21
684.2938062227614
 31
0.0
  0
SOLID
  5
18EEB
330
1F
100
AcDbEntity
  8
0
  6
BYBLOCK
 62
     0
100
AcDbTrace
 10
-1564.448916495343
 20
771.9126083827614
 30
0.0
 11
-1572.448916495343
 21
767.2938062227609
 31
0.0
 12
-1564.448916495343
 22
762.6750040627612
 32
0.0
 13
-1564.448916495343
 23
762.6750040627612
 33
0.0
  0
SOLID
  5
18EEC
330
1F
100
AcDbEntity
  8
0
  6
BYBLOCK
 62
     0
100
AcDbTrace
 10
-1582.448916495343
 20
771.9126083827614
 30
0.0
 11
-1574.448916495343
 21
767.2938062227609
 31
0.0
 12
-1582.448916495343
 22
762.6750040627612
 32
0.0
 13
-1582.448916495343
 23
762.6750040627612
 33
0.0
  0
LINE
  5
18EEF
330
1F
100
AcDbEntity
  8
外形線
100
AcDbLine
 10
-606.1389174457799
 20
684.2938062227613
 30
0.0
 11
-556.938917445782
 21
684.2938062227614
 31
0.0
  0
LINE
  5
18EF0
330
1F
100
AcDbEntity
  8
外形線
100
AcDbLine
 10
-606.1389174457787
 20
670.2938062227614
 30
0.0
 11
-556.9389174457776
 21
670.2938062227614
 31
0.0
  0
LINE
  5
198F1
330
1F
100
AcDbEntity
  8
想像線
 48
0.5
100
AcDbLine
 10
-833.5313583906609
 20
452.7938062227611
 30
0.0
 11
-833.5313583906609
 21
442.7938062227606
 31
0.0
  0
LINE
  5
198F2
330
1F
100
AcDbEntity
  8
想像線
 48
0.5
100
AcDbLine
 10
-851.031358390661
 20
441.7938062227606
 30
0.0
 11
-851.031358390661
 21
453.7938062227611
 31
0.0
  0
LINE
  5
198F3
330
1F
100
AcDbEntity
  8
想像線
 48
0.5
100
AcDbLine
 10
-833.5313583906609
 20
452.7938062227611
 30
0.0
 11
-834.5313583906611
 21
453.7938062227611
 31
0.0
  0
LINE
  5
198F4
330
1F
100
AcDbEntity
  8
想像線
 48
0.5
100
AcDbLine
 10
-833.5313583906609
 20
442.7938062227606
 30
0.0
 11
-834.5313583906611
 21
441.7938062227606
 31
0.0
  0
LINE
  5
198F5
330
1F
100
AcDbEntity
  8
想像線
 48
0.5
100
AcDbLine
 10
-798.531358390661
 20
452.7938062227611
 30
0.0
 11
-798.531358390661
 21
442.7938062227606
 31
0.0
  0
LINE
  5
198F6
330
1F
100
AcDbEntity
  8
想像線
 48
0.5
100
AcDbLine
 10
-798.531358390661
 20
442.7938062227606
 30
0.0
 11
-797.531358390661
 21
441.7938062227606
 31
0.0
  0
LINE
  5
198F7
330
1F
100
AcDbEntity
  8
想像線
 48
0.5
100
AcDbLine
 10
-751.0313583906605
 20
441.793806222761
 30
0.0
 11
-851.031358390661
 21
441.7938062227606
 31
0.0
  0
LINE
  5
198F8
330
1F
100
AcDbEntity
  8
中心線
100
AcDbLine
 10
-816.031358390661
 20
438.1802951358642
 30
0.0
 11
-816.031358390661
 21
456.5719774239984
 31
0.0
  0
LINE
  5
198F9
330
1F
100
AcDbEntity
  8
想像線
 48
0.5
100
AcDbLine
 10
-746.0313583906605
 20
453.7938062227606
 30
0.0
 11
-851.031358390661
 21
453.7938062227606
 31
0.0
  0
LINE
  5
198FA
330
1F
100
AcDbEntity
  8
想像線
 48
0.5
100
AcDbLine
 10
-760.5313583906609
 20
424.2938062227611
 30
0.0
 11
-776.5313583906601
 21
424.2938062227611
 31
0.0
  0
LINE
  5
198FB
330
1F
100
AcDbEntity
  8
想像線
 48
0.5
100
AcDbLine
 10
-757.781358390661
 20
436.2938062227605
 30
0.0
 11
-779.2813583906609
 21
436.2938062227611
 31
0.0
  0
LINE
  5
198FC
330
1F
100
AcDbEntity
  8
想像線
 48
0.5
100
AcDbLine
 10
-756.5313583906609
 20
439.2938062227606
 30
0.0
 11
-780.531358390661
 21
439.293806222761
 31
0.0
  0
LINE
  5
198FD
330
1F
100
AcDbEntity
  8
想像線
 48
0.5
100
AcDbLine
 10
-777.5313583906607
 20
425.2938062227615
 30
0.0
 11
-776.5313583906601
 21
424.2938062227611
 31
0.0
  0
LINE
  5
198FE
330
1F
100
AcDbEntity
  8
想像線
 48
0.5
100
AcDbLine
 10
-779.2813583906609
 20
436.2938062227611
 30
0.0
 11
-779.2813583906609
 21
439.293806222761
 31
0.0
  0
LINE
  5
198FF
330
1F
100
AcDbEntity
  8
想像線
 48
0.5
100
AcDbLine
 10
-780.531358390661
 20
439.293806222761
 30
0.0
 11
-780.531358390661
 21
441.7938062227606
 31
0.0
  0
LINE
  5
19900
330
1F
100
AcDbEntity
  8
想像線
 48
0.5
100
AcDbLine
 10
-777.5313583906607
 20
425.2938062227615
 30
0.0
 11
-777.5313583906607
 21
436.2938062227611
 31
0.0
  0
LINE
  5
19901
330
1F
100
AcDbEntity
  8
想像線
 48
0.5
100
AcDbLine
 10
-751.0313583906605
 20
441.793806222761
 30
0.0
 11
-751.0313583906605
 21
453.7938062227611
 31
0.0
  0
LINE
  5
19902
330
1F
100
AcDbEntity
  8
中心線
100
AcDbLine
 10
-768.5313583906605
 20
421.3098504502966
 30
0.0
 11
-768.5313583906605
 21
461.4094915778718
 31
0.0
  0
LINE
  5
19903
330
1F
100
AcDbEntity
  8
想像線
 48
0.5
100
AcDbLine
 10
-746.0313583906605
 20
452.293806222761
 30
0.0
 11
-746.0313583906605
 21
453.7938062227606
 31
0.0
  0
LINE
  5
19904
330
1F
100
AcDbEntity
  8
想像線
 48
0.5
100
AcDbLine
 10
-759.531358390661
 20
425.2938062227615
 30
0.0
 11
-760.5313583906609
 21
424.2938062227611
 31
0.0
  0
LINE
  5
19905
330
1F
100
AcDbEntity
  8
想像線
 48
0.5
100
AcDbLine
 10
-757.781358390661
 20
436.2938062227611
 30
0.0
 11
-757.781358390661
 21
439.293806222761
 31
0.0
  0
LINE
  5
19906
330
1F
100
AcDbEntity
  8
想像線
 48
0.5
100
AcDbLine
 10
-756.5313583906609
 20
439.2938062227606
 30
0.0
 11
-756.5313583906605
 21
441.7938062227606
 31
0.0
  0
LINE
  5
19907
330
1F
100
AcDbEntity
  8
想像線
 48
0.5
100
AcDbLine
 10
-759.531358390661
 20
425.2938062227615
 30
0.0
 11
-759.531358390661
 21
436.2938062227611
 31
0.0
  0
LINE
  5
199E6
330
1F
100
AcDbEntity
  8
外形線
100
AcDbLine
 10
-510.0533641366546
 20
426.4622595744659
 30
0.0
 11
-510.0533641366546
 21
434.9337661484552
 31
0.0
  0
LINE
  5
1C088
102
{ACAD_REACTORS
330
1C096
102
}
330
1F
100
AcDbEntity
  8
中心線
100
AcDbLine
 10
-697.0333344267694
 20
767.2938062227615
 30
0.0
 11
-662.5503848323265
 21
767.2938062227609
 31
0.0
  0
LWPOLYLINE
  5
1C089
102
{ACAD_REACTORS
330
1C096
102
}
330
1F
100
AcDbEntity
  8
外形線
100
AcDbPolyline
 90
        8
 70
     1
 43
0.0
 10
-676.0313583906609
 20
736.0938062227612
 10
-676.0313583906606
 20
744.4938062227612
 42
0.4142135623730951
 10
-676.3313583906606
 20
744.7938062227612
 10
-681.7313583906608
 20
744.7938062227612
 42
0.4142135623730951
 10
-682.0313583906608
 20
744.4938062227612
 10
-682.0313583906608
 20
736.0938062227612
 42
0.4142135623730996
 10
-681.7313583906608
 20
735.7938062227612
 10
-676.3313583906607
 20
735.7938062227612
 42
0.4142135623730904
  0
LINE
  5
1C08A
102
{ACAD_REACTORS
330
1C096
102
}
330
1F
100
AcDbEntity
  8
外形線
100
AcDbLine
 10
-683.2313583906604
 20
810.4938062227615
 30
0.0
 11
-683.2313583906604
 21
790.0938062227612
 31
0.0
  0
LINE
  5
1C08B
102
{ACAD_REACTORS
330
1C096
102
}
330
1F
100
AcDbEntity
  8
外形線
100
AcDbLine
 10
-676.0313583906604
 20
790.0938062227612
 30
0.0
 11
-676.0313583906604
 21
810.4938062227612
 31
0.0
  0
LINE
  5
1C08C
102
{ACAD_REACTORS
330
1C096
102
}
330
1F
100
AcDbEntity
  8
外形線
100
AcDbLine
 10
-676.0313583906604
 20
749.7938062227611
 30
0.0
 11
-676.0313583906604
 21
784.7938062227612
 31
0.0
  0
LINE
  5
1C08D
102
{ACAD_REACTORS
330
1C096
102
}
330
1F
100
AcDbEntity
  8
外形線
100
AcDbLine
 10
-683.2313583906604
 20
749.7938062227611
 30
0.0
 11
-683.2313583906608
 21
784.7938062227612
 31
0.0
  0
LINE
  5
1C08E
102
{ACAD_REACTORS
330
1C096
102
}
330
1F
100
AcDbEntity
  8
外形線
100
AcDbLine
 10
-683.2313583906604
 20
749.7938062227611
 30
0.0
 11
-676.0313583906604
 21
749.7938062227611
 31
0.0
  0
ARC
  5
1C08F
102
{ACAD_REACTORS
330
1C096
102
}
330
1F
100
AcDbEntity
  8
外形線
100
AcDbCircle
 10
-676.3313583906606
 20
790.0938062227615
 30
0.0
 40
0.3
100
AcDbArc
 50
270.0
 51
0.0
  0
ARC
  5
1C090
102
{ACAD_REACTORS
330
1C096
102
}
330
1F
100
AcDbEntity
  8
外形線
100
AcDbCircle
 10
-682.9313583906602
 20
790.0938062227615
 30
0.0
 40
0.3
100
AcDbArc
 50
180.0
 51
270.0
  0
LINE
  5
1C091
102
{ACAD_REACTORS
330
1C096
102
}
330
1F
100
AcDbEntity
  8
外形線
100
AcDbLine
 10
-683.2313583906608
 20
784.7938062227612
 30
0.0
 11
-676.0313583906604
 21
784.7938062227612
 31
0.0
  0
LINE
  5
1C092
102
{ACAD_REACTORS
330
1C096
102
}
330
1F
100
AcDbEntity
  8
外形線
100
AcDbLine
 10
-682.9313583906602
 20
789.7938062227612
 30
0.0
 11
-676.3313583906604
 21
789.7938062227612
 31
0.0
  0
ARC
  5
1C093
102
{ACAD_REACTORS
330
1C096
102
}
330
1F
100
AcDbEntity
  8
外形線
100
AcDbCircle
 10
-676.3313583906606
 20
810.4938062227615
 30
0.0
 40
0.3
100
AcDbArc
 50
0.0
 51
90.0
  0
ARC
  5
1C094
102
{ACAD_REACTORS
330
1C096
102
}
330
1F
100
AcDbEntity
  8
外形線
100
AcDbCircle
 10
-682.9313583906602
 20
810.4938062227615
 30
0.0
 40
0.3
100
AcDbArc
 50
90.0
 51
180.0
  0
LINE
  5
1C095
102
{ACAD_REACTORS
330
1C096
102
}
330
1F
100
AcDbEntity
  8
外形線
100
AcDbLine
 10
-676.3313583906604
 20
810.7938062227614
 30
0.0
 11
-682.9313583906602
 21
810.7938062227614
 31
0.0
  0
CIRCLE
  5
1C798
330
1F
100
AcDbEntity
  8
外形線
100
AcDbCircle
 10
-1323.448916495345
 20
767.2938062227609
 30
0.0
 40
224.9999999999991
  0
CIRCLE
  5
1C79A
330
1F
100
AcDbEntity
  8
外形線
100
AcDbCircle
 10
-111.0208574093606
 20
767.2938062227663
 30
0.0
 40
50.00000000000001
  0
CIRCLE
  5
1C79B
330
1F
100
AcDbEntity
  8
外形線
100
AcDbCircle
 10
-111.0208574093606
 20
767.2938062227663
 30
0.0
 40
54.00000000000002
  0
VIEWPORT
  5
17E83
330
17E82
100
AcDbEntity
 67
     1
  8
0
100
AcDbViewport
 10
200.0061057623971
 20
144.0024084825026
 30
0.0
 40
443.405665740472
 41
290.2023792387807
 68
     1
 69
     1
1001
ACAD
1000
MVIEW
1002
{
1070
    16
1010
0.0
1020
0.0
1030
0.0
1010
0.0
1020
0.0
1030
1.0
1040
0.0
1040
290.2023792387807
1040
200.0061057623971
1040
144.0024084825026
1040
50.0
1040
0.0
1040
0.0
1070
     0
1070
   100
1070
     1
1070
     0
1070
     0
1070
     0
1070
     0
1070
     0
1040
0.0
1040
0.0
1040
0.0
1040
10.0
1040
10.0
1040
10.0
1040
10.0
1070
     0
1002
{
1002
}
1002
}
  0
VIEWPORT
  5
17E84
330
17E82
100
AcDbEntity
 67
     1
  8
M_VIEW
100
AcDbViewport
 10
200.0
 20
144.0
 30
0.0
 40
400.0
 41
288.0
 68
     2
 69
     2
1001
ACAD
1000
MVIEW
1002
{
1070
    16
1010
0.0
1020
0.0
1030
0.0
1010
0.0
1020
0.0
1030
1.0
1040
0.0
1040
1440.000003470498
1040
-745.824357279227
1040
586.5516486247676
1040
50.0
1040
0.0
1040
0.0
1070
     0
1070
   100
1070
     1
1070
     0
1070
     0
1070
     0
1070
     0
1070
     0
1040
0.0
1040
0.0
1040
0.0
1040
10.0
1040
10.0
1040
10.0
1040
10.0
1070
     0
1002
{
1002
}
1002
}
  0
TEXT
  5
17E8B
330
17E82
100
AcDbEntity
 67
     1
  8
WAKUMOJI
  6
CONTINUOUS
100
AcDbText
 10
323.402284853418
 20
6.326609872841799
 30
0.0
 40
7.0
  1
ＳＥ－３１９０３
 41
0.9529999999999999
100
AcDbText
  0
TEXT
  5
17F15
330
17E82
100
AcDbEntity
 67
     1
  8
WAKUMOJI
  6
CONTINUOUS
100
AcDbText
 10
288.2950459724286
 20
28.36480838004309
 30
0.0
 40
4.0
  1

 41
0.65
100
AcDbText
  0
TEXT
  5
17F16
330
17E82
100
AcDbEntity
 67
     1
  8
WAKUMOJI
  6
CONTINUOUS
100
AcDbText
 10
289.2453795729293
 20
17.36480838004307
 30
0.0
 40
4.0
  1

 41
0.65
100
AcDbText
  0
TEXT
  5
17F2D
330
17E82
100
AcDbEntity
 67
     1
  8
WAKUMOJI
  6
CONTINUOUS
100
AcDbText
 10
307.8652350767157
 20
11.96666666666597
 30
0.0
 40
4.0
  1

 41
0.625
100
AcDbText
  0
TEXT
  5
17F2E
330
17E82
100
AcDbEntity
 67
     1
  8
WAKUMOJI
  6
CONTINUOUS
100
AcDbText
 10
316.865235076716
 20
11.96666666666597
 30
0.0
 40
4.0
  1

 41
0.625
100
AcDbText
  0
MTEXT
  5
1C783
330
17E82
100
AcDbEntity
 67
     1
  8
想像線
 48
5.0
100
AcDbMText
 10
224.7766134447179
 20
23.97597489946292
 30
0.0
 40
6.0
 41
170.7328645850328
 71
     1
 72
     5
  1
{\C7;τDISCﾓｰﾀ D630-125-L NMR-FVGBA2C-322A}
1001
ACAD
1000
MTEXTBEGIN
1070
    73
1070
     1
1070
    44
1040
1.0
1070
    74
1070
     0
1000
MTEXTEND
  0
ENDSEC
  0
SECTION
  2
OBJECTS
  0
DICTIONARY
  5
C
330
0
100
AcDbDictionary
  3
ACAD_GROUP
350
D
  3
ACAD_LAYOUT
350
1A
  3
ACAD_MLINESTYLE
350
17
  3
ACAD_PLOTSETTINGS
350
19
  3
ACAD_PLOTSTYLENAME
350
E
  3
ACADDIM
350
1BDE3
  3
ACDBHEADERROUNDTRIPXREC
350
1C7C3
  3
ACDBVARIABLEDICTIONARY
350
2046
  3
DWGPROPS
350
1C76B
  0
DICTIONARY
  5
1BFBC
330
2
100
AcDbDictionary
280
     1
  3
ACAD_LAYERFILTERS
360
1BFBD
  3
ACAD_LAYERSTATES
360
1BFF4
  0
DICTIONARY
  5
1C7E4
330
1F
100
AcDbDictionary
280
     1
  3
ACAD_LAYOUTSELFREF
360
1C7E5
  0
DICTIONARY
  5
1C7E6
330
17E82
100
AcDbDictionary
280
     1
  3
ACAD_LAYOUTSELFREF
360
1C7E7
  0
DICTIONARY
  5
D
102
{ACAD_REACTORS
330
C
102
}
330
C
100
AcDbDictionary
  3
*A1
350
5EBB
  3
*A10
350
118CA
  3
*A11
350
1BDD6
  3
*A12
350
168BF
  3
*A13
350
118AE
  3
*A14
350
C936
  3
*A15
350
118A9
  3
*A16
350
1BBA9
  3
*A17
350
11719
  3
*A18
350
C7BC
  3
*A19
350
118B3
  3
*A2
350
1BBBA
  3
*A20
350
9CB3
  3
*A21
350
1736D
  3
*A22
350
C863
  3
*A23
350
112D5
  3
*A24
350
A9F6
  3
*A25
350
1112B
  3
*A26
350
A922
  3
*A27
350
116D5
  3
*A28
350
1BDDF
  3
*A29
350
116D0
  3
*A3
350
1171E
  3
*A30
350
11DE7
  3
*A31
350
1BF8D
  3
*A32
350
9A76
  3
*A33
350
11DE3
  3
*A34
350
1C087
  3
*A35
350
1C096
  3
*A36
350
1C55A
  3
*A4
350
1BBCA
  3
*A5
350
1737E
  3
*A6
350
AA18
  3
*A7
350
1BEA4
  3
*A8
350
118DA
  3
*A9
350
118B8
  0
DICTIONARY
  5
1A
102
{ACAD_REACTORS
330
C
102
}
330
C
100
AcDbDictionary
  0
DICTIONARY
  5
17
102
{ACAD_REACTORS
330
C
102
}
330
C
100
AcDbDictionary
  3
STANDARD
350
18
  0
DICTIONARY
  5
19
102
{ACAD_REACTORS
330
C
102
}
330
C
100
AcDbDictionary
  0
ACDBDICTIONARYWDFLT
  5
E
102
{ACAD_REACTORS
330
C
102
}
330
C
100
AcDbDictionary
281
     1
  3
Normal
350
F
100
AcDbDictionaryWithDefault
340
F
  0
XRECORD
  5
1BDE3
102
{ACAD_REACTORS
330
C
102
}
330
C
100
AcDbXrecord
 90
   990106
  3

 60
     0
 61
     0
 62
     4
 63
     4
 64
     1
 65
     0
 66
     1
 67
     3
 68
     1
 69
     0
 70
     0
 71
     0
 72
     0
 40
25.99882075392437
170
     2
340
0
  0
DICTIONARY
  5
1C7C3
102
{ACAD_REACTORS
330
C
102
}
330
C
100
AcDbDictionary
  3
CEPSNTYPE
350
1C7CD
  3
DIMSTYLEDATA
350
1C7D1
  3
FINGERPRINTGUID
350
1C7CE
  3
HYPERLINKBASE
350
1C7C6
  3
INSUNITS
350
1C7CC
  3
LAYOUTDICT
350
1C7C8
  3
LWETCUNION
350
1C7CB
  3
PLOTSETDICT
350
1C7C9
  3
PLOTSTYLNAMDICT
350
1C7CA
  3
PSVPSCALE
350
1C7D0
  3
PUCSBASE
350
1C7D4
  3
PUCSORGBACK
350
1C7DA
  3
PUCSORGBOTTOM
350
1C7D6
  3
PUCSORGFRONT
350
1C7D9
  3
PUCSORGLEFT
350
1C7D7
  3
PUCSORGRIGHT
350
1C7D8
  3
PUCSORGTOP
350
1C7D5
  3
PUCSORTHOREF
350
1C7D2
  3
PUCSORTHOVIEW
350
1C7D3
  3
STYLESHEET
350
1C7C7
  3
TSTACKALIGN
350
1C7C4
  3
TSTACKSIZE
350
1C7C5
  3
UCSBASE
350
1C7DD
  3
UCSORGBACK
350
1C7E3
  3
UCSORGBOTTOM
350
1C7DF
  3
UCSORGFRONT
350
1C7E2
  3
UCSORGLEFT
350
1C7E0
  3
UCSORGRIGHT
350
1C7E1
  3
UCSORGTOP
350
1C7DE
  3
UCSORTHOREF
350
1C7DB
  3
UCSORTHOVIEW
350
1C7DC
  3
VERSIONGUID
350
1C7CF
  0
DICTIONARY
  5
2046
102
{ACAD_REACTORS
330
C
102
}
330
C
100
AcDbDictionary
  3
SORTENTS
350
2047
  0
XRECORD
  5
1C76B
102
{ACAD_REACTORS
330
C
102
}
330
C
100
AcDbXrecord
  1
DWGPROPS COOKIE
  2

  3

  4

  6

  7

  8

  9

300
=
301
=
302
=
303
=
304
=
305
=
306
=
307
=
308
=
309
=
 40
5.510970393518518
 41
2452779.409065161
 42
2455023.583362095
  1

 90
        0
  0
DICTIONARY
  5
1BFBD
102
{ACAD_REACTORS
330
1BFBC
102
}
330
1BFBC
100
AcDbDictionary
280
     1
  3
0
360
1BFBE
  3
11
360
1BFBF
  3
150_
360
1BFC0
  3
160_
360
1BFC1
  3
170_
360
1BFC2
  3
171_
360
1BFC3
  3
350_
360
1BFC4
  3
4
360
1BFC5
  3
5
360
1BFC6
  3
7
360
1BFC7
  3
KISEKI
360
1BFC8
  0
DICTIONARY
  5
1BFF4
102
{ACAD_REACTORS
330
1BFBC
102
}
330
1BFBC
100
AcDbDictionary
  0
XRECORD
  5
1C7E5
102
{ACAD_REACTORS
330
1C7E4
102
}
330
1C7E4
100
AcDbXrecord
340
1F
  0
XRECORD
  5
1C7E7
102
{ACAD_REACTORS
330
1C7E6
102
}
330
1C7E6
100
AcDbXrecord
340
17E82
  0
GROUP
  5
5EBB
102
{ACAD_REACTORS
330
D
102
}
330
D
100
AcDbGroup
300

 70
     1
 71
     1
  0
GROUP
  5
118CA
102
{ACAD_REACTORS
330
D
102
}
330
D
100
AcDbGroup
300

 70
     1
 71
     1
  0
GROUP
  5
1BDD6
102
{ACAD_REACTORS
330
D
102
}
330
D
100
AcDbGroup
300

 70
     1
 71
     1
  0
GROUP
  5
168BF
102
{ACAD_REACTORS
330
D
102
}
330
D
100
AcDbGroup
300

 70
     1
 71
     1
  0
GROUP
  5
118AE
102
{ACAD_REACTORS
330
D
102
}
330
D
100
AcDbGroup
300

 70
     1
 71
     1
  0
GROUP
  5
C936
102
{ACAD_REACTORS
330
D
102
}
330
D
100
AcDbGroup
300

 70
     1
 71
     1
  0
GROUP
  5
118A9
102
{ACAD_REACTORS
330
D
102
}
330
D
100
AcDbGroup
300

 70
     1
 71
     1
  0
GROUP
  5
1BBA9
102
{ACAD_REACTORS
330
D
102
}
330
D
100
AcDbGroup
300

 70
     1
 71
     1
  0
GROUP
  5
11719
102
{ACAD_REACTORS
330
D
102
}
330
D
100
AcDbGroup
300

 70
     1
 71
     1
  0
GROUP
  5
C7BC
102
{ACAD_REACTORS
330
D
102
}
330
D
100
AcDbGroup
300

 70
     1
 71
     1
  0
GROUP
  5
118B3
102
{ACAD_REACTORS
330
D
102
}
330
D
100
AcDbGroup
300

 70
     1
 71
     1
  0
GROUP
  5
1BBBA
102
{ACAD_REACTORS
330
D
102
}
330
D
100
AcDbGroup
300

 70
     1
 71
     1
  0
GROUP
  5
9CB3
102
{ACAD_REACTORS
330
D
102
}
330
D
100
AcDbGroup
300

 70
     1
 71
     1
  0
GROUP
  5
1736D
102
{ACAD_REACTORS
330
D
102
}
330
D
100
AcDbGroup
300

 70
     1
 71
     1
  0
GROUP
  5
C863
102
{ACAD_REACTORS
330
D
102
}
330
D
100
AcDbGroup
300

 70
     1
 71
     1
  0
GROUP
  5
112D5
102
{ACAD_REACTORS
330
D
102
}
330
D
100
AcDbGroup
300

 70
     1
 71
     1
  0
GROUP
  5
A9F6
102
{ACAD_REACTORS
330
D
102
}
330
D
100
AcDbGroup
300

 70
     1
 71
     1
  0
GROUP
  5
1112B
102
{ACAD_REACTORS
330
D
102
}
330
D
100
AcDbGroup
300

 70
     1
 71
     1
  0
GROUP
  5
A922
102
{ACAD_REACTORS
330
D
102
}
330
D
100
AcDbGroup
300

 70
     1
 71
     1
  0
GROUP
  5
116D5
102
{ACAD_REACTORS
330
D
102
}
330
D
100
AcDbGroup
300

 70
     1
 71
     1
  0
GROUP
  5
1BDDF
102
{ACAD_REACTORS
330
D
102
}
330
D
100
AcDbGroup
300

 70
     1
 71
     1
  0
GROUP
  5
116D0
102
{ACAD_REACTORS
330
D
102
}
330
D
100
AcDbGroup
300

 70
     1
 71
     1
  0
GROUP
  5
1171E
102
{ACAD_REACTORS
330
D
102
}
330
D
100
AcDbGroup
300

 70
     1
 71
     1
  0
GROUP
  5
11DE7
102
{ACAD_REACTORS
330
D
102
}
330
D
100
AcDbGroup
300

 70
     1
 71
     1
  0
GROUP
  5
1BF8D
102
{ACAD_REACTORS
330
D
102
}
330
D
100
AcDbGroup
300

 70
     1
 71
     1
  0
GROUP
  5
9A76
102
{ACAD_REACTORS
330
D
102
}
330
D
100
AcDbGroup
300

 70
     1
 71
     1
  0
GROUP
  5
11DE3
102
{ACAD_REACTORS
330
D
102
}
330
D
100
AcDbGroup
300

 70
     1
 71
     1
  0
GROUP
  5
1C087
102
{ACAD_REACTORS
330
D
102
}
330
D
100
AcDbGroup
300

 70
     1
 71
     1
  0
GROUP
  5
1C096
102
{ACAD_REACTORS
330
D
102
}
330
D
100
AcDbGroup
300

 70
     1
 71
     1
340
1C089
340
1C08A
340
1C08B
340
1C08C
340
1C08D
340
1C08E
340
1C08F
340
1C090
340
1C091
340
1C092
340
1C093
340
1C094
340
1C095
340
1C088
  0
GROUP
  5
1C55A
102
{ACAD_REACTORS
330
D
102
}
330
D
100
AcDbGroup
300

 70
     1
 71
     1
  0
GROUP
  5
1BBCA
102
{ACAD_REACTORS
330
D
102
}
330
D
100
AcDbGroup
300

 70
     1
 71
     1
  0
GROUP
  5
1737E
102
{ACAD_REACTORS
330
D
102
}
330
D
100
AcDbGroup
300

 70
     1
 71
     1
  0
GROUP
  5
AA18
102
{ACAD_REACTORS
330
D
102
}
330
D
100
AcDbGroup
300

 70
     1
 71
     1
  0
GROUP
  5
1BEA4
102
{ACAD_REACTORS
330
D
102
}
330
D
100
AcDbGroup
300

 70
     1
 71
     1
  0
GROUP
  5
118DA
102
{ACAD_REACTORS
330
D
102
}
330
D
100
AcDbGroup
300

 70
     1
 71
     1
  0
GROUP
  5
118B8
102
{ACAD_REACTORS
330
D
102
}
330
D
100
AcDbGroup
300

 70
     1
 71
     1
  0
MLINESTYLE
  5
18
102
{ACAD_REACTORS
330
17
102
}
330
17
100
AcDbMlineStyle
  2
STANDARD
 70
     0
  3

 62
   256
 51
90.0
 52
90.0
 71
     2
 49
0.5
 62
   256
  6
BYLAYER
 49
-0.5
 62
   256
  6
BYLAYER
  0
ACDBPLACEHOLDER
  5
F
102
{ACAD_REACTORS
330
E
102
}
330
E
100
AcDbPlaceHolder
280
     0
  0
XRECORD
  5
1C7CD
102
{ACAD_REACTORS
330
1C7C3
102
}
330
1C7C3
100
AcDbXrecord
 90
        0
  0
XRECORD
  5
1C7D1
102
{ACAD_REACTORS
330
1C7C3
102
}
330
1C7C3
100
AcDbXrecord
1000
DSTYLE
1002
{
1070
    79
 70
     2
1070
   179
 70
     2
1070
   289
 70
     1
1070
   341
340
31
1070
   342
340
31
1002
}
  0
XRECORD
  5
1C7CE
102
{ACAD_REACTORS
330
1C7C3
102
}
330
1C7C3
100
AcDbXrecord
  1
{C60DF478-89DD-11D7-AE3C-00045A4313EC}
  0
XRECORD
  5
1C7C6
102
{ACAD_REACTORS
330
1C7C3
102
}
330
1C7C3
100
AcDbXrecord
  1

  0
XRECORD
  5
1C7CC
102
{ACAD_REACTORS
330
1C7C3
102
}
330
1C7C3
100
AcDbXrecord
 90
        4
  0
XRECORD
  5
1C7C8
102
{ACAD_REACTORS
330
1C7C3
102
}
330
1C7C3
100
AcDbXrecord
340
1A
  0
XRECORD
  5
1C7CB
102
{ACAD_REACTORS
330
1C7C3
102
}
330
1C7C3
100
AcDbXrecord
 90
    10269
  0
XRECORD
  5
1C7C9
102
{ACAD_REACTORS
330
1C7C3
102
}
330
1C7C3
100
AcDbXrecord
340
19
  0
XRECORD
  5
1C7CA
102
{ACAD_REACTORS
330
1C7C3
102
}
330
1C7C3
100
AcDbXrecord
340
E
  0
XRECORD
  5
1C7D0
102
{ACAD_REACTORS
330
1C7C3
102
}
330
1C7C3
100
AcDbXrecord
 40
0.0
  0
XRECORD
  5
1C7D4
102
{ACAD_REACTORS
330
1C7C3
102
}
330
1C7C3
100
AcDbXrecord
340
0
  0
XRECORD
  5
1C7DA
102
{ACAD_REACTORS
330
1C7C3
102
}
330
1C7C3
100
AcDbXrecord
 10
0.0
 20
0.0
 30
0.0
  0
XRECORD
  5
1C7D6
102
{ACAD_REACTORS
330
1C7C3
102
}
330
1C7C3
100
AcDbXrecord
 10
0.0
 20
0.0
 30
0.0
  0
XRECORD
  5
1C7D9
102
{ACAD_REACTORS
330
1C7C3
102
}
330
1C7C3
100
AcDbXrecord
 10
0.0
 20
0.0
 30
0.0
  0
XRECORD
  5
1C7D7
102
{ACAD_REACTORS
330
1C7C3
102
}
330
1C7C3
100
AcDbXrecord
 10
0.0
 20
0.0
 30
0.0
  0
XRECORD
  5
1C7D8
102
{ACAD_REACTORS
330
1C7C3
102
}
330
1C7C3
100
AcDbXrecord
 10
0.0
 20
0.0
 30
0.0
  0
XRECORD
  5
1C7D5
102
{ACAD_REACTORS
330
1C7C3
102
}
330
1C7C3
100
AcDbXrecord
 10
0.0
 20
0.0
 30
0.0
  0
XRECORD
  5
1C7D2
102
{ACAD_REACTORS
330
1C7C3
102
}
330
1C7C3
100
AcDbXrecord
340
0
  0
XRECORD
  5
1C7D3
102
{ACAD_REACTORS
330
1C7C3
102
}
330
1C7C3
100
AcDbXrecord
 70
     0
  0
XRECORD
  5
1C7C7
102
{ACAD_REACTORS
330
1C7C3
102
}
330
1C7C3
100
AcDbXrecord
  1

  0
XRECORD
  5
1C7C4
102
{ACAD_REACTORS
330
1C7C3
102
}
330
1C7C3
100
AcDbXrecord
 90
        1
  0
XRECORD
  5
1C7C5
102
{ACAD_REACTORS
330
1C7C3
102
}
330
1C7C3
100
AcDbXrecord
 90
       70
  0
XRECORD
  5
1C7DD
102
{ACAD_REACTORS
330
1C7C3
102
}
330
1C7C3
100
AcDbXrecord
340
0
  0
XRECORD
  5
1C7E3
102
{ACAD_REACTORS
330
1C7C3
102
}
330
1C7C3
100
AcDbXrecord
 10
0.0
 20
0.0
 30
0.0
  0
XRECORD
  5
1C7DF
102
{ACAD_REACTORS
330
1C7C3
102
}
330
1C7C3
100
AcDbXrecord
 10
0.0
 20
0.0
 30
0.0
  0
XRECORD
  5
1C7E2
102
{ACAD_REACTORS
330
1C7C3
102
}
330
1C7C3
100
AcDbXrecord
 10
0.0
 20
0.0
 30
0.0
  0
XRECORD
  5
1C7E0
102
{ACAD_REACTORS
330
1C7C3
102
}
330
1C7C3
100
AcDbXrecord
 10
0.0
 20
0.0
 30
0.0
  0
XRECORD
  5
1C7E1
102
{ACAD_REACTORS
330
1C7C3
102
}
330
1C7C3
100
AcDbXrecord
 10
0.0
 20
0.0
 30
0.0
  0
XRECORD
  5
1C7DE
102
{ACAD_REACTORS
330
1C7C3
102
}
330
1C7C3
100
AcDbXrecord
 10
0.0
 20
0.0
 30
0.0
  0
XRECORD
  5
1C7DB
102
{ACAD_REACTORS
330
1C7C3
102
}
330
1C7C3
100
AcDbXrecord
340
0
  0
XRECORD
  5
1C7DC
102
{ACAD_REACTORS
330
1C7C3
102
}
330
1C7C3
100
AcDbXrecord
 70
     0
  0
XRECORD
  5
1C7CF
102
{ACAD_REACTORS
330
1C7C3
102
}
330
1C7C3
100
AcDbXrecord
  1
{81E0A36D-97A5-4ABE-A2B8-C8FFE13A44AE}
  0
DICTIONARYVAR
  5
2047
102
{ACAD_REACTORS
330
2046
102
}
330
2046
100
DictionaryVariables
280
     0
  1
96
  0
XRECORD
  5
1BFBE
102
{ACAD_REACTORS
330
1BFBD
102
}
330
1BFBD
100
AcDbXrecord
  1
0
  1
*0
  1
*
  1
*
 70
     0
  1
*
  1
*
  0
XRECORD
  5
1BFBF
102
{ACAD_REACTORS
330
1BFBD
102
}
330
1BFBD
100
AcDbXrecord
  1
11
  1
*11
  1
*
  1
*
 70
     0
  1
*
  1
*
  0
XRECORD
  5
1BFC0
102
{ACAD_REACTORS
330
1BFBD
102
}
330
1BFBD
100
AcDbXrecord
  1
150_
  1
150_*
  1
*
  1
*
 70
     0
  1
*
  1
*
  0
XRECORD
  5
1BFC1
102
{ACAD_REACTORS
330
1BFBD
102
}
330
1BFBD
100
AcDbXrecord
  1
160_
  1
160_*
  1
*
  1
*
 70
     0
  1
*
  1
*
  0
XRECORD
  5
1BFC2
102
{ACAD_REACTORS
330
1BFBD
102
}
330
1BFBD
100
AcDbXrecord
  1
170_
  1
170_*
  1
*
  1
*
 70
     0
  1
*
  1
*
  0
XRECORD
  5
1BFC3
102
{ACAD_REACTORS
330
1BFBD
102
}
330
1BFBD
100
AcDbXrecord
  1
171_
  1
171_*
  1
*
  1
*
 70
     0
  1
*
  1
*
  0
XRECORD
  5
1BFC4
102
{ACAD_REACTORS
330
1BFBD
102
}
330
1BFBD
100
AcDbXrecord
  1
350_
  1
350_*
  1
*
  1
*
 70
     0
  1
*
  1
*
  0
XRECORD
  5
1BFC5
102
{ACAD_REACTORS
330
1BFBD
102
}
330
1BFBD
100
AcDbXrecord
  1
4
  1
*4
  1
*
  1
*
 70
     0
  1
*
  1
*
  0
XRECORD
  5
1BFC6
102
{ACAD_REACTORS
330
1BFBD
102
}
330
1BFBD
100
AcDbXrecord
  1
5
  1
*5
  1
*
  1
*
 70
     0
  1
*
  1
*
  0
XRECORD
  5
1BFC7
102
{ACAD_REACTORS
330
1BFBD
102
}
330
1BFBD
100
AcDbXrecord
  1
7
  1
*7
  1
*
  1
*
 70
     0
  1
*
  1
*
  0
XRECORD
  5
1BFC8
102
{ACAD_REACTORS
330
1BFBD
102
}
330
1BFBD
100
AcDbXrecord
  1
kiseki
  1
kiseki*
  1
*
  1
*
 70
     0
  1
*
  1
*
  0
ENDSEC
  0
EOF
