  0
SECTION
  2
HEADER
  9
$ACADVER
  1
AC1014
  9
$ACADMAINTVER
 70
     9
  9
$DWGCODEPAGE
  3
ANSI_932
  9
$INSBASE
 10
0.0
 20
0.0
 30
0.0
  9
$EXTMIN
 10
-1645.450295871688
 20
264.8321311964023
 30
0.0
  9
$EXTMAX
 10
210.9805219669829
 20
1245.40181878314
 30
0.0
  9
$LIMMIN
 10
0.0
 20
0.0
  9
$LIMMAX
 10
420.0
 20
297.0
  9
$ORTHOMODE
 70
     0
  9
$REGENMODE
 70
     1
  9
$FILLMODE
 70
     1
  9
$QTEXTMODE
 70
     0
  9
$MIRRTEXT
 70
     0
  9
$DRAGMODE
 70
     2
  9
$LTSCALE
 40
1.0
  9
$OSMODE
 70
    37
  9
$ATTMODE
 70
     1
  9
$TEXTSIZE
 40
2.5
  9
$TRACEWID
 40
1.0
  9
$TEXTSTYLE
  7
ｽﾀｲﾙ1
  9
$CLAYER
  8
寸法
  9
$CELTYPE
  6
BYLAYER
  9
$CECOLOR
 62
   256
  9
$CELTSCALE
 40
5.0
  9
$DELOBJ
 70
     1
  9
$DISPSILH
 70
     0
  9
$DIMSCALE
 40
5.0
  9
$DIMASZ
 40
2.5
  9
$DIMEXO
 40
0.8
  9
$DIMDLI
 40
3.75
  9
$DIMRND
 40
0.0
  9
$DIMDLE
 40
0.0
  9
$DIMEXE
 40
1.0
  9
$DIMTP
 40
0.026
  9
$DIMTM
 40
0.0
  9
$DIMTXT
 40
3.0
  9
$DIMCEN
 40
2.5
  9
$DIMTSZ
 40
0.0
  9
$DIMTOL
 70
     0
  9
$DIMLIM
 70
     0
  9
$DIMTIH
 70
     0
  9
$DIMTOH
 70
     0
  9
$DIMSE1
 70
     0
  9
$DIMSE2
 70
     0
  9
$DIMTAD
 70
     1
  9
$DIMZIN
 70
     8
  9
$DIMBLK
  1
OPEN30
  9
$DIMASO
 70
     1
  9
$DIMSHO
 70
     1
  9
$DIMPOST
  1

  9
$DIMAPOST
  1

  9
$DIMALT
 70
     0
  9
$DIMALTD
 70
     3
  9
$DIMALTF
 40
0.03937007874016
  9
$DIMLFAC
 40
1.0
  9
$DIMTOFL
 70
     1
  9
$DIMTVP
 40
0.0
  9
$DIMTIX
 70
     0
  9
$DIMSOXD
 70
     0
  9
$DIMSAH
 70
     0
  9
$DIMBLK1
  1

  9
$DIMBLK2
  1

  9
$DIMSTYLE
  2
ISO-25
  9
$DIMCLRD
 70
     4
  9
$DIMCLRE
 70
     4
  9
$DIMCLRT
 70
     0
  9
$DIMTFAC
 40
1.0
  9
$DIMGAP
 40
0.5
  9
$DIMJUST
 70
     0
  9
$DIMSD1
 70
     0
  9
$DIMSD2
 70
     0
  9
$DIMTOLJ
 70
     0
  9
$DIMTZIN
 70
     8
  9
$DIMALTZ
 70
     0
  9
$DIMALTTZ
 70
     0
  9
$DIMFIT
 70
     1
  9
$DIMUPT
 70
     0
  9
$DIMUNIT
 70
     2
  9
$DIMDEC
 70
     2
  9
$DIMTDEC
 70
     2
  9
$DIMALTU
 70
     2
  9
$DIMALTTD
 70
     3
  9
$DIMTXSTY
  7
STANDARD
  9
$DIMAUNIT
 70
     0
  9
$LUNITS
 70
     2
  9
$LUPREC
 70
     4
  9
$SKETCHINC
 40
1.0
  9
$FILLETRAD
 40
0.0
  9
$AUNITS
 70
     0
  9
$AUPREC
 70
     0
  9
$MENU
  1
.
  9
$ELEVATION
 40
0.0
  9
$PELEVATION
 40
0.0
  9
$THICKNESS
 40
0.0
  9
$LIMCHECK
 70
     0
  9
$BLIPMODE
 70
     0
  9
$CHAMFERA
 40
5.0
  9
$CHAMFERB
 40
5.0
  9
$CHAMFERC
 40
20.0
  9
$CHAMFERD
 40
0.0
  9
$SKPOLY
 70
     0
  9
$TDCREATE
 40
2452779.409065161
  9
$TDUPDATE
 40
2455579.548881249
  9
$TDINDWG
 40
5.1353029282
  9
$TDUSRTIMER
 40
5.1353023958
  9
$USRTIMER
 70
     1
  9
$ANGBASE
 50
0.0
  9
$ANGDIR
 70
     0
  9
$PDMODE
 70
     0
  9
$PDSIZE
 40
0.0
  9
$PLINEWID
 40
0.0
  9
$COORDS
 70
     0
  9
$SPLFRAME
 70
     0
  9
$SPLINETYPE
 70
     6
  9
$SPLINESEGS
 70
     8
  9
$ATTDIA
 70
     0
  9
$ATTREQ
 70
     1
  9
$HANDLING
 70
-16383
  9
$HANDSEED
  5
1CEF9
  9
$SURFTAB1
 70
     6
  9
$SURFTAB2
 70
     6
  9
$SURFTYPE
 70
     6
  9
$SURFU
 70
     6
  9
$SURFV
 70
     6
  9
$UCSNAME
  2

  9
$UCSORG
 10
0.0
 20
0.0
 30
0.0
  9
$UCSXDIR
 10
1.0
 20
0.0
 30
0.0
  9
$UCSYDIR
 10
0.0
 20
1.0
 30
0.0
  9
$PUCSNAME
  2

  9
$PUCSORG
 10
0.0
 20
0.0
 30
0.0
  9
$PUCSXDIR
 10
1.0
 20
0.0
 30
0.0
  9
$PUCSYDIR
 10
0.0
 20
1.0
 30
0.0
  9
$USERI1
 70
     0
  9
$USERI2
 70
     0
  9
$USERI3
 70
     0
  9
$USERI4
 70
     0
  9
$USERI5
 70
     0
  9
$USERR1
 40
88.0
  9
$USERR2
 40
0.0
  9
$USERR3
 40
0.0
  9
$USERR4
 40
0.0
  9
$USERR5
 40
0.0
  9
$WORLDVIEW
 70
     1
  9
$SHADEDGE
 70
     3
  9
$SHADEDIF
 70
    70
  9
$TILEMODE
 70
     0
  9
$MAXACTVP
 70
    64
  9
$PINSBASE
 10
0.0
 20
0.0
 30
0.0
  9
$PLIMCHECK
 70
     0
  9
$PEXTMIN
 10
-0.0247590669797546
 20
-0.0119855382555443
 30
-0.0015258207003583
  9
$PEXTMAX
 10
400.0175884616529
 20
288.017279874742
 30
0.0000000349246037
  9
$PLIMMIN
 10
-8.109438699657545
 20
-3.169148051329381
  9
$PLIMMAX
 10
408.1022661561942
 20
291.1519860967371
  9
$UNITMODE
 70
     0
  9
$VISRETAIN
 70
     1
  9
$PLINEGEN
 70
     0
  9
$PSLTSCALE
 70
     0
  9
$TREEDEPTH
 70
  3020
  9
$PICKSTYLE
 70
     0
  9
$CMLSTYLE
  2
STANDARD
  9
$CMLJUST
 70
     0
  9
$CMLSCALE
 40
20.0
  9
$PROXYGRAPHICS
 70
     1
  9
$MEASUREMENT
 70
     1
  0
ENDSEC
  0
SECTION
  2
CLASSES
  0
CLASS
  1
ACDBDICTIONARYWDFLT
  2
AcDbDictionaryWithDefault
  3
AutoCAD 2000
 90
        0
280
     0
281
     0
  0
CLASS
  1
ACDBPLACEHOLDER
  2
AcDbPlaceHolder
  3
AutoCAD 2000
 90
        0
280
     0
281
     0
  0
CLASS
  1
LAYOUT
  2
AcDbLayout
  3
AutoCAD 2000
 90
        0
280
     0
281
     0
  0
CLASS
  1
DICTIONARYVAR
  2
AcDbDictionaryVar
  3
AutoCAD 2000
 90
        0
280
     0
281
     0
  0
CLASS
  1
LONG_TRANSACTION
  2
AcDbLongTransaction
  3
AutoCAD 2000
 90
        0
280
     0
281
     0
  0
CLASS
  1
LWPOLYLINE
  2
AcDbPolyline
  3
AutoCAD 2000
 90
        0
280
     0
281
     1
  0
CLASS
  1
HATCH
  2
AcDbHatch
  3
AutoCAD 2000
 90
        0
280
     0
281
     1
  0
CLASS
  1
XRECORD
  2
AcDbXrecord
  3
AutoCAD 2000
 90
        0
280
     0
281
     0
  0
ENDSEC
  0
SECTION
  2
TABLES
  0
TABLE
  2
VPORT
  5
8
330
0
100
AcDbSymbolTable
 70
     2
  0
VPORT
  5
1CED3
330
8
100
AcDbSymbolTableRecord
100
AcDbViewportTableRecord
  2
*ACTIVE
 70
     0
 10
0.0
 20
0.0
 11
1.0
 21
1.0
 12
-717.2515033424189
 22
755.1268589727071
 13
1867.375483990628
 23
944.572700858702
 14
10.0
 24
10.0
 15
10.0
 25
10.0
 16
0.0
 26
0.0
 36
1.0
 17
0.0
 27
0.0
 37
0.0
 40
1221.182833978278
 41
1.527918781725888
 42
50.0
 43
0.0
 44
0.0
 50
0.0
 51
0.0
 71
     0
 72
  1000
 73
     1
 74
     0
 75
     0
 76
     0
 77
     0
 78
     0
  0
ENDTAB
  0
TABLE
  2
LTYPE
  5
5
330
0
100
AcDbSymbolTable
 70
     4
  0
LTYPE
  5
14
330
5
100
AcDbSymbolTableRecord
100
AcDbLinetypeTableRecord
  2
BYBLOCK
 70
     0
  3

 72
    65
 73
     0
 40
0.0
  0
LTYPE
  5
15
330
5
100
AcDbSymbolTableRecord
100
AcDbLinetypeTableRecord
  2
BYLAYER
 70
     0
  3

 72
    65
 73
     0
 40
0.0
  0
LTYPE
  5
16
330
5
100
AcDbSymbolTableRecord
100
AcDbLinetypeTableRecord
  2
CONTINUOUS
 70
     0
  3
Solid line
 72
    65
 73
     0
 40
0.0
  0
LTYPE
  5
158
330
5
100
AcDbSymbolTableRecord
100
AcDbLinetypeTableRecord
  2
HIDDEN
 70
     0
  3
Hidden __ __ __ __ __ __ __ __ __ __ __ __ __ _
 72
    65
 73
     2
 40
9.524999999999996
 49
6.349999999999997
 74
     0
 49
-3.174999999999998
 74
     0
  0
LTYPE
  5
159
330
5
100
AcDbSymbolTableRecord
100
AcDbLinetypeTableRecord
  2
CENTER
 70
     0
  3
Center ____ _ ____ _ ____ _ ____ _ ____ _ ____
 72
    65
 73
     4
 40
50.8
 49
31.75
 74
     0
 49
-6.349999999999997
 74
     0
 49
6.349999999999997
 74
     0
 49
-6.349999999999997
 74
     0
  0
LTYPE
  5
15A
330
5
100
AcDbSymbolTableRecord
100
AcDbLinetypeTableRecord
  2
PHANTOM
 70
     0
  3
Phantom ______  __  __  ______  __  __  ______
 72
    65
 73
     6
 40
63.5
 49
31.75
 74
     0
 49
-6.349999999999997
 74
     0
 49
6.349999999999997
 74
     0
 49
-6.349999999999997
 74
     0
 49
6.349999999999997
 74
     0
 49
-6.349999999999997
 74
     0
  0
ENDTAB
  0
TABLE
  2
LAYER
  5
2
102
{ACAD_XDICTIONARY
360
1C0A4
102
}
330
0
100
AcDbSymbolTable
 70
    17
  0
LAYER
  5
10
330
2
100
AcDbSymbolTableRecord
100
AcDbLayerTableRecord
  2
0
 70
     0
 62
     7
  6
CONTINUOUS
  0
LAYER
  5
38
330
2
100
AcDbSymbolTableRecord
100
AcDbLayerTableRecord
  2
M_VIEW
 70
     0
 62
    -1
  6
CONTINUOUS
  0
LAYER
  5
3A
330
2
100
AcDbSymbolTableRecord
100
AcDbLayerTableRecord
  2
WAKUMOJI
 70
     0
 62
     7
  6
CONTINUOUS
  0
LAYER
  5
15B
330
2
100
AcDbSymbolTableRecord
100
AcDbLayerTableRecord
  2
外形線
 70
     0
 62
     7
  6
CONTINUOUS
  0
LAYER
  5
15C
330
2
100
AcDbSymbolTableRecord
100
AcDbLayerTableRecord
  2
細線
 70
     0
 62
     7
  6
CONTINUOUS
  0
LAYER
  5
15D
330
2
100
AcDbSymbolTableRecord
100
AcDbLayerTableRecord
  2
破線
 70
     0
 62
     7
  6
HIDDEN
  0
LAYER
  5
15E
330
2
100
AcDbSymbolTableRecord
100
AcDbLayerTableRecord
  2
中心線
 70
     0
 62
     7
  6
CENTER
  0
LAYER
  5
15F
330
2
100
AcDbSymbolTableRecord
100
AcDbLayerTableRecord
  2
想像線
 70
     0
 62
     7
  6
PHANTOM
  0
LAYER
  5
161
330
2
100
AcDbSymbolTableRecord
100
AcDbLayerTableRecord
  2
DEFPOINTS
 70
     0
 62
    -7
  6
CONTINUOUS
  0
LAYER
  5
3D0
330
2
100
AcDbSymbolTableRecord
100
AcDbLayerTableRecord
  2
実線
 70
     0
 62
     7
  6
CONTINUOUS
  0
LAYER
  5
2150
330
2
100
AcDbSymbolTableRecord
100
AcDbLayerTableRecord
  2
寸法
 70
     0
 62
     7
  6
CONTINUOUS
  0
LAYER
  5
1899B
330
2
100
AcDbSymbolTableRecord
100
AcDbLayerTableRecord
  2
HIDDEN
 70
     0
 62
     7
  6
HIDDEN
  0
ENDTAB
  0
TABLE
  2
STYLE
  5
3
330
0
100
AcDbSymbolTable
 70
     4
  0
STYLE
  5
11
330
3
100
AcDbSymbolTableRecord
100
AcDbTextStyleTableRecord
  2
STANDARD
 70
     0
 40
0.0
 41
0.8
 50
0.0
 71
     0
 42
2.5
  3
simplex.shx
  4
bigfont.shx
  0
STYLE
  5
4967
330
3
100
AcDbSymbolTableRecord
100
AcDbTextStyleTableRecord
  2
ｽﾀｲﾙ1
 70
     0
 40
0.0
 41
0.8
 50
0.0
 71
     0
 42
2.5
  3
simplex.shx
  4
extfont.shx
  0
ENDTAB
  0
TABLE
  2
VIEW
  5
6
330
0
100
AcDbSymbolTable
 70
     0
  0
ENDTAB
  0
TABLE
  2
UCS
  5
7
330
0
100
AcDbSymbolTable
 70
     0
  0
ENDTAB
  0
TABLE
  2
APPID
  5
9
330
0
100
AcDbSymbolTable
 70
     1
  0
APPID
  5
12
330
9
100
AcDbSymbolTableRecord
100
AcDbRegAppTableRecord
  2
ACAD
 70
     0
  0
ENDTAB
  0
TABLE
  2
DIMSTYLE
  5
A
330
0
100
AcDbSymbolTable
 70
     3
  0
DIMSTYLE
105
27
330
A
100
AcDbSymbolTableRecord
100
AcDbDimStyleTableRecord
  2
ISO-25
 70
     0
  3

  4

  5
OPEN30
  6

  7

 40
5.0
 41
2.5
 42
0.8
 43
3.75
 44
1.0
 45
0.0
 46
0.0
 47
0.0
 48
0.0
140
3.0
141
2.5
142
0.0
143
0.03937007874016
144
1.0
145
0.0
146
1.0
147
0.5
 71
     0
 72
     0
 73
     0
 74
     0
 75
     0
 76
     0
 77
     1
 78
     8
170
     0
171
     3
172
     1
173
     0
174
     0
175
     0
176
     4
177
     4
178
     0
270
     2
271
     2
272
     2
273
     2
274
     3
340
11
275
     0
280
     0
281
     0
282
     0
283
     0
284
     8
285
     0
286
     0
287
     5
288
     0
  0
DIMSTYLE
105
3DE
330
A
100
AcDbSymbolTableRecord
100
AcDbDimStyleTableRecord
  2
STANDARD
 70
     0
  3

  4

  5
OPEN30
  6

  7

 40
3.0
 41
2.5
 42
0.5
 43
0.38
 44
1.0
 45
0.0
 46
3.0
 47
0.0
 48
0.0
140
3.2
141
0.09
142
0.0
143
25.4
144
1.0
145
0.5
146
1.0
147
0.5
 71
     0
 72
     0
 73
     0
 74
     0
 75
     0
 76
     0
 77
     1
 78
     8
170
     0
171
     2
172
     1
173
     0
174
     0
175
     0
176
     4
177
     4
178
     0
270
     2
271
     2
272
     2
273
     2
274
     2
340
11
275
     0
280
     0
281
     0
282
     0
283
     1
284
     0
285
     0
286
     0
287
     5
288
     0
  0
ENDTAB
  0
TABLE
  2
BLOCK_RECORD
  5
1
330
0
100
AcDbSymbolTable
 70
    38
  0
BLOCK_RECORD
  5
1F
102
{ACAD_XDICTIONARY
360
1CEF5
102
}
330
1
100
AcDbSymbolTableRecord
100
AcDbBlockTableRecord
  2
*MODEL_SPACE
  0
BLOCK_RECORD
  5
17E82
102
{ACAD_XDICTIONARY
360
1CEF7
102
}
330
1
100
AcDbSymbolTableRecord
100
AcDbBlockTableRecord
  2
*PAPER_SPACE
  0
BLOCK_RECORD
  5
31
330
1
100
AcDbSymbolTableRecord
100
AcDbBlockTableRecord
  2
_OPEN30
  0
ENDTAB
  0
ENDSEC
  0
SECTION
  2
BLOCKS
  0
BLOCK
  5
20
330
1F
100
AcDbEntity
  8
0
100
AcDbBlockBegin
  2
*MODEL_SPACE
 70
     0
 10
0.0
 20
0.0
 30
0.0
  3
*MODEL_SPACE
  1

  0
ENDBLK
  5
21
330
1F
100
AcDbEntity
  8
0
100
AcDbBlockEnd
  0
BLOCK
  5
17FDE
330
17E82
100
AcDbEntity
 67
     1
  8
0
100
AcDbBlockBegin
  2
*PAPER_SPACE
 70
     0
 10
0.0
 20
0.0
 30
0.0
  3
*PAPER_SPACE
  1

  0
ENDBLK
  5
17FDF
330
17E82
100
AcDbEntity
 67
     1
  8
0
100
AcDbBlockEnd
  0
BLOCK
  5
35
330
31
100
AcDbEntity
  8
0
100
AcDbBlockBegin
  2
_OPEN30
 70
     0
 10
0.0
 20
0.0
 30
0.0
  3
_OPEN30
  1

  0
LINE
  5
32
330
31
100
AcDbEntity
  8
0
  6
BYBLOCK
 62
     0
100
AcDbLine
 10
-1.0
 20
0.26794919
 30
0.0
 11
0.0
 21
0.0
 31
0.0
  0
LINE
  5
33
330
31
100
AcDbEntity
  8
0
  6
BYBLOCK
 62
     0
100
AcDbLine
 10
0.0
 20
0.0
 30
0.0
 11
-1.0
 21
-0.26794919
 31
0.0
  0
LINE
  5
34
330
31
100
AcDbEntity
  8
0
  6
BYBLOCK
 62
     0
100
AcDbLine
 10
0.0
 20
0.0
 30
0.0
 11
-1.0
 21
0.0
 31
0.0
  0
ENDBLK
  5
36
330
31
100
AcDbEntity
  8
0
100
AcDbBlockEnd
  0
ENDSEC
  0
SECTION
  2
ENTITIES
  0
LINE
  5
1C92F
330
1F
100
AcDbEntity
  8
外形線
100
AcDbLine
 10
-546.3354781201942
 20
857.7938062227612
 30
0.0
 11
-627.0313583906617
 21
857.7938062227612
 31
0.0
  0
LINE
  5
1C930
330
1F
100
AcDbEntity
  8
外形線
100
AcDbLine
 10
-546.3354781201942
 20
844.7938062227613
 30
0.0
 11
-627.0313583906617
 21
844.7938062227613
 31
0.0
  0
LINE
  5
1C931
330
1F
100
AcDbEntity
  8
外形線
100
AcDbLine
 10
-620.0989174457763
 20
705.093806222761
 30
0.0
 11
-608.7989174457759
 21
705.0938062227612
 31
0.0
  0
LINE
  5
1C932
330
1F
100
AcDbEntity
  8
外形線
100
AcDbLine
 10
-615.096957337327
 20
688.4938062227615
 30
0.0
 11
-609.1808775542276
 21
688.4938062227615
 31
0.0
  0
LINE
  5
1C933
330
1F
100
AcDbEntity
  8
外形線
100
AcDbLine
 10
-617.6389174458129
 20
691.9938062227616
 30
0.0
 11
-610.1389174457803
 21
691.9938062227616
 31
0.0
  0
LINE
  5
1C934
330
1F
100
AcDbEntity
  8
外形線
100
AcDbLine
 10
-615.096957337327
 20
687.4938062227611
 30
0.0
 11
-609.1808775542276
 21
687.4938062227611
 31
0.0
  0
CIRCLE
  5
1C935
330
1F
100
AcDbEntity
  8
外形線
100
AcDbCircle
 10
-612.1389174457776
 20
687.9938062227616
 30
0.0
 40
3.0
  0
LINE
  5
1C936
330
1F
100
AcDbEntity
  8
外形線
100
AcDbLine
 10
-617.6389174457892
 20
682.2938062227613
 30
0.0
 11
-606.1389174457781
 21
682.2938062227613
 31
0.0
  0
CIRCLE
  5
1C937
330
1F
100
AcDbEntity
  8
外形線
100
AcDbCircle
 10
-612.1389174457776
 20
687.9938062227616
 30
0.0
 40
3.75
  0
LINE
  5
1C938
330
1F
100
AcDbEntity
  8
外形線
100
AcDbLine
 10
-617.6389174457892
 20
672.2938062227613
 30
0.0
 11
-606.1389174457781
 21
672.2938062227613
 31
0.0
  0
CIRCLE
  5
1C939
330
1F
100
AcDbEntity
  8
外形線
100
AcDbCircle
 10
-612.1389174457776
 20
666.5938062227612
 30
0.0
 40
3.0
  0
LINE
  5
1C93A
330
1F
100
AcDbEntity
  8
外形線
100
AcDbLine
 10
-615.096957337327
 20
666.0938062227613
 30
0.0
 11
-609.1808775542276
 21
666.0938062227613
 31
0.0
  0
LINE
  5
1C93B
330
1F
100
AcDbEntity
  8
外形線
100
AcDbLine
 10
-615.096957337327
 20
667.0938062227612
 30
0.0
 11
-609.1808775542276
 21
667.0938062227612
 31
0.0
  0
LINE
  5
1C93C
330
1F
100
AcDbEntity
  8
外形線
100
AcDbLine
 10
-617.6389174457781
 20
662.5938062227612
 30
0.0
 11
-610.1389174457781
 21
662.5938062227612
 31
0.0
  0
CIRCLE
  5
1C93D
330
1F
100
AcDbEntity
  8
外形線
100
AcDbCircle
 10
-612.1389174457776
 20
666.5938062227612
 30
0.0
 40
3.75
  0
LINE
  5
1C93E
330
1F
100
AcDbEntity
  8
中心線
100
AcDbLine
 10
-546.3354781201942
 20
851.2938062227613
 30
0.0
 11
-676.3294176798015
 21
851.2938062227611
 31
0.0
  0
LINE
  5
1C93F
330
1F
100
AcDbEntity
  8
中心線
100
AcDbLine
 10
-603.6161363758362
 20
689.3515198821601
 30
0.0
 11
-678.2099647447032
 21
689.3515198821594
 31
0.0
  0
LINE
  5
1C940
330
1F
100
AcDbEntity
  8
中心線
100
AcDbLine
 10
-603.6161363758362
 20
677.2938062227622
 30
0.0
 11
-678.2099647447032
 21
677.2938062227608
 31
0.0
  0
LINE
  5
1C941
330
1F
100
AcDbEntity
  8
中心線
100
AcDbLine
 10
-1323.448916495344
 20
412.8380755481218
 30
0.0
 11
-1323.448916495345
 21
1121.749536897399
 31
0.0
  0
CIRCLE
  5
1C942
330
1F
100
AcDbEntity
  8
細線
100
AcDbCircle
 10
-1182.027560258035
 20
625.8724499854523
 30
0.0
 40
8.0
  0
LINE
  5
1C943
330
1F
100
AcDbEntity
  8
中心線
100
AcDbLine
 10
-1190.896474597082
 20
634.7413643244985
 30
0.0
 11
-1173.158645918989
 21
617.0035356464043
 31
0.0
  0
CIRCLE
  5
1C944
330
1F
100
AcDbEntity
  8
外形線
100
AcDbCircle
 10
-1182.027560258035
 20
625.8724499854515
 30
0.0
 40
6.400000000000241
  0
CIRCLE
  5
1C945
330
1F
100
AcDbEntity
  8
細線
100
AcDbCircle
 10
-1182.027560258035
 20
625.8724499854515
 30
0.0
 40
8.0
  0
CIRCLE
  5
1C946
330
1F
100
AcDbEntity
  8
細線
100
AcDbCircle
 10
-1464.870272732654
 20
625.8724499854523
 30
0.0
 40
8.0
  0
LINE
  5
1C947
330
1F
100
AcDbEntity
  8
中心線
100
AcDbLine
 10
-1456.001358393606
 20
634.7413643244981
 30
0.0
 11
-1473.739187071702
 21
617.0035356464052
 31
0.0
  0
CIRCLE
  5
1C948
330
1F
100
AcDbEntity
  8
細線
100
AcDbCircle
 10
-1464.870272732654
 20
625.8724499854515
 30
0.0
 40
8.0
  0
CIRCLE
  5
1C949
330
1F
100
AcDbEntity
  8
外形線
100
AcDbCircle
 10
-1464.870272732654
 20
625.8724499854515
 30
0.0
 40
6.400000000000241
  0
CIRCLE
  5
1C94A
330
1F
100
AcDbEntity
  8
外形線
100
AcDbCircle
 10
-1464.870272732655
 20
625.8724499854515
 30
0.0
 40
6.400000000000241
  0
CIRCLE
  5
1C94B
330
1F
100
AcDbEntity
  8
外形線
100
AcDbCircle
 10
-1464.870272732655
 20
625.8724499854515
 30
0.0
 40
8.0
  0
LINE
  5
1C94C
330
1F
100
AcDbEntity
  8
外形線
100
AcDbLine
 10
-706.0313583906602
 20
452.293806222761
 30
0.0
 11
-706.031358390665
 21
767.293806222761
 31
0.0
  0
CIRCLE
  5
1C94D
330
1F
100
AcDbEntity
  8
外形線
100
AcDbCircle
 10
-1323.448916495345
 20
767.2938062227608
 30
0.0
 40
224.9999999999991
  0
LINE
  5
1C94E
330
1F
100
AcDbEntity
  8
外形線
100
AcDbLine
 10
-786.0313583906607
 20
454.293806222761
 30
0.0
 11
-786.0313583906586
 21
767.2938062227608
 31
0.0
  0
LINE
  5
1C94F
330
1F
100
AcDbEntity
  8
外形線
100
AcDbLine
 10
-788.0313583906609
 20
454.293806222761
 30
0.0
 11
-788.0313583906586
 21
767.2938062227608
 31
0.0
  0
LINE
  5
1C950
330
1F
100
AcDbEntity
  8
外形線
100
AcDbLine
 10
-792.0313583906605
 20
517.7938062227626
 30
0.0
 11
-792.0313583906584
 21
767.2938062227608
 31
0.0
  0
LINE
  5
1C951
330
1F
100
AcDbEntity
  8
外形線
100
AcDbLine
 10
-796.0313583906605
 20
542.7938062227622
 30
0.0
 11
-796.0313583906605
 21
767.2938062227608
 31
0.0
  0
LINE
  5
1C952
330
1F
100
AcDbEntity
  8
外形線
100
AcDbLine
 10
-671.0313583906607
 20
452.2938062227613
 30
0.0
 11
-671.0313583906606
 21
767.2938062227608
 31
0.0
  0
CIRCLE
  5
1C953
330
1F
100
AcDbEntity
  8
細線
100
AcDbCircle
 10
-1323.448916495345
 20
767.2938062227608
 30
0.0
 40
313.0000000000001
  0
CIRCLE
  5
1C954
330
1F
100
AcDbEntity
  8
外形線
100
AcDbCircle
 10
-1323.448916495345
 20
767.2938062227608
 30
0.0
 40
150.0
  0
CIRCLE
  5
1C955
330
1F
100
AcDbEntity
  8
中心線
100
AcDbCircle
 10
-1323.448916495345
 20
767.2938062227608
 30
0.0
 40
200.0
  0
CIRCLE
  5
1C956
330
1F
100
AcDbEntity
  8
外形線
100
AcDbCircle
 10
-1323.448916495345
 20
767.2938062227608
 30
0.0
 40
249.9999999999985
  0
CIRCLE
  5
1C957
330
1F
100
AcDbEntity
  8
外形線
100
AcDbCircle
 10
-1323.448916495345
 20
767.2938062227608
 30
0.0
 40
315.0000000000001
  0
ARC
  5
1C958
330
1F
100
AcDbEntity
  8
細線
100
AcDbCircle
 10
-1588.586664649599
 20
616.525857030329
 30
0.0
 40
1.5
100
AcDbArc
 50
209.9999999999993
 51
299.9999999999965
  0
ARC
  5
1C959
330
1F
100
AcDbEntity
  8
細線
100
AcDbCircle
 10
-1586.586664649598
 20
613.0617554151911
 30
0.0
 40
1.5
100
AcDbArc
 50
119.9999999999964
 51
209.9999999999993
  0
LINE
  5
1C95A
330
1F
100
AcDbEntity
  8
細線
100
AcDbLine
 10
-1587.50006210922
 20
614.8438062227604
 30
0.0
 11
-1587.750062109219
 21
615.2768189246526
 31
0.0
  0
LINE
  5
1C95B
330
1F
100
AcDbEntity
  8
細線
100
AcDbLine
 10
-1587.750062109219
 20
615.2768189246526
 30
0.0
 11
-1587.836664649599
 21
615.2268189246528
 31
0.0
  0
LINE
  5
1C95C
330
1F
100
AcDbEntity
  8
細線
100
AcDbLine
 10
-1587.50006210922
 20
614.8438062227604
 30
0.0
 11
-1587.25006210922
 21
614.4107935208681
 31
0.0
  0
LINE
  5
1C95D
330
1F
100
AcDbEntity
  8
細線
100
AcDbLine
 10
-1587.25006210922
 20
614.4107935208681
 30
0.0
 11
-1587.336664649598
 21
614.3607935208684
 31
0.0
  0
ARC
  5
1C95E
330
1F
100
AcDbEntity
  8
細線
100
AcDbCircle
 10
-1590.050766264736
 20
611.0617554151913
 30
0.0
 40
1.5
100
AcDbArc
 50
29.99999999999932
 51
119.9999999999964
  0
LINE
  5
1C95F
330
1F
100
AcDbEntity
  8
細線
100
AcDbLine
 10
-1590.75172815906
 20
615.2758570303292
 30
0.0
 11
-1590.80172815906
 21
615.3624595707078
 31
0.0
  0
LINE
  5
1C960
330
1F
100
AcDbEntity
  8
細線
100
AcDbLine
 10
-1590.80172815906
 20
615.3624595707078
 30
0.0
 11
-1590.368715457167
 21
615.6124595707078
 31
0.0
  0
LINE
  5
1C961
330
1F
100
AcDbEntity
  8
細線
100
AcDbLine
 10
-1589.885702755275
 20
615.7758570303292
 30
0.0
 11
-1589.935702755274
 21
615.8624595707078
 31
0.0
  0
LINE
  5
1C962
330
1F
100
AcDbEntity
  8
細線
100
AcDbLine
 10
-1589.935702755274
 20
615.8624595707078
 30
0.0
 11
-1590.368715457167
 21
615.6124595707078
 31
0.0
  0
ARC
  5
1C963
330
1F
100
AcDbEntity
  8
細線
100
AcDbCircle
 10
-1592.050766264736
 20
614.525857030329
 30
0.0
 40
1.5
100
AcDbArc
 50
299.9999999999965
 51
29.99999999999932
  0
LINE
  5
1C964
330
1F
100
AcDbEntity
  8
細線
100
AcDbLine
 10
-1591.137368805115
 20
612.7438062227606
 30
0.0
 11
-1591.387368805115
 21
613.1768189246527
 31
0.0
  0
LINE
  5
1C965
330
1F
100
AcDbEntity
  8
細線
100
AcDbLine
 10
-1591.387368805115
 20
613.1768189246527
 30
0.0
 11
-1591.300766264736
 21
613.2268189246526
 31
0.0
  0
LINE
  5
1C966
330
1F
100
AcDbEntity
  8
細線
100
AcDbLine
 10
-1590.887368805115
 20
612.3107935208682
 30
0.0
 11
-1590.800766264736
 21
612.3607935208683
 31
0.0
  0
LINE
  5
1C967
330
1F
100
AcDbEntity
  8
細線
100
AcDbLine
 10
-1591.137368805115
 20
612.7438062227606
 30
0.0
 11
-1590.887368805115
 21
612.3107935208682
 31
0.0
  0
LINE
  5
1C968
330
1F
100
AcDbEntity
  8
細線
100
AcDbLine
 10
-1587.885702755275
 20
612.3117554151917
 30
0.0
 11
-1587.835702755275
 21
612.2251528748131
 31
0.0
  0
LINE
  5
1C969
330
1F
100
AcDbEntity
  8
細線
100
AcDbLine
 10
-1588.70172815906
 20
611.7251528748131
 30
0.0
 11
-1588.268715457167
 21
611.9751528748131
 31
0.0
  0
LINE
  5
1C96A
330
1F
100
AcDbEntity
  8
細線
100
AcDbLine
 10
-1587.835702755275
 20
612.2251528748131
 30
0.0
 11
-1588.268715457167
 21
611.9751528748131
 31
0.0
  0
LINE
  5
1C96B
330
1F
100
AcDbEntity
  8
細線
100
AcDbLine
 10
-1588.75172815906
 20
611.8117554151913
 30
0.0
 11
-1588.70172815906
 21
611.7251528748131
 31
0.0
  0
CIRCLE
  5
1C96C
330
1F
100
AcDbEntity
  8
細線
100
AcDbCircle
 10
-1589.318715457168
 20
613.7938062227604
 30
0.0
 40
4.7
  0
LINE
  5
1C96D
330
1F
100
AcDbEntity
  8
想像線
 48
0.5
100
AcDbLine
 10
-1294.448916495346
 20
425.2938062227618
 30
0.0
 11
-1294.448916495346
 21
436.2938062227613
 31
0.0
  0
LINE
  5
1C96E
330
1F
100
AcDbEntity
  8
中心線
100
AcDbLine
 10
-1303.448916495346
 20
421.4405708047183
 30
0.0
 11
-1303.448916495346
 21
459.4733720798076
 31
0.0
  0
LINE
  5
1C96F
330
1F
100
AcDbEntity
  8
想像線
 48
0.5
100
AcDbLine
 10
-1312.448916495346
 20
425.293806222761
 30
0.0
 11
-1312.448916495346
 21
436.2938062227613
 31
0.0
  0
LINE
  5
1C970
330
1F
100
AcDbEntity
  8
想像線
 48
0.5
100
AcDbLine
 10
-1334.448916495346
 20
425.293806222761
 30
0.0
 11
-1334.448916495346
 21
436.2938062227613
 31
0.0
  0
LINE
  5
1C971
330
1F
100
AcDbEntity
  8
想像線
 48
0.5
100
AcDbLine
 10
-1352.448916495346
 20
425.2938062227618
 30
0.0
 11
-1352.448916495346
 21
436.2938062227613
 31
0.0
  0
LINE
  5
1C972
330
1F
100
AcDbEntity
  8
中心線
100
AcDbLine
 10
-1343.448916495346
 20
421.4405708047183
 30
0.0
 11
-1343.448916495346
 21
459.4733720798076
 31
0.0
  0
LINE
  5
1C973
330
1F
100
AcDbEntity
  8
想像線
 48
0.5
100
AcDbLine
 10
-1335.448916495346
 20
424.2938062227611
 30
0.0
 11
-1351.448916495344
 21
424.2938062227611
 31
0.0
  0
LINE
  5
1C974
330
1F
100
AcDbEntity
  8
想像線
 48
0.5
100
AcDbLine
 10
-1352.448916495346
 20
425.293806222761
 30
0.0
 11
-1351.448916495344
 21
424.2938062227611
 31
0.0
  0
LINE
  5
1C975
330
1F
100
AcDbEntity
  8
想像線
 48
0.5
100
AcDbLine
 10
-1311.448916495346
 20
424.2938062227611
 30
0.0
 11
-1295.448916495346
 21
424.2938062227611
 31
0.0
  0
LINE
  5
1C976
330
1F
100
AcDbEntity
  8
想像線
 48
0.5
100
AcDbLine
 10
-1334.448916495346
 20
425.293806222761
 30
0.0
 11
-1335.448916495346
 21
424.2938062227611
 31
0.0
  0
LINE
  5
1C977
330
1F
100
AcDbEntity
  8
想像線
 48
0.5
100
AcDbLine
 10
-1312.448916495346
 20
425.293806222761
 30
0.0
 11
-1311.448916495346
 21
424.2938062227611
 31
0.0
  0
LINE
  5
1C978
330
1F
100
AcDbEntity
  8
想像線
 48
0.5
100
AcDbLine
 10
-1294.448916495346
 20
425.293806222761
 30
0.0
 11
-1295.448916495346
 21
424.2938062227611
 31
0.0
  0
ARC
  5
1C979
330
1F
100
AcDbEntity
  8
細線
100
AcDbCircle
 10
-1474.216865687774
 20
502.1560580685068
 30
0.0
 40
1.5
100
AcDbArc
 50
150.0000000000006
 51
240.0000000000034
  0
ARC
  5
1C97A
330
1F
100
AcDbEntity
  8
細線
100
AcDbCircle
 10
-1479.680967302912
 20
500.6919564533689
 30
0.0
 40
1.5
100
AcDbArc
 50
330.0000000000006
 51
60.00000000000351
  0
CIRCLE
  5
1C97B
330
1F
100
AcDbEntity
  8
細線
100
AcDbCircle
 10
-1476.948916495342
 20
501.4240072609377
 30
0.0
 40
4.7
  0
ARC
  5
1C97C
330
1F
100
AcDbEntity
  8
細線
100
AcDbCircle
 10
-1476.216865687776
 20
498.6919564533691
 30
0.0
 40
1.5
100
AcDbArc
 50
60.00000000000351
 51
150.0000000000006
  0
LINE
  5
1C97D
330
1F
100
AcDbEntity
  8
細線
100
AcDbLine
 10
-1477.998916495343
 20
499.6053539129905
 30
0.0
 11
-1478.431929197236
 21
499.8553539129905
 31
0.0
  0
LINE
  5
1C97E
330
1F
100
AcDbEntity
  8
細線
100
AcDbLine
 10
-1478.431929197236
 20
499.8553539129905
 30
0.0
 11
-1478.381929197237
 21
499.9419564533688
 31
0.0
  0
LINE
  5
1C97F
330
1F
100
AcDbEntity
  8
細線
100
AcDbLine
 10
-1477.565903793452
 20
499.3553539129902
 30
0.0
 11
-1477.515903793452
 21
499.4419564533688
 31
0.0
  0
LINE
  5
1C980
330
1F
100
AcDbEntity
  8
細線
100
AcDbLine
 10
-1477.998916495343
 20
499.6053539129905
 30
0.0
 11
-1477.565903793452
 21
499.3553539129902
 31
0.0
  0
LINE
  5
1C981
330
1F
100
AcDbEntity
  8
細線
100
AcDbLine
 10
-1474.966865687775
 20
500.8570199628297
 30
0.0
 11
-1474.880263147396
 21
500.8070199628298
 31
0.0
  0
LINE
  5
1C982
330
1F
100
AcDbEntity
  8
細線
100
AcDbLine
 10
-1475.380263147395
 20
499.9409945590455
 30
0.0
 11
-1475.130263147397
 21
500.3740072609375
 31
0.0
  0
LINE
  5
1C983
330
1F
100
AcDbEntity
  8
細線
100
AcDbLine
 10
-1474.880263147396
 20
500.8070199628298
 30
0.0
 11
-1475.130263147397
 21
500.3740072609375
 31
0.0
  0
LINE
  5
1C984
330
1F
100
AcDbEntity
  8
細線
100
AcDbLine
 10
-1475.466865687776
 20
499.9909945590457
 30
0.0
 11
-1475.380263147395
 21
499.9409945590455
 31
0.0
  0
ARC
  5
1C985
330
1F
100
AcDbEntity
  8
細線
100
AcDbCircle
 10
-1477.680967302912
 20
504.1560580685065
 30
0.0
 40
1.5
100
AcDbArc
 50
240.0000000000034
 51
330.0000000000006
  0
LINE
  5
1C986
330
1F
100
AcDbEntity
  8
細線
100
AcDbLine
 10
-1475.898916495343
 20
503.242660608885
 30
0.0
 11
-1476.331929197236
 21
503.4926606088848
 31
0.0
  0
LINE
  5
1C987
330
1F
100
AcDbEntity
  8
細線
100
AcDbLine
 10
-1476.331929197236
 20
503.4926606088848
 30
0.0
 11
-1476.381929197237
 21
503.4060580685068
 31
0.0
  0
LINE
  5
1C988
330
1F
100
AcDbEntity
  8
細線
100
AcDbLine
 10
-1475.898916495343
 20
503.242660608885
 30
0.0
 11
-1475.465903793453
 21
502.9926606088848
 31
0.0
  0
LINE
  5
1C989
330
1F
100
AcDbEntity
  8
細線
100
AcDbLine
 10
-1475.465903793453
 20
502.9926606088848
 30
0.0
 11
-1475.515903793452
 21
502.9060580685068
 31
0.0
  0
LINE
  5
1C98A
330
1F
100
AcDbEntity
  8
細線
100
AcDbLine
 10
-1478.430967302912
 20
502.8570199628298
 30
0.0
 11
-1478.517569843292
 21
502.9070199628302
 31
0.0
  0
LINE
  5
1C98B
330
1F
100
AcDbEntity
  8
細線
100
AcDbLine
 10
-1478.930967302912
 20
501.9909945590456
 30
0.0
 11
-1479.017569843292
 21
502.0409945590459
 31
0.0
  0
LINE
  5
1C98C
330
1F
100
AcDbEntity
  8
細線
100
AcDbLine
 10
-1479.017569843292
 20
502.0409945590459
 30
0.0
 11
-1478.767569843292
 21
502.4740072609379
 31
0.0
  0
LINE
  5
1C98D
330
1F
100
AcDbEntity
  8
細線
100
AcDbLine
 10
-1478.517569843292
 20
502.9070199628302
 30
0.0
 11
-1478.767569843292
 21
502.4740072609379
 31
0.0
  0
CIRCLE
  5
1C98E
330
1F
100
AcDbEntity
  8
外形線
100
AcDbCircle
 10
-1455.396846837493
 20
569.8197733009028
 30
0.0
 40
8.0
  0
LINE
  5
1C98F
330
1F
100
AcDbEntity
  8
外形線
100
AcDbLine
 10
-1453.02816778135
 20
573.3647520262307
 30
0.0
 11
-1457.282549023224
 21
573.6435988062271
 31
0.0
  0
LINE
  5
1C990
330
1F
100
AcDbEntity
  8
外形線
100
AcDbLine
 10
-1453.511145062027
 20
565.9959471815702
 30
0.0
 11
-1457.76552637228
 21
566.2747938592326
 31
0.0
  0
LINE
  5
1C991
330
1F
100
AcDbEntity
  8
外形線
100
AcDbLine
 10
-1451.142465663997
 20
569.5409264185712
 30
0.0
 11
-1453.511144720138
 21
565.995947693244
 31
0.0
  0
LINE
  5
1C992
330
1F
100
AcDbEntity
  8
外形線
100
AcDbLine
 10
-1457.765525893635
 20
566.2747945755755
 30
0.0
 11
-1459.651227942611
 21
570.0986202855695
 31
0.0
  0
LINE
  5
1C993
330
1F
100
AcDbEntity
  8
外形線
100
AcDbLine
 10
-1453.028167302703
 20
573.3647527425741
 30
0.0
 11
-1451.142465322107
 21
569.5409269302453
 31
0.0
  0
LINE
  5
1C994
330
1F
100
AcDbEntity
  8
外形線
100
AcDbLine
 10
-1457.282548954847
 20
573.6435989085621
 30
0.0
 11
-1459.651228010987
 21
570.0986201832347
 31
0.0
  0
LINE
  5
1C995
330
1F
100
AcDbEntity
  8
想像線
 48
0.5
100
AcDbLine
 10
-1355.448916495346
 20
439.2938062227608
 30
0.0
 11
-1331.448916495346
 21
439.2938062227608
 31
0.0
  0
LINE
  5
1C996
330
1F
100
AcDbEntity
  8
想像線
 48
0.5
100
AcDbLine
 10
-1354.198916495346
 20
436.2938062227608
 30
0.0
 11
-1332.698916495346
 21
436.2938062227613
 31
0.0
  0
LINE
  5
1C997
330
1F
100
AcDbEntity
  8
想像線
 48
0.5
100
AcDbLine
 10
-1360.948916495346
 20
453.7938062227608
 30
0.0
 11
-1285.948916495346
 21
453.7938062227608
 31
0.0
  0
LINE
  5
1C998
330
1F
100
AcDbEntity
  8
想像線
 48
0.5
100
AcDbLine
 10
-1285.948916495346
 20
441.7938062227608
 30
0.0
 11
-1360.948916495346
 21
441.7938062227608
 31
0.0
  0
LINE
  5
1C999
330
1F
100
AcDbEntity
  8
想像線
 48
0.5
100
AcDbLine
 10
-1360.948916495346
 20
441.7938062227608
 30
0.0
 11
-1360.948916495346
 21
453.7938062227608
 31
0.0
  0
LINE
  5
1C99A
330
1F
100
AcDbEntity
  8
想像線
 48
0.5
100
AcDbLine
 10
-1354.198916495346
 20
436.2938062227613
 30
0.0
 11
-1354.198916495346
 21
439.2938062227608
 31
0.0
  0
LINE
  5
1C99B
330
1F
100
AcDbEntity
  8
想像線
 48
0.5
100
AcDbLine
 10
-1355.448916495346
 20
439.2938062227608
 30
0.0
 11
-1355.448916495346
 21
441.7938062227608
 31
0.0
  0
LINE
  5
1C99C
330
1F
100
AcDbEntity
  8
想像線
 48
0.5
100
AcDbLine
 10
-1292.698916495346
 20
436.2938062227608
 30
0.0
 11
-1314.198916495346
 21
436.2938062227613
 31
0.0
  0
LINE
  5
1C99D
330
1F
100
AcDbEntity
  8
想像線
 48
0.5
100
AcDbLine
 10
-1291.448916495346
 20
439.2938062227608
 30
0.0
 11
-1315.448916495346
 21
439.2938062227608
 31
0.0
  0
LINE
  5
1C99E
330
1F
100
AcDbEntity
  8
想像線
 48
0.5
100
AcDbLine
 10
-1331.448916495346
 20
439.2938062227608
 30
0.0
 11
-1331.448916495346
 21
441.7938062227608
 31
0.0
  0
LINE
  5
1C99F
330
1F
100
AcDbEntity
  8
想像線
 48
0.5
100
AcDbLine
 10
-1332.698916495346
 20
436.2938062227613
 30
0.0
 11
-1332.698916495346
 21
439.2938062227608
 31
0.0
  0
LINE
  5
1C9A0
330
1F
100
AcDbEntity
  8
想像線
 48
0.5
100
AcDbLine
 10
-1314.198916495346
 20
436.2938062227613
 30
0.0
 11
-1314.198916495346
 21
439.2938062227608
 31
0.0
  0
LINE
  5
1C9A1
330
1F
100
AcDbEntity
  8
想像線
 48
0.5
100
AcDbLine
 10
-1315.448916495346
 20
439.2938062227608
 30
0.0
 11
-1315.448916495346
 21
441.7938062227608
 31
0.0
  0
ARC
  5
1C9A2
330
1F
100
AcDbEntity
  8
細線
100
AcDbCircle
 10
-1325.448916495344
 20
462.2938062227611
 30
0.0
 40
1.5
100
AcDbArc
 50
270.0
 51
0.0
  0
ARC
  5
1C9A3
330
1F
100
AcDbEntity
  8
細線
100
AcDbCircle
 10
-1321.448916495342
 20
462.2938062227611
 30
0.0
 40
1.5
100
AcDbArc
 50
180.0
 51
270.0
  0
LINE
  5
1C9A4
330
1F
100
AcDbEntity
  8
細線
100
AcDbLine
 10
-1323.448916495344
 20
462.3938062227607
 30
0.0
 11
-1323.948916495343
 21
462.3938062227607
 31
0.0
  0
LINE
  5
1C9A5
330
1F
100
AcDbEntity
  8
細線
100
AcDbLine
 10
-1323.948916495343
 20
462.3938062227607
 30
0.0
 11
-1323.948916495343
 21
462.2938062227611
 31
0.0
  0
LINE
  5
1C9A6
330
1F
100
AcDbEntity
  8
細線
100
AcDbLine
 10
-1323.448916495344
 20
462.3938062227607
 30
0.0
 11
-1322.948916495342
 21
462.3938062227607
 31
0.0
  0
LINE
  5
1C9A7
330
1F
100
AcDbEntity
  8
細線
100
AcDbLine
 10
-1322.948916495342
 20
462.3938062227607
 30
0.0
 11
-1322.948916495342
 21
462.2938062227611
 31
0.0
  0
ARC
  5
1C9A8
330
1F
100
AcDbEntity
  8
細線
100
AcDbCircle
 10
-1321.448916495342
 20
458.2938062227611
 30
0.0
 40
1.5
100
AcDbArc
 50
90.0
 51
180.0
  0
ARC
  5
1C9A9
330
1F
100
AcDbEntity
  8
細線
100
AcDbCircle
 10
-1325.448916495344
 20
458.2938062227611
 30
0.0
 40
1.5
100
AcDbArc
 50
0.0
 51
90.0
  0
LINE
  5
1C9AA
330
1F
100
AcDbEntity
  8
細線
100
AcDbLine
 10
-1323.448916495344
 20
458.1938062227611
 30
0.0
 11
-1323.948916495343
 21
458.1938062227611
 31
0.0
  0
LINE
  5
1C9AB
330
1F
100
AcDbEntity
  8
細線
100
AcDbLine
 10
-1323.948916495343
 20
458.1938062227611
 30
0.0
 11
-1323.948916495343
 21
458.2938062227611
 31
0.0
  0
LINE
  5
1C9AC
330
1F
100
AcDbEntity
  8
細線
100
AcDbLine
 10
-1322.948916495342
 20
458.1938062227611
 30
0.0
 11
-1322.948916495342
 21
458.2938062227611
 31
0.0
  0
LINE
  5
1C9AD
330
1F
100
AcDbEntity
  8
細線
100
AcDbLine
 10
-1323.448916495344
 20
458.1938062227611
 30
0.0
 11
-1322.948916495342
 21
458.1938062227611
 31
0.0
  0
LINE
  5
1C9AE
330
1F
100
AcDbEntity
  8
細線
100
AcDbLine
 10
-1321.448916495342
 20
460.793806222761
 30
0.0
 11
-1321.348916495344
 21
460.793806222761
 31
0.0
  0
LINE
  5
1C9AF
330
1F
100
AcDbEntity
  8
細線
100
AcDbLine
 10
-1321.348916495344
 20
459.793806222761
 30
0.0
 11
-1321.348916495344
 21
460.293806222761
 31
0.0
  0
LINE
  5
1C9B0
330
1F
100
AcDbEntity
  8
細線
100
AcDbLine
 10
-1321.348916495344
 20
460.793806222761
 30
0.0
 11
-1321.348916495344
 21
460.293806222761
 31
0.0
  0
LINE
  5
1C9B1
330
1F
100
AcDbEntity
  8
細線
100
AcDbLine
 10
-1321.448916495342
 20
459.793806222761
 30
0.0
 11
-1321.348916495344
 21
459.793806222761
 31
0.0
  0
LINE
  5
1C9B2
330
1F
100
AcDbEntity
  8
細線
100
AcDbLine
 10
-1325.548916495344
 20
459.793806222761
 30
0.0
 11
-1325.548916495344
 21
460.293806222761
 31
0.0
  0
LINE
  5
1C9B3
330
1F
100
AcDbEntity
  8
細線
100
AcDbLine
 10
-1325.548916495344
 20
460.793806222761
 30
0.0
 11
-1325.548916495344
 21
460.293806222761
 31
0.0
  0
CIRCLE
  5
1C9B4
330
1F
100
AcDbEntity
  8
細線
100
AcDbCircle
 10
-1323.448916495344
 20
460.2938062227608
 30
0.0
 40
4.7
  0
LINE
  5
1C9B5
330
1F
100
AcDbEntity
  8
細線
100
AcDbLine
 10
-1325.448916495344
 20
459.793806222761
 30
0.0
 11
-1325.548916495344
 21
459.793806222761
 31
0.0
  0
LINE
  5
1C9B6
330
1F
100
AcDbEntity
  8
細線
100
AcDbLine
 10
-1325.448916495344
 20
460.793806222761
 30
0.0
 11
-1325.548916495344
 21
460.793806222761
 31
0.0
  0
LINE
  5
1C9B7
330
1F
100
AcDbEntity
  8
想像線
 48
0.5
100
AcDbLine
 10
-1285.948916495346
 20
453.7938062227608
 30
0.0
 11
-1285.948916495346
 21
441.7938062227608
 31
0.0
  0
LINE
  5
1C9B8
330
1F
100
AcDbEntity
  8
想像線
 48
0.5
100
AcDbLine
 10
-1292.698916495346
 20
436.2938062227613
 30
0.0
 11
-1292.698916495346
 21
439.2938062227608
 31
0.0
  0
LINE
  5
1C9B9
330
1F
100
AcDbEntity
  8
想像線
 48
0.5
100
AcDbLine
 10
-1291.448916495346
 20
439.2938062227608
 30
0.0
 11
-1291.448916495346
 21
441.7938062227608
 31
0.0
  0
LINE
  5
1C9BA
330
1F
100
AcDbEntity
  8
外形線
100
AcDbLine
 10
-1366.577391795281
 20
531.5461742673114
 30
0.0
 11
-1370.614637615032
 21
530.1757137631152
 31
0.0
  0
LINE
  5
1C9BB
330
1F
100
AcDbEntity
  8
外形線
100
AcDbLine
 10
-1370.614637446954
 20
530.1757146080997
 30
0.0
 11
-1373.820113721885
 21
532.9868419849336
 31
0.0
  0
LINE
  5
1C9BC
330
1F
100
AcDbEntity
  8
外形線
100
AcDbLine
 10
-1368.951098501378
 20
538.5388896458874
 30
0.0
 11
-1372.988344297118
 21
537.1684292624033
 31
0.0
  0
LINE
  5
1C9BD
330
1F
100
AcDbEntity
  8
外形線
100
AcDbLine
 10
-1372.988344273108
 20
537.1684293831151
 30
0.0
 11
-1373.820113745896
 21
532.9868418642213
 31
0.0
  0
LINE
  5
1C9BE
330
1F
100
AcDbEntity
  8
外形線
100
AcDbLine
 10
-1368.951098333301
 20
538.5388904908721
 30
0.0
 11
-1365.745622082382
 21
535.7277629933255
 31
0.0
  0
LINE
  5
1C9BF
330
1F
100
AcDbEntity
  8
外形線
100
AcDbLine
 10
-1365.745622202437
 20
535.7277623897653
 30
0.0
 11
-1366.577391675225
 21
531.5461748708717
 31
0.0
  0
CIRCLE
  5
1C9C0
330
1F
100
AcDbEntity
  8
外形線
100
AcDbCircle
 10
-1369.782867974167
 20
534.3573021269935
 30
0.0
 40
8.0
  0
CIRCLE
  5
1C9C1
330
1F
100
AcDbEntity
  8
細線
100
AcDbCircle
 10
-1323.448916495345
 20
567.2938062227622
 30
0.0
 40
8.0
  0
CIRCLE
  5
1C9C2
330
1F
100
AcDbEntity
  8
細線
100
AcDbCircle
 10
-1323.448916495345
 20
567.2938062227613
 30
0.0
 40
8.0
  0
CIRCLE
  5
1C9C3
330
1F
100
AcDbEntity
  8
細線
100
AcDbCircle
 10
-1323.448916495345
 20
529.7938062227631
 30
0.0
 40
4.0
  0
CIRCLE
  5
1C9C4
330
1F
100
AcDbEntity
  8
0
100
AcDbCircle
 10
-1323.448916495345
 20
529.7938062227631
 30
0.0
 40
3.20000000000012
  0
CIRCLE
  5
1C9C5
330
1F
100
AcDbEntity
  8
外形線
100
AcDbCircle
 10
-1323.448916495345
 20
567.2938062227613
 30
0.0
 40
6.400000000000241
  0
LINE
  5
1C9C6
330
1F
100
AcDbEntity
  8
外形線
100
AcDbLine
 10
-1276.283195543718
 20
530.1757146081031
 30
0.0
 11
-1280.320441339458
 21
531.5461749915867
 31
0.0
  0
LINE
  5
1C9C7
330
1F
100
AcDbEntity
  8
外形線
100
AcDbLine
 10
-1277.946734489295
 20
538.5388896458907
 30
0.0
 11
-1281.152210764224
 21
535.7277622690567
 31
0.0
  0
CIRCLE
  5
1C9C8
330
1F
100
AcDbEntity
  8
外形線
100
AcDbCircle
 10
-1277.114965016507
 20
534.3573021269967
 30
0.0
 40
8.0
  0
LINE
  5
1C9C9
330
1F
100
AcDbEntity
  8
外形線
100
AcDbLine
 10
-1281.152210788236
 20
535.7277623897685
 30
0.0
 11
-1280.320441315446
 21
531.5461748708749
 31
0.0
  0
LINE
  5
1C9CA
330
1F
100
AcDbEntity
  8
外形線
100
AcDbLine
 10
-1273.077719124722
 20
532.9868412606647
 30
0.0
 11
-1276.28319537564
 21
530.1757137631184
 31
0.0
  0
LINE
  5
1C9CB
330
1F
100
AcDbEntity
  8
外形線
100
AcDbLine
 10
-1277.946734657373
 20
538.538890490875
 30
0.0
 11
-1273.909488837621
 21
537.1684299866788
 31
0.0
  0
LINE
  5
1C9CC
330
1F
100
AcDbEntity
  8
外形線
100
AcDbLine
 10
-1273.909488717565
 20
537.1684293831186
 30
0.0
 11
-1273.077719244777
 21
532.986841864225
 31
0.0
  0
ARC
  5
1C9CD
330
1F
100
AcDbEntity
  8
細線
100
AcDbCircle
 10
-1172.680967302913
 20
502.1560580685072
 30
0.0
 40
1.5
100
AcDbArc
 50
299.9999999999965
 51
29.99999999999932
  0
ARC
  5
1C9CE
330
1F
100
AcDbEntity
  8
細線
100
AcDbCircle
 10
-1167.216865687775
 20
500.6919564533696
 30
0.0
 40
1.5
100
AcDbArc
 50
119.9999999999964
 51
209.9999999999993
  0
CIRCLE
  5
1C9CF
330
1F
100
AcDbEntity
  8
細線
100
AcDbCircle
 10
-1169.948916495344
 20
501.4240072609384
 30
0.0
 40
4.7
  0
LINE
  5
1C9D0
330
1F
100
AcDbEntity
  8
細線
100
AcDbLine
 10
-1171.430967302913
 20
499.9909945590466
 30
0.0
 11
-1171.517569843292
 21
499.9409945590464
 31
0.0
  0
LINE
  5
1C9D1
330
1F
100
AcDbEntity
  8
細線
100
AcDbLine
 10
-1171.517569843292
 20
499.9409945590464
 30
0.0
 11
-1171.767569843292
 21
500.3740072609384
 31
0.0
  0
LINE
  5
1C9D2
330
1F
100
AcDbEntity
  8
細線
100
AcDbLine
 10
-1171.930967302913
 20
500.8570199628309
 30
0.0
 11
-1172.017569843291
 21
500.8070199628307
 31
0.0
  0
LINE
  5
1C9D3
330
1F
100
AcDbEntity
  8
細線
100
AcDbLine
 10
-1172.017569843291
 20
500.8070199628307
 30
0.0
 11
-1171.767569843292
 21
500.3740072609384
 31
0.0
  0
ARC
  5
1C9D4
330
1F
100
AcDbEntity
  8
細線
100
AcDbCircle
 10
-1170.680967302913
 20
498.6919564533693
 30
0.0
 40
1.5
100
AcDbArc
 50
29.99999999999932
 51
119.9999999999964
  0
LINE
  5
1C9D5
330
1F
100
AcDbEntity
  8
細線
100
AcDbLine
 10
-1168.898916495342
 20
499.6053539129913
 30
0.0
 11
-1169.331929197235
 21
499.3553539129914
 31
0.0
  0
LINE
  5
1C9D6
330
1F
100
AcDbEntity
  8
細線
100
AcDbLine
 10
-1169.331929197235
 20
499.3553539129914
 30
0.0
 11
-1169.381929197237
 21
499.44195645337
 31
0.0
  0
LINE
  5
1C9D7
330
1F
100
AcDbEntity
  8
細線
100
AcDbLine
 10
-1168.465903793452
 20
499.8553539129914
 30
0.0
 11
-1168.515903793452
 21
499.94195645337
 31
0.0
  0
LINE
  5
1C9D8
330
1F
100
AcDbEntity
  8
細線
100
AcDbLine
 10
-1168.898916495342
 20
499.6053539129913
 30
0.0
 11
-1168.465903793452
 21
499.8553539129914
 31
0.0
  0
ARC
  5
1C9D9
330
1F
100
AcDbEntity
  8
細線
100
AcDbCircle
 10
-1169.216865687775
 20
504.1560580685072
 30
0.0
 40
1.5
100
AcDbArc
 50
209.9999999999993
 51
299.9999999999965
  0
LINE
  5
1C9DA
330
1F
100
AcDbEntity
  8
細線
100
AcDbLine
 10
-1170.998916495344
 20
503.242660608886
 30
0.0
 11
-1171.431929197236
 21
502.9926606088861
 31
0.0
  0
LINE
  5
1C9DB
330
1F
100
AcDbEntity
  8
細線
100
AcDbLine
 10
-1171.431929197236
 20
502.9926606088861
 30
0.0
 11
-1171.381929197237
 21
502.9060580685077
 31
0.0
  0
LINE
  5
1C9DC
330
1F
100
AcDbEntity
  8
細線
100
AcDbLine
 10
-1170.998916495344
 20
503.242660608886
 30
0.0
 11
-1170.565903793452
 21
503.4926606088861
 31
0.0
  0
LINE
  5
1C9DD
330
1F
100
AcDbEntity
  8
細線
100
AcDbLine
 10
-1170.565903793452
 20
503.4926606088861
 30
0.0
 11
-1170.515903793452
 21
503.4060580685077
 31
0.0
  0
LINE
  5
1C9DE
330
1F
100
AcDbEntity
  8
細線
100
AcDbLine
 10
-1168.466865687775
 20
502.8570199628306
 30
0.0
 11
-1168.380263147396
 21
502.9070199628308
 31
0.0
  0
LINE
  5
1C9DF
330
1F
100
AcDbEntity
  8
細線
100
AcDbLine
 10
-1167.880263147397
 20
502.0409945590463
 30
0.0
 11
-1168.130263147397
 21
502.4740072609388
 31
0.0
  0
LINE
  5
1C9E0
330
1F
100
AcDbEntity
  8
細線
100
AcDbLine
 10
-1168.380263147396
 20
502.9070199628308
 30
0.0
 11
-1168.130263147397
 21
502.4740072609388
 31
0.0
  0
LINE
  5
1C9E1
330
1F
100
AcDbEntity
  8
細線
100
AcDbLine
 10
-1167.966865687775
 20
501.9909945590462
 30
0.0
 11
-1167.880263147397
 21
502.0409945590463
 31
0.0
  0
CIRCLE
  5
1C9E2
330
1F
100
AcDbEntity
  8
外形線
100
AcDbCircle
 10
-1191.500986153183
 20
569.8197733009124
 30
0.0
 40
8.0
  0
LINE
  5
1C9E3
330
1F
100
AcDbEntity
  8
外形線
100
AcDbLine
 10
-1193.869665687969
 20
573.3647527425833
 30
0.0
 11
-1189.615284377719
 21
573.6435994202452
 31
0.0
  0
LINE
  5
1C9E4
330
1F
100
AcDbEntity
  8
外形線
100
AcDbLine
 10
-1187.246604637796
 20
570.0986196715708
 30
0.0
 11
-1189.132306618396
 21
566.274793859242
 31
0.0
  0
LINE
  5
1C9E5
330
1F
100
AcDbEntity
  8
外形線
100
AcDbLine
 10
-1189.13230709704
 20
566.2747945755852
 30
0.0
 11
-1193.386688338913
 21
565.9959477955879
 31
0.0
  0
LINE
  5
1C9E6
330
1F
100
AcDbEntity
  8
外形線
100
AcDbLine
 10
-1195.755367326678
 20
569.5409264185805
 30
0.0
 11
-1193.386688270537
 21
565.9959476932531
 31
0.0
  0
LINE
  5
1C9E7
330
1F
100
AcDbEntity
  8
外形線
100
AcDbLine
 10
-1193.869665209325
 20
573.3647520262402
 30
0.0
 11
-1195.755367258301
 21
569.5409263162462
 31
0.0
  0
LINE
  5
1C9E8
330
1F
100
AcDbEntity
  8
外形線
100
AcDbLine
 10
-1189.615284035829
 20
573.6435989085716
 30
0.0
 11
-1187.246604979687
 21
570.0986201832442
 31
0.0
  0
ARC
  5
1C9E9
330
1F
100
AcDbEntity
  8
細線
100
AcDbCircle
 10
-1054.847066725953
 20
614.5258570303304
 30
0.0
 40
1.5
100
AcDbArc
 50
150.0000000000006
 51
240.0000000000034
  0
LINE
  5
1C9EA
330
1F
100
AcDbEntity
  8
細線
100
AcDbLine
 10
-1056.096104831629
 20
615.3624595707087
 30
0.0
 11
-1056.529117533522
 21
615.6124595707088
 31
0.0
  0
ARC
  5
1C9EB
330
1F
100
AcDbEntity
  8
細線
100
AcDbCircle
 10
-1056.847066725953
 20
611.0617554151922
 30
0.0
 40
1.5
100
AcDbArc
 50
60.00000000000351
 51
150.0000000000006
  0
CIRCLE
  5
1C9EC
330
1F
100
AcDbEntity
  8
細線
100
AcDbCircle
 10
-1057.579117533522
 20
613.7938062227613
 30
0.0
 40
4.7
  0
LINE
  5
1C9ED
330
1F
100
AcDbEntity
  8
細線
100
AcDbLine
 10
-1059.147770881468
 20
615.2768189246535
 30
0.0
 11
-1059.061168341089
 21
615.2268189246536
 31
0.0
  0
LINE
  5
1C9EE
330
1F
100
AcDbEntity
  8
細線
100
AcDbLine
 10
-1058.146104831628
 20
611.8117554151925
 30
0.0
 11
-1058.196104831629
 21
611.7251528748142
 31
0.0
  0
LINE
  5
1C9EF
330
1F
100
AcDbEntity
  8
細線
100
AcDbLine
 10
-1058.196104831629
 20
611.7251528748142
 30
0.0
 11
-1058.629117533522
 21
611.9751528748142
 31
0.0
  0
LINE
  5
1C9F0
330
1F
100
AcDbEntity
  8
細線
100
AcDbLine
 10
-1059.012130235414
 20
612.3117554151922
 30
0.0
 11
-1059.062130235413
 21
612.2251528748143
 31
0.0
  0
LINE
  5
1C9F1
330
1F
100
AcDbEntity
  8
細線
100
AcDbLine
 10
-1059.062130235413
 20
612.2251528748143
 30
0.0
 11
-1058.629117533522
 21
611.9751528748142
 31
0.0
  0
LINE
  5
1C9F2
330
1F
100
AcDbEntity
  8
細線
100
AcDbLine
 10
-1057.012130235412
 20
615.7758570303303
 30
0.0
 11
-1056.962130235413
 21
615.8624595707087
 31
0.0
  0
ARC
  5
1C9F3
330
1F
100
AcDbEntity
  8
細線
100
AcDbCircle
 10
-1058.311168341089
 20
616.5258570303303
 30
0.0
 40
1.5
100
AcDbArc
 50
240.0000000000034
 51
330.0000000000006
  0
LINE
  5
1C9F4
330
1F
100
AcDbEntity
  8
細線
100
AcDbLine
 10
-1056.962130235413
 20
615.8624595707087
 30
0.0
 11
-1056.529117533522
 21
615.6124595707088
 31
0.0
  0
LINE
  5
1C9F5
330
1F
100
AcDbEntity
  8
細線
100
AcDbLine
 10
-1059.397770881469
 20
614.8438062227612
 30
0.0
 11
-1059.647770881467
 21
614.4107935208692
 31
0.0
  0
LINE
  5
1C9F6
330
1F
100
AcDbEntity
  8
細線
100
AcDbLine
 10
-1059.647770881467
 20
614.4107935208692
 30
0.0
 11
-1059.561168341091
 21
614.3607935208692
 31
0.0
  0
ARC
  5
1C9F7
330
1F
100
AcDbEntity
  8
細線
100
AcDbCircle
 10
-1060.311168341091
 20
613.0617554151926
 30
0.0
 40
1.5
100
AcDbArc
 50
330.0000000000006
 51
60.00000000000351
  0
LINE
  5
1C9F8
330
1F
100
AcDbEntity
  8
細線
100
AcDbLine
 10
-1059.397770881469
 20
614.8438062227612
 30
0.0
 11
-1059.147770881468
 21
615.2768189246535
 31
0.0
  0
LINE
  5
1C9F9
330
1F
100
AcDbEntity
  8
細線
100
AcDbLine
 10
-1055.760464185574
 20
612.7438062227611
 30
0.0
 11
-1056.010464185572
 21
612.3107935208695
 31
0.0
  0
LINE
  5
1C9FA
330
1F
100
AcDbEntity
  8
細線
100
AcDbLine
 10
-1056.010464185572
 20
612.3107935208695
 30
0.0
 11
-1056.097066725953
 21
612.3607935208692
 31
0.0
  0
LINE
  5
1C9FB
330
1F
100
AcDbEntity
  8
細線
100
AcDbLine
 10
-1055.510464185575
 20
613.1768189246535
 30
0.0
 11
-1055.597066725953
 21
613.2268189246538
 31
0.0
  0
LINE
  5
1C9FC
330
1F
100
AcDbEntity
  8
細線
100
AcDbLine
 10
-1055.760464185574
 20
612.7438062227611
 30
0.0
 11
-1055.510464185575
 21
613.1768189246535
 31
0.0
  0
LINE
  5
1C9FD
330
1F
100
AcDbEntity
  8
細線
100
AcDbLine
 10
-1056.146104831628
 20
615.2758570303303
 30
0.0
 11
-1056.096104831629
 21
615.3624595707087
 31
0.0
  0
LINE
  5
1C9FE
330
1F
100
AcDbEntity
  8
想像線
 48
0.5
100
AcDbLine
 10
-759.531358390661
 20
425.2938062227615
 30
0.0
 11
-759.531358390661
 21
436.2938062227611
 31
0.0
  0
LINE
  5
1C9FF
330
1F
100
AcDbEntity
  8
想像線
 48
0.5
100
AcDbLine
 10
-777.5313583906607
 20
425.2938062227615
 30
0.0
 11
-777.5313583906607
 21
436.2938062227611
 31
0.0
  0
LINE
  5
1CA00
330
1F
100
AcDbEntity
  8
中心線
100
AcDbLine
 10
-768.5313583906605
 20
421.3098504502966
 30
0.0
 11
-768.5313583906605
 21
461.4094915778719
 31
0.0
  0
LINE
  5
1CA01
330
1F
100
AcDbEntity
  8
想像線
 48
0.5
100
AcDbLine
 10
-760.5313583906609
 20
424.2938062227611
 30
0.0
 11
-776.5313583906601
 21
424.2938062227611
 31
0.0
  0
LINE
  5
1CA02
330
1F
100
AcDbEntity
  8
想像線
 48
0.5
100
AcDbLine
 10
-777.5313583906607
 20
425.2938062227615
 30
0.0
 11
-776.5313583906601
 21
424.2938062227611
 31
0.0
  0
LINE
  5
1CA03
330
1F
100
AcDbEntity
  8
想像線
 48
0.5
100
AcDbLine
 10
-759.531358390661
 20
425.2938062227615
 30
0.0
 11
-760.5313583906609
 21
424.2938062227611
 31
0.0
  0
LINE
  5
1CA04
330
1F
100
AcDbEntity
  8
想像線
 48
0.5
100
AcDbLine
 10
-756.5313583906609
 20
439.2938062227606
 30
0.0
 11
-780.531358390661
 21
439.293806222761
 31
0.0
  0
LINE
  5
1CA05
330
1F
100
AcDbEntity
  8
想像線
 48
0.5
100
AcDbLine
 10
-757.781358390661
 20
436.2938062227604
 30
0.0
 11
-779.2813583906609
 21
436.2938062227611
 31
0.0
  0
LINE
  5
1CA06
330
1F
100
AcDbEntity
  8
外形線
100
AcDbLine
 10
-671.0313583906607
 20
452.2938062227613
 30
0.0
 11
-784.0313583906609
 21
452.293806222761
 31
0.0
  0
LINE
  5
1CA07
330
1F
100
AcDbEntity
  8
中心線
100
AcDbLine
 10
-799.8392571036911
 20
567.2938062227613
 30
0.0
 11
-755.696358981942
 21
567.2938062227613
 31
0.0
  0
LINE
  5
1CA08
330
1F
100
AcDbEntity
  8
想像線
 48
0.5
100
AcDbLine
 10
-746.0313583906605
 20
453.7938062227606
 30
0.0
 11
-851.031358390661
 21
453.7938062227606
 31
0.0
  0
LINE
  5
1CA09
330
1F
100
AcDbEntity
  8
想像線
 48
0.5
100
AcDbLine
 10
-751.0313583906605
 20
441.793806222761
 30
0.0
 11
-851.031358390661
 21
441.7938062227606
 31
0.0
  0
LINE
  5
1CA0A
330
1F
100
AcDbEntity
  8
中心線
100
AcDbLine
 10
-816.031358390661
 20
438.1802951358641
 30
0.0
 11
-816.031358390661
 21
456.5719774239982
 31
0.0
  0
LINE
  5
1CA0B
330
1F
100
AcDbEntity
  8
想像線
 48
0.5
100
AcDbLine
 10
-833.5313583906609
 20
452.7938062227611
 30
0.0
 11
-833.5313583906609
 21
442.7938062227606
 31
0.0
  0
LINE
  5
1CA0C
330
1F
100
AcDbEntity
  8
想像線
 48
0.5
100
AcDbLine
 10
-851.031358390661
 20
441.7938062227606
 30
0.0
 11
-851.031358390661
 21
453.7938062227611
 31
0.0
  0
LINE
  5
1CA0D
330
1F
100
AcDbEntity
  8
想像線
 48
0.5
100
AcDbLine
 10
-833.5313583906609
 20
442.7938062227606
 30
0.0
 11
-834.5313583906611
 21
441.7938062227606
 31
0.0
  0
LINE
  5
1CA0E
330
1F
100
AcDbEntity
  8
想像線
 48
0.5
100
AcDbLine
 10
-833.5313583906609
 20
452.7938062227611
 30
0.0
 11
-834.5313583906611
 21
453.7938062227611
 31
0.0
  0
LINE
  5
1CA0F
330
1F
100
AcDbEntity
  8
外形線
100
AcDbLine
 10
-786.0313583906607
 20
454.293806222761
 30
0.0
 11
-784.0313583906609
 21
452.293806222761
 31
0.0
  0
LINE
  5
1CA10
330
1F
100
AcDbEntity
  8
想像線
 48
0.5
100
AcDbLine
 10
-798.531358390661
 20
452.7938062227611
 30
0.0
 11
-798.531358390661
 21
442.7938062227606
 31
0.0
  0
LINE
  5
1CA11
330
1F
100
AcDbEntity
  8
想像線
 48
0.5
100
AcDbLine
 10
-798.531358390661
 20
442.7938062227606
 30
0.0
 11
-797.531358390661
 21
441.7938062227606
 31
0.0
  0
LINE
  5
1CA12
330
1F
100
AcDbEntity
  8
想像線
 48
0.5
100
AcDbLine
 10
-798.531358390661
 20
442.7938062227606
 30
0.0
 11
-797.531358390661
 21
441.7938062227606
 31
0.0
  0
LINE
  5
1CA13
330
1F
100
AcDbEntity
  8
想像線
 48
0.5
100
AcDbLine
 10
-780.531358390661
 20
439.293806222761
 30
0.0
 11
-780.531358390661
 21
441.7938062227606
 31
0.0
  0
LINE
  5
1CA14
330
1F
100
AcDbEntity
  8
想像線
 48
0.5
100
AcDbLine
 10
-779.2813583906609
 20
436.2938062227611
 30
0.0
 11
-779.2813583906609
 21
439.293806222761
 31
0.0
  0
LINE
  5
1CA15
330
1F
100
AcDbEntity
  8
外形線
100
AcDbLine
 10
-788.260969630455
 20
464.9938062227609
 30
0.0
 11
-788.0313583906605
 21
464.9938062227609
 31
0.0
  0
ARC
  5
1CA16
330
1F
100
AcDbEntity
  8
外形線
100
AcDbCircle
 10
-784.5313583906604
 20
460.293806222761
 30
0.0
 40
6.000000000000047
100
AcDbArc
 50
128.433206340855
 51
231.566793659145
  0
LINE
  5
1CA17
330
1F
100
AcDbEntity
  8
外形線
100
AcDbLine
 10
-788.260969630455
 20
455.5938062227608
 30
0.0
 11
-788.0313583906605
 21
455.5938062227608
 31
0.0
  0
LINE
  5
1CA18
330
1F
100
AcDbEntity
  8
外形線
100
AcDbLine
 10
-788.0313583906605
 20
464.9938062227609
 30
0.0
 11
-788.0313583906605
 21
455.5938062227608
 31
0.0
  0
LINE
  5
1CA19
330
1F
100
AcDbEntity
  8
外形線
100
AcDbLine
 10
-788.0313583906609
 20
454.293806222761
 30
0.0
 11
-786.0313583906607
 21
454.293806222761
 31
0.0
  0
LINE
  5
1CA1A
330
1F
100
AcDbEntity
  8
中心線
 48
0.1
100
AcDbLine
 10
-793.5313583906605
 20
460.293806222761
 30
0.0
 11
-778.0313583906607
 21
460.293806222761
 31
0.0
  0
LINE
  5
1CA1B
330
1F
100
AcDbEntity
  8
外形線
100
AcDbLine
 10
-791.5313583906605
 20
517.2938062227626
 30
0.0
 11
-788.0313583906604
 21
517.2938062227617
 31
0.0
  0
LINE
  5
1CA1C
330
1F
100
AcDbEntity
  8
外形線
100
AcDbLine
 10
-791.5313583906605
 20
517.2938062227626
 30
0.0
 11
-792.0313583906605
 21
517.7938062227626
 31
0.0
  0
LINE
  5
1CA1D
330
1F
100
AcDbEntity
  8
外形線
100
AcDbLine
 10
-795.5313583906604
 20
542.2938062227622
 30
0.0
 11
-792.0313583906605
 21
542.2938062227622
 31
0.0
  0
LINE
  5
1CA1E
330
1F
100
AcDbEntity
  8
外形線
100
AcDbLine
 10
-795.5313583906604
 20
542.2938062227622
 30
0.0
 11
-796.0313583906605
 21
542.7938062227622
 31
0.0
  0
LINE
  5
1CA1F
330
1F
100
AcDbEntity
  8
破線
100
AcDbLine
 10
-796.0313583906605
 20
617.2938062227613
 30
0.0
 11
-792.0313583906597
 21
617.2938062227613
 31
0.0
  0
LINE
  5
1CA20
330
1F
100
AcDbEntity
  8
中心線
100
AcDbLine
 10
-728.7625025780696
 20
477.293806222761
 30
0.0
 11
-667.6616077264575
 21
477.293806222761
 31
0.0
  0
LINE
  5
1CA21
330
1F
100
AcDbEntity
  8
想像線
 48
0.5
100
AcDbLine
 10
-746.0313583906605
 20
452.293806222761
 30
0.0
 11
-746.0313583906605
 21
453.7938062227606
 31
0.0
  0
LINE
  5
1CA22
330
1F
100
AcDbEntity
  8
想像線
 48
0.5
100
AcDbLine
 10
-751.0313583906605
 20
441.793806222761
 30
0.0
 11
-751.0313583906605
 21
453.7938062227611
 31
0.0
  0
LINE
  5
1CA23
330
1F
100
AcDbEntity
  8
想像線
 48
0.5
100
AcDbLine
 10
-756.5313583906609
 20
439.2938062227606
 30
0.0
 11
-756.5313583906605
 21
441.7938062227606
 31
0.0
  0
LINE
  5
1CA24
330
1F
100
AcDbEntity
  8
想像線
 48
0.5
100
AcDbLine
 10
-757.781358390661
 20
436.2938062227611
 30
0.0
 11
-757.781358390661
 21
439.293806222761
 31
0.0
  0
LINE
  5
1CA25
330
1F
100
AcDbEntity
  8
中心線
100
AcDbLine
 10
-1645.450295871688
 20
767.2938062227608
 30
0.0
 11
-1001.447537119001
 21
767.2938062227608
 31
0.0
  0
SOLID
  5
1CA26
330
1F
100
AcDbEntity
  8
0
  6
BYBLOCK
 62
     0
100
AcDbTrace
 10
-1582.448916495343
 20
771.9126083827614
 30
0.0
 11
-1574.448916495343
 21
767.2938062227608
 31
0.0
 12
-1582.448916495343
 22
762.6750040627612
 32
0.0
 13
-1582.448916495343
 23
762.6750040627612
 33
0.0
  0
CIRCLE
  5
1CA27
330
1F
100
AcDbEntity
  8
細線
100
AcDbCircle
 10
-1630.448916495343
 20
767.2938062227606
 30
0.0
 40
4.7
  0
ARC
  5
1CA28
330
1F
100
AcDbEntity
  8
細線
100
AcDbCircle
 10
-1632.448916495343
 20
769.2938062227606
 30
0.0
 40
1.5
100
AcDbArc
 50
270.0
 51
0.0
  0
ARC
  5
1CA29
330
1F
100
AcDbEntity
  8
細線
100
AcDbCircle
 10
-1628.448916495345
 20
769.2938062227606
 30
0.0
 40
1.5
100
AcDbArc
 50
180.0
 51
270.0
  0
ARC
  5
1CA2A
330
1F
100
AcDbEntity
  8
細線
100
AcDbCircle
 10
-1632.448916495343
 20
765.2938062227604
 30
0.0
 40
1.5
100
AcDbArc
 50
0.0
 51
90.0
  0
ARC
  5
1CA2B
330
1F
100
AcDbEntity
  8
細線
100
AcDbCircle
 10
-1628.448916495345
 20
765.2938062227604
 30
0.0
 40
1.5
100
AcDbArc
 50
90.0
 51
180.0
  0
LINE
  5
1CA2C
330
1F
100
AcDbEntity
  8
細線
100
AcDbLine
 10
-1628.348916495346
 20
767.2938062227606
 30
0.0
 11
-1628.348916495346
 21
767.7938062227606
 31
0.0
  0
LINE
  5
1CA2D
330
1F
100
AcDbEntity
  8
細線
100
AcDbLine
 10
-1628.348916495346
 20
767.7938062227606
 30
0.0
 11
-1628.448916495345
 21
767.7938062227606
 31
0.0
  0
LINE
  5
1CA2E
330
1F
100
AcDbEntity
  8
細線
100
AcDbLine
 10
-1628.348916495346
 20
766.7938062227606
 30
0.0
 11
-1628.448916495345
 21
766.7938062227606
 31
0.0
  0
LINE
  5
1CA2F
330
1F
100
AcDbEntity
  8
細線
100
AcDbLine
 10
-1628.348916495346
 20
767.2938062227606
 30
0.0
 11
-1628.348916495346
 21
766.7938062227606
 31
0.0
  0
LINE
  5
1CA30
330
1F
100
AcDbEntity
  8
細線
100
AcDbLine
 10
-1632.548916495346
 20
767.7938062227606
 30
0.0
 11
-1632.448916495343
 21
767.7938062227606
 31
0.0
  0
LINE
  5
1CA31
330
1F
100
AcDbEntity
  8
細線
100
AcDbLine
 10
-1632.548916495346
 20
767.2938062227606
 30
0.0
 11
-1632.548916495346
 21
767.7938062227606
 31
0.0
  0
LINE
  5
1CA32
330
1F
100
AcDbEntity
  8
細線
100
AcDbLine
 10
-1632.548916495346
 20
767.2938062227606
 30
0.0
 11
-1632.548916495346
 21
766.7938062227606
 31
0.0
  0
LINE
  5
1CA33
330
1F
100
AcDbEntity
  8
細線
100
AcDbLine
 10
-1632.548916495346
 20
766.7938062227606
 30
0.0
 11
-1632.448916495343
 21
766.7938062227606
 31
0.0
  0
LINE
  5
1CA34
330
1F
100
AcDbEntity
  8
細線
100
AcDbLine
 10
-1630.948916495344
 20
765.2938062227604
 30
0.0
 11
-1630.948916495344
 21
765.1938062227602
 31
0.0
  0
LINE
  5
1CA35
330
1F
100
AcDbEntity
  8
細線
100
AcDbLine
 10
-1629.948916495346
 20
765.1938062227602
 30
0.0
 11
-1630.448916495343
 21
765.1938062227602
 31
0.0
  0
LINE
  5
1CA36
330
1F
100
AcDbEntity
  8
細線
100
AcDbLine
 10
-1630.948916495344
 20
765.1938062227602
 30
0.0
 11
-1630.448916495343
 21
765.1938062227602
 31
0.0
  0
LINE
  5
1CA37
330
1F
100
AcDbEntity
  8
細線
100
AcDbLine
 10
-1629.948916495346
 20
765.2938062227604
 30
0.0
 11
-1629.948916495346
 21
765.1938062227602
 31
0.0
  0
LINE
  5
1CA38
330
1F
100
AcDbEntity
  8
細線
100
AcDbLine
 10
-1629.948916495346
 20
769.3938062227602
 30
0.0
 11
-1630.448916495343
 21
769.3938062227602
 31
0.0
  0
LINE
  5
1CA39
330
1F
100
AcDbEntity
  8
細線
100
AcDbLine
 10
-1629.948916495346
 20
769.2938062227606
 30
0.0
 11
-1629.948916495346
 21
769.3938062227602
 31
0.0
  0
LINE
  5
1CA3A
330
1F
100
AcDbEntity
  8
細線
100
AcDbLine
 10
-1630.948916495344
 20
769.3938062227602
 30
0.0
 11
-1630.448916495343
 21
769.3938062227602
 31
0.0
  0
LINE
  5
1CA3B
330
1F
100
AcDbEntity
  8
細線
100
AcDbLine
 10
-1630.948916495344
 20
769.2938062227606
 30
0.0
 11
-1630.948916495344
 21
769.3938062227602
 31
0.0
  0
ARC
  5
1CA3C
330
1F
100
AcDbEntity
  8
細線
100
AcDbCircle
 10
-1586.5866646496
 20
921.5258570303294
 30
0.0
 40
1.5
100
AcDbArc
 50
150.0000000000006
 51
240.0000000000034
  0
ARC
  5
1CA3D
330
1F
100
AcDbEntity
  8
細線
100
AcDbCircle
 10
-1588.5866646496
 20
918.0617554151918
 30
0.0
 40
1.5
100
AcDbArc
 50
60.00000000000351
 51
150.0000000000006
  0
LINE
  5
1CA3E
330
1F
100
AcDbEntity
  8
細線
100
AcDbLine
 10
-1587.500062109221
 20
919.7438062227606
 30
0.0
 11
-1587.25006210922
 21
920.1768189246527
 31
0.0
  0
LINE
  5
1CA3F
330
1F
100
AcDbEntity
  8
細線
100
AcDbLine
 10
-1587.25006210922
 20
920.1768189246527
 30
0.0
 11
-1587.336664649598
 21
920.2268189246524
 31
0.0
  0
LINE
  5
1CA40
330
1F
100
AcDbEntity
  8
細線
100
AcDbLine
 10
-1587.500062109221
 20
919.7438062227606
 30
0.0
 11
-1587.750062109219
 21
919.3107935208681
 31
0.0
  0
LINE
  5
1CA41
330
1F
100
AcDbEntity
  8
細線
100
AcDbLine
 10
-1587.750062109219
 20
919.3107935208681
 30
0.0
 11
-1587.8366646496
 21
919.3607935208683
 31
0.0
  0
ARC
  5
1CA42
330
1F
100
AcDbEntity
  8
細線
100
AcDbCircle
 10
-1592.050766264736
 20
920.0617554151918
 30
0.0
 40
1.5
100
AcDbArc
 50
330.0000000000006
 51
60.00000000000351
  0
LINE
  5
1CA43
330
1F
100
AcDbEntity
  8
細線
100
AcDbLine
 10
-1588.751728159061
 20
922.7758570303294
 30
0.0
 11
-1588.70172815906
 21
922.8624595707078
 31
0.0
  0
LINE
  5
1CA44
330
1F
100
AcDbEntity
  8
細線
100
AcDbLine
 10
-1588.70172815906
 20
922.8624595707078
 30
0.0
 11
-1588.268715457167
 21
922.6124595707075
 31
0.0
  0
LINE
  5
1CA45
330
1F
100
AcDbEntity
  8
細線
100
AcDbLine
 10
-1587.885702755276
 20
922.2758570303295
 30
0.0
 11
-1587.835702755276
 21
922.3624595707079
 31
0.0
  0
LINE
  5
1CA46
330
1F
100
AcDbEntity
  8
細線
100
AcDbLine
 10
-1587.835702755276
 20
922.3624595707079
 30
0.0
 11
-1588.268715457167
 21
922.6124595707075
 31
0.0
  0
ARC
  5
1CA47
330
1F
100
AcDbEntity
  8
細線
100
AcDbCircle
 10
-1590.050766264736
 20
923.5258570303294
 30
0.0
 40
1.5
100
AcDbArc
 50
240.0000000000034
 51
330.0000000000006
  0
LINE
  5
1CA48
330
1F
100
AcDbEntity
  8
細線
100
AcDbLine
 10
-1591.137368805116
 20
921.8438062227605
 30
0.0
 11
-1590.887368805116
 21
922.2768189246526
 31
0.0
  0
LINE
  5
1CA49
330
1F
100
AcDbEntity
  8
細線
100
AcDbLine
 10
-1590.887368805116
 20
922.2768189246526
 30
0.0
 11
-1590.800766264736
 21
922.2268189246523
 31
0.0
  0
LINE
  5
1CA4A
330
1F
100
AcDbEntity
  8
細線
100
AcDbLine
 10
-1591.387368805116
 20
921.4107935208685
 30
0.0
 11
-1591.300766264737
 21
921.3607935208683
 31
0.0
  0
LINE
  5
1CA4B
330
1F
100
AcDbEntity
  8
細線
100
AcDbLine
 10
-1591.137368805116
 20
921.8438062227605
 30
0.0
 11
-1591.387368805116
 21
921.4107935208685
 31
0.0
  0
LINE
  5
1CA4C
330
1F
100
AcDbEntity
  8
細線
100
AcDbLine
 10
-1589.885702755275
 20
918.8117554151917
 30
0.0
 11
-1589.935702755274
 21
918.7251528748133
 31
0.0
  0
LINE
  5
1CA4D
330
1F
100
AcDbEntity
  8
細線
100
AcDbLine
 10
-1590.80172815906
 20
919.2251528748133
 30
0.0
 11
-1590.368715457168
 21
918.9751528748134
 31
0.0
  0
LINE
  5
1CA4E
330
1F
100
AcDbEntity
  8
細線
100
AcDbLine
 10
-1589.935702755274
 20
918.7251528748133
 30
0.0
 11
-1590.368715457168
 21
918.9751528748134
 31
0.0
  0
LINE
  5
1CA4F
330
1F
100
AcDbEntity
  8
細線
100
AcDbLine
 10
-1590.751728159061
 20
919.3117554151918
 30
0.0
 11
-1590.80172815906
 21
919.2251528748133
 31
0.0
  0
CIRCLE
  5
1CA50
330
1F
100
AcDbEntity
  8
細線
100
AcDbCircle
 10
-1589.318715457168
 20
920.7938062227604
 30
0.0
 40
4.7
  0
LINE
  5
1CA51
330
1F
100
AcDbEntity
  8
外形線
100
AcDbLine
 10
-1298.163018106698
 20
817.0902669469217
 30
0.0
 11
-1296.430967306698
 21
820.0902669338118
 31
0.0
  0
LINE
  5
1CA52
330
1F
100
AcDbEntity
  8
外形線
100
AcDbLine
 10
-1292.966865695345
 20
820.0902669272572
 30
0.0
 11
-1291.23481493399
 21
817.0902668472095
 31
0.0
  0
CIRCLE
  5
1CA53
330
1F
100
AcDbEntity
  8
外形線
100
AcDbCircle
 10
-1294.698916495345
 20
817.0902669403663
 30
0.0
 40
6.5
  0
CIRCLE
  5
1CA54
330
1F
100
AcDbEntity
  8
外形線
100
AcDbCircle
 10
-1294.698916495345
 20
817.0902669403663
 30
0.0
 40
5.7
  0
LINE
  5
1CA55
330
1F
100
AcDbEntity
  8
外形線
100
AcDbLine
 10
-1348.734814883991
 20
817.0902669469217
 30
0.0
 11
-1350.466865683991
 21
820.0902669338118
 31
0.0
  0
LINE
  5
1CA56
330
1F
100
AcDbEntity
  8
外形線
100
AcDbLine
 10
-1355.663018356698
 20
817.0902673668248
 30
0.0
 11
-1353.930967645345
 21
820.090267533475
 31
0.0
  0
CIRCLE
  5
1CA57
330
1F
100
AcDbEntity
  8
外形線
100
AcDbCircle
 10
-1352.198916495344
 20
817.0902669403668
 30
0.0
 40
6.5
  0
CIRCLE
  5
1CA58
330
1F
100
AcDbEntity
  8
外形線
100
AcDbCircle
 10
-1352.198916495344
 20
817.0902669403668
 30
0.0
 40
5.7
  0
LINE
  5
1CA59
330
1F
100
AcDbEntity
  8
外形線
100
AcDbLine
 10
-1560.567008110006
 20
814.4595271743719
 30
0.0
 11
-1557.755880733173
 21
817.6650034493016
 31
0.0
  0
LINE
  5
1CA5A
330
1F
100
AcDbEntity
  8
外形線
100
AcDbLine
 10
-1553.574293334991
 20
816.8332340005244
 30
0.0
 11
-1557.755880853885
 21
817.6650034733127
 31
0.0
  0
CIRCLE
  5
1CA5B
330
1F
100
AcDbEntity
  8
外形線
100
AcDbCircle
 10
-1556.385420591112
 20
813.6277577015839
 30
0.0
 40
8.0
  0
LINE
  5
1CA5C
330
1F
100
AcDbEntity
  8
外形線
100
AcDbLine
 10
-1557.755881457441
 20
716.9226088521376
 30
0.0
 11
-1560.567008954986
 21
720.128085103056
 31
0.0
  0
LINE
  5
1CA5D
330
1F
100
AcDbEntity
  8
外形線
100
AcDbLine
 10
-1552.203832227231
 20
721.791624384789
 30
0.0
 11
-1553.574292731427
 21
717.7543785650375
 31
0.0
  0
CIRCLE
  5
1CA5E
330
1F
100
AcDbEntity
  8
外形線
100
AcDbCircle
 10
-1556.385420591109
 20
720.9598547439227
 30
0.0
 40
8.0
  0
LINE
  5
1CA5F
330
1F
100
AcDbEntity
  8
外形線
100
AcDbLine
 10
-1517.377970691866
 20
637.7145549367415
 30
0.0
 11
-1521.20179640186
 21
639.6002569857174
 31
0.0
  0
LINE
  5
1CA60
330
1F
100
AcDbEntity
  8
外形線
100
AcDbLine
 10
-1517.099123809534
 20
633.4601737632452
 30
0.0
 11
-1520.644102534862
 21
631.0914947071032
 31
0.0
  0
CIRCLE
  5
1CA61
330
1F
100
AcDbEntity
  8
外形線
100
AcDbCircle
 10
-1520.922949417194
 20
635.3458758805991
 30
0.0
 40
8.0
  0
LINE
  5
1CA62
330
1F
100
AcDbEntity
  8
外形線
100
AcDbLine
 10
-1520.644103046535
 20
631.0914943652137
 30
0.0
 11
-1524.467928858864
 21
632.977196345812
 31
0.0
  0
LINE
  5
1CA63
330
1F
100
AcDbEntity
  8
外形線
100
AcDbLine
 10
-1524.467928142521
 20
632.9771968244568
 30
0.0
 11
-1524.746774922518
 21
637.2315780663306
 31
0.0
  0
LINE
  5
1CA64
330
1F
100
AcDbEntity
  8
外形線
100
AcDbLine
 10
-1521.201796299526
 20
639.6002570540952
 30
0.0
 11
-1524.746775024853
 21
637.2315779979531
 31
0.0
  0
LINE
  5
1CA65
330
1F
100
AcDbEntity
  8
外形線
100
AcDbLine
 10
-1517.37796997552
 20
637.7145554153869
 30
0.0
 11
-1517.099123297861
 21
633.4601741051351
 31
0.0
  0
LINE
  5
1CA66
330
1F
100
AcDbEntity
  8
外形線
100
AcDbLine
 10
-1553.574293334984
 20
717.7543784449817
 30
0.0
 11
-1557.75588085388
 21
716.9226089721933
 31
0.0
  0
CIRCLE
  5
1CA67
330
1F
100
AcDbEntity
  8
外形線
100
AcDbCircle
 10
-1523.448916495343
 20
767.2938062227608
 30
0.0
 40
6.400000000000241
  0
SOLID
  5
1CA68
330
1F
100
AcDbEntity
  8
0
  6
BYBLOCK
 62
     0
100
AcDbTrace
 10
-1564.448916495343
 20
771.9126083827614
 30
0.0
 11
-1572.448916495343
 21
767.2938062227608
 31
0.0
 12
-1564.448916495343
 22
762.6750040627612
 32
0.0
 13
-1564.448916495343
 23
762.6750040627612
 33
0.0
  0
CIRCLE
  5
1CA69
330
1F
100
AcDbEntity
  8
0
100
AcDbCircle
 10
-1560.948916495343
 20
767.2938062227622
 30
0.0
 40
3.20000000000012
  0
CIRCLE
  5
1CA6A
330
1F
100
AcDbEntity
  8
細線
100
AcDbCircle
 10
-1560.948916495343
 20
767.2938062227622
 30
0.0
 40
4.0
  0
CIRCLE
  5
1CA6B
330
1F
100
AcDbEntity
  8
細線
100
AcDbCircle
 10
-1523.448916495343
 20
767.2938062227622
 30
0.0
 40
8.0
  0
CIRCLE
  5
1CA6C
330
1F
100
AcDbEntity
  8
細線
100
AcDbCircle
 10
-1523.448916495343
 20
767.2938062227608
 30
0.0
 40
8.0
  0
LINE
  5
1CA6D
330
1F
100
AcDbEntity
  8
外形線
100
AcDbLine
 10
-1560.567008110003
 20
720.1280852711342
 30
0.0
 11
-1559.196547726519
 21
724.1653310668748
 31
0.0
  0
LINE
  5
1CA6E
330
1F
100
AcDbEntity
  8
外形線
100
AcDbLine
 10
-1555.014960328337
 20
724.9971005156517
 30
0.0
 11
-1559.196547847231
 21
724.1653310428635
 31
0.0
  0
LINE
  5
1CA6F
330
1F
100
AcDbEntity
  8
外形線
100
AcDbLine
 10
-1552.203833072215
 20
721.7916242167111
 30
0.0
 11
-1555.014960449049
 21
724.9971004916408
 31
0.0
  0
LINE
  5
1CA70
330
1F
100
AcDbEntity
  8
外形線
100
AcDbLine
 10
-1559.196548450795
 20
810.4222815226981
 30
0.0
 11
-1560.567008954991
 21
814.4595273424499
 31
0.0
  0
LINE
  5
1CA71
330
1F
100
AcDbEntity
  8
外形線
100
AcDbLine
 10
-1552.203833072218
 20
812.7959882287946
 30
0.0
 11
-1553.574293455703
 21
816.8332340245351
 31
0.0
  0
LINE
  5
1CA72
330
1F
100
AcDbEntity
  8
外形線
100
AcDbLine
 10
-1552.203832227234
 20
812.7959880607175
 30
0.0
 11
-1555.01495972478
 21
809.590511809799
 31
0.0
  0
LINE
  5
1CA73
330
1F
100
AcDbEntity
  8
外形線
100
AcDbLine
 10
-1555.014960328341
 20
809.5905119298542
 30
0.0
 11
-1559.196547847234
 21
810.4222814026424
 31
0.0
  0
CIRCLE
  5
1CA74
330
1F
100
AcDbEntity
  8
細線
100
AcDbCircle
 10
-1460.948916495343
 20
767.2938062227608
 30
0.0
 40
6.0
  0
CIRCLE
  5
1CA75
330
1F
100
AcDbEntity
  8
外形線
100
AcDbCircle
 10
-1460.948916495343
 20
767.2938062227608
 30
0.0
 40
4.800000000000181
  0
ARC
  5
1CA76
330
1F
100
AcDbEntity
  8
中心線
100
AcDbCircle
 10
-1323.448916495345
 20
767.2938062227622
 30
0.0
 40
137.4999999999995
100
AcDbArc
 50
175.990504276718
 51
184.0094957232819
  0
LINE
  5
1CA77
330
1F
100
AcDbEntity
  8
外形線
100
AcDbLine
 10
-1296.430967295345
 20
720.4973454920459
 30
0.0
 11
-1298.163018056698
 21
717.4973454119981
 31
0.0
  0
CIRCLE
  5
1CA78
330
1F
100
AcDbEntity
  8
外形線
100
AcDbCircle
 10
-1294.698916495345
 20
717.4973455051558
 30
0.0
 40
6.5
  0
CIRCLE
  5
1CA79
330
1F
100
AcDbEntity
  8
外形線
100
AcDbCircle
 10
-1294.698916495345
 20
717.4973455051558
 30
0.0
 40
5.7
  0
LINE
  5
1CA7A
330
1F
100
AcDbEntity
  8
外形線
100
AcDbLine
 10
-1292.966865683992
 20
720.4973454986006
 30
0.0
 11
-1291.234814883992
 21
717.4973455117108
 31
0.0
  0
LINE
  5
1CA7B
330
1F
100
AcDbEntity
  8
外形線
100
AcDbLine
 10
-1350.466865345345
 20
720.4973460982642
 30
0.0
 11
-1348.734814633992
 21
717.4973459316138
 31
0.0
  0
LINE
  5
1CA7C
330
1F
100
AcDbEntity
  8
外形線
100
AcDbLine
 10
-1353.930967306699
 20
720.4973454986011
 30
0.0
 11
-1355.663018106698
 21
717.4973455117108
 31
0.0
  0
CIRCLE
  5
1CA7D
330
1F
100
AcDbEntity
  8
外形線
100
AcDbCircle
 10
-1352.198916495344
 20
717.4973455051563
 30
0.0
 40
6.5
  0
CIRCLE
  5
1CA7E
330
1F
100
AcDbEntity
  8
外形線
100
AcDbCircle
 10
-1352.198916495344
 20
717.4973455051563
 30
0.0
 40
5.7
  0
CIRCLE
  5
1CA7F
330
1F
100
AcDbEntity
  8
外形線
100
AcDbCircle
 10
-1323.448916495345
 20
767.2938062227608
 30
0.0
 40
50.0
  0
LINE
  5
1CA80
330
1F
100
AcDbEntity
  8
外形線
100
AcDbLine
 10
-1348.734814883991
 20
717.4973454986011
 30
0.0
 11
-1350.466865683991
 21
714.4973455117106
 31
0.0
  0
LINE
  5
1CA81
330
1F
100
AcDbEntity
  8
外形線
100
AcDbLine
 10
-1353.930967295345
 20
714.497345518265
 30
0.0
 11
-1355.663018056698
 21
717.4973455983131
 31
0.0
  0
LINE
  5
1CA82
330
1F
100
AcDbEntity
  8
外形線
100
AcDbLine
 10
-1350.466865933992
 20
714.4973450786978
 30
0.0
 11
-1353.930967645345
 21
714.4973449120477
 31
0.0
  0
CIRCLE
  5
1CA83
330
1F
100
AcDbEntity
  8
外形線
100
AcDbCircle
 10
-1323.448916495345
 20
629.7938062227622
 30
0.0
 40
4.800000000000181
  0
CIRCLE
  5
1CA84
330
1F
100
AcDbEntity
  8
細線
100
AcDbCircle
 10
-1323.448916495345
 20
629.7938062227622
 30
0.0
 40
6.0
  0
LINE
  5
1CA85
330
1F
100
AcDbEntity
  8
外形線
100
AcDbLine
 10
-1298.163018106698
 20
717.4973454986009
 30
0.0
 11
-1296.430967306698
 21
714.4973455117106
 31
0.0
  0
LINE
  5
1CA86
330
1F
100
AcDbEntity
  8
外形線
100
AcDbLine
 10
-1292.966865695345
 20
714.497345518265
 30
0.0
 11
-1296.430967356698
 21
714.4973455983131
 31
0.0
  0
LINE
  5
1CA87
330
1F
100
AcDbEntity
  8
外形線
100
AcDbLine
 10
-1291.234814633992
 20
717.4973450786978
 30
0.0
 11
-1292.966865345345
 21
714.4973449120475
 31
0.0
  0
CIRCLE
  5
1CA88
330
1F
100
AcDbEntity
  8
外形線
100
AcDbCircle
 10
-1380.948916495343
 20
767.2938062227608
 30
0.0
 40
5.7
  0
LINE
  5
1CA89
330
1F
100
AcDbEntity
  8
外形線
100
AcDbLine
 10
-1377.484814895344
 20
767.2938062227608
 30
0.0
 11
-1379.216865795346
 21
770.2938062227615
 31
0.0
  0
LINE
  5
1CA8A
330
1F
100
AcDbEntity
  8
外形線
100
AcDbLine
 10
-1384.413018095346
 20
767.2938062227608
 30
0.0
 11
-1382.680967195345
 21
770.2938062227612
 31
0.0
  0
CIRCLE
  5
1CA8B
330
1F
100
AcDbEntity
  8
外形線
100
AcDbCircle
 10
-1380.948916495343
 20
767.2938062227608
 30
0.0
 40
6.5
  0
LINE
  5
1CA8C
330
1F
100
AcDbEntity
  8
外形線
100
AcDbLine
 10
-1377.484814195343
 20
767.2938062227615
 30
0.0
 11
-1379.216865195346
 21
764.2938062227613
 31
0.0
  0
LINE
  5
1CA8D
330
1F
100
AcDbEntity
  8
外形線
100
AcDbLine
 10
-1382.680967795343
 20
764.2938062227613
 30
0.0
 11
-1384.413018795346
 21
767.2938062227608
 31
0.0
  0
LINE
  5
1CA8E
330
1F
100
AcDbEntity
  8
外形線
100
AcDbLine
 10
-1379.216865695345
 20
764.2938062227613
 30
0.0
 11
-1382.680967295343
 21
764.2938062227613
 31
0.0
  0
LINE
  5
1CA8F
330
1F
100
AcDbEntity
  8
外形線
100
AcDbLine
 10
-1350.466865695345
 20
720.4973454920462
 30
0.0
 11
-1353.930967356697
 21
720.4973454119985
 31
0.0
  0
LINE
  5
1CA90
330
1F
100
AcDbEntity
  8
外形線
100
AcDbLine
 10
-1379.216865695345
 20
770.2938062227612
 30
0.0
 11
-1382.680967295343
 21
770.2938062227612
 31
0.0
  0
LINE
  5
1CA91
330
1F
100
AcDbEntity
  8
外形線
100
AcDbLine
 10
-1350.466865695345
 20
814.0902669534765
 30
0.0
 11
-1348.734814933992
 21
817.0902670335244
 31
0.0
  0
LINE
  5
1CA92
330
1F
100
AcDbEntity
  8
外形線
100
AcDbLine
 10
-1353.930967306699
 20
814.090266946922
 30
0.0
 11
-1355.663018106698
 21
817.090266933812
 31
0.0
  0
LINE
  5
1CA93
330
1F
100
AcDbEntity
  8
外形線
100
AcDbLine
 10
-1350.466865345345
 20
814.0902663472589
 30
0.0
 11
-1353.930967056697
 21
814.090266513909
 31
0.0
  0
LINE
  5
1CA94
330
1F
100
AcDbEntity
  8
外形線
100
AcDbLine
 10
-1264.216865195345
 20
770.2938062227612
 30
0.0
 11
-1262.484814195345
 21
767.2938062227608
 31
0.0
  0
LINE
  5
1CA95
330
1F
100
AcDbEntity
  8
外形線
100
AcDbLine
 10
-1269.413018795344
 20
767.2938062227608
 30
0.0
 11
-1267.680967795345
 21
770.2938062227612
 31
0.0
  0
CIRCLE
  5
1CA96
330
1F
100
AcDbEntity
  8
外形線
100
AcDbCircle
 10
-1265.948916495345
 20
767.2938062227608
 30
0.0
 40
5.7
  0
CIRCLE
  5
1CA97
330
1F
100
AcDbEntity
  8
外形線
100
AcDbCircle
 10
-1265.948916495345
 20
767.2938062227608
 30
0.0
 40
6.5
  0
LINE
  5
1CA98
330
1F
100
AcDbEntity
  8
外形線
100
AcDbLine
 10
-1296.430967645345
 20
720.4973460982637
 30
0.0
 11
-1292.966865933992
 21
720.4973459316136
 31
0.0
  0
LINE
  5
1CA99
330
1F
100
AcDbEntity
  8
外形線
100
AcDbLine
 10
-1269.413018095345
 20
767.2938062227608
 30
0.0
 11
-1267.680967195345
 21
764.2938062227613
 31
0.0
  0
LINE
  5
1CA9A
330
1F
100
AcDbEntity
  8
外形線
100
AcDbLine
 10
-1267.680967295345
 20
764.2938062227613
 30
0.0
 11
-1264.216865695344
 21
764.2938062227613
 31
0.0
  0
LINE
  5
1CA9B
330
1F
100
AcDbEntity
  8
外形線
100
AcDbLine
 10
-1262.484814895344
 20
767.2938062227608
 30
0.0
 11
-1264.216865795344
 21
764.2938062227613
 31
0.0
  0
LINE
  5
1CA9C
330
1F
100
AcDbEntity
  8
外形線
100
AcDbLine
 10
-1267.680967295343
 20
770.2938062227612
 30
0.0
 11
-1264.216865695344
 21
770.2938062227612
 31
0.0
  0
LINE
  5
1CA9D
330
1F
100
AcDbEntity
  8
外形線
100
AcDbLine
 10
-1296.430967295345
 20
814.0902669534764
 30
0.0
 11
-1292.96686563399
 21
814.0902670335245
 31
0.0
  0
LINE
  5
1CA9E
330
1F
100
AcDbEntity
  8
外形線
100
AcDbLine
 10
-1296.430967645345
 20
814.0902663472584
 30
0.0
 11
-1298.163018356698
 21
817.090266513909
 31
0.0
  0
LINE
  5
1CA9F
330
1F
100
AcDbEntity
  8
外形線
100
AcDbLine
 10
-1292.966865683992
 20
814.0902669469216
 30
0.0
 11
-1291.234814883991
 21
817.090266933812
 31
0.0
  0
CIRCLE
  5
1CAA0
330
1F
100
AcDbEntity
  8
外形線
100
AcDbCircle
 10
-1464.870272732654
 20
908.7151624600711
 30
0.0
 40
6.400000000000241
  0
CIRCLE
  5
1CAA1
330
1F
100
AcDbEntity
  8
細線
100
AcDbCircle
 10
-1464.870272732654
 20
908.715162460072
 30
0.0
 40
8.0
  0
LINE
  5
1CAA2
330
1F
100
AcDbEntity
  8
中心線
100
AcDbLine
 10
-1456.001358393608
 20
899.8462481210236
 30
0.0
 11
-1473.739187071701
 21
917.584076799118
 31
0.0
  0
CIRCLE
  5
1CAA3
330
1F
100
AcDbEntity
  8
細線
100
AcDbCircle
 10
-1464.870272732654
 20
908.7151624600711
 30
0.0
 40
8.0
  0
LINE
  5
1CAA4
330
1F
100
AcDbEntity
  8
外形線
100
AcDbLine
 10
-1517.37796997553
 20
896.8730570301222
 30
0.0
 11
-1521.201795787861
 21
894.987355049524
 31
0.0
  0
LINE
  5
1CAA5
330
1F
100
AcDbEntity
  8
外形線
100
AcDbLine
 10
-1517.099123809544
 20
901.1274386822632
 30
0.0
 11
-1520.644102534871
 21
903.4961177384056
 31
0.0
  0
CIRCLE
  5
1CAA6
330
1F
100
AcDbEntity
  8
外形線
100
AcDbCircle
 10
-1520.922949417203
 20
899.2417365649098
 30
0.0
 40
8.0
  0
LINE
  5
1CAA7
330
1F
100
AcDbEntity
  8
外形線
100
AcDbLine
 10
-1524.746775536535
 20
897.356034789445
 30
0.0
 11
-1524.467928858872
 21
901.610416099697
 31
0.0
  0
LINE
  5
1CAA8
330
1F
100
AcDbEntity
  8
外形線
100
AcDbLine
 10
-1521.201796299535
 20
894.9873553914136
 30
0.0
 11
-1524.746775024862
 21
897.3560344475554
 31
0.0
  0
LINE
  5
1CAA9
330
1F
100
AcDbEntity
  8
外形線
100
AcDbLine
 10
-1524.46792814253
 20
901.6104156210516
 30
0.0
 11
-1520.644102432537
 21
903.4961176700276
 31
0.0
  0
LINE
  5
1CAAA
330
1F
100
AcDbEntity
  8
外形線
100
AcDbLine
 10
-1517.377970691875
 20
896.8730575087665
 30
0.0
 11
-1517.099123911878
 21
901.1274387506409
 31
0.0
  0
LINE
  5
1CAAB
330
1F
100
AcDbEntity
  8
外形線
100
AcDbLine
 10
-1453.028167781364
 20
961.2228604192823
 30
0.0
 11
-1451.142465732389
 21
965.0466861292761
 31
0.0
  0
LINE
  5
1CAAC
330
1F
100
AcDbEntity
  8
外形線
100
AcDbLine
 10
-1457.28254895486
 20
960.9440135369514
 30
0.0
 11
-1459.651228011002
 21
964.4889922622782
 31
0.0
  0
CIRCLE
  5
1CAAD
330
1F
100
AcDbEntity
  8
外形線
100
AcDbCircle
 10
-1455.396846837506
 20
964.7678391446106
 30
0.0
 40
8.0
  0
LINE
  5
1CAAE
330
1F
100
AcDbEntity
  8
外形線
100
AcDbLine
 10
-1453.028167302719
 20
961.2228597029393
 30
0.0
 11
-1457.282548612971
 21
960.9440130252774
 31
0.0
  0
LINE
  5
1CAAF
330
1F
100
AcDbEntity
  8
外形線
100
AcDbLine
 10
-1457.765525893649
 20
968.3128178699375
 30
0.0
 11
-1453.511144651774
 21
968.5916646499345
 31
0.0
  0
LINE
  5
1CAB0
330
1F
100
AcDbEntity
  8
外形線
100
AcDbLine
 10
-1451.142465664011
 20
965.0466860269425
 30
0.0
 11
-1453.511144720152
 21
968.5916647522695
 31
0.0
  0
LINE
  5
1CAB1
330
1F
100
AcDbEntity
  8
外形線
100
AcDbLine
 10
-1459.651228352892
 20
964.4889927739523
 30
0.0
 11
-1457.765526372294
 21
968.3128185862805
 31
0.0
  0
LINE
  5
1CAB2
330
1F
100
AcDbEntity
  8
外形線
100
AcDbLine
 10
-1353.930967295345
 20
820.0902669272572
 30
0.0
 11
-1350.466865633991
 21
820.0902668472094
 31
0.0
  0
LINE
  5
1CAB3
330
1F
100
AcDbEntity
  8
外形線
100
AcDbLine
 10
-1296.430967056698
 20
820.0902673668249
 30
0.0
 11
-1292.966865345345
 21
820.0902675334749
 31
0.0
  0
CIRCLE
  5
1CAB4
330
1F
100
AcDbEntity
  8
外形線
100
AcDbCircle
 10
-1323.448916495345
 20
904.7938062227613
 30
0.0
 40
4.800000000000181
  0
CIRCLE
  5
1CAB5
330
1F
100
AcDbEntity
  8
細線
100
AcDbCircle
 10
-1323.448916495345
 20
904.7938062227613
 30
0.0
 40
6.0
  0
LINE
  5
1CAB6
330
1F
100
AcDbEntity
  8
外形線
100
AcDbLine
 10
-1368.951098333315
 20
996.0487219546472
 30
0.0
 11
-1372.988344153067
 21
997.4191824588437
 31
0.0
  0
LINE
  5
1CAB7
330
1F
100
AcDbEntity
  8
外形線
100
AcDbLine
 10
-1372.988344273124
 20
997.4191830624036
 30
0.0
 11
-1373.820113745913
 21
1001.600770581297
 31
0.0
  0
LINE
  5
1CAB8
330
1F
100
AcDbEntity
  8
外形線
100
AcDbLine
 10
-1373.820113865968
 20
1001.600771184856
 30
0.0
 11
-1370.614637615048
 21
1004.411898682402
 31
0.0
  0
LINE
  5
1CAB9
330
1F
100
AcDbEntity
  8
外形線
100
AcDbLine
 10
-1370.614637446972
 20
1004.411897837419
 30
0.0
 11
-1366.57739165123
 21
1003.041437453934
 31
0.0
  0
LINE
  5
1CABA
330
1F
100
AcDbEntity
  8
外形線
100
AcDbLine
 10
-1368.951098501395
 20
996.0487227996319
 30
0.0
 11
-1365.745622226465
 21
998.8598501764654
 31
0.0
  0
LINE
  5
1CABB
330
1F
100
AcDbEntity
  8
外形線
100
AcDbLine
 10
-1365.745622202454
 20
998.8598500557536
 30
0.0
 11
-1366.577391675243
 21
1003.041437574647
 31
0.0
  0
CIRCLE
  5
1CABC
330
1F
100
AcDbEntity
  8
外形線
100
AcDbCircle
 10
-1369.782867974183
 20
1000.230310318525
 30
0.0
 40
8.0
  0
CIRCLE
  5
1CABD
330
1F
100
AcDbEntity
  8
細線
100
AcDbCircle
 10
-1323.448916495345
 20
967.2938062227613
 30
0.0
 40
8.0
  0
CIRCLE
  5
1CABE
330
1F
100
AcDbEntity
  8
外形線
100
AcDbCircle
 10
-1323.448916495345
 20
967.2938062227613
 30
0.0
 40
6.400000000000241
  0
CIRCLE
  5
1CABF
330
1F
100
AcDbEntity
  8
細線
100
AcDbCircle
 10
-1323.448916495345
 20
967.2938062227613
 30
0.0
 40
8.0
  0
CIRCLE
  5
1CAC0
330
1F
100
AcDbEntity
  8
細線
100
AcDbCircle
 10
-1323.448916495345
 20
1004.793806222759
 30
0.0
 40
4.0
  0
CIRCLE
  5
1CAC1
330
1F
100
AcDbEntity
  8
0
100
AcDbCircle
 10
-1323.448916495345
 20
1004.793806222759
 30
0.0
 40
3.20000000000012
  0
LINE
  5
1CAC2
330
1F
100
AcDbEntity
  8
外形線
100
AcDbLine
 10
-1277.946734657389
 20
996.0487219546504
 30
0.0
 11
-1281.152210908308
 21
998.8598494521966
 31
0.0
  0
LINE
  5
1CAC3
330
1F
100
AcDbEntity
  8
外形線
100
AcDbLine
 10
-1280.320441195408
 20
1003.04143817821
 30
0.0
 11
-1276.283195375657
 21
1004.411898682404
 31
0.0
  0
CIRCLE
  5
1CAC4
330
1F
100
AcDbEntity
  8
外形線
100
AcDbCircle
 10
-1277.114965016522
 20
1000.230310318529
 30
0.0
 40
8.0
  0
LINE
  5
1CAC5
330
1F
100
AcDbEntity
  8
外形線
100
AcDbLine
 10
-1281.152210788252
 20
998.8598500557568
 30
0.0
 11
-1280.320441315464
 21
1003.041437574651
 31
0.0
  0
LINE
  5
1CAC6
330
1F
100
AcDbEntity
  8
外形線
100
AcDbLine
 10
-1277.946734489311
 20
996.0487227996354
 30
0.0
 11
-1273.909488693571
 21
997.4191831831186
 31
0.0
  0
LINE
  5
1CAC7
330
1F
100
AcDbEntity
  8
外形線
100
AcDbLine
 10
-1273.909488717582
 20
997.4191830624077
 30
0.0
 11
-1273.077719244793
 21
1001.6007705813
 31
0.0
  0
LINE
  5
1CAC8
330
1F
100
AcDbEntity
  8
外形線
100
AcDbLine
 10
-1276.283195543735
 20
1004.411897837421
 30
0.0
 11
-1273.077719268805
 21
1001.600770460589
 31
0.0
  0
CIRCLE
  5
1CAC9
330
1F
100
AcDbEntity
  8
細線
100
AcDbCircle
 10
-1476.948916495346
 20
1033.163605184583
 30
0.0
 40
4.7
  0
ARC
  5
1CACA
330
1F
100
AcDbEntity
  8
細線
100
AcDbCircle
 10
-1474.216865687777
 20
1032.431554377015
 30
0.0
 40
1.5
100
AcDbArc
 50
119.9999999999964
 51
209.9999999999993
  0
ARC
  5
1CACB
330
1F
100
AcDbEntity
  8
細線
100
AcDbCircle
 10
-1477.680967302914
 20
1030.431554377015
 30
0.0
 40
1.5
100
AcDbArc
 50
29.99999999999932
 51
119.9999999999964
  0
LINE
  5
1CACC
330
1F
100
AcDbEntity
  8
細線
100
AcDbLine
 10
-1475.898916495346
 20
1031.344951836634
 30
0.0
 11
-1475.465903793454
 21
1031.594951836636
 31
0.0
  0
LINE
  5
1CACD
330
1F
100
AcDbEntity
  8
細線
100
AcDbLine
 10
-1475.465903793454
 20
1031.594951836636
 30
0.0
 11
-1475.515903793453
 21
1031.681554377014
 31
0.0
  0
LINE
  5
1CACE
330
1F
100
AcDbEntity
  8
細線
100
AcDbLine
 10
-1475.898916495346
 20
1031.344951836634
 30
0.0
 11
-1476.331929197236
 21
1031.094951836636
 31
0.0
  0
LINE
  5
1CACF
330
1F
100
AcDbEntity
  8
細線
100
AcDbLine
 10
-1476.331929197236
 20
1031.094951836636
 30
0.0
 11
-1476.381929197238
 21
1031.181554377011
 31
0.0
  0
LINE
  5
1CAD0
330
1F
100
AcDbEntity
  8
細線
100
AcDbLine
 10
-1475.466865687777
 20
1034.596617886475
 30
0.0
 11
-1475.380263147398
 21
1034.646617886474
 31
0.0
  0
LINE
  5
1CAD1
330
1F
100
AcDbEntity
  8
細線
100
AcDbLine
 10
-1475.380263147398
 20
1034.646617886474
 30
0.0
 11
-1475.130263147399
 21
1034.213605184584
 31
0.0
  0
LINE
  5
1CAD2
330
1F
100
AcDbEntity
  8
細線
100
AcDbLine
 10
-1474.966865687777
 20
1033.730592482691
 30
0.0
 11
-1474.880263147398
 21
1033.78059248269
 31
0.0
  0
LINE
  5
1CAD3
330
1F
100
AcDbEntity
  8
細線
100
AcDbLine
 10
-1474.880263147398
 20
1033.78059248269
 30
0.0
 11
-1475.130263147399
 21
1034.213605184584
 31
0.0
  0
ARC
  5
1CAD4
330
1F
100
AcDbEntity
  8
細線
100
AcDbCircle
 10
-1476.216865687777
 20
1035.89565599215
 30
0.0
 40
1.5
100
AcDbArc
 50
209.9999999999993
 51
299.9999999999965
  0
LINE
  5
1CAD5
330
1F
100
AcDbEntity
  8
細線
100
AcDbLine
 10
-1477.998916495346
 20
1034.982258532531
 30
0.0
 11
-1477.565903793454
 21
1035.232258532529
 31
0.0
  0
LINE
  5
1CAD6
330
1F
100
AcDbEntity
  8
細線
100
AcDbLine
 10
-1477.565903793454
 20
1035.232258532529
 30
0.0
 11
-1477.515903793453
 21
1035.14565599215
 31
0.0
  0
LINE
  5
1CAD7
330
1F
100
AcDbEntity
  8
細線
100
AcDbLine
 10
-1478.431929197236
 20
1034.732258532531
 30
0.0
 11
-1478.381929197237
 21
1034.64565599215
 31
0.0
  0
LINE
  5
1CAD8
330
1F
100
AcDbEntity
  8
細線
100
AcDbLine
 10
-1477.998916495346
 20
1034.982258532531
 30
0.0
 11
-1478.431929197236
 21
1034.732258532531
 31
0.0
  0
LINE
  5
1CAD9
330
1F
100
AcDbEntity
  8
細線
100
AcDbLine
 10
-1478.430967302915
 20
1031.730592482688
 30
0.0
 11
-1478.517569843293
 21
1031.680592482691
 31
0.0
  0
LINE
  5
1CADA
330
1F
100
AcDbEntity
  8
細線
100
AcDbLine
 10
-1479.017569843293
 20
1032.546617886475
 30
0.0
 11
-1478.767569843293
 21
1032.113605184582
 31
0.0
  0
LINE
  5
1CADB
330
1F
100
AcDbEntity
  8
細線
100
AcDbLine
 10
-1478.930967302915
 20
1032.596617886475
 30
0.0
 11
-1479.017569843293
 21
1032.546617886475
 31
0.0
  0
ARC
  5
1CADC
330
1F
100
AcDbEntity
  8
細線
100
AcDbCircle
 10
-1479.680967302915
 20
1033.89565599215
 30
0.0
 40
1.5
100
AcDbArc
 50
299.9999999999965
 51
29.99999999999932
  0
LINE
  5
1CADD
330
1F
100
AcDbEntity
  8
細線
100
AcDbLine
 10
-1478.517569843293
 20
1031.680592482691
 30
0.0
 11
-1478.767569843293
 21
1032.113605184582
 31
0.0
  0
LINE
  5
1CADE
330
1F
100
AcDbEntity
  8
中心線
100
AcDbLine
 10
-1303.448916495346
 20
1113.147041640803
 30
0.0
 11
-1303.448916495346
 21
1075.114240365715
 31
0.0
  0
LINE
  5
1CADF
330
1F
100
AcDbEntity
  8
想像線
 48
0.5
100
AcDbLine
 10
-1294.448916495346
 20
1109.293806222759
 30
0.0
 11
-1294.448916495346
 21
1098.29380622276
 31
0.0
  0
LINE
  5
1CAE0
330
1F
100
AcDbEntity
  8
中心線
100
AcDbLine
 10
-1343.448916495346
 20
1113.147041640803
 30
0.0
 11
-1343.448916495346
 21
1075.114240365715
 31
0.0
  0
LINE
  5
1CAE1
330
1F
100
AcDbEntity
  8
想像線
 48
0.5
100
AcDbLine
 10
-1312.448916495346
 20
1109.293806222759
 30
0.0
 11
-1312.448916495346
 21
1098.29380622276
 31
0.0
  0
LINE
  5
1CAE2
330
1F
100
AcDbEntity
  8
想像線
 48
0.5
100
AcDbLine
 10
-1352.448916495346
 20
1109.293806222759
 30
0.0
 11
-1352.448916495346
 21
1098.29380622276
 31
0.0
  0
LINE
  5
1CAE3
330
1F
100
AcDbEntity
  8
想像線
 48
0.5
100
AcDbLine
 10
-1334.448916495345
 20
1109.293806222759
 30
0.0
 11
-1334.448916495345
 21
1098.29380622276
 31
0.0
  0
LINE
  5
1CAE4
330
1F
100
AcDbEntity
  8
想像線
 48
0.5
100
AcDbLine
 10
-1354.198916495346
 20
1098.29380622276
 30
0.0
 11
-1332.698916495345
 21
1098.29380622276
 31
0.0
  0
LINE
  5
1CAE5
330
1F
100
AcDbEntity
  8
想像線
 48
0.5
100
AcDbLine
 10
-1355.448916495346
 20
1095.293806222761
 30
0.0
 11
-1331.448916495346
 21
1095.293806222761
 31
0.0
  0
LINE
  5
1CAE6
330
1F
100
AcDbEntity
  8
想像線
 48
0.5
100
AcDbLine
 10
-1285.948916495345
 20
1092.79380622276
 30
0.0
 11
-1360.948916495346
 21
1092.79380622276
 31
0.0
  0
LINE
  5
1CAE7
330
1F
100
AcDbEntity
  8
想像線
 48
0.5
100
AcDbLine
 10
-1360.948916495344
 20
1080.793806222762
 30
0.0
 11
-1285.948916495346
 21
1080.793806222762
 31
0.0
  0
LINE
  5
1CAE8
330
1F
100
AcDbEntity
  8
想像線
 48
0.5
100
AcDbLine
 10
-1360.948916495346
 20
1092.79380622276
 30
0.0
 11
-1360.948916495344
 21
1080.793806222762
 31
0.0
  0
LINE
  5
1CAE9
330
1F
100
AcDbEntity
  8
想像線
 48
0.5
100
AcDbLine
 10
-1354.198916495346
 20
1098.29380622276
 30
0.0
 11
-1354.198916495346
 21
1095.293806222761
 31
0.0
  0
LINE
  5
1CAEA
330
1F
100
AcDbEntity
  8
想像線
 48
0.5
100
AcDbLine
 10
-1355.448916495346
 20
1095.293806222761
 30
0.0
 11
-1355.448916495346
 21
1092.79380622276
 31
0.0
  0
LINE
  5
1CAEB
330
1F
100
AcDbEntity
  8
想像線
 48
0.5
100
AcDbLine
 10
-1291.448916495346
 20
1095.293806222761
 30
0.0
 11
-1315.448916495346
 21
1095.293806222761
 31
0.0
  0
LINE
  5
1CAEC
330
1F
100
AcDbEntity
  8
想像線
 48
0.5
100
AcDbLine
 10
-1292.698916495346
 20
1098.29380622276
 30
0.0
 11
-1314.198916495346
 21
1098.29380622276
 31
0.0
  0
ARC
  5
1CAED
330
1F
100
AcDbEntity
  8
細線
100
AcDbCircle
 10
-1321.448916495346
 20
1072.29380622276
 30
0.0
 40
1.5
100
AcDbArc
 50
90.0
 51
180.0
  0
ARC
  5
1CAEE
330
1F
100
AcDbEntity
  8
細線
100
AcDbCircle
 10
-1325.448916495346
 20
1072.29380622276
 30
0.0
 40
1.5
100
AcDbArc
 50
0.0
 51
90.0
  0
LINE
  5
1CAEF
330
1F
100
AcDbEntity
  8
細線
100
AcDbLine
 10
-1323.448916495346
 20
1072.19380622276
 30
0.0
 11
-1322.948916495346
 21
1072.19380622276
 31
0.0
  0
LINE
  5
1CAF0
330
1F
100
AcDbEntity
  8
細線
100
AcDbLine
 10
-1322.948916495346
 20
1072.19380622276
 30
0.0
 11
-1322.948916495346
 21
1072.29380622276
 31
0.0
  0
LINE
  5
1CAF1
330
1F
100
AcDbEntity
  8
細線
100
AcDbLine
 10
-1323.448916495346
 20
1072.19380622276
 30
0.0
 11
-1323.948916495345
 21
1072.19380622276
 31
0.0
  0
LINE
  5
1CAF2
330
1F
100
AcDbEntity
  8
細線
100
AcDbLine
 10
-1323.948916495345
 20
1072.19380622276
 30
0.0
 11
-1323.948916495345
 21
1072.29380622276
 31
0.0
  0
ARC
  5
1CAF3
330
1F
100
AcDbEntity
  8
細線
100
AcDbCircle
 10
-1325.448916495346
 20
1076.29380622276
 30
0.0
 40
1.5
100
AcDbArc
 50
270.0
 51
0.0
  0
LINE
  5
1CAF4
330
1F
100
AcDbEntity
  8
細線
100
AcDbLine
 10
-1321.448916495346
 20
1074.793806222759
 30
0.0
 11
-1321.348916495346
 21
1074.793806222759
 31
0.0
  0
LINE
  5
1CAF5
330
1F
100
AcDbEntity
  8
細線
100
AcDbLine
 10
-1321.348916495346
 20
1074.793806222759
 30
0.0
 11
-1321.348916495346
 21
1074.29380622276
 31
0.0
  0
LINE
  5
1CAF6
330
1F
100
AcDbEntity
  8
細線
100
AcDbLine
 10
-1321.448916495346
 20
1073.793806222758
 30
0.0
 11
-1321.348916495346
 21
1073.793806222758
 31
0.0
  0
LINE
  5
1CAF7
330
1F
100
AcDbEntity
  8
細線
100
AcDbLine
 10
-1321.348916495346
 20
1073.793806222758
 30
0.0
 11
-1321.348916495346
 21
1074.29380622276
 31
0.0
  0
ARC
  5
1CAF8
330
1F
100
AcDbEntity
  8
細線
100
AcDbCircle
 10
-1321.448916495346
 20
1076.29380622276
 30
0.0
 40
1.5
100
AcDbArc
 50
180.0
 51
270.0
  0
LINE
  5
1CAF9
330
1F
100
AcDbEntity
  8
細線
100
AcDbLine
 10
-1323.448916495346
 20
1076.393806222759
 30
0.0
 11
-1322.948916495346
 21
1076.393806222759
 31
0.0
  0
LINE
  5
1CAFA
330
1F
100
AcDbEntity
  8
細線
100
AcDbLine
 10
-1322.948916495346
 20
1076.393806222759
 30
0.0
 11
-1322.948916495346
 21
1076.29380622276
 31
0.0
  0
LINE
  5
1CAFB
330
1F
100
AcDbEntity
  8
細線
100
AcDbLine
 10
-1323.948916495345
 20
1076.393806222759
 30
0.0
 11
-1323.948916495345
 21
1076.29380622276
 31
0.0
  0
LINE
  5
1CAFC
330
1F
100
AcDbEntity
  8
細線
100
AcDbLine
 10
-1323.448916495346
 20
1076.393806222759
 30
0.0
 11
-1323.948916495345
 21
1076.393806222759
 31
0.0
  0
LINE
  5
1CAFD
330
1F
100
AcDbEntity
  8
中心線
 48
0.4
100
AcDbLine
 10
-1323.448916495346
 20
1068.29380622276
 30
0.0
 11
-1323.448916495346
 21
1080.29380622276
 31
0.0
  0
LINE
  5
1CAFE
330
1F
100
AcDbEntity
  8
細線
100
AcDbLine
 10
-1325.548916495345
 20
1074.793806222759
 30
0.0
 11
-1325.548916495345
 21
1074.29380622276
 31
0.0
  0
LINE
  5
1CAFF
330
1F
100
AcDbEntity
  8
細線
100
AcDbLine
 10
-1325.548916495345
 20
1073.793806222758
 30
0.0
 11
-1325.548916495345
 21
1074.29380622276
 31
0.0
  0
CIRCLE
  5
1CB00
330
1F
100
AcDbEntity
  8
細線
100
AcDbCircle
 10
-1323.448916495346
 20
1074.29380622276
 30
0.0
 40
4.7
  0
LINE
  5
1CB01
330
1F
100
AcDbEntity
  8
細線
100
AcDbLine
 10
-1325.448916495346
 20
1073.793806222758
 30
0.0
 11
-1325.548916495345
 21
1073.793806222758
 31
0.0
  0
LINE
  5
1CB02
330
1F
100
AcDbEntity
  8
細線
100
AcDbLine
 10
-1325.448916495346
 20
1074.793806222759
 30
0.0
 11
-1325.548916495345
 21
1074.793806222759
 31
0.0
  0
LINE
  5
1CB03
330
1F
100
AcDbEntity
  8
想像線
 48
0.5
100
AcDbLine
 10
-1332.698916495345
 20
1098.29380622276
 30
0.0
 11
-1332.698916495345
 21
1095.293806222761
 31
0.0
  0
LINE
  5
1CB04
330
1F
100
AcDbEntity
  8
想像線
 48
0.5
100
AcDbLine
 10
-1331.448916495346
 20
1095.293806222761
 30
0.0
 11
-1331.448916495346
 21
1092.79380622276
 31
0.0
  0
LINE
  5
1CB05
330
1F
100
AcDbEntity
  8
想像線
 48
0.5
100
AcDbLine
 10
-1315.448916495346
 20
1095.293806222761
 30
0.0
 11
-1315.448916495346
 21
1092.79380622276
 31
0.0
  0
LINE
  5
1CB06
330
1F
100
AcDbEntity
  8
想像線
 48
0.5
100
AcDbLine
 10
-1314.198916495346
 20
1098.29380622276
 30
0.0
 11
-1314.198916495346
 21
1095.293806222761
 31
0.0
  0
LINE
  5
1CB07
330
1F
100
AcDbEntity
  8
想像線
 48
0.5
100
AcDbLine
 10
-1285.948916495346
 20
1080.793806222762
 30
0.0
 11
-1285.948916495345
 21
1092.79380622276
 31
0.0
  0
LINE
  5
1CB08
330
1F
100
AcDbEntity
  8
想像線
 48
0.5
100
AcDbLine
 10
-1291.448916495346
 20
1095.293806222761
 30
0.0
 11
-1291.448916495345
 21
1092.79380622276
 31
0.0
  0
LINE
  5
1CB09
330
1F
100
AcDbEntity
  8
想像線
 48
0.5
100
AcDbLine
 10
-1292.698916495346
 20
1098.29380622276
 30
0.0
 11
-1292.698916495346
 21
1095.293806222761
 31
0.0
  0
LINE
  5
1CB0A
330
1F
100
AcDbEntity
  8
想像線
 48
0.5
100
AcDbLine
 10
-1335.448916495346
 20
1110.293806222758
 30
0.0
 11
-1351.448916495344
 21
1110.293806222758
 31
0.0
  0
LINE
  5
1CB0B
330
1F
100
AcDbEntity
  8
想像線
 48
0.5
100
AcDbLine
 10
-1352.448916495346
 20
1109.293806222759
 30
0.0
 11
-1351.448916495344
 21
1110.293806222758
 31
0.0
  0
LINE
  5
1CB0C
330
1F
100
AcDbEntity
  8
想像線
 48
0.5
100
AcDbLine
 10
-1311.448916495346
 20
1110.293806222758
 30
0.0
 11
-1295.448916495346
 21
1110.293806222758
 31
0.0
  0
LINE
  5
1CB0D
330
1F
100
AcDbEntity
  8
想像線
 48
0.5
100
AcDbLine
 10
-1334.448916495345
 20
1109.293806222759
 30
0.0
 11
-1335.448916495346
 21
1110.293806222758
 31
0.0
  0
LINE
  5
1CB0E
330
1F
100
AcDbEntity
  8
想像線
 48
0.5
100
AcDbLine
 10
-1312.448916495346
 20
1109.293806222759
 30
0.0
 11
-1311.448916495346
 21
1110.293806222758
 31
0.0
  0
LINE
  5
1CB0F
330
1F
100
AcDbEntity
  8
想像線
 48
0.5
100
AcDbLine
 10
-1294.448916495346
 20
1109.293806222759
 30
0.0
 11
-1295.448916495346
 21
1110.293806222758
 31
0.0
  0
LINE
  5
1CB10
330
1F
100
AcDbEntity
  8
外形線
100
AcDbLine
 10
-792.0313583906605
 20
1016.79380622276
 30
0.0
 11
-792.0313583906584
 21
767.2938062227608
 31
0.0
  0
LINE
  5
1CB11
330
1F
100
AcDbEntity
  8
外形線
100
AcDbLine
 10
-671.0313583906609
 20
1082.29380622276
 30
0.0
 11
-671.0313583906604
 21
767.2938062227608
 31
0.0
  0
LINE
  5
1CB12
330
1F
100
AcDbEntity
  8
外形線
100
AcDbLine
 10
-706.0313583906602
 20
1082.29380622276
 30
0.0
 11
-706.0313583906649
 21
767.2938062227613
 31
0.0
  0
LINE
  5
1CB13
330
1F
100
AcDbEntity
  8
外形線
100
AcDbLine
 10
-786.0313583906607
 20
1080.29380622276
 30
0.0
 11
-786.0313583906586
 21
767.2938062227608
 31
0.0
  0
LINE
  5
1CB14
330
1F
100
AcDbEntity
  8
外形線
100
AcDbLine
 10
-788.0313583906609
 20
1080.29380622276
 30
0.0
 11
-788.0313583906586
 21
767.2938062227608
 31
0.0
  0
LINE
  5
1CB15
330
1F
100
AcDbEntity
  8
外形線
100
AcDbLine
 10
-1089.141951533249
 20
817.6650035933844
 30
0.0
 11
-1086.330824035703
 21
814.4595273424656
 31
0.0
  0
LINE
  5
1CB16
330
1F
100
AcDbEntity
  8
外形線
100
AcDbLine
 10
-1093.323539655701
 20
816.8332340005406
 30
0.0
 11
-1089.141952136807
 21
817.6650034733288
 31
0.0
  0
CIRCLE
  5
1CB17
330
1F
100
AcDbEntity
  8
外形線
100
AcDbCircle
 10
-1090.51241239958
 20
813.6277577015993
 30
0.0
 40
8.0
  0
CIRCLE
  5
1CB18
330
1F
100
AcDbEntity
  8
外形線
100
AcDbCircle
 10
-1090.512412399577
 20
720.9598547439391
 30
0.0
 40
8.0
  0
LINE
  5
1CB19
330
1F
100
AcDbEntity
  8
外形線
100
AcDbLine
 10
-1122.151057454153
 20
637.2315776560776
 30
0.0
 11
-1122.429904131813
 21
632.9771963458256
 31
0.0
  0
LINE
  5
1CB1A
330
1F
100
AcDbEntity
  8
外形線
100
AcDbLine
 10
-1129.519862298811
 20
637.7145549367558
 30
0.0
 11
-1129.798709078811
 21
633.4601736948816
 31
0.0
  0
LINE
  5
1CB1B
330
1F
100
AcDbEntity
  8
外形線
100
AcDbLine
 10
-1129.519863015157
 20
637.7145554154008
 30
0.0
 11
-1125.696037202829
 21
639.6002573959981
 31
0.0
  0
LINE
  5
1CB1C
330
1F
100
AcDbEntity
  8
外形線
100
AcDbLine
 10
-1129.798709181146
 20
633.4601737632592
 30
0.0
 11
-1126.253730455818
 21
631.0914947071173
 31
0.0
  0
LINE
  5
1CB1D
330
1F
100
AcDbEntity
  8
外形線
100
AcDbLine
 10
-1122.429904848159
 20
632.9771968244713
 30
0.0
 11
-1126.253730558153
 21
631.091494775495
 31
0.0
  0
LINE
  5
1CB1E
330
1F
100
AcDbEntity
  8
外形線
100
AcDbLine
 10
-1125.696036691155
 20
639.6002570541091
 30
0.0
 11
-1122.151057965828
 21
637.2315779979672
 31
0.0
  0
CIRCLE
  5
1CB1F
330
1F
100
AcDbEntity
  8
外形線
100
AcDbCircle
 10
-1125.974883573487
 20
635.3458758806132
 30
0.0
 40
8.0
  0
CIRCLE
  5
1CB20
330
1F
100
AcDbEntity
  8
細線
100
AcDbCircle
 10
-1185.948916495344
 20
767.2938062227622
 30
0.0
 40
6.0
  0
CIRCLE
  5
1CB21
330
1F
100
AcDbEntity
  8
外形線
100
AcDbCircle
 10
-1185.948916495344
 20
767.2938062227622
 30
0.0
 40
4.800000000000181
  0
CIRCLE
  5
1CB22
330
1F
100
AcDbEntity
  8
細線
100
AcDbCircle
 10
-1123.448916495344
 20
767.2938062227622
 30
0.0
 40
8.0
  0
CIRCLE
  5
1CB23
330
1F
100
AcDbEntity
  8
外形線
100
AcDbCircle
 10
-1123.448916495344
 20
767.2938062227608
 30
0.0
 40
6.400000000000241
  0
CIRCLE
  5
1CB24
330
1F
100
AcDbEntity
  8
細線
100
AcDbCircle
 10
-1123.448916495344
 20
767.2938062227608
 30
0.0
 40
8.0
  0
LINE
  5
1CB25
330
1F
100
AcDbEntity
  8
外形線
100
AcDbLine
 10
-1086.330824880682
 20
720.1280852711506
 30
0.0
 11
-1089.141952257516
 21
716.922608996221
 31
0.0
  0
LINE
  5
1CB26
330
1F
100
AcDbEntity
  8
外形線
100
AcDbLine
 10
-1094.693999918471
 20
721.7916242167278
 30
0.0
 11
-1093.323539534986
 21
717.7543784209874
 31
0.0
  0
LINE
  5
1CB27
330
1F
100
AcDbEntity
  8
外形線
100
AcDbLine
 10
-1093.323539655699
 20
717.7543784449983
 30
0.0
 11
-1089.141952136805
 21
716.9226089722099
 31
0.0
  0
LINE
  5
1CB28
330
1F
100
AcDbEntity
  8
細線
100
AcDbLine
 10
-1015.948916495345
 20
769.3938062227617
 30
0.0
 11
-1016.448916495342
 21
769.3938062227617
 31
0.0
  0
LINE
  5
1CB29
330
1F
100
AcDbEntity
  8
細線
100
AcDbLine
 10
-1015.948916495345
 20
765.1938062227614
 30
0.0
 11
-1016.448916495342
 21
765.1938062227614
 31
0.0
  0
ARC
  5
1CB2A
330
1F
100
AcDbEntity
  8
細線
100
AcDbCircle
 10
-1014.448916495344
 20
765.2938062227617
 30
0.0
 40
1.5
100
AcDbArc
 50
90.0
 51
180.0
  0
LINE
  5
1CB2B
330
1F
100
AcDbEntity
  8
中心線
 48
0.4
100
AcDbLine
 10
-1022.448916495344
 20
767.2938062227617
 30
0.0
 11
-1010.448916495344
 21
767.2938062227617
 31
0.0
  0
ARC
  5
1CB2C
330
1F
100
AcDbEntity
  8
細線
100
AcDbCircle
 10
-1014.448916495344
 20
769.2938062227617
 30
0.0
 40
1.5
100
AcDbArc
 50
180.0
 51
270.0
  0
CIRCLE
  5
1CB2D
330
1F
100
AcDbEntity
  8
細線
100
AcDbCircle
 10
-1016.448916495342
 20
767.2938062227617
 30
0.0
 40
4.7
  0
ARC
  5
1CB2E
330
1F
100
AcDbEntity
  8
細線
100
AcDbCircle
 10
-1018.448916495344
 20
769.2938062227617
 30
0.0
 40
1.5
100
AcDbArc
 50
270.0
 51
0.0
  0
CIRCLE
  5
1CB2F
330
1F
100
AcDbEntity
  8
細線
100
AcDbCircle
 10
-1085.948916495346
 20
767.2938062227622
 30
0.0
 40
4.0
  0
CIRCLE
  5
1CB30
330
1F
100
AcDbEntity
  8
0
100
AcDbCircle
 10
-1085.948916495346
 20
767.2938062227622
 30
0.0
 40
3.20000000000012
  0
LINE
  5
1CB31
330
1F
100
AcDbEntity
  8
外形線
100
AcDbLine
 10
-1087.701284539894
 20
724.1653309228245
 30
0.0
 11
-1086.330824035699
 21
720.1280851030729
 31
0.0
  0
LINE
  5
1CB32
330
1F
100
AcDbEntity
  8
外形線
100
AcDbLine
 10
-1094.694000763456
 20
721.7916243848053
 30
0.0
 11
-1091.882873265909
 21
724.9971006357236
 31
0.0
  0
LINE
  5
1CB33
330
1F
100
AcDbEntity
  8
外形線
100
AcDbLine
 10
-1091.882872662349
 20
724.9971005156685
 30
0.0
 11
-1087.701285143455
 21
724.1653310428801
 31
0.0
  0
LINE
  5
1CB34
330
1F
100
AcDbEntity
  8
細線
100
AcDbLine
 10
-1016.948916495345
 20
765.2938062227617
 30
0.0
 11
-1016.948916495345
 21
765.1938062227614
 31
0.0
  0
LINE
  5
1CB35
330
1F
100
AcDbEntity
  8
細線
100
AcDbLine
 10
-1016.948916495345
 20
765.1938062227614
 30
0.0
 11
-1016.448916495342
 21
765.1938062227614
 31
0.0
  0
LINE
  5
1CB36
330
1F
100
AcDbEntity
  8
細線
100
AcDbLine
 10
-1018.548916495344
 20
767.2938062227617
 30
0.0
 11
-1018.548916495344
 21
766.7938062227618
 31
0.0
  0
LINE
  5
1CB37
330
1F
100
AcDbEntity
  8
細線
100
AcDbLine
 10
-1018.548916495344
 20
766.7938062227618
 30
0.0
 11
-1018.448916495344
 21
766.7938062227618
 31
0.0
  0
LINE
  5
1CB38
330
1F
100
AcDbEntity
  8
細線
100
AcDbLine
 10
-1018.548916495344
 20
767.2938062227617
 30
0.0
 11
-1018.548916495344
 21
767.7938062227617
 31
0.0
  0
LINE
  5
1CB39
330
1F
100
AcDbEntity
  8
細線
100
AcDbLine
 10
-1018.548916495344
 20
767.7938062227617
 30
0.0
 11
-1018.448916495344
 21
767.7938062227617
 31
0.0
  0
ARC
  5
1CB3A
330
1F
100
AcDbEntity
  8
細線
100
AcDbCircle
 10
-1018.448916495344
 20
765.2938062227617
 30
0.0
 40
1.5
100
AcDbArc
 50
0.0
 51
90.0
  0
LINE
  5
1CB3B
330
1F
100
AcDbEntity
  8
外形線
100
AcDbLine
 10
-1086.330824880687
 20
814.4595271743881
 30
0.0
 11
-1087.701285264167
 21
810.4222813786478
 31
0.0
  0
LINE
  5
1CB3C
330
1F
100
AcDbEntity
  8
外形線
100
AcDbLine
 10
-1094.693999918475
 20
812.7959882288111
 30
0.0
 11
-1091.88287254164
 21
809.5905119538816
 31
0.0
  0
LINE
  5
1CB3D
330
1F
100
AcDbEntity
  8
外形線
100
AcDbLine
 10
-1094.694000763458
 20
812.7959880607331
 30
0.0
 11
-1093.323540259262
 21
816.8332338804846
 31
0.0
  0
LINE
  5
1CB3E
330
1F
100
AcDbEntity
  8
外形線
100
AcDbLine
 10
-1091.882872662351
 20
809.5905119298704
 30
0.0
 11
-1087.701285143459
 21
810.4222814026586
 31
0.0
  0
LINE
  5
1CB3F
330
1F
100
AcDbEntity
  8
細線
100
AcDbLine
 10
-1016.948916495345
 20
769.2938062227617
 30
0.0
 11
-1016.948916495345
 21
769.3938062227617
 31
0.0
  0
LINE
  5
1CB40
330
1F
100
AcDbEntity
  8
細線
100
AcDbLine
 10
-1016.948916495345
 20
769.3938062227617
 30
0.0
 11
-1016.448916495342
 21
769.3938062227617
 31
0.0
  0
LINE
  5
1CB41
330
1F
100
AcDbEntity
  8
中心線
 48
0.4
100
AcDbLine
 10
-1007.948916495345
 20
767.2938062227615
 30
0.0
 11
-986.0755864360317
 21
767.2938062227615
 31
0.0
  0
LINE
  5
1CB42
330
1F
100
AcDbEntity
  8
細線
100
AcDbLine
 10
-1015.948916495345
 20
765.2938062227617
 30
0.0
 11
-1015.948916495345
 21
765.1938062227614
 31
0.0
  0
LINE
  5
1CB43
330
1F
100
AcDbEntity
  8
細線
100
AcDbLine
 10
-1014.348916495344
 20
767.2938062227617
 30
0.0
 11
-1014.348916495344
 21
766.7938062227618
 31
0.0
  0
LINE
  5
1CB44
330
1F
100
AcDbEntity
  8
細線
100
AcDbLine
 10
-1014.348916495344
 20
766.7938062227618
 30
0.0
 11
-1014.448916495344
 21
766.7938062227618
 31
0.0
  0
LINE
  5
1CB45
330
1F
100
AcDbEntity
  8
細線
100
AcDbLine
 10
-1014.348916495344
 20
767.7938062227617
 30
0.0
 11
-1014.448916495344
 21
767.7938062227617
 31
0.0
  0
LINE
  5
1CB46
330
1F
100
AcDbEntity
  8
細線
100
AcDbLine
 10
-1014.348916495344
 20
767.2938062227617
 30
0.0
 11
-1014.348916495344
 21
767.7938062227617
 31
0.0
  0
LINE
  5
1CB47
330
1F
100
AcDbEntity
  8
細線
100
AcDbLine
 10
-1015.948916495345
 20
769.2938062227617
 30
0.0
 11
-1015.948916495345
 21
769.3938062227617
 31
0.0
  0
CIRCLE
  5
1CB48
330
1F
100
AcDbEntity
  8
外形線
100
AcDbCircle
 10
-1182.027560258035
 20
908.7151624600702
 30
0.0
 40
6.400000000000241
  0
CIRCLE
  5
1CB49
330
1F
100
AcDbEntity
  8
細線
100
AcDbCircle
 10
-1182.027560258035
 20
908.7151624600711
 30
0.0
 40
8.0
  0
CIRCLE
  5
1CB4A
330
1F
100
AcDbEntity
  8
細線
100
AcDbCircle
 10
-1182.027560258035
 20
908.7151624600711
 30
0.0
 40
8.0
  0
LINE
  5
1CB4B
330
1F
100
AcDbEntity
  8
中心線
100
AcDbLine
 10
-1190.896474597082
 20
899.8462481210239
 30
0.0
 11
-1173.158645918988
 21
917.5840767991171
 31
0.0
  0
CIRCLE
  5
1CB4C
330
1F
100
AcDbEntity
  8
細線
100
AcDbCircle
 10
-1182.027560258035
 20
908.7151624600702
 30
0.0
 40
8.0
  0
LINE
  5
1CB4D
330
1F
100
AcDbEntity
  8
外形線
100
AcDbLine
 10
-1122.429904848168
 20
901.6104156210653
 30
0.0
 11
-1122.151058068171
 21
897.3560343791914
 31
0.0
  0
LINE
  5
1CB4E
330
1F
100
AcDbEntity
  8
外形線
100
AcDbLine
 10
-1129.519862298824
 20
896.8730575087807
 30
0.0
 11
-1125.69603658883
 21
894.9873554598053
 31
0.0
  0
LINE
  5
1CB4F
330
1F
100
AcDbEntity
  8
外形線
100
AcDbLine
 10
-1129.519863015167
 20
896.8730570301355
 30
0.0
 11
-1129.798709692827
 21
901.127438340387
 31
0.0
  0
LINE
  5
1CB50
330
1F
100
AcDbEntity
  8
外形線
100
AcDbLine
 10
-1125.696036691164
 20
894.9873553914271
 30
0.0
 11
-1122.151057965836
 21
897.3560344475695
 31
0.0
  0
LINE
  5
1CB51
330
1F
100
AcDbEntity
  8
外形線
100
AcDbLine
 10
-1126.253729944153
 20
903.4961180803083
 30
0.0
 11
-1122.429904131826
 21
901.6104160997102
 31
0.0
  0
LINE
  5
1CB52
330
1F
100
AcDbEntity
  8
外形線
100
AcDbLine
 10
-1129.798709181154
 20
901.1274386822769
 30
0.0
 11
-1126.253730455827
 21
903.4961177384193
 31
0.0
  0
CIRCLE
  5
1CB53
330
1F
100
AcDbEntity
  8
外形線
100
AcDbCircle
 10
-1125.974883573495
 20
899.2417365649226
 30
0.0
 40
8.0
  0
LINE
  5
1CB54
330
1F
100
AcDbEntity
  8
外形線
100
AcDbLine
 10
-1193.869665687985
 20
961.2228597029483
 30
0.0
 11
-1195.755367668582
 21
965.0466855152776
 31
0.0
  0
LINE
  5
1CB55
330
1F
100
AcDbEntity
  8
外形線
100
AcDbLine
 10
-1189.615284035843
 20
960.9440135369604
 30
0.0
 11
-1187.246604979701
 21
964.4889922622878
 31
0.0
  0
CIRCLE
  5
1CB56
330
1F
100
AcDbEntity
  8
外形線
100
AcDbCircle
 10
-1191.500986153195
 20
964.7678391446188
 30
0.0
 40
8.0
  0
LINE
  5
1CB57
330
1F
100
AcDbEntity
  8
外形線
100
AcDbLine
 10
-1193.869665209339
 20
961.2228604192914
 30
0.0
 11
-1189.615283967466
 21
960.9440136392949
 31
0.0
  0
LINE
  5
1CB58
330
1F
100
AcDbEntity
  8
外形線
100
AcDbLine
 10
-1193.386687928661
 20
968.5916652639521
 30
0.0
 11
-1189.13230661841
 21
968.3128185862896
 31
0.0
  0
LINE
  5
1CB59
330
1F
100
AcDbEntity
  8
外形線
100
AcDbLine
 10
-1189.132307097054
 20
968.3128178699467
 30
0.0
 11
-1187.246605048079
 21
964.4889921599524
 31
0.0
  0
LINE
  5
1CB5A
330
1F
100
AcDbEntity
  8
外形線
100
AcDbLine
 10
-1195.755367326692
 20
965.0466860269515
 30
0.0
 11
-1193.386688270551
 21
968.5916647522786
 31
0.0
  0
LINE
  5
1CB5B
330
1F
100
AcDbEntity
  8
細線
100
AcDbLine
 10
-1056.09610483163
 20
919.2251528748142
 30
0.0
 11
-1056.529117533522
 21
918.9751528748143
 31
0.0
  0
ARC
  5
1CB5C
330
1F
100
AcDbEntity
  8
細線
100
AcDbCircle
 10
-1054.847066725953
 20
920.0617554151927
 30
0.0
 40
1.5
100
AcDbArc
 50
119.9999999999964
 51
209.9999999999993
  0
ARC
  5
1CB5D
330
1F
100
AcDbEntity
  8
細線
100
AcDbCircle
 10
-1056.847066725953
 20
923.5258570303303
 30
0.0
 40
1.5
100
AcDbArc
 50
209.9999999999993
 51
299.9999999999965
  0
CIRCLE
  5
1CB5E
330
1F
100
AcDbEntity
  8
細線
100
AcDbCircle
 10
-1057.579117533522
 20
920.7938062227617
 30
0.0
 40
4.7
  0
LINE
  5
1CB5F
330
1F
100
AcDbEntity
  8
細線
100
AcDbLine
 10
-1059.147770881468
 20
919.3107935208695
 30
0.0
 11
-1059.061168341089
 21
919.3607935208698
 31
0.0
  0
LINE
  5
1CB60
330
1F
100
AcDbEntity
  8
細線
100
AcDbLine
 10
-1057.012130235415
 20
918.8117554151927
 30
0.0
 11
-1056.962130235415
 21
918.7251528748143
 31
0.0
  0
LINE
  5
1CB61
330
1F
100
AcDbEntity
  8
細線
100
AcDbLine
 10
-1059.012130235415
 20
922.2758570303309
 30
0.0
 11
-1059.062130235415
 21
922.3624595707091
 31
0.0
  0
LINE
  5
1CB62
330
1F
100
AcDbEntity
  8
細線
100
AcDbLine
 10
-1058.196104831629
 20
922.8624595707092
 30
0.0
 11
-1058.629117533522
 21
922.6124595707092
 31
0.0
  0
LINE
  5
1CB63
330
1F
100
AcDbEntity
  8
細線
100
AcDbLine
 10
-1059.062130235415
 20
922.3624595707091
 30
0.0
 11
-1058.629117533522
 21
922.6124595707092
 31
0.0
  0
LINE
  5
1CB64
330
1F
100
AcDbEntity
  8
細線
100
AcDbLine
 10
-1058.14610483163
 20
922.7758570303308
 30
0.0
 11
-1058.196104831629
 21
922.8624595707092
 31
0.0
  0
ARC
  5
1CB65
330
1F
100
AcDbEntity
  8
細線
100
AcDbCircle
 10
-1058.311168341089
 20
918.0617554151927
 30
0.0
 40
1.5
100
AcDbArc
 50
29.99999999999932
 51
119.9999999999964
  0
LINE
  5
1CB66
330
1F
100
AcDbEntity
  8
細線
100
AcDbLine
 10
-1056.962130235415
 20
918.7251528748143
 30
0.0
 11
-1056.529117533522
 21
918.9751528748143
 31
0.0
  0
LINE
  5
1CB67
330
1F
100
AcDbEntity
  8
細線
100
AcDbLine
 10
-1059.397770881469
 20
919.7438062227616
 30
0.0
 11
-1059.647770881467
 21
920.1768189246541
 31
0.0
  0
LINE
  5
1CB68
330
1F
100
AcDbEntity
  8
細線
100
AcDbLine
 10
-1059.647770881467
 20
920.1768189246541
 30
0.0
 11
-1059.561168341091
 21
920.2268189246538
 31
0.0
  0
ARC
  5
1CB69
330
1F
100
AcDbEntity
  8
細線
100
AcDbCircle
 10
-1060.311168341091
 20
921.5258570303303
 30
0.0
 40
1.5
100
AcDbArc
 50
299.9999999999965
 51
29.99999999999932
  0
LINE
  5
1CB6A
330
1F
100
AcDbEntity
  8
細線
100
AcDbLine
 10
-1059.397770881469
 20
919.7438062227616
 30
0.0
 11
-1059.147770881468
 21
919.3107935208695
 31
0.0
  0
LINE
  5
1CB6B
330
1F
100
AcDbEntity
  8
細線
100
AcDbLine
 10
-1056.14610483163
 20
919.3117554151923
 30
0.0
 11
-1056.09610483163
 21
919.2251528748142
 31
0.0
  0
LINE
  5
1CB6C
330
1F
100
AcDbEntity
  8
細線
100
AcDbLine
 10
-1055.760464185574
 20
921.8438062227615
 30
0.0
 11
-1055.510464185575
 21
921.4107935208694
 31
0.0
  0
LINE
  5
1CB6D
330
1F
100
AcDbEntity
  8
細線
100
AcDbLine
 10
-1055.510464185575
 20
921.4107935208694
 30
0.0
 11
-1055.597066725953
 21
921.3607935208697
 31
0.0
  0
LINE
  5
1CB6E
330
1F
100
AcDbEntity
  8
細線
100
AcDbLine
 10
-1056.010464185572
 20
922.2768189246535
 30
0.0
 11
-1056.097066725953
 21
922.2268189246538
 31
0.0
  0
LINE
  5
1CB6F
330
1F
100
AcDbEntity
  8
細線
100
AcDbLine
 10
-1055.760464185574
 20
921.8438062227615
 30
0.0
 11
-1056.010464185572
 21
922.2768189246535
 31
0.0
  0
LINE
  5
1CB70
330
1F
100
AcDbEntity
  8
破線
100
AcDbLine
 10
-671.0313583906609
 20
882.2938062227613
 30
0.0
 11
-671.0313583906609
 21
767.2938062227608
 31
0.0
  0
LINE
  5
1CB71
330
1F
100
AcDbEntity
  8
外形線
100
AcDbLine
 10
-667.0313583906609
 20
907.2938062227613
 30
0.0
 11
-667.0313583906609
 21
767.2938062227608
 31
0.0
  0
LINE
  5
1CB72
330
1F
100
AcDbEntity
  8
外形線
100
AcDbLine
 10
-796.0313583906605
 20
991.7938062227603
 30
0.0
 11
-796.0313583906605
 21
767.2938062227608
 31
0.0
  0
LINE
  5
1CB73
330
1F
100
AcDbEntity
  8
破線
100
AcDbLine
 10
-671.5313583906593
 20
817.2938062227672
 30
0.0
 11
-792.0313583906589
 21
817.2938062227611
 31
0.0
  0
LINE
  5
1CB74
330
1F
100
AcDbEntity
  8
破線
100
AcDbLine
 10
-671.5313583906593
 20
717.2938062227554
 30
0.0
 11
-792.0313583906589
 21
717.2938062227608
 31
0.0
  0
LINE
  5
1CB75
330
1F
100
AcDbEntity
  8
中心線
100
AcDbLine
 10
-801.3204246781825
 20
767.2938062227608
 30
0.0
 11
-659.8156784045262
 21
767.2938062227608
 31
0.0
  0
LINE
  5
1CB76
330
1F
100
AcDbEntity
  8
破線
100
AcDbLine
 10
-671.0313583906609
 20
652.2938062227613
 30
0.0
 11
-671.0313583906609
 21
767.2938062227608
 31
0.0
  0
LINE
  5
1CB77
330
1F
100
AcDbEntity
  8
外形線
100
AcDbLine
 10
-667.0313583906609
 20
627.2938062227613
 30
0.0
 11
-667.0313583906609
 21
767.2938062227608
 31
0.0
  0
LINE
  5
1CB78
330
1F
100
AcDbEntity
  8
外形線
100
AcDbLine
 10
-617.6389174457781
 20
662.5938062227612
 30
0.0
 11
-617.6389174457956
 21
677.2938062227613
 31
0.0
  0
LINE
  5
1CB79
330
1F
100
AcDbEntity
  8
外形線
100
AcDbLine
 10
-629.9389174457792
 20
664.393806222761
 30
0.0
 11
-629.9389174457802
 21
690.1938062227614
 31
0.0
  0
LINE
  5
1CB7A
330
1F
100
AcDbEntity
  8
外形線
100
AcDbLine
 10
-629.9389174457802
 20
666.0714440180368
 30
0.0
 11
-629.9389174457802
 21
688.5161684274858
 31
0.0
  0
LINE
  5
1CB7B
330
1F
100
AcDbEntity
  8
外形線
100
AcDbLine
 10
-639.6483662646788
 20
662.3662077975644
 30
0.0
 11
-639.6483662646763
 21
692.221404647958
 31
0.0
  0
LINE
  5
1CB7C
330
1F
100
AcDbEntity
  8
外形線
100
AcDbLine
 10
-645.5460040599521
 20
661.3662077975646
 30
0.0
 11
-645.5460040599521
 21
693.2214046479582
 31
0.0
  0
LINE
  5
1CB7D
330
1F
100
AcDbEntity
  8
外形線
100
AcDbLine
 10
-660.7113583906619
 20
689.9938062227611
 30
0.0
 11
-660.7113583906619
 21
664.5938062227615
 31
0.0
  0
LINE
  5
1CB7E
330
1F
100
AcDbEntity
  8
外形線
100
AcDbLine
 10
-660.7113583906614
 20
663.9485306322103
 30
0.0
 11
-660.7113583906622
 21
690.6390818133123
 31
0.0
  0
LINE
  5
1CB7F
330
1F
100
AcDbEntity
  8
外形線
100
AcDbLine
 10
-659.0263190205817
 20
663.1060109471705
 30
0.0
 11
-659.0263190205826
 21
691.4816014983521
 31
0.0
  0
LINE
  5
1CB80
330
1F
100
AcDbEntity
  8
外形線
100
AcDbLine
 10
-646.3885237449915
 20
663.1060109471705
 30
0.0
 11
-646.3885237449924
 21
691.4816014983521
 31
0.0
  0
LINE
  5
1CB81
330
1F
100
AcDbEntity
  8
外形線
100
AcDbLine
 10
-663.2389174457796
 20
665.6335700022889
 30
0.0
 11
-663.2389174457796
 21
688.9540424432339
 31
0.0
  0
LINE
  5
1CB82
330
1F
100
AcDbEntity
  8
外形線
100
AcDbLine
 10
-665.4613583906617
 20
693.5638053660722
 30
0.0
 11
-665.4613583906617
 21
661.0238070794503
 31
0.0
  0
LINE
  5
1CB83
330
1F
100
AcDbEntity
  8
外形線
100
AcDbLine
 10
-646.3885237449915
 20
663.1060109471705
 30
0.0
 11
-659.0263190205817
 21
663.1060109471705
 31
0.0
  0
LINE
  5
1CB84
330
1F
100
AcDbEntity
  8
破線
100
AcDbLine
 10
-667.0313583906609
 20
642.2938062227613
 30
0.0
 11
-671.0313583906609
 21
642.2938062227613
 31
0.0
  0
LINE
  5
1CB85
330
1F
100
AcDbEntity
  8
外形線
100
AcDbLine
 10
-671.0313583906606
 20
627.2938062227617
 30
0.0
 11
-667.0313583906609
 21
627.2938062227613
 31
0.0
  0
LINE
  5
1CB86
330
1F
100
AcDbEntity
  8
外形線
100
AcDbLine
 10
-659.0263190205826
 20
663.9485306322103
 30
0.0
 11
-660.7113583906614
 21
663.9485306322103
 31
0.0
  0
LINE
  5
1CB87
330
1F
100
AcDbEntity
  8
外形線
100
AcDbLine
 10
-665.4613583906617
 20
664.593806222761
 30
0.0
 11
-660.7113583906614
 21
664.5938062227612
 31
0.0
  0
LINE
  5
1CB88
330
1F
100
AcDbEntity
  8
外形線
100
AcDbLine
 10
-660.7113583906614
 20
665.6335700022889
 30
0.0
 11
-663.2389174457796
 21
665.6335700022889
 31
0.0
  0
LINE
  5
1CB89
330
1F
100
AcDbEntity
  8
外形線
100
AcDbLine
 10
-667.0313583906606
 20
661.0238070794503
 30
0.0
 11
-665.4613583906617
 21
661.0238070794503
 31
0.0
  0
LINE
  5
1CB8A
330
1F
100
AcDbEntity
  8
外形線
100
AcDbLine
 10
-630.9389174457792
 20
664.8164243329972
 30
0.0
 11
-639.6483662646772
 21
664.8164243329972
 31
0.0
  0
LINE
  5
1CB8B
330
1F
100
AcDbEntity
  8
外形線
100
AcDbLine
 10
-640.648366264679
 20
661.3662077975646
 30
0.0
 11
-645.5460040599521
 21
661.3662077975646
 31
0.0
  0
ARC
  5
1CB8C
330
1F
100
AcDbEntity
  8
外形線
100
AcDbCircle
 10
-640.648366264679
 20
662.3662077975644
 30
0.0
 40
1.0
100
AcDbArc
 50
270.0
 51
359.9999999999869
  0
LINE
  5
1CB8D
330
1F
100
AcDbEntity
  8
外形線
100
AcDbLine
 10
-645.5460040599521
 20
664.1190208876728
 30
0.0
 11
-646.3885237449915
 21
664.1190208876728
 31
0.0
  0
LINE
  5
1CB8E
330
1F
100
AcDbEntity
  8
外形線
100
AcDbLine
 10
-628.9389174457792
 20
663.3938062227612
 30
0.0
 11
-617.6389174457792
 21
663.3938062227612
 31
0.0
  0
ARC
  5
1CB8F
330
1F
100
AcDbEntity
  8
外形線
100
AcDbCircle
 10
-630.9389174457792
 20
665.8164243329975
 30
0.0
 40
1.0
100
AcDbArc
 50
270.0
 51
0.0
  0
ARC
  5
1CB90
330
1F
100
AcDbEntity
  8
外形線
100
AcDbCircle
 10
-628.9389174457792
 20
664.393806222761
 30
0.0
 40
1.0
100
AcDbArc
 50
180.0
 51
270.0
  0
LINE
  5
1CB91
330
1F
100
AcDbEntity
  8
外形線
100
AcDbLine
 10
-645.1485237449888
 20
705.3016014983518
 30
0.0
 11
-659.7863190205787
 21
705.3016014983518
 31
0.0
  0
LINE
  5
1CB92
330
1F
100
AcDbEntity
  8
外形線
100
AcDbLine
 10
-646.3885237449924
 20
691.4816014983521
 30
0.0
 11
-659.0263190205826
 21
691.4816014983521
 31
0.0
  0
LINE
  5
1CB93
330
1F
100
AcDbEntity
  8
外形線
100
AcDbLine
 10
-661.471358390659
 20
703.6390198821595
 30
0.0
 11
-661.4713583906592
 21
694.5688462788182
 31
0.0
  0
LINE
  5
1CB94
330
1F
100
AcDbEntity
  8
外形線
100
AcDbLine
 10
-661.4713583906595
 20
694.5688462788182
 30
0.0
 11
-661.4713583906595
 21
704.4590818133124
 31
0.0
  0
LINE
  5
1CB95
330
1F
100
AcDbEntity
  8
外形線
100
AcDbLine
 10
-659.7863190205787
 20
694.5688462788182
 30
0.0
 11
-659.7863190205787
 21
705.3016014983518
 31
0.0
  0
LINE
  5
1CB96
330
1F
100
AcDbEntity
  8
外形線
100
AcDbLine
 10
-664.6413583906591
 20
706.8115192504135
 30
0.0
 11
-664.6413583906596
 21
694.5688462788182
 31
0.0
  0
LINE
  5
1CB97
330
1F
100
AcDbEntity
  8
外形線
100
AcDbLine
 10
-663.9989174457772
 20
694.5688462788182
 30
0.0
 11
-663.9989174457777
 21
702.7740424432338
 31
0.0
  0
LINE
  5
1CB98
330
1F
100
AcDbEntity
  8
外形線
100
AcDbLine
 10
-659.0263190205826
 20
690.6390818133123
 30
0.0
 11
-660.7113583906622
 21
690.6390818133123
 31
0.0
  0
LINE
  5
1CB99
330
1F
100
AcDbEntity
  8
外形線
100
AcDbLine
 10
-665.4613583906617
 20
689.9938062227611
 30
0.0
 11
-660.7113583906622
 21
689.9938062227611
 31
0.0
  0
LINE
  5
1CB9A
330
1F
100
AcDbEntity
  8
外形線
100
AcDbLine
 10
-660.7113583906614
 20
688.9540424432339
 30
0.0
 11
-663.2389174457796
 21
688.9540424432339
 31
0.0
  0
LINE
  5
1CB9B
330
1F
100
AcDbEntity
  8
外形線
100
AcDbLine
 10
-667.0313583906606
 20
693.5638053660722
 30
0.0
 11
-665.4613583906617
 21
693.5638053660722
 31
0.0
  0
LINE
  5
1CB9C
330
1F
100
AcDbEntity
  8
破線
100
AcDbLine
 10
-691.4110780995827
 20
714.0938062227612
 30
0.0
 11
-671.0313583906606
 21
714.0938062227612
 31
0.0
  0
LINE
  5
1CB9D
330
1F
100
AcDbEntity
  8
外形線
100
AcDbLine
 10
-659.7863190205798
 20
704.4590818133122
 30
0.0
 11
-661.4713583906595
 21
704.4590818133124
 31
0.0
  0
LINE
  5
1CB9E
330
1F
100
AcDbEntity
  8
外形線
100
AcDbLine
 10
-661.4713583906582
 20
702.7740424432338
 30
0.0
 11
-663.9989174457777
 21
702.7740424432338
 31
0.0
  0
LINE
  5
1CB9F
330
1F
100
AcDbEntity
  8
外形線
100
AcDbLine
 10
-661.4713583906592
 20
703.6390198821595
 30
0.0
 11
-664.6413583906599
 21
703.6390198821595
 31
0.0
  0
LINE
  5
1CBA0
330
1F
100
AcDbEntity
  8
外形線
100
AcDbLine
 10
-667.0313583906602
 20
706.8115192504135
 30
0.0
 11
-664.6413583906591
 21
706.8115192504135
 31
0.0
  0
LINE
  5
1CBA1
330
1F
100
AcDbEntity
  8
外形線
100
AcDbLine
 10
-621.0989174457766
 20
694.5688462788182
 30
0.0
 11
-621.0989174457772
 21
702.8938062227608
 31
0.0
  0
LINE
  5
1CBA2
330
1F
100
AcDbEntity
  8
外形線
100
AcDbLine
 10
-621.0989174457766
 20
694.5688462788182
 30
0.0
 11
-621.0989174457763
 21
704.0938062227612
 31
0.0
  0
LINE
  5
1CBA3
330
1F
100
AcDbEntity
  8
外形線
100
AcDbLine
 10
-632.8083662646737
 20
694.5688462788182
 30
0.0
 11
-632.8083662646721
 21
706.0414046479581
 31
0.0
  0
LINE
  5
1CBA4
330
1F
100
AcDbEntity
  8
外形線
100
AcDbLine
 10
-644.3060040599492
 20
694.5688462788182
 30
0.0
 11
-644.3060040599492
 21
707.0414046479582
 31
0.0
  0
LINE
  5
1CBA5
330
1F
100
AcDbEntity
  8
外形線
100
AcDbLine
 10
-645.1485237449881
 20
694.5688462788182
 30
0.0
 11
-645.1485237449888
 21
705.3016014983518
 31
0.0
  0
LINE
  5
1CBA6
330
1F
100
AcDbEntity
  8
外形線
100
AcDbLine
 10
-630.9389174457812
 20
689.7711881125251
 30
0.0
 11
-639.6483662646772
 21
689.7711881125251
 31
0.0
  0
LINE
  5
1CBA7
330
1F
100
AcDbEntity
  8
外形線
100
AcDbLine
 10
-640.6483662646762
 20
693.221404647958
 30
0.0
 11
-645.5460040599521
 21
693.2214046479582
 31
0.0
  0
ARC
  5
1CBA8
330
1F
100
AcDbEntity
  8
外形線
100
AcDbCircle
 10
-640.6483662646762
 20
692.221404647958
 30
0.0
 40
1.0
100
AcDbArc
 50
359.9999999999869
 51
90.0
  0
LINE
  5
1CBA9
330
1F
100
AcDbEntity
  8
外形線
100
AcDbLine
 10
-645.5460040599521
 20
690.4685915578498
 30
0.0
 11
-646.3885237449915
 21
690.4685915578498
 31
0.0
  0
LINE
  5
1CBAA
330
1F
100
AcDbEntity
  8
外形線
100
AcDbLine
 10
-617.6389174458163
 20
677.2938062227613
 30
0.0
 11
-617.638917445782
 21
691.9938062227616
 31
0.0
  0
LINE
  5
1CBAB
330
1F
100
AcDbEntity
  8
外形線
100
AcDbLine
 10
-628.9389174457802
 20
691.1938062227614
 30
0.0
 11
-617.6389174458111
 21
691.1938062227614
 31
0.0
  0
ARC
  5
1CBAC
330
1F
100
AcDbEntity
  8
外形線
100
AcDbCircle
 10
-630.9389174457812
 20
688.7711881125251
 30
0.0
 40
1.0
100
AcDbArc
 50
0.0
 51
90.0
  0
ARC
  5
1CBAD
330
1F
100
AcDbEntity
  8
外形線
100
AcDbCircle
 10
-628.9389174457802
 20
690.1938062227614
 30
0.0
 40
1.0
100
AcDbArc
 50
90.0
 51
180.0
  0
ARC
  5
1CBAE
330
1F
100
AcDbEntity
  8
外形線
100
AcDbCircle
 10
-633.8083662646721
 20
706.0414046479581
 30
0.0
 40
1.0
100
AcDbArc
 50
359.9999999999869
 51
90.0
  0
LINE
  5
1CBAF
330
1F
100
AcDbEntity
  8
外形線
100
AcDbLine
 10
-644.3060040599492
 20
704.2885915578493
 30
0.0
 11
-645.1485237449888
 21
704.2885915578493
 31
0.0
  0
LINE
  5
1CBB0
330
1F
100
AcDbEntity
  8
外形線
100
AcDbLine
 10
-633.8083662646721
 20
707.0414046479582
 30
0.0
 11
-644.3060040599492
 21
707.0414046479582
 31
0.0
  0
ARC
  5
1CBB1
330
1F
100
AcDbEntity
  8
外形線
100
AcDbCircle
 10
-620.0989174457763
 20
704.093806222761
 30
0.0
 40
1.0
100
AcDbArc
 50
90.0
 51
179.9999999999869
  0
ARC
  5
1CBB2
330
1F
100
AcDbEntity
  8
外形線
100
AcDbCircle
 10
-622.0989174457779
 20
703.058688112525
 30
0.0
 40
1.0
100
AcDbArc
 50
0.0
 51
90.0
  0
LINE
  5
1CBB3
330
1F
100
AcDbEntity
  8
外形線
100
AcDbLine
 10
-622.0989174457779
 20
704.058688112525
 30
0.0
 11
-632.8083662646737
 21
704.058688112525
 31
0.0
  0
LINE
  5
1CBB4
330
1F
100
AcDbEntity
  8
中心線
100
AcDbLine
 10
-697.0333344267694
 20
767.2938062227615
 30
0.0
 11
-662.5503848323265
 21
767.2938062227608
 31
0.0
  0
LINE
  5
1CBB5
330
1F
100
AcDbEntity
  8
外形線
100
AcDbLine
 10
-683.2313583906604
 20
749.7938062227611
 30
0.0
 11
-683.2313583906608
 21
784.7938062227613
 31
0.0
  0
LINE
  5
1CBB6
330
1F
100
AcDbEntity
  8
外形線
100
AcDbLine
 10
-676.0313583906604
 20
749.7938062227611
 30
0.0
 11
-676.0313583906604
 21
784.7938062227613
 31
0.0
  0
LWPOLYLINE
  5
1CBB7
330
1F
100
AcDbEntity
  8
外形線
100
AcDbPolyline
 90
        8
 70
     1
 43
0.0
 10
-676.0313583906609
 20
736.0938062227612
 10
-676.0313583906606
 20
744.4938062227611
 42
0.4142135623730951
 10
-676.3313583906606
 20
744.7938062227613
 10
-681.7313583906608
 20
744.7938062227613
 42
0.4142135623730951
 10
-682.0313583906608
 20
744.4938062227611
 10
-682.0313583906608
 20
736.0938062227612
 42
0.4142135623730996
 10
-681.7313583906608
 20
735.7938062227613
 10
-676.3313583906607
 20
735.7938062227613
 42
0.4142135623730904
  0
LINE
  5
1CBB8
330
1F
100
AcDbEntity
  8
外形線
100
AcDbLine
 10
-683.2313583906604
 20
749.7938062227611
 30
0.0
 11
-676.0313583906604
 21
749.7938062227611
 31
0.0
  0
LINE
  5
1CBB9
330
1F
100
AcDbEntity
  8
外形線
100
AcDbLine
 10
-676.0313583906604
 20
790.0938062227612
 30
0.0
 11
-676.0313583906604
 21
810.4938062227612
 31
0.0
  0
LINE
  5
1CBBA
330
1F
100
AcDbEntity
  8
外形線
100
AcDbLine
 10
-683.2313583906604
 20
810.4938062227615
 30
0.0
 11
-683.2313583906604
 21
790.0938062227612
 31
0.0
  0
LINE
  5
1CBBB
330
1F
100
AcDbEntity
  8
外形線
100
AcDbLine
 10
-682.9313583906602
 20
789.7938062227613
 30
0.0
 11
-676.3313583906604
 21
789.7938062227613
 31
0.0
  0
LINE
  5
1CBBC
330
1F
100
AcDbEntity
  8
外形線
100
AcDbLine
 10
-683.2313583906608
 20
784.7938062227613
 30
0.0
 11
-676.0313583906604
 21
784.7938062227613
 31
0.0
  0
ARC
  5
1CBBD
330
1F
100
AcDbEntity
  8
外形線
100
AcDbCircle
 10
-682.9313583906602
 20
790.0938062227615
 30
0.0
 40
0.3
100
AcDbArc
 50
180.0
 51
270.0
  0
ARC
  5
1CBBE
330
1F
100
AcDbEntity
  8
外形線
100
AcDbCircle
 10
-676.3313583906606
 20
790.0938062227615
 30
0.0
 40
0.3
100
AcDbArc
 50
270.0
 51
0.0
  0
LINE
  5
1CBBF
330
1F
100
AcDbEntity
  8
外形線
100
AcDbLine
 10
-676.3313583906604
 20
810.7938062227614
 30
0.0
 11
-682.9313583906602
 21
810.7938062227614
 31
0.0
  0
ARC
  5
1CBC0
330
1F
100
AcDbEntity
  8
外形線
100
AcDbCircle
 10
-682.9313583906602
 20
810.4938062227615
 30
0.0
 40
0.3
100
AcDbArc
 50
90.0
 51
180.0
  0
ARC
  5
1CBC1
330
1F
100
AcDbEntity
  8
外形線
100
AcDbCircle
 10
-676.3313583906606
 20
810.4938062227615
 30
0.0
 40
0.3
100
AcDbArc
 50
0.0
 51
90.0
  0
LINE
  5
1CBC2
330
1F
100
AcDbEntity
  8
中心線
100
AcDbLine
 10
-799.8392571036911
 20
967.2938062227613
 30
0.0
 11
-755.696358981942
 21
967.2938062227613
 31
0.0
  0
LINE
  5
1CBC3
330
1F
100
AcDbEntity
  8
破線
100
AcDbLine
 10
-796.0313583906605
 20
917.2938062227613
 30
0.0
 11
-792.0313583906597
 21
917.2938062227613
 31
0.0
  0
LINE
  5
1CBC4
330
1F
100
AcDbEntity
  8
外形線
100
AcDbLine
 10
-795.5313583906604
 20
992.2938062227604
 30
0.0
 11
-792.0313583906605
 21
992.2938062227604
 31
0.0
  0
LINE
  5
1CBC5
330
1F
100
AcDbEntity
  8
外形線
100
AcDbLine
 10
-795.5313583906604
 20
992.2938062227604
 30
0.0
 11
-796.0313583906605
 21
991.7938062227603
 31
0.0
  0
ARC
  5
1CBC6
330
1F
100
AcDbEntity
  8
外形線
100
AcDbCircle
 10
-639.2646886224812
 20
869.0869143200389
 30
0.0
 40
6.864067132439955
100
AcDbArc
 50
314.8681282929232
 51
45.13187170707676
  0
LINE
  5
1CBC7
330
1F
100
AcDbEntity
  8
外形線
100
AcDbLine
 10
-632.4222441416267
 20
871.6088438167467
 30
0.0
 11
-632.4222441416265
 21
830.9787686287764
 31
0.0
  0
LINE
  5
1CBC8
330
1F
100
AcDbEntity
  8
外形線
100
AcDbLine
 10
-660.0313583906618
 20
869.5652347941885
 30
0.0
 11
-660.0313583906618
 21
833.0223776513344
 31
0.0
  0
LINE
  5
1CBC9
330
1F
100
AcDbEntity
  8
外形線
100
AcDbLine
 10
-647.0313583906618
 20
873.9517009596033
 30
0.0
 11
-647.0313583906618
 21
828.6359114859196
 31
0.0
  0
LINE
  5
1CBCA
330
1F
100
AcDbEntity
  8
外形線
100
AcDbLine
 10
-667.0313583906609
 20
828.6359114859196
 30
0.0
 11
-667.0313583906609
 21
873.9517009596033
 31
0.0
  0
LINE
  5
1CBCB
330
1F
100
AcDbEntity
  8
外形線
100
AcDbLine
 10
-661.0313583906612
 20
873.9517009596033
 30
0.0
 11
-661.0313583906612
 21
828.6359114859196
 31
0.0
  0
LINE
  5
1CBCC
330
1F
100
AcDbEntity
  8
外形線
100
AcDbLine
 10
-667.0313583906609
 20
828.6359114859196
 30
0.0
 11
-667.0313583906609
 21
873.9517009596033
 31
0.0
  0
LINE
  5
1CBCD
330
1F
100
AcDbEntity
  8
外形線
100
AcDbLine
 10
-634.4222441416267
 20
873.9517009596033
 30
0.0
 11
-627.0313583906617
 21
865.2938062227613
 31
0.0
  0
LINE
  5
1CBCE
330
1F
100
AcDbEntity
  8
外形線
100
AcDbLine
 10
-660.0313583906618
 20
833.0223776513344
 30
0.0
 11
-647.0313583906618
 21
833.0223776513344
 31
0.0
  0
LINE
  5
1CBCF
330
1F
100
AcDbEntity
  8
破線
100
AcDbLine
 10
-691.4110780995827
 20
820.4938062227611
 30
0.0
 11
-671.0313583906606
 21
820.4938062227611
 31
0.0
  0
LINE
  5
1CBD0
330
1F
100
AcDbEntity
  8
外形線
100
AcDbLine
 10
-661.0313583906612
 20
836.0223776513342
 30
0.0
 11
-660.0313583906618
 21
836.0223776513342
 31
0.0
  0
LINE
  5
1CBD1
330
1F
100
AcDbEntity
  8
外形線
100
AcDbLine
 10
-667.0313583906609
 20
838.3654847650483
 30
0.0
 11
-661.0313583906612
 21
838.3654847650483
 31
0.0
  0
LINE
  5
1CBD2
330
1F
100
AcDbEntity
  8
外形線
100
AcDbLine
 10
-661.0313583906612
 20
828.6359114859196
 30
0.0
 11
-667.0313583906609
 21
828.6359114859196
 31
0.0
  0
LINE
  5
1CBD3
330
1F
100
AcDbEntity
  8
外形線
100
AcDbLine
 10
-667.0313583906609
 20
860.9442048624966
 30
0.0
 11
-661.0313583906612
 21
860.9442048624966
 31
0.0
  0
LINE
  5
1CBD4
330
1F
100
AcDbEntity
  8
外形線
100
AcDbLine
 10
-667.0313583906609
 20
864.2221276804743
 30
0.0
 11
-661.0313583906612
 21
864.2221276804743
 31
0.0
  0
LINE
  5
1CBD5
330
1F
100
AcDbEntity
  8
外形線
100
AcDbLine
 10
-667.0313583906609
 20
841.6434075830261
 30
0.0
 11
-661.0313583906612
 21
841.6434075830261
 31
0.0
  0
LINE
  5
1CBD6
330
1F
100
AcDbEntity
  8
外形線
100
AcDbLine
 10
-634.4222441416267
 20
841.6434075830261
 30
0.0
 11
-634.4222441416267
 21
838.3654847650483
 31
0.0
  0
LINE
  5
1CBD7
330
1F
100
AcDbEntity
  8
外形線
100
AcDbLine
 10
-627.0313583906617
 20
865.2938062227613
 30
0.0
 11
-627.0313583906617
 21
837.2938062227618
 31
0.0
  0
ARC
  5
1CBD8
330
1F
100
AcDbEntity
  8
外形線
100
AcDbCircle
 10
-639.2646886224804
 20
833.5006981254837
 30
0.0
 40
6.864067132439955
100
AcDbArc
 50
314.8681282929232
 51
45.13187170707676
  0
LINE
  5
1CBD9
330
1F
100
AcDbEntity
  8
外形線
100
AcDbLine
 10
-634.4222441416267
 20
828.6359114859196
 30
0.0
 11
-627.0313583906617
 21
837.2938062227618
 31
0.0
  0
LINE
  5
1CBDA
330
1F
100
AcDbEntity
  8
外形線
100
AcDbLine
 10
-647.0313583906618
 20
838.3654847650483
 30
0.0
 11
-634.422244141627
 21
838.3654847650483
 31
0.0
  0
LINE
  5
1CBDB
330
1F
100
AcDbEntity
  8
外形線
100
AcDbLine
 10
-634.4222441416267
 20
828.6359114859196
 30
0.0
 11
-647.0313583906618
 21
828.6359114859196
 31
0.0
  0
ARC
  5
1CBDC
330
1F
100
AcDbEntity
  8
外形線
100
AcDbCircle
 10
-656.7047926180752
 20
851.2938062227611
 30
0.0
 40
24.28254847644835
100
AcDbArc
 50
336.5829384421516
 51
23.41706155784837
  0
LINE
  5
1CBDD
330
1F
100
AcDbEntity
  8
外形線
100
AcDbLine
 10
-634.4222441416267
 20
864.2221276804743
 30
0.0
 11
-634.4222441416267
 21
860.9442048624963
 31
0.0
  0
LINE
  5
1CBDE
330
1F
100
AcDbEntity
  8
外形線
100
AcDbLine
 10
-647.0313583906618
 20
860.9442048624968
 30
0.0
 11
-634.4222441416267
 21
860.9442048624963
 31
0.0
  0
LINE
  5
1CBDF
330
1F
100
AcDbEntity
  8
外形線
100
AcDbLine
 10
-647.0313583906618
 20
864.2221276804743
 30
0.0
 11
-634.422244141627
 21
864.2221276804743
 31
0.0
  0
LINE
  5
1CBE0
330
1F
100
AcDbEntity
  8
外形線
100
AcDbLine
 10
-647.0313583906618
 20
841.6434075830261
 30
0.0
 11
-634.4222441416267
 21
841.6434075830261
 31
0.0
  0
LINE
  5
1CBE1
330
1F
100
AcDbEntity
  8
外形線
100
AcDbLine
 10
-660.0313583906618
 20
869.5652347941885
 30
0.0
 11
-647.0313583906618
 21
869.5652347941885
 31
0.0
  0
LINE
  5
1CBE2
330
1F
100
AcDbEntity
  8
外形線
100
AcDbLine
 10
-661.0313583906612
 20
866.5652347941886
 30
0.0
 11
-660.0313583906618
 21
866.5652347941886
 31
0.0
  0
LINE
  5
1CBE3
330
1F
100
AcDbEntity
  8
外形線
100
AcDbLine
 10
-661.0313583906612
 20
873.9517009596033
 30
0.0
 11
-667.0313583906609
 21
873.9517009596033
 31
0.0
  0
LINE
  5
1CBE4
330
1F
100
AcDbEntity
  8
外形線
100
AcDbLine
 10
-671.0313583906606
 20
907.2938062227605
 30
0.0
 11
-667.0313583906609
 21
907.2938062227613
 31
0.0
  0
LINE
  5
1CBE5
330
1F
100
AcDbEntity
  8
破線
100
AcDbLine
 10
-667.0313583906609
 20
892.2938062227613
 30
0.0
 11
-671.0313583906609
 21
892.2938062227613
 31
0.0
  0
LINE
  5
1CBE6
330
1F
100
AcDbEntity
  8
外形線
100
AcDbLine
 10
-634.4222441416267
 20
873.9517009596033
 30
0.0
 11
-647.0313583906618
 21
873.9517009596033
 31
0.0
  0
CIRCLE
  5
1CBE7
330
1F
100
AcDbEntity
  8
細線
100
AcDbCircle
 10
-1169.948916495344
 20
1033.163605184584
 30
0.0
 40
4.7
  0
ARC
  5
1CBE8
330
1F
100
AcDbEntity
  8
細線
100
AcDbCircle
 10
-1169.216865687776
 20
1030.431554377015
 30
0.0
 40
1.5
100
AcDbArc
 50
60.00000000000351
 51
150.0000000000006
  0
ARC
  5
1CBE9
330
1F
100
AcDbEntity
  8
細線
100
AcDbCircle
 10
-1172.680967302914
 20
1032.431554377015
 30
0.0
 40
1.5
100
AcDbArc
 50
330.0000000000006
 51
60.00000000000351
  0
LINE
  5
1CBEA
330
1F
100
AcDbEntity
  8
細線
100
AcDbLine
 10
-1170.998916495345
 20
1031.344951836635
 30
0.0
 11
-1170.565903793453
 21
1031.094951836637
 31
0.0
  0
LINE
  5
1CBEB
330
1F
100
AcDbEntity
  8
細線
100
AcDbLine
 10
-1170.565903793453
 20
1031.094951836637
 30
0.0
 11
-1170.515903793453
 21
1031.181554377015
 31
0.0
  0
LINE
  5
1CBEC
330
1F
100
AcDbEntity
  8
細線
100
AcDbLine
 10
-1170.998916495345
 20
1031.344951836635
 30
0.0
 11
-1171.431929197238
 21
1031.594951836636
 31
0.0
  0
LINE
  5
1CBED
330
1F
100
AcDbEntity
  8
細線
100
AcDbLine
 10
-1171.431929197238
 20
1031.594951836636
 30
0.0
 11
-1171.381929197238
 21
1031.681554377015
 31
0.0
  0
ARC
  5
1CBEE
330
1F
100
AcDbEntity
  8
細線
100
AcDbCircle
 10
-1170.680967302913
 20
1035.895655992153
 30
0.0
 40
1.5
100
AcDbArc
 50
240.0000000000034
 51
330.0000000000006
  0
LINE
  5
1CBEF
330
1F
100
AcDbEntity
  8
細線
100
AcDbLine
 10
-1167.966865687776
 20
1032.596617886476
 30
0.0
 11
-1167.880263147398
 21
1032.546617886475
 31
0.0
  0
LINE
  5
1CBF0
330
1F
100
AcDbEntity
  8
細線
100
AcDbLine
 10
-1167.880263147398
 20
1032.546617886475
 30
0.0
 11
-1168.130263147398
 21
1032.113605184584
 31
0.0
  0
LINE
  5
1CBF1
330
1F
100
AcDbEntity
  8
細線
100
AcDbLine
 10
-1168.466865687776
 20
1031.730592482692
 30
0.0
 11
-1168.380263147398
 21
1031.680592482691
 31
0.0
  0
LINE
  5
1CBF2
330
1F
100
AcDbEntity
  8
細線
100
AcDbLine
 10
-1168.380263147398
 20
1031.680592482691
 30
0.0
 11
-1168.130263147398
 21
1032.113605184584
 31
0.0
  0
ARC
  5
1CBF3
330
1F
100
AcDbEntity
  8
細線
100
AcDbCircle
 10
-1167.216865687776
 20
1033.895655992153
 30
0.0
 40
1.5
100
AcDbArc
 50
150.0000000000006
 51
240.0000000000034
  0
LINE
  5
1CBF4
330
1F
100
AcDbEntity
  8
細線
100
AcDbLine
 10
-1168.898916495345
 20
1034.982258532531
 30
0.0
 11
-1168.465903793453
 21
1034.732258532531
 31
0.0
  0
LINE
  5
1CBF5
330
1F
100
AcDbEntity
  8
細線
100
AcDbLine
 10
-1168.465903793453
 20
1034.732258532531
 30
0.0
 11
-1168.515903793453
 21
1034.645655992153
 31
0.0
  0
LINE
  5
1CBF6
330
1F
100
AcDbEntity
  8
細線
100
AcDbLine
 10
-1169.331929197235
 20
1035.232258532529
 30
0.0
 11
-1169.381929197238
 21
1035.145655992153
 31
0.0
  0
LINE
  5
1CBF7
330
1F
100
AcDbEntity
  8
細線
100
AcDbLine
 10
-1168.898916495345
 20
1034.982258532531
 30
0.0
 11
-1169.331929197235
 21
1035.232258532529
 31
0.0
  0
LINE
  5
1CBF8
330
1F
100
AcDbEntity
  8
細線
100
AcDbLine
 10
-1171.930967302914
 20
1033.730592482692
 30
0.0
 11
-1172.017569843291
 21
1033.78059248269
 31
0.0
  0
LINE
  5
1CBF9
330
1F
100
AcDbEntity
  8
細線
100
AcDbLine
 10
-1171.517569843292
 20
1034.646617886474
 30
0.0
 11
-1171.767569843292
 21
1034.213605184584
 31
0.0
  0
LINE
  5
1CBFA
330
1F
100
AcDbEntity
  8
細線
100
AcDbLine
 10
-1172.017569843291
 20
1033.78059248269
 30
0.0
 11
-1171.767569843292
 21
1034.213605184584
 31
0.0
  0
LINE
  5
1CBFB
330
1F
100
AcDbEntity
  8
細線
100
AcDbLine
 10
-1171.430967302913
 20
1034.596617886476
 30
0.0
 11
-1171.517569843292
 21
1034.646617886474
 31
0.0
  0
LINE
  5
1CBFC
330
1F
100
AcDbEntity
  8
想像線
 48
0.5
100
AcDbLine
 10
-760.5313583906609
 20
1110.293806222758
 30
0.0
 11
-776.5313583906601
 21
1110.293806222758
 31
0.0
  0
LINE
  5
1CBFD
330
1F
100
AcDbEntity
  8
想像線
 48
0.5
100
AcDbLine
 10
-757.781358390661
 20
1098.293806222762
 30
0.0
 11
-779.2813583906609
 21
1098.29380622276
 31
0.0
  0
LINE
  5
1CBFE
330
1F
100
AcDbEntity
  8
想像線
 48
0.5
100
AcDbLine
 10
-756.5313583906609
 20
1095.293806222761
 30
0.0
 11
-780.531358390661
 21
1095.293806222761
 31
0.0
  0
LINE
  5
1CBFF
330
1F
100
AcDbEntity
  8
外形線
100
AcDbLine
 10
-671.0313583906609
 20
1082.29380622276
 30
0.0
 11
-784.0313583906609
 21
1082.29380622276
 31
0.0
  0
LINE
  5
1CC00
330
1F
100
AcDbEntity
  8
想像線
 48
0.5
100
AcDbLine
 10
-746.0313583906605
 20
1080.793806222762
 30
0.0
 11
-851.031358390661
 21
1080.793806222762
 31
0.0
  0
LINE
  5
1CC01
330
1F
100
AcDbEntity
  8
想像線
 48
0.5
100
AcDbLine
 10
-751.0313583906605
 20
1092.79380622276
 30
0.0
 11
-851.031358390661
 21
1092.793806222762
 31
0.0
  0
LINE
  5
1CC02
330
1F
100
AcDbEntity
  8
想像線
 48
0.5
100
AcDbLine
 10
-777.5313583906607
 20
1109.293806222759
 30
0.0
 11
-777.5313583906607
 21
1098.29380622276
 31
0.0
  0
LINE
  5
1CC03
330
1F
100
AcDbEntity
  8
外形線
100
AcDbLine
 10
-791.5313583906605
 20
1017.293806222759
 30
0.0
 11
-788.0313583906604
 21
1017.293806222759
 31
0.0
  0
LINE
  5
1CC04
330
1F
100
AcDbEntity
  8
外形線
100
AcDbLine
 10
-791.5313583906605
 20
1017.293806222759
 30
0.0
 11
-792.0313583906605
 21
1016.79380622276
 31
0.0
  0
LINE
  5
1CC05
330
1F
100
AcDbEntity
  8
想像線
 48
0.5
100
AcDbLine
 10
-833.5313583906609
 20
1081.793806222759
 30
0.0
 11
-833.5313583906609
 21
1091.793806222762
 31
0.0
  0
LINE
  5
1CC06
330
1F
100
AcDbEntity
  8
中心線
100
AcDbLine
 10
-816.031358390661
 20
1096.407317309658
 30
0.0
 11
-816.031358390661
 21
1078.015635021523
 31
0.0
  0
LINE
  5
1CC07
330
1F
100
AcDbEntity
  8
想像線
 48
0.5
100
AcDbLine
 10
-851.031358390661
 20
1092.793806222762
 30
0.0
 11
-851.031358390661
 21
1080.79380622276
 31
0.0
  0
LINE
  5
1CC08
330
1F
100
AcDbEntity
  8
想像線
 48
0.5
100
AcDbLine
 10
-833.5313583906609
 20
1081.793806222759
 30
0.0
 11
-834.5313583906611
 21
1080.79380622276
 31
0.0
  0
LINE
  5
1CC09
330
1F
100
AcDbEntity
  8
想像線
 48
0.5
100
AcDbLine
 10
-833.5313583906609
 20
1091.793806222762
 30
0.0
 11
-834.5313583906611
 21
1092.793806222762
 31
0.0
  0
LINE
  5
1CC0A
330
1F
100
AcDbEntity
  8
想像線
 48
0.5
100
AcDbLine
 10
-798.531358390661
 20
1081.793806222759
 30
0.0
 11
-798.531358390661
 21
1091.793806222762
 31
0.0
  0
LINE
  5
1CC0B
330
1F
100
AcDbEntity
  8
外形線
100
AcDbLine
 10
-788.0313583906609
 20
1080.29380622276
 30
0.0
 11
-786.0313583906607
 21
1080.29380622276
 31
0.0
  0
LINE
  5
1CC0C
330
1F
100
AcDbEntity
  8
外形線
100
AcDbLine
 10
-786.0313583906607
 20
1080.29380622276
 30
0.0
 11
-784.0313583906609
 21
1082.29380622276
 31
0.0
  0
LINE
  5
1CC0D
330
1F
100
AcDbEntity
  8
外形線
100
AcDbLine
 10
-788.0313583906605
 20
1069.593806222761
 30
0.0
 11
-788.0313583906605
 21
1078.993806222759
 31
0.0
  0
LINE
  5
1CC0E
330
1F
100
AcDbEntity
  8
外形線
100
AcDbLine
 10
-788.260969630455
 20
1069.593806222761
 30
0.0
 11
-788.0313583906605
 21
1069.593806222761
 31
0.0
  0
LINE
  5
1CC0F
330
1F
100
AcDbEntity
  8
外形線
100
AcDbLine
 10
-788.260969630455
 20
1078.993806222759
 30
0.0
 11
-788.0313583906605
 21
1078.993806222759
 31
0.0
  0
ARC
  5
1CC10
330
1F
100
AcDbEntity
  8
外形線
100
AcDbCircle
 10
-784.5313583906604
 20
1074.29380622276
 30
0.0
 40
6.000000000000047
100
AcDbArc
 50
128.433206340855
 51
231.566793659145
  0
LINE
  5
1CC11
330
1F
100
AcDbEntity
  8
中心線
 48
0.1
100
AcDbLine
 10
-793.5313583906605
 20
1074.29380622276
 30
0.0
 11
-778.0313583906607
 21
1074.29380622276
 31
0.0
  0
LINE
  5
1CC12
330
1F
100
AcDbEntity
  8
想像線
 48
0.5
100
AcDbLine
 10
-798.531358390661
 20
1091.793806222762
 30
0.0
 11
-797.531358390661
 21
1092.793806222762
 31
0.0
  0
LINE
  5
1CC13
330
1F
100
AcDbEntity
  8
想像線
 48
0.5
100
AcDbLine
 10
-779.2813583906609
 20
1098.29380622276
 30
0.0
 11
-779.2813583906609
 21
1095.293806222761
 31
0.0
  0
LINE
  5
1CC14
330
1F
100
AcDbEntity
  8
想像線
 48
0.5
100
AcDbLine
 10
-780.531358390661
 20
1095.293806222761
 30
0.0
 11
-780.531358390661
 21
1092.793806222762
 31
0.0
  0
LINE
  5
1CC15
330
1F
100
AcDbEntity
  8
想像線
 48
0.5
100
AcDbLine
 10
-777.5313583906607
 20
1109.293806222759
 30
0.0
 11
-776.5313583906601
 21
1110.293806222758
 31
0.0
  0
LINE
  5
1CC16
330
1F
100
AcDbEntity
  8
中心線
100
AcDbLine
 10
-768.5313583906605
 20
1113.277761995225
 30
0.0
 11
-768.5313583906605
 21
1073.17812086765
 31
0.0
  0
LINE
  5
1CC17
330
1F
100
AcDbEntity
  8
想像線
 48
0.5
100
AcDbLine
 10
-759.531358390661
 20
1109.293806222759
 30
0.0
 11
-759.531358390661
 21
1098.29380622276
 31
0.0
  0
LINE
  5
1CC18
330
1F
100
AcDbEntity
  8
中心線
100
AcDbLine
 10
-728.7625025780696
 20
1057.293806222759
 30
0.0
 11
-667.6616077264575
 21
1057.293806222759
 31
0.0
  0
LINE
  5
1CC19
330
1F
100
AcDbEntity
  8
想像線
 48
0.5
100
AcDbLine
 10
-751.0313583906605
 20
1092.79380622276
 30
0.0
 11
-751.0313583906605
 21
1080.79380622276
 31
0.0
  0
LINE
  5
1CC1A
330
1F
100
AcDbEntity
  8
想像線
 48
0.5
100
AcDbLine
 10
-746.0313583906605
 20
1082.29380622276
 30
0.0
 11
-746.0313583906605
 21
1080.793806222762
 31
0.0
  0
LINE
  5
1CC1B
330
1F
100
AcDbEntity
  8
想像線
 48
0.5
100
AcDbLine
 10
-757.781358390661
 20
1098.29380622276
 30
0.0
 11
-757.781358390661
 21
1095.293806222761
 31
0.0
  0
LINE
  5
1CC1C
330
1F
100
AcDbEntity
  8
想像線
 48
0.5
100
AcDbLine
 10
-756.5313583906609
 20
1095.293806222761
 30
0.0
 11
-756.5313583906605
 21
1092.793806222762
 31
0.0
  0
LINE
  5
1CC1D
330
1F
100
AcDbEntity
  8
想像線
 48
0.5
100
AcDbLine
 10
-759.531358390661
 20
1109.293806222759
 30
0.0
 11
-760.5313583906609
 21
1110.293806222758
 31
0.0
  0
LINE
  5
1CC1E
330
1F
100
AcDbEntity
  8
外形線
100
AcDbLine
 10
-454.3540333409977
 20
614.1488196644805
 30
0.0
 11
-454.3540333409977
 21
631.4237949793578
 31
0.0
  0
LINE
  5
1CC1F
330
1F
100
AcDbEntity
  8
外形線
100
AcDbLine
 10
-457.3540333409978
 20
616.2571506350587
 30
0.0
 11
-457.3540333409978
 21
631.4237941445508
 31
0.0
  0
LINE
  5
1CC20
330
1F
100
AcDbEntity
  8
外形線
100
AcDbLine
 10
-461.2277943466899
 20
638.7636081459622
 30
0.0
 11
-457.5140333409977
 21
617.2237943129466
 31
0.0
  0
ARC
  5
1CC21
330
1F
100
AcDbEntity
  8
外形線
100
AcDbCircle
 10
-464.0140333409981
 20
621.9237943129463
 30
0.0
 40
2.999999999999971
100
AcDbArc
 50
270.0
 51
90.0
  0
ARC
  5
1CC22
330
1F
100
AcDbEntity
  8
外形線
100
AcDbCircle
 10
-481.0140333409981
 20
621.9237943129463
 30
0.0
 40
2.999999999999971
100
AcDbArc
 50
90.0
 51
270.0
  0
LINE
  5
1CC23
330
1F
100
AcDbEntity
  8
外形線
100
AcDbLine
 10
-490.6740333409977
 20
614.1602859860502
 30
0.0
 11
-490.6740333409977
 21
631.4237941445508
 31
0.0
  0
LINE
  5
1CC24
330
1F
100
AcDbEntity
  8
外形線
100
AcDbLine
 10
-487.6740333409975
 20
616.2571506350595
 30
0.0
 11
-487.6740333409975
 21
631.4237949793578
 31
0.0
  0
LINE
  5
1CC25
330
1F
100
AcDbEntity
  8
外形線
100
AcDbLine
 10
-483.8002723353056
 20
638.7636081459622
 30
0.0
 11
-487.5140333409974
 21
617.2237943129466
 31
0.0
  0
LINE
  5
1CC26
330
1F
100
AcDbEntity
  8
外形線
100
AcDbLine
 10
-514.2533641366553
 20
559.0647179036355
 30
0.0
 11
-514.2533641366553
 21
657.2938062227617
 31
0.0
  0
LINE
  5
1CC27
330
1F
100
AcDbEntity
  8
外形線
100
AcDbLine
 10
-518.4533641366551
 20
559.0647179036355
 30
0.0
 11
-518.4533641366547
 21
657.2938062227621
 31
0.0
  0
CIRCLE
  5
1CC28
330
1F
100
AcDbEntity
  8
外形線
100
AcDbCircle
 10
-111.0208574093605
 20
767.2938062227663
 30
0.0
 40
315.0
  0
LINE
  5
1CC29
330
1F
100
AcDbEntity
  8
中心線
100
AcDbLine
 10
-111.0208574093605
 20
445.2924268464226
 30
0.0
 11
-111.0208574093605
 21
1089.295185599109
 31
0.0
  0
CIRCLE
  5
1CC2A
330
1F
100
AcDbEntity
  8
中心線
100
AcDbCircle
 10
-111.0208574093605
 20
767.2938062227663
 30
0.0
 40
290.0000000000001
  0
LINE
  5
1CC2B
330
1F
100
AcDbEntity
  8
外形線
100
AcDbLine
 10
-510.0533641366546
 20
426.4622595744659
 30
0.0
 11
-510.0533641366546
 21
434.933766148455
 31
0.0
  0
LINE
  5
1CC2C
330
1F
100
AcDbEntity
  8
外形線
100
AcDbLine
 10
-518.4533641366551
 20
426.4622595744659
 30
0.0
 11
-518.4533641366551
 21
551.013557492724
 31
0.0
  0
LINE
  5
1CC2D
330
1F
100
AcDbEntity
  8
外形線
100
AcDbLine
 10
-514.2533641366546
 20
426.4622595744659
 30
0.0
 11
-514.2533641366546
 21
551.013557492724
 31
0.0
  0
LINE
  5
1CC2E
330
1F
100
AcDbEntity
  8
外形線
100
AcDbLine
 10
-501.9533641366551
 20
326.2942399381595
 30
0.0
 11
-501.9533641366551
 21
334.7942399381595
 31
0.0
  0
LINE
  5
1CC2F
330
1F
100
AcDbEntity
  8
外形線
100
AcDbLine
 10
-507.7533641366551
 20
324.1942399381596
 30
0.0
 11
-507.7533641366551
 21
336.8942399381596
 31
0.0
  0
LINE
  5
1CC30
330
1F
100
AcDbEntity
  8
外形線
100
AcDbLine
 10
-520.7533641366548
 20
324.1942399381596
 30
0.0
 11
-520.7533641366548
 21
336.8942399381599
 31
0.0
  0
ARC
  5
1CC31
330
1F
100
AcDbEntity
  8
外形線
100
AcDbCircle
 10
-501.9533641366551
 20
330.5442399381595
 30
0.0
 40
6.350000000000022
100
AcDbArc
 50
270.0
 51
90.0
  0
CIRCLE
  5
1CC32
330
1F
100
AcDbEntity
  8
外形線
100
AcDbCircle
 10
-501.9533641366551
 20
330.5442399381595
 30
0.0
 40
4.25
  0
LINE
  5
1CC33
330
1F
100
AcDbEntity
  8
外形線
100
AcDbLine
 10
-526.5533641366548
 20
326.2942399381595
 30
0.0
 11
-526.5533641366548
 21
334.7942399381595
 31
0.0
  0
CIRCLE
  5
1CC34
330
1F
100
AcDbEntity
  8
外形線
100
AcDbCircle
 10
-526.5533641366548
 20
330.5442399381595
 30
0.0
 40
4.25
  0
ARC
  5
1CC35
330
1F
100
AcDbEntity
  8
外形線
100
AcDbCircle
 10
-526.5533641366548
 20
330.5442399381595
 30
0.0
 40
6.350000000000022
100
AcDbArc
 50
90.0
 51
270.0
  0
LINE
  5
1CC36
330
1F
100
AcDbEntity
  8
中心線
100
AcDbLine
 10
-514.2533641366553
 20
264.8321311964023
 30
0.0
 11
-514.2533641366546
 21
380.5942399381597
 31
0.0
  0
ARC
  5
1CC37
330
1F
100
AcDbEntity
  8
外形線
100
AcDbCircle
 10
-528.7033641366551
 20
316.0942399381597
 30
0.0
 40
3.0
100
AcDbArc
 50
180.0
 51
270.0
  0
ARC
  5
1CC38
330
1F
100
AcDbEntity
  8
外形線
100
AcDbCircle
 10
-529.9083641366546
 20
298.0715992510404
 30
0.0
 40
3.0
100
AcDbArc
 50
134.9999999999928
 51
180.0
  0
LINE
  5
1CC39
330
1F
100
AcDbEntity
  8
外形線
100
AcDbLine
 10
-532.9083641366546
 20
291.3142399381597
 30
0.0
 11
-495.5983641366549
 21
291.3142399381595
 31
0.0
  0
LINE
  5
1CC3A
330
1F
100
AcDbEntity
  8
外形線
100
AcDbLine
 10
-532.9083641366546
 20
289.8142399381597
 30
0.0
 11
-495.5983641366549
 21
289.8142399381597
 31
0.0
  0
LINE
  5
1CC3B
330
1F
100
AcDbEntity
  8
外形線
100
AcDbLine
 10
-532.9083641366546
 20
286.8142399381595
 30
0.0
 11
-495.5983641366549
 21
286.8142399381595
 31
0.0
  0
LINE
  5
1CC3C
330
1F
100
AcDbEntity
  8
外形線
100
AcDbLine
 10
-532.9083641366546
 20
286.8142399381595
 30
0.0
 11
-532.9083641366546
 21
289.8142399381597
 31
0.0
  0
LINE
  5
1CC3D
330
1F
100
AcDbEntity
  8
外形線
100
AcDbLine
 10
-532.9083641366546
 20
291.3142399381597
 30
0.0
 11
-532.9083641366546
 21
298.0715992510404
 31
0.0
  0
LINE
  5
1CC3E
330
1F
100
AcDbEntity
  8
外形線
100
AcDbLine
 10
-498.3783641366551
 20
269.0142399381595
 30
0.0
 11
-498.3783641366549
 21
286.8142399381595
 31
0.0
  0
LINE
  5
1CC3F
330
1F
100
AcDbEntity
  8
細線
100
AcDbLine
 10
-499.5783641366549
 20
267.8142399381595
 30
0.0
 11
-499.5783641366549
 21
283.7142399381596
 31
0.0
  0
LINE
  5
1CC40
330
1F
100
AcDbEntity
  8
外形線
100
AcDbLine
 10
-530.1283641366548
 20
269.0142399381595
 30
0.0
 11
-530.1283641366548
 21
286.8142399381595
 31
0.0
  0
LINE
  5
1CC41
330
1F
100
AcDbEntity
  8
細線
100
AcDbLine
 10
-528.9283641366551
 20
267.8142399381595
 30
0.0
 11
-528.9283641366551
 21
283.7142399381596
 31
0.0
  0
LINE
  5
1CC42
330
1F
100
AcDbEntity
  8
細線
100
AcDbLine
 10
-530.1283641366548
 20
269.0142399381595
 30
0.0
 11
-498.3783641366549
 21
269.0142399381595
 31
0.0
  0
LINE
  5
1CC43
330
1F
100
AcDbEntity
  8
外形線
100
AcDbLine
 10
-528.9283641366551
 20
267.8142399381595
 30
0.0
 11
-499.5783641366549
 21
267.8142399381595
 31
0.0
  0
LINE
  5
1CC44
330
1F
100
AcDbEntity
  8
外形線
100
AcDbLine
 10
-530.1283641366548
 20
269.0142399381595
 30
0.0
 11
-528.9283641366551
 21
267.8142399381595
 31
0.0
  0
LINE
  5
1CC45
330
1F
100
AcDbEntity
  8
外形線
100
AcDbLine
 10
-499.5783641366549
 20
267.8142399381595
 30
0.0
 11
-498.3783641366551
 21
269.0142399381595
 31
0.0
  0
LINE
  5
1CC46
330
1F
100
AcDbEntity
  8
外形線
100
AcDbLine
 10
-499.1721141366546
 20
304.1306306252788
 30
0.0
 11
-499.1721141366546
 21
310.8942399381599
 31
0.0
  0
LINE
  5
1CC47
330
1F
100
AcDbEntity
  8
外形線
100
AcDbLine
 10
-529.3346141366551
 20
304.1306306252788
 30
0.0
 11
-529.3346141366551
 21
310.8942399381596
 31
0.0
  0
LINE
  5
1CC48
330
1F
100
AcDbEntity
  8
外形線
100
AcDbLine
 10
-530.1283641366548
 20
283.7142399381596
 30
0.0
 11
-498.3783641366549
 21
283.7142399381596
 31
0.0
  0
ARC
  5
1CC49
330
1F
100
AcDbEntity
  8
外形線
100
AcDbCircle
 10
-532.3346141366548
 20
304.1306306252788
 30
0.0
 40
3.0
100
AcDbArc
 50
314.9999999999928
 51
0.0
  0
LINE
  5
1CC4A
330
1F
100
AcDbEntity
  8
外形線
100
AcDbLine
 10
-532.0296844802144
 20
300.1929195945997
 30
0.0
 11
-530.2132937930955
 21
302.0093102817193
 31
0.0
  0
LINE
  5
1CC4B
330
1F
100
AcDbEntity
  8
外形線
100
AcDbLine
 10
-528.6283641366549
 20
289.8142399381597
 30
0.0
 11
-528.6283641366549
 21
291.3142399381597
 31
0.0
  0
LINE
  5
1CC4C
330
1F
100
AcDbEntity
  8
細線
100
AcDbLine
 10
-528.9283641366551
 20
283.7142399381596
 30
0.0
 11
-530.1283641366553
 21
285.7927009072422
 31
0.0
  0
ARC
  5
1CC4D
330
1F
100
AcDbEntity
  8
外形線
100
AcDbCircle
 10
-496.1721141366552
 20
304.1306306252788
 30
0.0
 40
3.0
100
AcDbArc
 50
180.0
 51
225.0000000000071
  0
LINE
  5
1CC4E
330
1F
100
AcDbEntity
  8
外形線
100
AcDbLine
 10
-496.4770437930954
 20
300.1929195945997
 30
0.0
 11
-498.2934344802147
 21
302.0093102817193
 31
0.0
  0
ARC
  5
1CC4F
330
1F
100
AcDbEntity
  8
外形線
100
AcDbCircle
 10
-498.5983641366551
 20
298.0715992510404
 30
0.0
 40
3.0
100
AcDbArc
 50
0.0
 51
45.00000000000713
  0
LINE
  5
1CC50
330
1F
100
AcDbEntity
  8
細線
100
AcDbLine
 10
-499.5783641366549
 20
283.7142399381596
 30
0.0
 11
-498.3783641366551
 21
285.7927009072422
 31
0.0
  0
LINE
  5
1CC51
330
1F
100
AcDbEntity
  8
外形線
100
AcDbLine
 10
-499.8783641366546
 20
289.8142399381597
 30
0.0
 11
-499.8783641366546
 21
291.3142399381597
 31
0.0
  0
LINE
  5
1CC52
330
1F
100
AcDbEntity
  8
外形線
100
AcDbLine
 10
-495.5983641366549
 20
286.8142399381595
 30
0.0
 11
-495.5983641366549
 21
289.8142399381595
 31
0.0
  0
LINE
  5
1CC53
330
1F
100
AcDbEntity
  8
外形線
100
AcDbLine
 10
-495.5983641366547
 20
291.3142399381595
 30
0.0
 11
-495.5983641366547
 21
298.0715992510404
 31
0.0
  0
LINE
  5
1CC54
330
1F
100
AcDbEntity
  8
外形線
100
AcDbLine
 10
-529.3346141366551
 20
310.8942399381596
 30
0.0
 11
-499.1721141366546
 21
310.8942399381596
 31
0.0
  0
LINE
  5
1CC55
330
1F
100
AcDbEntity
  8
HIDDEN
 48
0.5
100
AcDbLine
 10
-528.1346141366547
 20
323.3942399381596
 30
0.0
 11
-500.3721141366554
 21
323.3942399381596
 31
0.0
  0
LINE
  5
1CC56
330
1F
100
AcDbEntity
  8
HIDDEN
 48
0.5
100
AcDbLine
 10
-529.3346141366551
 20
313.8942399381599
 30
0.0
 11
-499.1721141366546
 21
313.8942399381599
 31
0.0
  0
LINE
  5
1CC57
330
1F
100
AcDbEntity
  8
外形線
100
AcDbLine
 10
-526.5533641366548
 20
324.1942399381596
 30
0.0
 11
-501.9533641366551
 21
324.1942399381596
 31
0.0
  0
LINE
  5
1CC58
330
1F
100
AcDbEntity
  8
外形線
100
AcDbLine
 10
-528.7033641366551
 20
313.0942399381597
 30
0.0
 11
-499.8033641366546
 21
313.0942399381597
 31
0.0
  0
LINE
  5
1CC59
330
1F
100
AcDbEntity
  8
HIDDEN
 48
0.5
100
AcDbLine
 10
-529.3346141366551
 20
322.1942399381596
 30
0.0
 11
-528.1346141366547
 21
323.3942399381596
 31
0.0
  0
LINE
  5
1CC5A
330
1F
100
AcDbEntity
  8
外形線
100
AcDbLine
 10
-528.1346141366547
 20
310.8942399381596
 30
0.0
 11
-528.1346141366547
 21
313.0942399381597
 31
0.0
  0
LINE
  5
1CC5B
330
1F
100
AcDbEntity
  8
HIDDEN
 48
0.5
100
AcDbLine
 10
-529.3346141366551
 20
313.8942399381599
 30
0.0
 11
-529.3346141366551
 21
322.1942399381596
 31
0.0
  0
LINE
  5
1CC5C
330
1F
100
AcDbEntity
  8
HIDDEN
 48
0.5
100
AcDbLine
 10
-528.1346141366547
 20
313.0942399381597
 30
0.0
 11
-528.1346141366547
 21
323.3942399381596
 31
0.0
  0
LINE
  5
1CC5D
330
1F
100
AcDbEntity
  8
外形線
100
AcDbLine
 10
-531.7033641366547
 20
316.0942399381597
 30
0.0
 11
-531.7033641366547
 21
326.8294048139587
 31
0.0
  0
LINE
  5
1CC5E
330
1F
100
AcDbEntity
  8
HIDDEN
 48
0.5
100
AcDbLine
 10
-500.3721141366554
 20
323.3942399381596
 30
0.0
 11
-499.1721141366546
 21
322.1942399381596
 31
0.0
  0
ARC
  5
1CC5F
330
1F
100
AcDbEntity
  8
外形線
100
AcDbCircle
 10
-499.8033641366546
 20
316.0942399381597
 30
0.0
 40
3.0
100
AcDbArc
 50
270.0
 51
0.0
  0
LINE
  5
1CC60
330
1F
100
AcDbEntity
  8
外形線
100
AcDbLine
 10
-500.372114136655
 20
310.8942399381596
 30
0.0
 11
-500.372114136655
 21
313.0942399381595
 31
0.0
  0
LINE
  5
1CC61
330
1F
100
AcDbEntity
  8
HIDDEN
 48
0.5
100
AcDbLine
 10
-499.1721141366546
 20
313.8942399381599
 30
0.0
 11
-499.1721141366546
 21
322.1942399381596
 31
0.0
  0
LINE
  5
1CC62
330
1F
100
AcDbEntity
  8
HIDDEN
 48
0.5
100
AcDbLine
 10
-500.372114136655
 20
313.0942399381595
 30
0.0
 11
-500.372114136655
 21
323.3942399381596
 31
0.0
  0
LINE
  5
1CC63
330
1F
100
AcDbEntity
  8
外形線
100
AcDbLine
 10
-496.8033641366551
 20
316.0942399381597
 30
0.0
 11
-496.8033641366551
 21
326.8294048139587
 31
0.0
  0
LINE
  5
1CC64
330
1F
100
AcDbEntity
  8
外形線
100
AcDbLine
 10
-504.853364136655
 20
336.8942399381596
 30
0.0
 11
-504.8533641366545
 21
380.5942399381597
 31
0.0
  0
LINE
  5
1CC65
330
1F
100
AcDbEntity
  8
外形線
100
AcDbLine
 10
-523.6533641366545
 20
336.8942399381599
 30
0.0
 11
-523.6533641366545
 21
380.5942399381597
 31
0.0
  0
LINE
  5
1CC66
330
1F
100
AcDbEntity
  8
外形線
100
AcDbLine
 10
-526.5533641366548
 20
336.8942399381599
 30
0.0
 11
-501.9533641366551
 21
336.8942399381596
 31
0.0
  0
LINE
  5
1CC67
330
1F
100
AcDbEntity
  8
外形線
100
AcDbLine
 10
-510.0533641366546
 20
380.5942399381597
 30
0.0
 11
-510.0533641366546
 21
421.4622595744661
 31
0.0
  0
LINE
  5
1CC68
330
1F
100
AcDbEntity
  8
外形線
100
AcDbLine
 10
-514.2533641366546
 20
380.5942399381597
 30
0.0
 11
-514.2533641366546
 21
421.4622595744661
 31
0.0
  0
LINE
  5
1CC69
330
1F
100
AcDbEntity
  8
外形線
100
AcDbLine
 10
-518.4533641366551
 20
380.5942399381597
 30
0.0
 11
-518.4533641366551
 21
421.4622595744661
 31
0.0
  0
LINE
  5
1CC6A
330
1F
100
AcDbEntity
  8
外形線
100
AcDbLine
 10
-523.6533641366545
 20
380.5942399381597
 30
0.0
 11
-504.8533641366545
 21
380.5942399381597
 31
0.0
  0
LINE
  5
1CC6B
330
1F
100
AcDbEntity
  8
外形線
100
AcDbLine
 10
-518.6533641366549
 20
426.4622595744663
 30
0.0
 11
-509.8533641366546
 21
426.4622595744659
 31
0.0
  0
LINE
  5
1CC6C
330
1F
100
AcDbEntity
  8
外形線
100
AcDbLine
 10
-518.6533641366549
 20
421.4622595744661
 30
0.0
 11
-509.8533641366546
 21
421.4622595744661
 31
0.0
  0
LINE
  5
1CC6D
330
1F
100
AcDbEntity
  8
外形線
100
AcDbLine
 10
-518.6533641366549
 20
421.4622595744661
 30
0.0
 11
-518.6533641366549
 21
426.4622595744663
 31
0.0
  0
LINE
  5
1CC6E
330
1F
100
AcDbEntity
  8
外形線
100
AcDbLine
 10
-509.8533641366546
 20
421.4622595744661
 30
0.0
 11
-509.8533641366546
 21
426.4622595744659
 31
0.0
  0
ARC
  5
1CC6F
330
1F
100
AcDbEntity
  8
外形線
100
AcDbCircle
 10
-522.5140333409972
 20
530.386020307676
 30
0.0
 40
52.1
100
AcDbArc
 50
330.0000000000006
 51
0.0
  0
ARC
  5
1CC70
330
1F
100
AcDbEntity
  8
外形線
100
AcDbCircle
 10
-522.5140333409972
 20
530.386020307676
 30
0.0
 40
47.9
100
AcDbArc
 50
330.0000000000006
 51
0.0
  0
LINE
  5
1CC71
330
1F
100
AcDbEntity
  8
外形線
100
AcDbLine
 10
-481.031416499723
 20
506.436020307676
 30
0.0
 11
-507.2732876738244
 21
460.9837661484553
 31
0.0
  0
LINE
  5
1CC72
330
1F
100
AcDbEntity
  8
外形線
100
AcDbLine
 10
-477.3941098038283
 20
504.3360203076757
 30
0.0
 11
-503.6359809779296
 21
458.8837661484554
 31
0.0
  0
ARC
  5
1CC73
330
1F
100
AcDbEntity
  8
外形線
100
AcDbCircle
 10
-462.1533641366547
 20
434.933766148455
 30
0.0
 40
52.1
100
AcDbArc
 50
150.0000000000006
 51
180.0
  0
ARC
  5
1CC74
330
1F
100
AcDbEntity
  8
外形線
100
AcDbCircle
 10
-462.1533641366547
 20
434.933766148455
 30
0.0
 40
47.9
100
AcDbArc
 50
150.0000000000006
 51
180.0
  0
LINE
  5
1CC75
330
1F
100
AcDbEntity
  8
外形線
100
AcDbLine
 10
-458.3640333409971
 20
590.8237943129461
 30
0.0
 11
-458.3640333409971
 21
559.6620823593839
 31
0.0
  0
LINE
  5
1CC76
330
1F
100
AcDbEntity
  8
外形線
100
AcDbLine
 10
-486.6640333409984
 20
590.8237943129461
 30
0.0
 11
-486.6640333409984
 21
559.4695216632754
 31
0.0
  0
ARC
  5
1CC77
330
1F
100
AcDbEntity
  8
細線
100
AcDbCircle
 10
-517.4033648249879
 20
560.2450214623866
 30
0.0
 40
1.579751577084181
100
AcDbArc
 50
228.3436741432113
 51
311.6563926847128
  0
ARC
  5
1CC78
330
1F
100
AcDbEntity
  8
細線
100
AcDbCircle
 10
-517.4033634483212
 20
557.8844155695699
 30
0.0
 40
1.579751577084181
100
AcDbArc
 50
48.34367414321132
 51
131.6563926847128
  0
ARC
  5
1CC79
330
1F
100
AcDbEntity
  8
細線
100
AcDbCircle
 10
-515.3033648249889
 20
560.2450226870721
 30
0.0
 40
1.579751577084181
100
AcDbArc
 50
228.3436741432113
 51
311.6563926847128
  0
ARC
  5
1CC7A
330
1F
100
AcDbEntity
  8
細線
100
AcDbCircle
 10
-515.303364824988
 20
552.19386227616
 30
0.0
 40
1.579751577084181
100
AcDbArc
 50
228.3436741432113
 51
311.6563926847128
  0
ARC
  5
1CC7B
330
1F
100
AcDbEntity
  8
細線
100
AcDbCircle
 10
-515.3033634483217
 20
549.8332563833437
 30
0.0
 40
1.579751577084181
100
AcDbArc
 50
48.34367414321132
 51
131.6563926847128
  0
ARC
  5
1CC7C
330
1F
100
AcDbEntity
  8
細線
100
AcDbCircle
 10
-517.4033634483207
 20
549.8332551586577
 30
0.0
 40
1.579751577084181
100
AcDbArc
 50
48.34367414321132
 51
131.6563926847128
  0
ARC
  5
1CC7D
330
1F
100
AcDbEntity
  8
外形線
100
AcDbCircle
 10
-455.067284045022
 20
544.6745604078978
 30
0.0
 40
10.0
100
AcDbArc
 50
135.0000000000089
 51
165.0000000000055
  0
ARC
  5
1CC7E
330
1F
100
AcDbEntity
  8
外形線
100
AcDbCircle
 10
-489.9607826369726
 20
544.6745604078978
 30
0.0
 40
10.0
100
AcDbArc
 50
14.99999999999447
 51
44.999999999991
  0
LINE
  5
1CC7F
330
1F
100
AcDbEntity
  8
外形線
100
AcDbLine
 10
-472.5140333409972
 20
544.3237943129461
 30
0.0
 11
-466.2813603289762
 21
544.3237943129461
 31
0.0
  0
LINE
  5
1CC80
330
1F
100
AcDbEntity
  8
外形線
100
AcDbLine
 10
-469.6640333409978
 20
537.3237943129461
 30
0.0
 11
-475.3640333409978
 21
537.3237943129461
 31
0.0
  0
LINE
  5
1CC81
330
1F
100
AcDbEntity
  8
外形線
100
AcDbLine
 10
-475.3640333409978
 20
537.3237943129461
 30
0.0
 11
-475.3640333409978
 21
544.3237943129461
 31
0.0
  0
LINE
  5
1CC82
330
1F
100
AcDbEntity
  8
外形線
100
AcDbLine
 10
-472.5140333409972
 20
544.3237943129461
 30
0.0
 11
-478.7467063530185
 21
544.3237943129461
 31
0.0
  0
LINE
  5
1CC83
330
1F
100
AcDbEntity
  8
外形線
100
AcDbLine
 10
-474.6140333409971
 20
530.386020307676
 30
0.0
 11
-474.6140333409971
 21
537.3237943129461
 31
0.0
  0
LINE
  5
1CC84
330
1F
100
AcDbEntity
  8
外形線
100
AcDbLine
 10
-480.3015243740817
 20
547.262750858923
 30
0.0
 11
-479.7126321793075
 21
545.0649752678437
 31
0.0
  0
ARC
  5
1CC85
330
1F
100
AcDbEntity
  8
外形線
100
AcDbCircle
 10
-478.7467063530185
 20
545.3237943129461
 30
0.0
 40
1.0
100
AcDbArc
 50
194.9999999999944
 51
270.0
  0
ARC
  5
1CC86
330
1F
100
AcDbEntity
  8
外形線
100
AcDbCircle
 10
-466.2813603289762
 20
545.3237943129461
 30
0.0
 40
1.0
100
AcDbArc
 50
270.0
 51
345.0000000000055
  0
LINE
  5
1CC87
330
1F
100
AcDbEntity
  8
外形線
100
AcDbLine
 10
-469.6640333409978
 20
544.3237943129461
 30
0.0
 11
-469.6640333409978
 21
537.3237943129461
 31
0.0
  0
LINE
  5
1CC88
330
1F
100
AcDbEntity
  8
外形線
100
AcDbLine
 10
-470.4140333409973
 20
530.386020307676
 30
0.0
 11
-470.4140333409973
 21
537.3237943129461
 31
0.0
  0
LINE
  5
1CC89
330
1F
100
AcDbEntity
  8
外形線
100
AcDbLine
 10
-464.7265423079129
 20
547.262750858923
 30
0.0
 11
-465.3154345026873
 21
545.0649752678437
 31
0.0
  0
ARC
  5
1CC8A
330
1F
100
AcDbEntity
  8
外形線
100
AcDbCircle
 10
-483.2934776011557
 20
560.3237943129461
 30
0.0
 40
1.0
100
AcDbArc
 50
270.0
 51
330.0000000807507
  0
LINE
  5
1CC8B
330
1F
100
AcDbEntity
  8
外形線
100
AcDbLine
 10
-484.1640333409982
 20
560.5397415364386
 30
0.0
 11
-484.1640333409982
 21
562.8144790600726
 31
0.0
  0
LINE
  5
1CC8C
330
1F
100
AcDbEntity
  8
外形線
100
AcDbLine
 10
-481.5629369038295
 20
562.3211787301543
 30
0.0
 11
-482.430472420521
 21
563.823794312946
 31
0.0
  0
LINE
  5
1CC8D
330
1F
100
AcDbEntity
  8
外形線
100
AcDbLine
 10
-481.5629369038295
 20
561.3211787301543
 30
0.0
 11
-482.4274521966668
 21
559.8237943141667
 31
0.0
  0
ARC
  5
1CC8E
330
1F
100
AcDbEntity
  8
外形線
100
AcDbCircle
 10
-483.2964978243055
 20
563.3237943129461
 30
0.0
 40
1.0
100
AcDbArc
 50
29.99999999999932
 51
90.0
  0
ARC
  5
1CC8F
330
1F
100
AcDbEntity
  8
外形線
100
AcDbCircle
 10
-482.4289623076138
 20
561.8211787301543
 30
0.0
 40
1.0
100
AcDbArc
 50
330.0000000000006
 51
29.99999999999932
  0
LINE
  5
1CC90
330
1F
100
AcDbEntity
  8
外形線
100
AcDbLine
 10
-485.402991820259
 20
561.8211787206637
 30
0.0
 11
-483.0861295276681
 21
561.8211787206637
 31
0.0
  0
LINE
  5
1CC91
330
1F
100
AcDbEntity
  8
外形線
100
AcDbLine
 10
-483.7351011528633
 20
552.5910145475188
 30
0.0
 11
-482.8897148251058
 21
551.7456282197618
 31
0.0
  0
LINE
  5
1CC92
330
1F
100
AcDbEntity
  8
外形線
100
AcDbLine
 10
-483.2934776011557
 20
559.323794312946
 30
0.0
 11
-486.6640333409984
 21
559.323794312946
 31
0.0
  0
CIRCLE
  5
1CC93
330
1F
100
AcDbEntity
  8
外形線
100
AcDbCircle
 10
-484.1640333409984
 20
561.8211787206646
 30
0.0
 40
1.75
  0
LINE
  5
1CC94
330
1F
100
AcDbEntity
  8
外形線
100
AcDbLine
 10
-483.2964978243055
 20
564.3237943129461
 30
0.0
 11
-486.6640333409987
 21
564.3237943129461
 31
0.0
  0
ARC
  5
1CC95
330
1F
100
AcDbEntity
  8
外形線
100
AcDbCircle
 10
-476.6640333409977
 20
559.6620823593839
 30
0.0
 40
10.0
100
AcDbArc
 50
180.0
 51
225.0000000000094
  0
LINE
  5
1CC96
330
1F
100
AcDbEntity
  8
外形線
100
AcDbLine
 10
-460.8640333409971
 20
560.5397415364386
 30
0.0
 11
-460.8640333409971
 21
562.8144790600726
 31
0.0
  0
LINE
  5
1CC97
330
1F
100
AcDbEntity
  8
外形線
100
AcDbLine
 10
-459.6250748617363
 20
561.8211787206637
 30
0.0
 11
-461.9419371543274
 21
561.8211787206637
 31
0.0
  0
LINE
  5
1CC98
330
1F
100
AcDbEntity
  8
外形線
100
AcDbLine
 10
-461.2929655291313
 20
552.5910145475188
 30
0.0
 11
-462.1383518568891
 21
551.7456282197618
 31
0.0
  0
LINE
  5
1CC99
330
1F
100
AcDbEntity
  8
外形線
100
AcDbLine
 10
-463.4651297781661
 20
561.3211787301543
 30
0.0
 11
-462.6006144853286
 21
559.8237943141667
 31
0.0
  0
LINE
  5
1CC9A
330
1F
100
AcDbEntity
  8
外形線
100
AcDbLine
 10
-463.4651297781661
 20
562.3211787301543
 30
0.0
 11
-462.5975942614741
 21
563.823794312946
 31
0.0
  0
ARC
  5
1CC9B
330
1F
100
AcDbEntity
  8
外形線
100
AcDbCircle
 10
-462.5991043743815
 20
561.8211787301543
 30
0.0
 40
1.0
100
AcDbArc
 50
150.0000000000006
 51
209.9999999999993
  0
ARC
  5
1CC9C
330
1F
100
AcDbEntity
  8
外形線
100
AcDbCircle
 10
-461.7345890808397
 20
560.3237943129461
 30
0.0
 40
1.0
100
AcDbArc
 50
209.9999999192493
 51
270.0
  0
ARC
  5
1CC9D
330
1F
100
AcDbEntity
  8
外形線
100
AcDbCircle
 10
-461.73156885769
 20
563.3237943129461
 30
0.0
 40
1.0
100
AcDbArc
 50
90.0
 51
150.0000000000006
  0
CIRCLE
  5
1CC9E
330
1F
100
AcDbEntity
  8
外形線
100
AcDbCircle
 10
-460.8640333409971
 20
561.8211787206646
 30
0.0
 40
1.75
  0
LINE
  5
1CC9F
330
1F
100
AcDbEntity
  8
外形線
100
AcDbLine
 10
-461.7345890808397
 20
559.323794312946
 30
0.0
 11
-458.3640333409971
 21
559.323794312946
 31
0.0
  0
LINE
  5
1CCA0
330
1F
100
AcDbEntity
  8
外形線
100
AcDbLine
 10
-461.73156885769
 20
564.3237943129461
 30
0.0
 11
-458.3640333409967
 21
564.3237943129461
 31
0.0
  0
ARC
  5
1CCA1
330
1F
100
AcDbEntity
  8
外形線
100
AcDbCircle
 10
-468.3640333409971
 20
559.6620823593839
 30
0.0
 40
10.0
100
AcDbArc
 50
314.9999999999905
 51
0.0
  0
LINE
  5
1CCA2
330
1F
100
AcDbEntity
  8
外形線
100
AcDbLine
 10
-492.5140333409975
 20
610.7237943129466
 30
0.0
 11
-485.914033340998
 21
610.7237943129466
 31
0.0
  0
ARC
  5
1CCA3
330
1F
100
AcDbEntity
  8
外形線
100
AcDbCircle
 10
-490.5140333409981
 20
612.2237943129467
 30
0.0
 40
2.0
100
AcDbArc
 50
90.0
 51
180.0
  0
LINE
  5
1CCA4
330
1F
100
AcDbEntity
  8
外形線
100
AcDbLine
 10
-485.914033340998
 20
602.7237943129466
 30
0.0
 11
-492.5140333409975
 21
602.7237943129466
 31
0.0
  0
LINE
  5
1CCA5
330
1F
100
AcDbEntity
  8
外形線
100
AcDbLine
 10
-492.5140333409975
 20
599.4237943129474
 30
0.0
 11
-480.5140333409974
 21
599.4237943129474
 31
0.0
  0
LINE
  5
1CCA6
330
1F
100
AcDbEntity
  8
外形線
100
AcDbLine
 10
-486.404033340998
 20
598.2237943129466
 30
0.0
 11
-491.9440333409982
 21
598.2237943129466
 31
0.0
  0
ARC
  5
1CCA7
330
1F
100
AcDbEntity
  8
外形線
100
AcDbCircle
 10
-491.3140333409983
 20
585.5237943129468
 30
0.0
 40
1.0
100
AcDbArc
 50
180.0
 51
270.0
  0
LINE
  5
1CCA8
330
1F
100
AcDbEntity
  8
外形線
100
AcDbLine
 10
-492.5140333409975
 20
598.2237943129466
 30
0.0
 11
-485.5140333409972
 21
598.2237943129466
 31
0.0
  0
LINE
  5
1CCA9
330
1F
100
AcDbEntity
  8
外形線
100
AcDbLine
 10
-492.3140333409983
 20
592.0237943129468
 30
0.0
 11
-480.4140333409984
 21
592.0237943129468
 31
0.0
  0
LINE
  5
1CCAA
330
1F
100
AcDbEntity
  8
外形線
100
AcDbLine
 10
-492.3140333409983
 20
590.8237943129461
 30
0.0
 11
-480.4140333409984
 21
590.8237943129461
 31
0.0
  0
LINE
  5
1CCAB
330
1F
100
AcDbEntity
  8
外形線
100
AcDbLine
 10
-492.5140333409975
 20
612.2237943129467
 30
0.0
 11
-492.5140333409975
 21
598.2237943129466
 31
0.0
  0
LINE
  5
1CCAC
330
1F
100
AcDbEntity
  8
外形線
100
AcDbLine
 10
-492.3140333409983
 20
585.5237943129468
 30
0.0
 11
-492.3140333409983
 21
592.0237943129468
 31
0.0
  0
LINE
  5
1CCAD
330
1F
100
AcDbEntity
  8
外形線
100
AcDbLine
 10
-491.9440333409982
 20
598.2237943129466
 30
0.0
 11
-491.9440333409982
 21
592.0237943129468
 31
0.0
  0
LINE
  5
1CCAE
330
1F
100
AcDbEntity
  8
外形線
100
AcDbLine
 10
-452.5140333409977
 20
598.2237943129466
 30
0.0
 11
-452.5140333409977
 21
612.2237943129467
 31
0.0
  0
LINE
  5
1CCAF
330
1F
100
AcDbEntity
  8
外形線
100
AcDbLine
 10
-464.5140333409972
 20
596.9237943129473
 30
0.0
 11
-464.5140333409972
 21
599.4237943129474
 31
0.0
  0
LINE
  5
1CCB0
330
1F
100
AcDbEntity
  8
外形線
100
AcDbLine
 10
-480.5140333409974
 20
599.4237943129474
 30
0.0
 11
-480.5140333409974
 21
596.9237943129473
 31
0.0
  0
LINE
  5
1CCB1
330
1F
100
AcDbEntity
  8
細線
100
AcDbLine
 10
-459.5140333409976
 20
593.7852515032755
 30
0.0
 11
-472.5140333409972
 21
593.7852515032755
 31
0.0
  0
LINE
  5
1CCB2
330
1F
100
AcDbEntity
  8
外形線
100
AcDbLine
 10
-480.5140333409974
 20
596.9237943129473
 30
0.0
 11
-464.5140333409972
 21
596.9237943129473
 31
0.0
  0
LINE
  5
1CCB3
330
1F
100
AcDbEntity
  8
外形線
100
AcDbLine
 10
-480.4140333409984
 20
593.323794312947
 30
0.0
 11
-464.6140333409971
 21
593.3237943129461
 31
0.0
  0
LINE
  5
1CCB4
330
1F
100
AcDbEntity
  8
細線
100
AcDbLine
 10
-459.9140333409973
 20
598.0237943129459
 30
0.0
 11
-485.1140333409983
 21
598.0237943129459
 31
0.0
  0
LINE
  5
1CCB5
330
1F
100
AcDbEntity
  8
外形線
100
AcDbLine
 10
-485.5140333409972
 20
598.2237943129466
 30
0.0
 11
-480.5140333409974
 21
598.2237943129466
 31
0.0
  0
LINE
  5
1CCB6
330
1F
100
AcDbEntity
  8
外形線
100
AcDbLine
 10
-480.4140333409984
 20
590.8237943129461
 30
0.0
 11
-480.4140333409984
 21
593.323794312947
 31
0.0
  0
LINE
  5
1CCB7
330
1F
100
AcDbEntity
  8
細線
100
AcDbLine
 10
-485.1140333409983
 20
598.0237943129459
 30
0.0
 11
-485.1140333409983
 21
592.0237943129468
 31
0.0
  0
LINE
  5
1CCB8
330
1F
100
AcDbEntity
  8
細線
100
AcDbLine
 10
-485.5140333409972
 20
598.2237943129466
 30
0.0
 11
-485.5140333409972
 21
593.7852515032755
 31
0.0
  0
LINE
  5
1CCB9
330
1F
100
AcDbEntity
  8
細線
100
AcDbLine
 10
-485.5140333409972
 20
593.7852515032755
 30
0.0
 11
-472.5140333409972
 21
593.7852515032764
 31
0.0
  0
LINE
  5
1CCBA
330
1F
100
AcDbEntity
  8
外形線
100
AcDbLine
 10
-491.3140333409983
 20
584.5237943129468
 30
0.0
 11
-486.6640333409984
 21
584.5237943129477
 31
0.0
  0
ARC
  5
1CCBB
330
1F
100
AcDbEntity
  8
外形線
100
AcDbCircle
 10
-489.174033340998
 20
585.3362943129468
 30
0.0
 40
3.312499999999939
100
AcDbArc
 50
238.1092081981544
 51
301.8907918018559
  0
LINE
  5
1CCBC
330
1F
100
AcDbEntity
  8
外形線
100
AcDbLine
 10
-490.9240333409977
 20
582.5237943129468
 30
0.0
 11
-487.4240333409978
 21
582.5237943129468
 31
0.0
  0
LINE
  5
1CCBD
330
1F
100
AcDbEntity
  8
外形線
100
AcDbLine
 10
-487.4240333409978
 20
584.5237943129468
 30
0.0
 11
-487.4240333409978
 21
582.5237943129468
 31
0.0
  0
LINE
  5
1CCBE
330
1F
100
AcDbEntity
  8
外形線
100
AcDbLine
 10
-490.9240333409977
 20
584.5237943129468
 30
0.0
 11
-490.9240333409977
 21
582.5237943129468
 31
0.0
  0
LINE
  5
1CCBF
330
1F
100
AcDbEntity
  8
細線
100
AcDbLine
 10
-486.6240333409973
 20
591.9237943129465
 30
0.0
 11
-486.6240333409978
 21
598.2237943129466
 31
0.0
  0
LINE
  5
1CCC0
330
1F
100
AcDbEntity
  8
細線
100
AcDbLine
 10
-486.404033340998
 20
598.2237943129466
 30
0.0
 11
-486.404033340998
 21
592.0237943129468
 31
0.0
  0
LINE
  5
1CCC1
330
1F
100
AcDbEntity
  8
外形線
100
AcDbLine
 10
-464.5140333409972
 20
598.2237943129466
 30
0.0
 11
-459.5140333409976
 21
598.2237943129466
 31
0.0
  0
LINE
  5
1CCC2
330
1F
100
AcDbEntity
  8
外形線
100
AcDbLine
 10
-459.5140333409976
 20
598.2237943129466
 30
0.0
 11
-452.5140333409977
 21
598.2237943129466
 31
0.0
  0
LINE
  5
1CCC3
330
1F
100
AcDbEntity
  8
外形線
100
AcDbLine
 10
-458.6240333409973
 20
598.2237943129466
 30
0.0
 11
-453.0840333409973
 21
598.2237943129466
 31
0.0
  0
LINE
  5
1CCC4
330
1F
100
AcDbEntity
  8
外形線
100
AcDbLine
 10
-452.714033340997
 20
585.5237943129468
 30
0.0
 11
-452.714033340997
 21
592.0237943129468
 31
0.0
  0
ARC
  5
1CCC5
330
1F
100
AcDbEntity
  8
外形線
100
AcDbCircle
 10
-453.7140333409968
 20
585.5237943129468
 30
0.0
 40
1.0
100
AcDbArc
 50
270.0
 51
0.0
  0
LINE
  5
1CCC6
330
1F
100
AcDbEntity
  8
外形線
100
AcDbLine
 10
-453.7140333409968
 20
584.5237943129468
 30
0.0
 11
-458.3640333409971
 21
584.5237943129477
 31
0.0
  0
LINE
  5
1CCC7
330
1F
100
AcDbEntity
  8
外形線
100
AcDbLine
 10
-454.1040333409978
 20
582.5237943129468
 30
0.0
 11
-457.6040333409978
 21
582.5237943129468
 31
0.0
  0
ARC
  5
1CCC8
330
1F
100
AcDbEntity
  8
外形線
100
AcDbCircle
 10
-455.8540333409974
 20
585.3362943129468
 30
0.0
 40
3.312499999999939
100
AcDbArc
 50
238.109208198144
 51
301.8907918018455
  0
LINE
  5
1CCC9
330
1F
100
AcDbEntity
  8
外形線
100
AcDbLine
 10
-457.6040333409978
 20
584.5237943129468
 30
0.0
 11
-457.6040333409978
 21
582.5237943129468
 31
0.0
  0
LINE
  5
1CCCA
330
1F
100
AcDbEntity
  8
外形線
100
AcDbLine
 10
-454.1040333409978
 20
584.5237943129468
 30
0.0
 11
-454.1040333409978
 21
582.5237943129468
 31
0.0
  0
LINE
  5
1CCCB
330
1F
100
AcDbEntity
  8
細線
100
AcDbLine
 10
-459.9140333409973
 20
598.0237943129459
 30
0.0
 11
-459.9140333409973
 21
592.0237943129468
 31
0.0
  0
LINE
  5
1CCCC
330
1F
100
AcDbEntity
  8
外形線
100
AcDbLine
 10
-464.6140333409971
 20
593.3237943129461
 30
0.0
 11
-464.6140333409971
 21
590.8237943129461
 31
0.0
  0
LINE
  5
1CCCD
330
1F
100
AcDbEntity
  8
外形線
100
AcDbLine
 10
-464.6140333409971
 20
590.8237943129461
 30
0.0
 11
-464.6140333409971
 21
593.3237943129461
 31
0.0
  0
LINE
  5
1CCCE
330
1F
100
AcDbEntity
  8
外形線
100
AcDbLine
 10
-452.714033340997
 20
590.8237943129461
 30
0.0
 11
-464.6140333409971
 21
590.8237943129461
 31
0.0
  0
LINE
  5
1CCCF
330
1F
100
AcDbEntity
  8
外形線
100
AcDbLine
 10
-452.714033340997
 20
592.0237943129468
 30
0.0
 11
-464.6140333409971
 21
592.0237943129468
 31
0.0
  0
LINE
  5
1CCD0
330
1F
100
AcDbEntity
  8
細線
100
AcDbLine
 10
-459.5140333409976
 20
593.7852515032755
 30
0.0
 11
-459.5140333409976
 21
598.2237943129466
 31
0.0
  0
LINE
  5
1CCD1
330
1F
100
AcDbEntity
  8
細線
100
AcDbLine
 10
-458.6240333409973
 20
598.2237943129466
 30
0.0
 11
-458.6240333409973
 21
592.0237943129468
 31
0.0
  0
LINE
  5
1CCD2
330
1F
100
AcDbEntity
  8
外形線
100
AcDbLine
 10
-453.0840333409973
 20
598.2237943129466
 30
0.0
 11
-453.0840333409973
 21
592.0237943129468
 31
0.0
  0
LINE
  5
1CCD3
330
1F
100
AcDbEntity
  8
外形線
100
AcDbLine
 10
-481.0140333409972
 20
618.9237943129474
 30
0.0
 11
-464.0140333409974
 21
618.9237943129474
 31
0.0
  0
ARC
  5
1CCD4
330
1F
100
AcDbEntity
  8
外形線
100
AcDbCircle
 10
-472.5140333409981
 20
621.9237943129463
 30
0.0
 40
8.5
100
AcDbArc
 50
200.6673164934932
 51
339.3326835065067
  0
ARC
  5
1CCD5
330
1F
100
AcDbEntity
  8
外形線
100
AcDbCircle
 10
-490.5140333409981
 20
617.2237943129466
 30
0.0
 40
3.0
100
AcDbArc
 50
270.0
 51
0.0
  0
LINE
  5
1CCD6
330
1F
100
AcDbEntity
  8
細線
100
AcDbLine
 10
-491.5140333409974
 20
609.4391347367907
 30
0.0
 11
-488.5140333409974
 21
609.4391347367907
 31
0.0
  0
LINE
  5
1CCD7
330
1F
100
AcDbEntity
  8
細線
100
AcDbLine
 10
-488.5140333409974
 20
604.4391347367905
 30
0.0
 11
-491.5140333409974
 21
604.4391347367905
 31
0.0
  0
LINE
  5
1CCD8
330
1F
100
AcDbEntity
  8
細線
100
AcDbLine
 10
-489.6371206737951
 20
609.4391347367907
 30
0.0
 11
-489.6371206737951
 21
604.4391347367905
 31
0.0
  0
LINE
  5
1CCD9
330
1F
100
AcDbEntity
  8
細線
100
AcDbLine
 10
-488.5140333409974
 20
609.4391347367907
 30
0.0
 11
-488.5140333409974
 21
604.4391347367905
 31
0.0
  0
LINE
  5
1CCDA
330
1F
100
AcDbEntity
  8
細線
100
AcDbLine
 10
-491.5140333409974
 20
604.4391347367905
 30
0.0
 11
-491.5140333409974
 21
609.4391347367907
 31
0.0
  0
LINE
  5
1CCDB
330
1F
100
AcDbEntity
  8
外形線
100
AcDbLine
 10
-485.914033340998
 20
610.7237943129466
 30
0.0
 11
-485.914033340998
 21
602.7237943129466
 31
0.0
  0
ARC
  5
1CCDC
330
1F
100
AcDbEntity
  8
外形線
100
AcDbCircle
 10
-454.5140333409981
 20
617.2237943129466
 30
0.0
 40
3.0
100
AcDbArc
 50
180.0
 51
270.0
  0
ARC
  5
1CCDD
330
1F
100
AcDbEntity
  8
外形線
100
AcDbCircle
 10
-454.5140333409981
 20
612.2237943129467
 30
0.0
 40
2.0
100
AcDbArc
 50
0.0
 51
90.0
  0
LINE
  5
1CCDE
330
1F
100
AcDbEntity
  8
細線
100
AcDbLine
 10
-455.3909460082008
 20
609.4391347367907
 30
0.0
 11
-455.3909460082008
 21
604.4391347367905
 31
0.0
  0
LINE
  5
1CCDF
330
1F
100
AcDbEntity
  8
細線
100
AcDbLine
 10
-456.5140333409977
 20
609.4391347367907
 30
0.0
 11
-456.5140333409977
 21
604.4391347367905
 31
0.0
  0
LINE
  5
1CCE0
330
1F
100
AcDbEntity
  8
細線
100
AcDbLine
 10
-453.5140333409977
 20
604.4391347367905
 30
0.0
 11
-453.5140333409977
 21
609.4391347367907
 31
0.0
  0
LINE
  5
1CCE1
330
1F
100
AcDbEntity
  8
細線
100
AcDbLine
 10
-453.5140333409977
 20
609.4391347367907
 30
0.0
 11
-456.5140333409977
 21
609.4391347367907
 31
0.0
  0
LINE
  5
1CCE2
330
1F
100
AcDbEntity
  8
細線
100
AcDbLine
 10
-456.5140333409977
 20
604.4391347367905
 30
0.0
 11
-453.5140333409977
 21
604.4391347367905
 31
0.0
  0
LINE
  5
1CCE3
330
1F
100
AcDbEntity
  8
外形線
100
AcDbLine
 10
-459.1140333409978
 20
610.7237943129466
 30
0.0
 11
-459.1140333409978
 21
602.7237943129466
 31
0.0
  0
LINE
  5
1CCE4
330
1F
100
AcDbEntity
  8
外形線
100
AcDbLine
 10
-452.5140333409977
 20
610.7237943129466
 30
0.0
 11
-459.1140333409978
 21
610.7237943129466
 31
0.0
  0
LINE
  5
1CCE5
330
1F
100
AcDbEntity
  8
外形線
100
AcDbLine
 10
-459.1140333409978
 20
602.7237943129466
 30
0.0
 11
-452.5140333409977
 21
602.7237943129466
 31
0.0
  0
LINE
  5
1CCE6
330
1F
100
AcDbEntity
  8
外形線
100
AcDbLine
 10
-464.5140333409972
 20
599.4237943129474
 30
0.0
 11
-452.5140333409977
 21
599.4237943129474
 31
0.0
  0
CIRCLE
  5
1CCE7
330
1F
100
AcDbEntity
  8
外形線
100
AcDbCircle
 10
-366.2820283862529
 20
596.7337446857632
 30
0.0
 40
6.5
  0
CIRCLE
  5
1CCE8
330
1F
100
AcDbEntity
  8
細線
100
AcDbCircle
 10
-316.0818239534601
 20
562.2328396786672
 30
0.0
 40
8.0
  0
CIRCLE
  5
1CCE9
330
1F
100
AcDbEntity
  8
外形線
100
AcDbCircle
 10
-316.0818239534601
 20
562.2328396786672
 30
0.0
 40
6.400000000000241
  0
LINE
  5
1CCEA
330
1F
100
AcDbEntity
  8
中心線
100
AcDbLine
 10
-307.2129096144131
 20
571.1017540177143
 30
0.0
 11
-324.9507382925076
 21
553.3639253396207
 31
0.0
  0
LINE
  5
1CCEB
330
1F
100
AcDbEntity
  8
外形線
100
AcDbLine
 10
-366.508591478147
 20
600.1904293892278
 30
0.0
 11
-369.3888866924755
 21
598.2658776561122
 31
0.0
  0
LINE
  5
1CCEC
330
1F
100
AcDbEntity
  8
外形線
100
AcDbLine
 10
-363.4017325898946
 20
598.6582968077773
 30
0.0
 11
-363.175169664295
 21
595.2016119931977
 31
0.0
  0
LINE
  5
1CCED
330
1F
100
AcDbEntity
  8
外形線
100
AcDbLine
 10
-366.0554657100931
 20
593.2770597045118
 30
0.0
 11
-369.1623241826096
 21
594.809192563747
 31
0.0
  0
LINE
  5
1CCEE
330
1F
100
AcDbEntity
  8
外形線
100
AcDbLine
 10
-363.1751700800295
 20
595.2016117154125
 30
0.0
 11
-366.0554652943576
 21
593.277059982297
 31
0.0
  0
LINE
  5
1CCEF
330
1F
100
AcDbEntity
  8
外形線
100
AcDbLine
 10
-369.1623236005807
 20
594.8091929526468
 30
0.0
 11
-369.3888866093293
 21
598.2658777116698
 31
0.0
  0
LINE
  5
1CCF0
330
1F
100
AcDbEntity
  8
外形線
100
AcDbLine
 10
-363.4017331719235
 20
598.6582964188778
 30
0.0
 11
-366.5085915612944
 21
600.1904293336711
 31
0.0
  0
LINE
  5
1CCF1
330
1F
100
AcDbEntity
  8
外形線
100
AcDbLine
 10
-279.6563668243784
 20
514.9129310422515
 30
0.0
 11
-278.1242339651435
 21
511.8060725697343
 31
0.0
  0
LINE
  5
1CCF2
330
1F
100
AcDbEntity
  8
外形線
100
AcDbLine
 10
-278.1242342429282
 20
511.8060721539993
 30
0.0
 11
-280.0487859760433
 21
508.925776939671
 31
0.0
  0
LINE
  5
1CCF3
330
1F
100
AcDbEntity
  8
外形線
100
AcDbLine
 10
-283.5054706795085
 20
509.1523400315652
 30
0.0
 11
-285.0376035943027
 21
512.2591984209357
 31
0.0
  0
LINE
  5
1CCF4
330
1F
100
AcDbEntity
  8
外形線
100
AcDbLine
 10
-283.1130519167436
 20
515.1394935521166
 30
0.0
 11
-285.0376036498587
 21
512.2591983377883
 31
0.0
  0
LINE
  5
1CCF5
330
1F
100
AcDbEntity
  8
外形線
100
AcDbLine
 10
-280.0487862538289
 20
508.9257765239358
 30
0.0
 11
-283.5054710684078
 21
509.1523394495361
 31
0.0
  0
LINE
  5
1CCF6
330
1F
100
AcDbEntity
  8
外形線
100
AcDbLine
 10
-279.6563672132774
 20
514.9129304602227
 30
0.0
 11
-283.1130519723008
 21
515.1394934689704
 31
0.0
  0
CIRCLE
  5
1CCF7
330
1F
100
AcDbEntity
  8
外形線
100
AcDbCircle
 10
-281.5809189463939
 20
512.0326352458946
 30
0.0
 40
6.5
  0
LINE
  5
1CCF8
330
1F
100
AcDbEntity
  8
外形線
100
AcDbLine
 10
-168.3091368729851
 20
463.9086837529853
 30
0.0
 11
-171.5893991015325
 21
462.7951845933258
 31
0.0
  0
LINE
  5
1CCF9
330
1F
100
AcDbEntity
  8
外形線
100
AcDbLine
 10
-170.237773435125
 20
469.5902656846285
 30
0.0
 11
-167.633323981254
 21
467.3062245928718
 31
0.0
  0
CIRCLE
  5
1CCFA
330
1F
100
AcDbEntity
  8
外形線
100
AcDbCircle
 10
-170.9135862683301
 20
466.1927251389784
 30
0.0
 40
6.5
  0
LINE
  5
1CCFB
330
1F
100
AcDbEntity
  8
外形線
100
AcDbLine
 10
-171.5893989649694
 20
462.7951852798758
 30
0.0
 11
-174.1938484383508
 21
465.0792262735533
 31
0.0
  0
LINE
  5
1CCFC
330
1F
100
AcDbEntity
  8
外形線
100
AcDbLine
 10
-173.5180357612186
 20
468.476766034576
 30
0.0
 11
-174.1938484578588
 21
465.079226175475
 31
0.0
  0
LINE
  5
1CCFD
330
1F
100
AcDbEntity
  8
外形線
100
AcDbLine
 10
-170.2377735716881
 20
469.5902649980784
 30
0.0
 11
-173.518035780728
 21
468.4767659364977
 31
0.0
  0
LINE
  5
1CCFE
330
1F
100
AcDbEntity
  8
外形線
100
AcDbLine
 10
-167.6333240787987
 20
467.3062241024792
 30
0.0
 11
-168.3091367754395
 21
463.9086842433782
 31
0.0
  0
LINE
  5
1CCFF
330
1F
100
AcDbEntity
  8
外形線
100
AcDbLine
 10
-47.84786626335107
 20
465.079225685075
 30
0.0
 11
-50.45231571722206
 21
462.7951845933191
 31
0.0
  0
LINE
  5
1CD00
330
1F
100
AcDbEntity
  8
外形線
100
AcDbLine
 10
-48.52367905753681
 20
468.4767660345691
 30
0.0
 11
-47.8478663608962
 21
465.0792261754681
 31
0.0
  0
CIRCLE
  5
1CD01
330
1F
100
AcDbEntity
  8
外形線
100
AcDbCircle
 10
-51.12812855042739
 20
466.1927251389702
 30
0.0
 40
6.5
  0
CIRCLE
  5
1CD02
330
1F
100
AcDbEntity
  8
細線
100
AcDbCircle
 10
-111.0208574093605
 20
477.2938062227658
 30
0.0
 40
8.0
  0
CIRCLE
  5
1CD03
330
1F
100
AcDbEntity
  8
外形線
100
AcDbCircle
 10
-111.0208574093605
 20
477.2938062227658
 30
0.0
 40
6.400000000000241
  0
LINE
  5
1CD04
330
1F
100
AcDbEntity
  8
外形線
100
AcDbLine
 10
-50.45231585378542
 20
462.7951852798694
 30
0.0
 11
-53.73257806282527
 21
463.9086843414495
 31
0.0
  0
LINE
  5
1CD05
330
1F
100
AcDbEntity
  8
外形線
100
AcDbLine
 10
-54.4083907399563
 20
467.3062241024722
 30
0.0
 11
-53.73257804331569
 21
463.9086842433711
 31
0.0
  0
LINE
  5
1CD06
330
1F
100
AcDbEntity
  8
外形線
100
AcDbLine
 10
-51.80394124706663
 20
469.5902649980719
 30
0.0
 11
-54.40839072044764
 21
467.3062240043939
 31
0.0
  0
LINE
  5
1CD07
330
1F
100
AcDbEntity
  8
外形線
100
AcDbLine
 10
-51.80394138362999
 20
469.5902656846217
 30
0.0
 11
-48.52367915508239
 21
468.4767665249617
 31
0.0
  0
CIRCLE
  5
1CD08
330
1F
100
AcDbEntity
  8
外形線
100
AcDbCircle
 10
6.46295632671422
 20
483.6627897418034
 30
0.0
 40
2.475000000000134
  0
CIRCLE
  5
1CD09
330
1F
100
AcDbEntity
  8
細線
100
AcDbCircle
 10
6.46295632671422
 20
483.6627897418034
 30
0.0
 40
3.0
  0
CIRCLE
  5
1CD0A
330
1F
100
AcDbEntity
  8
外形線
100
AcDbCircle
 10
6.46295632671422
 20
483.6627897418034
 30
0.0
 40
3.5
  0
LINE
  5
1CD0B
330
1F
100
AcDbEntity
  8
外形線
100
AcDbLine
 10
61.46375586075851
 20
509.1523400315463
 30
0.0
 11
58.00707110173561
 21
508.9257770227978
 31
0.0
  0
LINE
  5
1CD0C
330
1F
100
AcDbEntity
  8
外形線
100
AcDbLine
 10
56.08251942417746
 20
511.8060721539798
 30
0.0
 11
58.00707115729301
 21
508.9257769396515
 31
0.0
  0
LINE
  5
1CD0D
330
1F
100
AcDbEntity
  8
外形線
100
AcDbLine
 10
57.61465239452718
 20
514.9129304602036
 30
0.0
 11
56.08251947973394
 21
511.8060720708326
 31
0.0
  0
LINE
  5
1CD0E
330
1F
100
AcDbEntity
  8
外形線
100
AcDbLine
 10
57.61465200562816
 20
514.9129310422322
 30
0.0
 11
61.0713368202073
 21
515.1394939678316
 31
0.0
  0
LINE
  5
1CD0F
330
1F
100
AcDbEntity
  8
外形線
100
AcDbLine
 10
62.99588910889361
 20
512.259197922034
 30
0.0
 11
61.46375624965799
 21
509.1523394495172
 31
0.0
  0
LINE
  5
1CD10
330
1F
100
AcDbEntity
  8
外形線
100
AcDbLine
 10
61.07133709799268
 20
515.1394935520977
 30
0.0
 11
62.99588883110823
 21
512.2591983377692
 31
0.0
  0
CIRCLE
  5
1CD11
330
1F
100
AcDbEntity
  8
外形線
100
AcDbCircle
 10
59.53920412764205
 20
512.0326352458746
 30
0.0
 40
6.5
  0
CIRCLE
  5
1CD12
330
1F
100
AcDbEntity
  8
細線
100
AcDbCircle
 10
94.04010913473758
 20
562.2328396786669
 30
0.0
 40
8.0
  0
CIRCLE
  5
1CD13
330
1F
100
AcDbEntity
  8
外形線
100
AcDbCircle
 10
94.04010913473758
 20
562.2328396786669
 30
0.0
 40
6.400000000000241
  0
LINE
  5
1CD14
330
1F
100
AcDbEntity
  8
中心線
100
AcDbLine
 10
85.17119479569055
 20
571.1017540177137
 30
0.0
 11
102.9090234737839
 21
553.3639253396191
 31
0.0
  0
LINE
  5
1CD15
330
1F
100
AcDbEntity
  8
外形線
100
AcDbLine
 10
144.4668766594058
 20
600.1904293891989
 30
0.0
 11
147.3471718737346
 21
598.2658776560838
 31
0.0
  0
LINE
  5
1CD16
330
1F
100
AcDbEntity
  8
外形線
100
AcDbLine
 10
141.3600183531825
 20
598.6582964188496
 30
0.0
 11
141.1334553444353
 21
595.2016116598261
 31
0.0
  0
CIRCLE
  5
1CD17
330
1F
100
AcDbEntity
  8
外形線
100
AcDbCircle
 10
144.2403135675103
 20
596.7337446857327
 30
0.0
 40
6.5
  0
LINE
  5
1CD18
330
1F
100
AcDbEntity
  8
外形線
100
AcDbLine
 10
141.1334552612884
 20
595.2016117153832
 30
0.0
 11
144.0137504756169
 21
593.2770599822681
 31
0.0
  0
LINE
  5
1CD19
330
1F
100
AcDbEntity
  8
外形線
100
AcDbLine
 10
147.12060878184
 20
594.8091929526185
 30
0.0
 11
144.0137503924695
 21
593.2770600378244
 31
0.0
  0
LINE
  5
1CD1A
330
1F
100
AcDbEntity
  8
外形線
100
AcDbLine
 10
147.3471722894696
 20
598.2658773782982
 30
0.0
 11
147.1206093638691
 21
594.8091925637186
 31
0.0
  0
LINE
  5
1CD1B
330
1F
100
AcDbEntity
  8
外形線
100
AcDbLine
 10
141.3600177711534
 20
598.6582968077486
 30
0.0
 11
144.466876243671
 21
600.1904296669835
 31
0.0
  0
LINE
  5
1CD1C
330
1F
100
AcDbEntity
  8
中心線
100
AcDbLine
 10
210.9805219669829
 20
767.2938062227663
 30
0.0
 11
-433.0222367857043
 21
767.2938062227663
 31
0.0
  0
LINE
  5
1CD1D
330
1F
100
AcDbEntity
  8
外形線
100
AcDbLine
 10
-522.8354781201947
 20
1030.241733445439
 30
0.0
 11
-522.8354781201942
 21
881.2938062227614
 31
0.0
  0
LINE
  5
1CD1E
330
1F
100
AcDbEntity
  8
外形線
100
AcDbLine
 10
-509.8354781201944
 20
1030.241741026824
 30
0.0
 11
-509.835478120194
 21
881.2938062227614
 31
0.0
  0
LINE
  5
1CD1F
330
1F
100
AcDbEntity
  8
中心線
100
AcDbLine
 10
-516.3354781201956
 20
1245.40181878314
 30
0.0
 11
-516.3354781201942
 21
881.2938062227614
 31
0.0
  0
ARC
  5
1CD20
330
1F
100
AcDbEntity
  8
外形線
100
AcDbCircle
 10
-536.3533641366553
 20
657.2938062227621
 30
0.0
 40
22.1
100
AcDbArc
 50
0.0
 51
90.0
  0
ARC
  5
1CD21
330
1F
100
AcDbEntity
  8
外形線
100
AcDbCircle
 10
-536.3533641366553
 20
657.2938062227621
 30
0.0
 40
17.9
100
AcDbArc
 50
0.0
 51
90.0
  0
LINE
  5
1CD22
330
1F
100
AcDbEntity
  8
外形線
100
AcDbLine
 10
-551.2989174457771
 20
691.4515198821605
 30
0.0
 11
-492.5140333409975
 21
691.4515198821605
 31
0.0
  0
LINE
  5
1CD23
330
1F
100
AcDbEntity
  8
外形線
100
AcDbLine
 10
-551.2989174457775
 20
687.2515198821602
 30
0.0
 11
-492.5140333409975
 21
687.2515198821602
 31
0.0
  0
LINE
  5
1CD24
330
1F
100
AcDbEntity
  8
外形線
100
AcDbLine
 10
-556.9389174457776
 20
670.2938062227612
 30
0.0
 11
-556.9389174457819
 21
684.2938062227613
 31
0.0
  0
LINE
  5
1CD25
330
1F
100
AcDbEntity
  8
外形線
100
AcDbLine
 10
-606.1389174457781
 20
666.5938062227617
 30
0.0
 11
-606.1389174457803
 21
687.9938062227616
 31
0.0
  0
LINE
  5
1CD26
330
1F
100
AcDbEntity
  8
外形線
100
AcDbLine
 10
-606.1389174457786
 20
670.2938062227612
 30
0.0
 11
-556.9389174457776
 21
670.2938062227612
 31
0.0
  0
ARC
  5
1CD27
330
1F
100
AcDbEntity
  8
外形線
100
AcDbCircle
 10
-610.1389174457781
 20
666.5938062227612
 30
0.0
 40
4.0
100
AcDbArc
 50
270.0
 51
0.0
  0
LINE
  5
1CD28
330
1F
100
AcDbEntity
  8
外形線
100
AcDbLine
 10
-597.2989174457766
 20
697.7938062227608
 30
0.0
 11
-551.2989174457771
 21
697.7938062227608
 31
0.0
  0
LINE
  5
1CD29
330
1F
100
AcDbEntity
  8
外形線
100
AcDbLine
 10
-606.1389174457799
 20
684.2938062227613
 30
0.0
 11
-556.9389174457819
 21
684.2938062227613
 31
0.0
  0
LINE
  5
1CD2A
330
1F
100
AcDbEntity
  8
外形線
100
AcDbLine
 10
-608.7989174458027
 20
694.5688462788182
 30
0.0
 11
-608.7989174457759
 21
705.8938062227607
 31
0.0
  0
LINE
  5
1CD2B
330
1F
100
AcDbEntity
  8
外形線
100
AcDbLine
 10
-597.2989174457755
 20
684.2938062227613
 30
0.0
 11
-597.298917445777
 21
701.8938062227617
 31
0.0
  0
ARC
  5
1CD2C
330
1F
100
AcDbEntity
  8
外形線
100
AcDbCircle
 10
-610.1389174457803
 20
687.9938062227616
 30
0.0
 40
4.0
100
AcDbArc
 50
0.0
 51
90.0
  0
ARC
  5
1CD2D
330
1F
100
AcDbEntity
  8
外形線
100
AcDbCircle
 10
-601.2989174457752
 20
701.8938062227607
 30
0.0
 40
4.0
100
AcDbArc
 50
359.9999999999869
 51
90.0
  0
LINE
  5
1CD2E
330
1F
100
AcDbEntity
  8
外形線
100
AcDbLine
 10
-606.2569573373239
 20
701.3938062227611
 30
0.0
 11
-600.3408775542247
 21
701.3938062227611
 31
0.0
  0
LINE
  5
1CD2F
330
1F
100
AcDbEntity
  8
外形線
100
AcDbLine
 10
-606.2569573373239
 20
702.3938062227607
 30
0.0
 11
-600.3408775542247
 21
702.3938062227607
 31
0.0
  0
CIRCLE
  5
1CD30
330
1F
100
AcDbEntity
  8
外形線
100
AcDbCircle
 10
-603.2989174457743
 20
701.8938062227607
 30
0.0
 40
3.75
  0
CIRCLE
  5
1CD31
330
1F
100
AcDbEntity
  8
外形線
100
AcDbCircle
 10
-603.2989174457743
 20
701.8938062227607
 30
0.0
 40
3.0
  0
LINE
  5
1CD32
330
1F
100
AcDbEntity
  8
外形線
100
AcDbLine
 10
-608.7989174457759
 20
705.8938062227607
 30
0.0
 11
-601.2989174457752
 21
705.8938062227607
 31
0.0
  0
LINE
  5
1CD33
330
1F
100
AcDbEntity
  8
外形線
100
AcDbLine
 10
-608.798917445786
 20
696.5813062227612
 30
0.0
 11
-597.2989174457752
 21
696.5813062227612
 31
0.0
  0
LINE
  5
1CD34
330
1F
100
AcDbEntity
  8
外形線
100
AcDbLine
 10
-551.2989174457779
 20
682.1938062227614
 30
0.0
 11
-551.2989174457771
 21
697.7938062227608
 31
0.0
  0
LINE
  5
1CD35
330
1F
100
AcDbEntity
  8
外形線
100
AcDbLine
 10
-556.9389174457815
 20
682.1938062227614
 30
0.0
 11
-551.2989174457771
 21
682.1938062227614
 31
0.0
  0
LINE
  5
1CD36
330
1F
100
AcDbEntity
  8
外形線
100
AcDbLine
 10
-556.9389174457796
 20
679.3938062227621
 30
0.0
 11
-536.3533641366553
 21
679.3938062227625
 31
0.0
  0
LINE
  5
1CD37
330
1F
100
AcDbEntity
  8
外形線
100
AcDbLine
 10
-556.9389174457799
 20
675.1938062227625
 30
0.0
 11
-536.3533641366553
 21
675.1938062227625
 31
0.0
  0
ARC
  5
1CD38
330
1F
100
AcDbEntity
  8
外形線
100
AcDbCircle
 10
-492.5140333409975
 20
669.3515198821605
 30
0.0
 40
17.9
100
AcDbArc
 50
0.0
 51
90.0
  0
ARC
  5
1CD39
330
1F
100
AcDbEntity
  8
外形線
100
AcDbCircle
 10
-492.5140333409975
 20
669.3515198821605
 30
0.0
 40
22.1
100
AcDbArc
 50
0.0
 51
90.0
  0
LINE
  5
1CD3A
330
1F
100
AcDbEntity
  8
外形線
100
AcDbLine
 10
-475.3640333409978
 20
647.4237943129473
 30
0.0
 11
-475.3640333409978
 21
640.4237943129474
 31
0.0
  0
LINE
  5
1CD3B
330
1F
100
AcDbEntity
  8
外形線
100
AcDbLine
 10
-469.6640333409978
 20
640.4237943129474
 30
0.0
 11
-469.6640333409978
 21
647.4237943129473
 31
0.0
  0
LINE
  5
1CD3C
330
1F
100
AcDbEntity
  8
外形線
100
AcDbLine
 10
-475.3640333409978
 20
640.4237943129474
 30
0.0
 11
-469.6640333409978
 21
640.4237943129474
 31
0.0
  0
ARC
  5
1CD3D
330
1F
100
AcDbEntity
  8
外形線
100
AcDbCircle
 10
-472.5140333409981
 20
621.9237943129463
 30
0.0
 40
8.5
100
AcDbArc
 50
20.66731649349323
 51
159.3326835065067
  0
LINE
  5
1CD3E
330
1F
100
AcDbEntity
  8
外形線
100
AcDbLine
 10
-481.0140333409972
 20
624.9237943129474
 30
0.0
 11
-464.0140333409974
 21
624.9237943129474
 31
0.0
  0
ARC
  5
1CD3F
330
1F
100
AcDbEntity
  8
外形線
100
AcDbCircle
 10
-481.8293521038172
 20
638.4237943129464
 30
0.0
 40
2.0
100
AcDbArc
 50
90.0
 51
170.217592968178
  0
LINE
  5
1CD40
330
1F
100
AcDbEntity
  8
外形線
100
AcDbLine
 10
-479.7640333409971
 20
634.6205437716198
 30
0.0
 11
-479.7640333409971
 21
630.7209937311036
 31
0.0
  0
LINE
  5
1CD41
330
1F
100
AcDbEntity
  8
外形線
100
AcDbLine
 10
-475.3640333409978
 20
640.4237943129474
 30
0.0
 11
-481.8293521038169
 21
640.4237943129474
 31
0.0
  0
LINE
  5
1CD42
330
1F
100
AcDbEntity
  8
外形線
100
AcDbLine
 10
-481.8879621625876
 20
632.4237943129474
 30
0.0
 11
-477.9161982324315
 21
632.4237943129474
 31
0.0
  0
CIRCLE
  5
1CD43
330
1F
100
AcDbEntity
  8
外形線
100
AcDbCircle
 10
-479.7640333409981
 20
632.4237943129465
 30
0.0
 40
3.0
  0
LINE
  5
1CD44
330
1F
100
AcDbEntity
  8
外形線
100
AcDbLine
 10
-491.6740333409975
 20
639.823794312947
 30
0.0
 11
-486.6740333409977
 21
639.823794312947
 31
0.0
  0
LINE
  5
1CD45
330
1F
100
AcDbEntity
  8
外形線
100
AcDbLine
 10
-491.0740333409981
 20
640.4237943129474
 30
0.0
 11
-487.2740333409981
 21
640.4237943129474
 31
0.0
  0
LINE
  5
1CD46
330
1F
100
AcDbEntity
  8
外形線
100
AcDbLine
 10
-487.2740333409981
 20
640.4237943129474
 30
0.0
 11
-486.6740333409977
 21
639.823794312947
 31
0.0
  0
LINE
  5
1CD47
330
1F
100
AcDbEntity
  8
外形線
100
AcDbLine
 10
-491.6740333409975
 20
639.823794312947
 30
0.0
 11
-491.0740333409981
 21
640.4237943129474
 31
0.0
  0
LINE
  5
1CD48
330
1F
100
AcDbEntity
  8
外形線
100
AcDbLine
 10
-491.6740332897975
 20
632.4237943129474
 30
0.0
 11
-490.6740333409977
 21
631.4237941445508
 31
0.0
  0
LINE
  5
1CD49
330
1F
100
AcDbEntity
  8
外形線
100
AcDbLine
 10
-491.6740333409975
 20
632.4237943129474
 30
0.0
 11
-490.6740333409977
 21
632.4237943129474
 31
0.0
  0
LINE
  5
1CD4A
330
1F
100
AcDbEntity
  8
外形線
100
AcDbLine
 10
-486.6740333409977
 20
632.4237947225474
 30
0.0
 11
-487.6740333409975
 21
631.4237949793578
 31
0.0
  0
LINE
  5
1CD4B
330
1F
100
AcDbEntity
  8
外形線
100
AcDbLine
 10
-486.6740333409977
 20
632.4237943129474
 30
0.0
 11
-487.6740333409975
 21
632.4237943129474
 31
0.0
  0
LINE
  5
1CD4C
330
1F
100
AcDbEntity
  8
外形線
100
AcDbLine
 10
-490.6740333409977
 20
631.4237941445508
 30
0.0
 11
-487.6740333409975
 21
631.4237947589508
 31
0.0
  0
LINE
  5
1CD4D
330
1F
100
AcDbEntity
  8
外形線
100
AcDbLine
 10
-490.6740333409977
 20
632.4237943129474
 30
0.0
 11
-487.6740333409975
 21
632.4237943129474
 31
0.0
  0
LINE
  5
1CD4E
330
1F
100
AcDbEntity
  8
外形線
100
AcDbLine
 10
-486.6740333409977
 20
632.4237943129474
 30
0.0
 11
-486.6740333409977
 21
639.823794312947
 31
0.0
  0
LINE
  5
1CD4F
330
1F
100
AcDbEntity
  8
外形線
100
AcDbLine
 10
-491.6740333409975
 20
632.4237943129474
 30
0.0
 11
-491.6740333409975
 21
639.823794312947
 31
0.0
  0
LINE
  5
1CD50
330
1F
100
AcDbEntity
  8
外形線
100
AcDbLine
 10
-453.9540333409981
 20
640.4237943129474
 30
0.0
 11
-453.3540333409978
 21
639.823794312947
 31
0.0
  0
LINE
  5
1CD51
330
1F
100
AcDbEntity
  8
外形線
100
AcDbLine
 10
-458.3540333409978
 20
639.823794312947
 30
0.0
 11
-457.7540333409984
 21
640.4237943129474
 31
0.0
  0
LINE
  5
1CD52
330
1F
100
AcDbEntity
  8
外形線
100
AcDbLine
 10
-457.7540333409984
 20
640.4237943129474
 30
0.0
 11
-453.9540333409981
 21
640.4237943129474
 31
0.0
  0
LINE
  5
1CD53
330
1F
100
AcDbEntity
  8
外形線
100
AcDbLine
 10
-458.3540333409978
 20
639.823794312947
 30
0.0
 11
-453.3540333409978
 21
639.823794312947
 31
0.0
  0
LINE
  5
1CD54
330
1F
100
AcDbEntity
  8
外形線
100
AcDbLine
 10
-453.3540333409978
 20
632.4237947225474
 30
0.0
 11
-454.3540333409977
 21
631.4237949793578
 31
0.0
  0
LINE
  5
1CD55
330
1F
100
AcDbEntity
  8
外形線
100
AcDbLine
 10
-453.3540333409978
 20
632.4237943129474
 30
0.0
 11
-454.3540333409977
 21
632.4237943129474
 31
0.0
  0
LINE
  5
1CD56
330
1F
100
AcDbEntity
  8
外形線
100
AcDbLine
 10
-458.3540332897978
 20
632.4237943129474
 30
0.0
 11
-457.3540333409978
 21
631.4237941445508
 31
0.0
  0
LINE
  5
1CD57
330
1F
100
AcDbEntity
  8
外形線
100
AcDbLine
 10
-458.3540333409978
 20
632.4237943129474
 30
0.0
 11
-457.3540333409978
 21
632.4237943129474
 31
0.0
  0
LINE
  5
1CD58
330
1F
100
AcDbEntity
  8
外形線
100
AcDbLine
 10
-457.3540333409978
 20
632.4237943129474
 30
0.0
 11
-454.3540333409977
 21
632.4237943129474
 31
0.0
  0
LINE
  5
1CD59
330
1F
100
AcDbEntity
  8
外形線
100
AcDbLine
 10
-457.3540333409978
 20
631.4237941445508
 30
0.0
 11
-454.3540333409977
 21
631.4237947589508
 31
0.0
  0
LINE
  5
1CD5A
330
1F
100
AcDbEntity
  8
外形線
100
AcDbLine
 10
-453.3540333409978
 20
632.4237943129474
 30
0.0
 11
-453.3540333409978
 21
639.823794312947
 31
0.0
  0
LINE
  5
1CD5B
330
1F
100
AcDbEntity
  8
外形線
100
AcDbLine
 10
-458.3540333409978
 20
632.4237943129474
 30
0.0
 11
-458.3540333409978
 21
639.823794312947
 31
0.0
  0
ARC
  5
1CD5C
330
1F
100
AcDbEntity
  8
外形線
100
AcDbCircle
 10
-463.198714578179
 20
638.4237943129464
 30
0.0
 40
2.0
100
AcDbArc
 50
9.78240703182195
 51
90.0
  0
LINE
  5
1CD5D
330
1F
100
AcDbEntity
  8
外形線
100
AcDbLine
 10
-465.2640333409975
 20
634.6205437716198
 30
0.0
 11
-465.2640333409975
 21
630.4321381725467
 31
0.0
  0
LINE
  5
1CD5E
330
1F
100
AcDbEntity
  8
外形線
100
AcDbLine
 10
-463.1987145781788
 20
640.4237943129474
 30
0.0
 11
-469.6640333409978
 21
640.4237943129474
 31
0.0
  0
LINE
  5
1CD5F
330
1F
100
AcDbEntity
  8
外形線
100
AcDbLine
 10
-467.3729703451088
 20
632.4237943129474
 30
0.0
 11
-463.2567786356742
 21
632.4237943129474
 31
0.0
  0
CIRCLE
  5
1CD60
330
1F
100
AcDbEntity
  8
外形線
100
AcDbCircle
 10
-465.2640333409981
 20
632.4237943129465
 30
0.0
 40
3.0
  0
LINE
  5
1CD61
330
1F
100
AcDbEntity
  8
外形線
100
AcDbLine
 10
-469.6640333409978
 20
647.4237943129473
 30
0.0
 11
-475.3640333409978
 21
647.4237943129473
 31
0.0
  0
LINE
  5
1CD62
330
1F
100
AcDbEntity
  8
外形線
100
AcDbLine
 10
-474.6140333409971
 20
647.4237943129473
 30
0.0
 11
-474.6140333409971
 21
669.3515198821605
 31
0.0
  0
LINE
  5
1CD63
330
1F
100
AcDbEntity
  8
外形線
100
AcDbLine
 10
-470.4140333409973
 20
647.4237943129473
 30
0.0
 11
-470.4140333409973
 21
669.3515198821605
 31
0.0
  0
CIRCLE
  5
1CD64
330
1F
100
AcDbEntity
  8
外形線
100
AcDbCircle
 10
-394.651873890333
 20
649.8099924866878
 30
0.0
 40
3.5
  0
CIRCLE
  5
1CD65
330
1F
100
AcDbEntity
  8
細線
100
AcDbCircle
 10
-394.651873890333
 20
649.8099924866878
 30
0.0
 40
3.0
  0
CIRCLE
  5
1CD66
330
1F
100
AcDbEntity
  8
外形線
100
AcDbCircle
 10
-394.651873890333
 20
649.8099924866878
 30
0.0
 40
2.475000000000134
  0
LINE
  5
1CD67
330
1F
100
AcDbEntity
  8
外形線
100
AcDbLine
 10
-411.0084395296548
 20
710.6813395533618
 30
0.0
 11
-414.4059793887556
 21
710.0055268567212
 31
0.0
  0
LINE
  5
1CD68
330
1F
100
AcDbEntity
  8
外形線
100
AcDbLine
 10
-409.8378975975577
 20
704.7966278709423
 30
0.0
 11
-413.2354374566586
 21
704.1208151743017
 31
0.0
  0
CIRCLE
  5
1CD69
330
1F
100
AcDbEntity
  8
外形線
100
AcDbCircle
 10
-412.1219384931562
 20
707.4010773638327
 30
0.0
 40
6.5
  0
LINE
  5
1CD6A
330
1F
100
AcDbEntity
  8
外形線
100
AcDbLine
 10
-413.2354379470521
 20
704.1208150767565
 30
0.0
 11
-415.5194790388081
 21
706.7252645306275
 31
0.0
  0
LINE
  5
1CD6B
330
1F
100
AcDbEntity
  8
外形線
100
AcDbLine
 10
-415.5194783522579
 20
706.7252646671909
 30
0.0
 11
-414.4059792906777
 21
710.0055268762307
 31
0.0
  0
LINE
  5
1CD6C
330
1F
100
AcDbEntity
  8
外形線
100
AcDbLine
 10
-408.7243986340549
 20
708.0768900604721
 30
0.0
 11
-411.0084396277334
 21
710.6813395338531
 31
0.0
  0
LINE
  5
1CD6D
330
1F
100
AcDbEntity
  8
外形線
100
AcDbLine
 10
-408.7243979475053
 20
708.0768901970355
 30
0.0
 11
-409.8378971071656
 21
704.7966279684874
 31
0.0
  0
CIRCLE
  5
1CD6E
330
1F
100
AcDbEntity
  8
細線
100
AcDbCircle
 10
-401.020857409361
 20
767.2938062227665
 30
0.0
 40
8.0
  0
CIRCLE
  5
1CD6F
330
1F
100
AcDbEntity
  8
外形線
100
AcDbCircle
 10
-401.020857409361
 20
767.2938062227665
 30
0.0
 40
6.400000000000241
  0
ARC
  5
1CD70
330
1F
100
AcDbEntity
  8
外形線
100
AcDbCircle
 10
-546.3354781201942
 20
881.2938062227614
 30
0.0
 40
23.5
100
AcDbArc
 50
270.0
 51
0.0
  0
ARC
  5
1CD71
330
1F
100
AcDbEntity
  8
中心線
100
AcDbCircle
 10
-546.3354781201942
 20
881.2938062227614
 30
0.0
 40
30.0
100
AcDbArc
 50
270.0
 51
0.0
  0
ARC
  5
1CD72
330
1F
100
AcDbEntity
  8
外形線
100
AcDbCircle
 10
-546.3354781201942
 20
881.2938062227614
 30
0.0
 40
36.5
100
AcDbArc
 50
270.0
 51
0.0
  0
LINE
  5
1CD73
330
1F
100
AcDbEntity
  8
外形線
100
AcDbLine
 10
-409.8378975975506
 20
829.7909845746241
 30
0.0
 11
-413.2354374566521
 21
830.4667972712648
 31
0.0
  0
LINE
  5
1CD74
330
1F
100
AcDbEntity
  8
外形線
100
AcDbLine
 10
-411.0084395296476
 20
823.9062728922045
 30
0.0
 11
-414.4059793887484
 21
824.582085588845
 31
0.0
  0
CIRCLE
  5
1CD75
330
1F
100
AcDbEntity
  8
外形線
100
AcDbCircle
 10
-412.1219384931483
 20
827.1865350817352
 30
0.0
 40
6.5
  0
LINE
  5
1CD76
330
1F
100
AcDbEntity
  8
外形線
100
AcDbLine
 10
-415.5194783522508
 20
827.8623477783751
 30
0.0
 11
-413.2354373585733
 21
830.4667972517563
 31
0.0
  0
LINE
  5
1CD77
330
1F
100
AcDbEntity
  8
外形線
100
AcDbLine
 10
-414.4059798791415
 20
824.5820856863909
 30
0.0
 11
-415.5194790388009
 21
827.8623479149382
 31
0.0
  0
LINE
  5
1CD78
330
1F
100
AcDbEntity
  8
外形線
100
AcDbLine
 10
-408.7243986340483
 20
826.5107223850936
 30
0.0
 11
-409.8378976956293
 21
829.7909845941337
 31
0.0
  0
LINE
  5
1CD79
330
1F
100
AcDbEntity
  8
外形線
100
AcDbLine
 10
-408.7243979474983
 20
826.510722248531
 30
0.0
 11
-411.0084390392549
 21
823.9062727946603
 31
0.0
  0
CIRCLE
  5
1CD7A
330
1F
100
AcDbEntity
  8
外形線
100
AcDbCircle
 10
-366.282028386232
 20
937.8538677597989
 30
0.0
 40
6.5
  0
LINE
  5
1CD7B
330
1F
100
AcDbEntity
  8
外形線
100
AcDbLine
 10
-369.3888871081913
 20
936.3217350672343
 30
0.0
 11
-369.1623241825907
 21
939.7784198818134
 31
0.0
  0
LINE
  5
1CD7C
330
1F
100
AcDbEntity
  8
外形線
100
AcDbLine
 10
-363.4017331719042
 20
935.9293160266833
 30
0.0
 11
-363.1751701631567
 21
939.3860007857066
 31
0.0
  0
LINE
  5
1CD7D
330
1F
100
AcDbEntity
  8
外形線
100
AcDbLine
 10
-363.4017325898753
 20
935.9293156377839
 30
0.0
 11
-366.5085910623925
 21
934.3971827785489
 31
0.0
  0
LINE
  5
1CD7E
330
1F
100
AcDbEntity
  8
外形線
100
AcDbLine
 10
-366.5085914781275
 20
934.3971830563337
 30
0.0
 11
-369.3888866924558
 21
936.3217347894488
 31
0.0
  0
LINE
  5
1CD7F
330
1F
100
AcDbEntity
  8
外形線
100
AcDbLine
 10
-369.1623236005616
 20
939.7784194929144
 30
0.0
 11
-366.0554652111914
 21
941.3105524077082
 31
0.0
  0
LINE
  5
1CD80
330
1F
100
AcDbEntity
  8
外形線
100
AcDbLine
 10
-363.1751700800098
 20
939.3860007301491
 30
0.0
 11
-366.0554652943383
 21
941.3105524632642
 31
0.0
  0
CIRCLE
  5
1CD81
330
1F
100
AcDbEntity
  8
細線
100
AcDbCircle
 10
-316.0818239534601
 20
972.3547727668655
 30
0.0
 40
8.0
  0
CIRCLE
  5
1CD82
330
1F
100
AcDbEntity
  8
外形線
100
AcDbCircle
 10
-316.0818239534601
 20
972.3547727668655
 30
0.0
 40
6.400000000000241
  0
LINE
  5
1CD83
330
1F
100
AcDbEntity
  8
中心線
100
AcDbLine
 10
-307.2129096144128
 20
963.4858584278186
 30
0.0
 11
-324.9507382925062
 21
981.2236871059125
 31
0.0
  0
CIRCLE
  5
1CD84
330
1F
100
AcDbEntity
  8
外形線
100
AcDbCircle
 10
-111.0208574093605
 20
767.2938062227663
 30
0.0
 40
54.00000000000002
  0
CIRCLE
  5
1CD85
330
1F
100
AcDbEntity
  8
外形線
100
AcDbCircle
 10
-111.0208574093605
 20
767.2938062227663
 30
0.0
 40
125.0
  0
CIRCLE
  5
1CD86
330
1F
100
AcDbEntity
  8
外形線
100
AcDbCircle
 10
-111.0208574093605
 20
767.2938062227663
 30
0.0
 40
139.9999999999995
  0
CIRCLE
  5
1CD87
330
1F
100
AcDbEntity
  8
外形線
100
AcDbCircle
 10
-111.0208574093605
 20
767.2938062227663
 30
0.0
 40
50.00000000000001
  0
CIRCLE
  5
1CD88
330
1F
100
AcDbEntity
  8
細線
100
AcDbCircle
 10
-211.4798042483585
 20
709.2938062227712
 30
0.0
 40
4.7
  0
LINE
  5
1CD89
330
1F
100
AcDbEntity
  8
細線
100
AcDbLine
 10
-213.5484575963053
 20
708.6768189246636
 30
0.0
 11
-213.4618550559271
 21
708.7268189246637
 31
0.0
  0
LINE
  5
1CD8A
330
1F
100
AcDbEntity
  8
細線
100
AcDbLine
 10
-209.661150900411
 20
710.3438062227712
 30
0.0
 11
-209.911150900411
 21
710.7768189246635
 31
0.0
  0
LINE
  5
1CD8B
330
1F
100
AcDbEntity
  8
細線
100
AcDbLine
 10
-209.911150900411
 20
710.7768189246635
 30
0.0
 11
-209.9977534407892
 21
710.7268189246635
 31
0.0
  0
LINE
  5
1CD8C
330
1F
100
AcDbEntity
  8
細線
100
AcDbLine
 10
-212.9128169502505
 20
710.7758570303401
 30
0.0
 11
-212.9628169502505
 21
710.8624595707185
 31
0.0
  0
LINE
  5
1CD8D
330
1F
100
AcDbEntity
  8
細線
100
AcDbLine
 10
-212.9628169502505
 20
710.8624595707185
 30
0.0
 11
-212.529804248358
 21
711.1124595707187
 31
0.0
  0
LINE
  5
1CD8E
330
1F
100
AcDbEntity
  8
細線
100
AcDbLine
 10
-212.046791546466
 20
711.2758570303401
 30
0.0
 11
-212.0967915464662
 21
711.3624595707185
 31
0.0
  0
LINE
  5
1CD8F
330
1F
100
AcDbEntity
  8
細線
100
AcDbLine
 10
-212.0967915464662
 20
711.3624595707185
 30
0.0
 11
-212.529804248358
 21
711.1124595707187
 31
0.0
  0
ARC
  5
1CD90
330
1F
100
AcDbEntity
  8
細線
100
AcDbCircle
 10
-210.7477534407899
 20
712.0258570303398
 30
0.0
 40
1.5
100
AcDbArc
 50
209.9999999999986
 51
299.9999999999976
  0
LINE
  5
1CD91
330
1F
100
AcDbEntity
  8
細線
100
AcDbLine
 10
-209.661150900411
 20
710.3438062227712
 30
0.0
 11
-209.411150900411
 21
709.910793520879
 31
0.0
  0
LINE
  5
1CD92
330
1F
100
AcDbEntity
  8
細線
100
AcDbLine
 10
-209.411150900411
 20
709.910793520879
 30
0.0
 11
-209.4977534407894
 21
709.860793520879
 31
0.0
  0
ARC
  5
1CD93
330
1F
100
AcDbEntity
  8
細線
100
AcDbCircle
 10
-214.2118550559275
 20
710.0258570303399
 30
0.0
 40
1.5
100
AcDbArc
 50
299.9999999999976
 51
29.99999999999861
  0
LINE
  5
1CD94
330
1F
100
AcDbEntity
  8
細線
100
AcDbLine
 10
-213.0484575963055
 20
707.8107935208791
 30
0.0
 11
-212.9618550559269
 21
707.8607935208792
 31
0.0
  0
LINE
  5
1CD95
330
1F
100
AcDbEntity
  8
細線
100
AcDbLine
 10
-213.2984575963055
 20
708.2438062227713
 30
0.0
 11
-213.0484575963055
 21
707.8107935208791
 31
0.0
  0
LINE
  5
1CD96
330
1F
100
AcDbEntity
  8
細線
100
AcDbLine
 10
-210.046791546466
 20
707.8117554152022
 30
0.0
 11
-209.996791546466
 21
707.7251528748241
 31
0.0
  0
LINE
  5
1CD97
330
1F
100
AcDbEntity
  8
細線
100
AcDbLine
 10
-210.8628169502508
 20
707.225152874824
 30
0.0
 11
-210.4298042483581
 21
707.475152874824
 31
0.0
  0
LINE
  5
1CD98
330
1F
100
AcDbEntity
  8
細線
100
AcDbLine
 10
-209.996791546466
 20
707.7251528748241
 30
0.0
 11
-210.4298042483581
 21
707.475152874824
 31
0.0
  0
LINE
  5
1CD99
330
1F
100
AcDbEntity
  8
細線
100
AcDbLine
 10
-210.9128169502505
 20
707.3117554152022
 30
0.0
 11
-210.8628169502508
 21
707.225152874824
 31
0.0
  0
ARC
  5
1CD9A
330
1F
100
AcDbEntity
  8
細線
100
AcDbCircle
 10
-212.2118550559275
 20
706.5617554152022
 30
0.0
 40
1.5
100
AcDbArc
 50
29.99999999999861
 51
119.9999999999977
  0
LINE
  5
1CD9B
330
1F
100
AcDbEntity
  8
細線
100
AcDbLine
 10
-213.2984575963055
 20
708.2438062227713
 30
0.0
 11
-213.5484575963053
 21
708.6768189246636
 31
0.0
  0
ARC
  5
1CD9C
330
1F
100
AcDbEntity
  8
細線
100
AcDbCircle
 10
-208.7477534407899
 20
708.5617554152022
 30
0.0
 40
1.5
100
AcDbArc
 50
119.9999999999977
 51
209.9999999999986
  0
LINE
  5
1CD9D
330
1F
100
AcDbEntity
  8
中心線
100
AcDbLine
 10
-44.97847741038777
 20
685.9292068789202
 30
0.0
 11
-50.22153226827549
 21
682.902127745343
 31
0.0
  0
LINE
  5
1CD9E
330
1F
100
AcDbEntity
  8
中心線
100
AcDbLine
 10
-46.08646527254268
 20
681.794139883187
 30
0.0
 11
-49.11354440612058
 21
687.0371947410758
 31
0.0
  0
CIRCLE
  5
1CD9F
330
1F
100
AcDbEntity
  8
寸法
 48
0.5
100
AcDbCircle
 10
-47.60000483933208
 20
684.4156673121315
 30
0.0
 40
1.524999999999999
  0
LINE
  5
1CDA0
330
1F
100
AcDbEntity
  8
実線
100
AcDbLine
 10
-58.10249509067626
 20
710.5565127699651
 30
0.0
 11
-43.69761372211678
 21
685.6065263626178
 31
0.0
  0
ARC
  5
1CDA1
330
1F
100
AcDbEntity
  8
中心線
100
AcDbCircle
 10
-111.0208574093605
 20
767.2938062227663
 30
0.0
 40
90.0
100
AcDbArc
 50
259.0932247089077
 51
324.696983173289
  0
LINE
  5
1CDA2
330
1F
100
AcDbEntity
  8
実線
100
AcDbLine
 10
-44.81586452156398
 20
681.433157563476
 30
0.0
 11
-69.76585092891173
 21
667.0282761949165
 31
0.0
  0
LINE
  5
1CDA3
330
1F
100
AcDbEntity
  8
中心線
100
AcDbLine
 10
-69.44317041260865
 20
668.3091398831875
 30
0.0
 11
-72.47024954618655
 21
673.5521947410759
 31
0.0
  0
LINE
  5
1CDA4
330
1F
100
AcDbEntity
  8
中心線
100
AcDbLine
 10
-73.57823740834238
 20
669.417127745342
 30
0.0
 11
-68.33518255045373
 21
672.4442068789203
 31
0.0
  0
CIRCLE
  5
1CDA5
330
1F
100
AcDbEntity
  8
寸法
 48
0.5
100
AcDbCircle
 10
-70.95670997939805
 20
670.9306673121318
 30
0.0
 40
1.524999999999999
  0
LINE
  5
1CDA6
330
1F
100
AcDbEntity
  8
実線
100
AcDbLine
 10
-94.75085826604981
 20
690.7169113777459
 30
0.0
 11
-94.75085826604981
 21
663.8707010677847
 31
0.0
  0
LINE
  5
1CDA7
330
1F
100
AcDbEntity
  8
実線
100
AcDbLine
 10
-88.34410109661211
 20
693.0965134017115
 30
0.0
 11
-73.93921972805265
 21
668.1465269943637
 31
0.0
  0
LINE
  5
1CDA8
330
1F
100
AcDbEntity
  8
実線
100
AcDbLine
 10
-127.2908565526718
 20
690.7169113777459
 30
0.0
 11
-127.2908565526718
 21
663.8707010677847
 31
0.0
  0
ARC
  5
1CDA9
330
1F
100
AcDbEntity
  8
0
100
AcDbCircle
 10
-111.0208574093626
 20
677.2938062227662
 30
0.0
 40
10.13620525815749
100
AcDbArc
 50
183.3073621796748
 51
176.6926378203251
  0
CIRCLE
  5
1CDAA
330
1F
100
AcDbEntity
  8
細線
 48
5.0
100
AcDbCircle
 10
-111.0208574093605
 20
677.2938062227662
 30
0.0
 40
12.01300000000008
  0
CIRCLE
  5
1CDAB
330
1F
100
AcDbEntity
  8
実線
100
AcDbCircle
 10
-111.0208574093605
 20
677.2938062227662
 30
0.0
 40
12.70000000000017
  0
CIRCLE
  5
1CDAC
330
1F
100
AcDbEntity
  8
細線
100
AcDbCircle
 10
-111.0208574093605
 20
651.2938062227663
 30
0.0
 40
4.7
  0
LINE
  5
1CDAD
330
1F
100
AcDbEntity
  8
実線
100
AcDbLine
 10
-97.59775225438033
 20
661.0238070794553
 30
0.0
 11
-124.4439625643412
 21
661.0238070794544
 31
0.0
  0
CIRCLE
  5
1CDAE
330
1F
100
AcDbEntity
  8
寸法
 48
0.5
100
AcDbCircle
 10
-111.0208574093605
 20
670.2938062227663
 30
0.0
 40
1.0
  0
LINE
  5
1CDAF
330
1F
100
AcDbEntity
  8
細線
100
AcDbLine
 10
-111.0208574093605
 20
649.1938062227664
 30
0.0
 11
-111.5208574093608
 21
649.1938062227664
 31
0.0
  0
LINE
  5
1CDB0
330
1F
100
AcDbEntity
  8
細線
100
AcDbLine
 10
-111.5208574093608
 20
649.1938062227664
 30
0.0
 11
-111.5208574093608
 21
649.293806222766
 31
0.0
  0
LINE
  5
1CDB1
330
1F
100
AcDbEntity
  8
細線
100
AcDbLine
 10
-110.5208574093608
 20
649.1938062227664
 30
0.0
 11
-110.5208574093608
 21
649.293806222766
 31
0.0
  0
LINE
  5
1CDB2
330
1F
100
AcDbEntity
  8
細線
100
AcDbLine
 10
-111.0208574093605
 20
649.1938062227664
 30
0.0
 11
-110.5208574093608
 21
649.1938062227664
 31
0.0
  0
LINE
  5
1CDB3
330
1F
100
AcDbEntity
  8
細線
100
AcDbLine
 10
-111.0208574093605
 20
653.3938062227662
 30
0.0
 11
-111.5208574093608
 21
653.3938062227662
 31
0.0
  0
LINE
  5
1CDB4
330
1F
100
AcDbEntity
  8
細線
100
AcDbLine
 10
-111.5208574093608
 20
653.3938062227662
 30
0.0
 11
-111.5208574093608
 21
653.293806222766
 31
0.0
  0
LINE
  5
1CDB5
330
1F
100
AcDbEntity
  8
細線
100
AcDbLine
 10
-113.0208574093605
 20
650.7938062227663
 30
0.0
 11
-113.1208574093607
 21
650.7938062227663
 31
0.0
  0
LINE
  5
1CDB6
330
1F
100
AcDbEntity
  8
細線
100
AcDbLine
 10
-113.1208574093607
 20
650.7938062227663
 30
0.0
 11
-113.1208574093607
 21
651.2938062227663
 31
0.0
  0
LINE
  5
1CDB7
330
1F
100
AcDbEntity
  8
細線
100
AcDbLine
 10
-113.0208574093605
 20
651.7938062227663
 30
0.0
 11
-113.1208574093607
 21
651.7938062227663
 31
0.0
  0
LINE
  5
1CDB8
330
1F
100
AcDbEntity
  8
細線
100
AcDbLine
 10
-113.1208574093607
 20
651.7938062227663
 30
0.0
 11
-113.1208574093607
 21
651.2938062227663
 31
0.0
  0
ARC
  5
1CDB9
330
1F
100
AcDbEntity
  8
細線
100
AcDbCircle
 10
-113.0208574093605
 20
653.2938062227663
 30
0.0
 40
1.5
100
AcDbArc
 50
270.0
 51
0.0
  0
LINE
  5
1CDBA
330
1F
100
AcDbEntity
  8
細線
100
AcDbLine
 10
-109.0208574093605
 20
651.7938062227663
 30
0.0
 11
-108.9208574093609
 21
651.7938062227663
 31
0.0
  0
LINE
  5
1CDBB
330
1F
100
AcDbEntity
  8
細線
100
AcDbLine
 10
-108.9208574093609
 20
650.7938062227663
 30
0.0
 11
-108.9208574093609
 21
651.2938062227663
 31
0.0
  0
LINE
  5
1CDBC
330
1F
100
AcDbEntity
  8
細線
100
AcDbLine
 10
-108.9208574093609
 20
651.7938062227663
 30
0.0
 11
-108.9208574093609
 21
651.2938062227663
 31
0.0
  0
LINE
  5
1CDBD
330
1F
100
AcDbEntity
  8
細線
100
AcDbLine
 10
-111.0208574093605
 20
653.3938062227662
 30
0.0
 11
-110.5208574093608
 21
653.3938062227662
 31
0.0
  0
ARC
  5
1CDBE
330
1F
100
AcDbEntity
  8
細線
100
AcDbCircle
 10
-109.0208574093605
 20
653.2938062227663
 30
0.0
 40
1.5
100
AcDbArc
 50
180.0
 51
270.0
  0
LINE
  5
1CDBF
330
1F
100
AcDbEntity
  8
細線
100
AcDbLine
 10
-110.5208574093608
 20
653.3938062227662
 30
0.0
 11
-110.5208574093608
 21
653.293806222766
 31
0.0
  0
LINE
  5
1CDC0
330
1F
100
AcDbEntity
  8
細線
100
AcDbLine
 10
-109.0208574093605
 20
650.7938062227663
 30
0.0
 11
-108.9208574093609
 21
650.7938062227663
 31
0.0
  0
ARC
  5
1CDC1
330
1F
100
AcDbEntity
  8
細線
100
AcDbCircle
 10
-113.0208574093605
 20
649.2938062227663
 30
0.0
 40
1.5
100
AcDbArc
 50
0.0
 51
90.0
  0
ARC
  5
1CDC2
330
1F
100
AcDbEntity
  8
細線
100
AcDbCircle
 10
-109.0208574093605
 20
649.2938062227663
 30
0.0
 40
1.5
100
AcDbArc
 50
90.0
 51
180.0
  0
LINE
  5
1CDC3
330
1F
100
AcDbEntity
  8
中心線
100
AcDbLine
 10
-123.3258574093599
 20
662.1680400892005
 30
0.0
 11
-123.3258574093599
 21
667.8095723563314
 31
0.0
  0
CIRCLE
  5
1CDC4
330
1F
100
AcDbEntity
  8
寸法
 48
0.5
100
AcDbCircle
 10
-123.3258574093611
 20
664.988806222766
 30
0.0
 40
1.524999999999999
  0
LINE
  5
1CDC5
330
1F
100
AcDbEntity
  8
中心線
100
AcDbLine
 10
-126.1466235429254
 20
664.988806222766
 30
0.0
 11
-120.5050912757947
 21
664.988806222766
 31
0.0
  0
ARC
  5
1CDC6
330
1F
100
AcDbEntity
  8
実線
100
AcDbCircle
 10
-124.4439625643412
 20
663.8707010677847
 30
0.0
 40
2.846893988330908
100
AcDbArc
 50
180.0
 51
270.0
  0
LINE
  5
1CDC7
330
1F
100
AcDbEntity
  8
中心線
100
AcDbLine
 10
-98.71585740936053
 20
662.1680400892005
 30
0.0
 11
-98.71585740936053
 21
667.8095723563314
 31
0.0
  0
CIRCLE
  5
1CDC8
330
1F
100
AcDbEntity
  8
寸法
 48
0.5
100
AcDbCircle
 10
-98.71585740936144
 20
664.988806222766
 30
0.0
 40
1.524999999999999
  0
LINE
  5
1CDC9
330
1F
100
AcDbEntity
  8
中心線
100
AcDbLine
 10
-95.89509127579503
 20
664.988806222766
 30
0.0
 11
-101.536623542926
 21
664.988806222766
 31
0.0
  0
ARC
  5
1CDCA
330
1F
100
AcDbEntity
  8
実線
100
AcDbCircle
 10
-97.59775225438033
 20
663.8707010677847
 30
0.0
 40
2.846893988330908
100
AcDbArc
 50
270.0
 51
0.0
  0
ARC
  5
1CDCB
330
1F
100
AcDbEntity
  8
実線
100
AcDbCircle
 10
-71.29340992875905
 20
669.674085994211
 30
0.0
 40
3.055117999694486
100
AcDbArc
 50
209.9999999999993
 51
299.9999999999976
  0
ARC
  5
1CDCC
330
1F
100
AcDbEntity
  8
実線
100
AcDbCircle
 10
-85.69829129731852
 20
694.6240724015583
 30
0.0
 40
3.055117999694486
100
AcDbArc
 50
119.9999999999977
 51
209.9999999999993
  0
LINE
  5
1CDCD
330
1F
100
AcDbEntity
  8
実線
100
AcDbLine
 10
-97.59775225438033
 20
693.5638053660762
 30
0.0
 11
-124.4439625643412
 21
693.5638053660768
 31
0.0
  0
CIRCLE
  5
1CDCE
330
1F
100
AcDbEntity
  8
寸法
 48
0.5
100
AcDbCircle
 10
-111.0208574093605
 20
677.2938062227662
 30
0.0
 40
1.0
  0
CIRCLE
  5
1CDCF
330
1F
100
AcDbEntity
  8
寸法
 48
0.5
100
AcDbCircle
 10
-111.0208574093605
 20
684.2938062227663
 30
0.0
 40
1.0
  0
LINE
  5
1CDD0
330
1F
100
AcDbEntity
  8
中心線
100
AcDbLine
 10
-123.3258574093599
 20
692.4195723563321
 30
0.0
 11
-123.3258574093599
 21
686.778040089201
 31
0.0
  0
LINE
  5
1CDD1
330
1F
100
AcDbEntity
  8
0
100
AcDbLine
 10
-119.987500522348
 20
677.8785872953517
 30
0.0
 11
-119.987500522348
 21
676.7090251501797
 31
0.0
  0
LINE
  5
1CDD2
330
1F
100
AcDbEntity
  8
0
100
AcDbLine
 10
-121.1401799228829
 20
676.7090251501797
 30
0.0
 11
-119.987500522348
 21
676.7090251501797
 31
0.0
  0
LINE
  5
1CDD3
330
1F
100
AcDbEntity
  8
0
100
AcDbLine
 10
-121.1401799228829
 20
677.8785872953517
 30
0.0
 11
-119.987500522348
 21
677.8785872953517
 31
0.0
  0
CIRCLE
  5
1CDD4
330
1F
100
AcDbEntity
  8
寸法
 48
0.5
100
AcDbCircle
 10
-123.3258574093611
 20
689.5988062227665
 30
0.0
 40
1.524999999999999
  0
LINE
  5
1CDD5
330
1F
100
AcDbEntity
  8
中心線
100
AcDbLine
 10
-126.1466235429254
 20
689.5988062227661
 30
0.0
 11
-120.5050912757947
 21
689.5988062227661
 31
0.0
  0
ARC
  5
1CDD6
330
1F
100
AcDbEntity
  8
実線
100
AcDbCircle
 10
-124.4439625643412
 20
690.7169113777459
 30
0.0
 40
2.846893988330908
100
AcDbArc
 50
90.0
 51
180.0
  0
CIRCLE
  5
1CDD7
330
1F
100
AcDbEntity
  8
寸法
 48
0.5
100
AcDbCircle
 10
-117.0830352358511
 20
680.7938062227663
 30
0.0
 40
1.0
  0
CIRCLE
  5
1CDD8
330
1F
100
AcDbEntity
  8
寸法
 48
0.5
100
AcDbCircle
 10
-117.0830352358521
 20
673.7938062227645
 30
0.0
 40
1.0
  0
LINE
  5
1CDD9
330
1F
100
AcDbEntity
  8
中心線
100
AcDbLine
 10
-98.71585740936053
 20
692.4195723563321
 30
0.0
 11
-98.71585740936053
 21
686.778040089201
 31
0.0
  0
CIRCLE
  5
1CDDA
330
1F
100
AcDbEntity
  8
寸法
 48
0.5
100
AcDbCircle
 10
-98.71585740936053
 20
689.5988062227665
 30
0.0
 40
1.524999999999999
  0
CIRCLE
  5
1CDDB
330
1F
100
AcDbEntity
  8
寸法
 48
0.5
100
AcDbCircle
 10
-104.9586795828702
 20
680.7938062227663
 30
0.0
 40
1.0
  0
CIRCLE
  5
1CDDC
330
1F
100
AcDbEntity
  8
寸法
 48
0.5
100
AcDbCircle
 10
-104.9586795828695
 20
673.7938062227653
 30
0.0
 40
1.0
  0
LINE
  5
1CDDD
330
1F
100
AcDbEntity
  8
中心線
100
AcDbLine
 10
-95.89509127579503
 20
689.5988062227661
 30
0.0
 11
-101.536623542926
 21
689.5988062227661
 31
0.0
  0
ARC
  5
1CDDE
330
1F
100
AcDbEntity
  8
実線
100
AcDbCircle
 10
-97.59775225438033
 20
690.7169113777459
 30
0.0
 40
2.846893988330908
100
AcDbArc
 50
0.0
 51
90.0
  0
CIRCLE
  5
1CDDF
330
1F
100
AcDbEntity
  8
寸法
 48
0.5
100
AcDbCircle
 10
-61.15076597729558
 20
695.6983466044948
 30
0.0
 40
1.0
  0
LINE
  5
1CDE0
330
1F
100
AcDbEntity
  8
中心線
100
AcDbLine
 10
-87.06323740834113
 20
692.7738328854084
 30
0.0
 11
-81.8201825504534
 21
695.8009120189863
 31
0.0
  0
LINE
  5
1CDE1
330
1F
100
AcDbEntity
  8
中心線
100
AcDbLine
 10
-85.95524954618623
 20
696.9088998811421
 30
0.0
 11
-82.92817041260832
 21
691.665845023253
 31
0.0
  0
CIRCLE
  5
1CDE2
330
1F
100
AcDbEntity
  8
寸法
 48
0.5
100
AcDbCircle
 10
-84.44170997939773
 20
694.2873724521973
 30
0.0
 40
1.524999999999999
  0
LINE
  5
1CDE3
330
1F
100
AcDbEntity
  8
中心線
100
AcDbLine
 10
-75.52243261046578
 20
705.8087308824056
 30
0.0
 11
-56.51928220826494
 21
672.8943088819224
 31
0.0
  0
CIRCLE
  5
1CDE4
330
1F
100
AcDbEntity
  8
細線
 48
5.0
100
AcDbCircle
 10
-66.02085740936536
 20
689.3515198821642
 30
0.0
 40
13.52350000000031
  0
CIRCLE
  5
1CDE5
330
1F
100
AcDbEntity
  8
実線
100
AcDbCircle
 10
-66.02085740936536
 20
689.3515198821642
 30
0.0
 40
14.28750000000034
  0
ARC
  5
1CDE6
330
1F
100
AcDbEntity
  8
0
100
AcDbCircle
 10
-66.02085740936627
 20
689.3515198821646
 30
0.0
 40
11.40323091542728
100
AcDbArc
 50
213.3073621796733
 51
206.6926378203333
  0
CIRCLE
  5
1CDE7
330
1F
100
AcDbEntity
  8
寸法
 48
0.5
100
AcDbCircle
 10
-69.05194632261054
 20
687.6015198821646
 30
0.0
 40
1.0
  0
CIRCLE
  5
1CDE8
330
1F
100
AcDbEntity
  8
寸法
 48
0.5
100
AcDbCircle
 10
-72.36768413169511
 20
694.2216113142326
 30
0.0
 40
1.0
  0
CIRCLE
  5
1CDE9
330
1F
100
AcDbEntity
  8
寸法
 48
0.5
100
AcDbCircle
 10
-70.89094884143332
 20
683.0046931598335
 30
0.0
 40
1.0
  0
LINE
  5
1CDEA
330
1F
100
AcDbEntity
  8
0
100
AcDbLine
 10
-75.0858050755246
 20
684.8775228036847
 30
0.0
 11
-74.42792636886543
 21
683.7380434585334
 31
0.0
  0
LINE
  5
1CDEB
330
1F
100
AcDbEntity
  8
0
100
AcDbLine
 10
-75.55095721755742
 20
683.0896612957317
 30
0.0
 11
-74.42792636886543
 21
683.7380434585334
 31
0.0
  0
CIRCLE
  5
1CDEC
330
1F
100
AcDbEntity
  8
寸法
 48
0.5
100
AcDbCircle
 10
-73.9524163003548
 20
688.307310344403
 30
0.0
 40
1.0
  0
LINE
  5
1CDED
330
1F
100
AcDbEntity
  8
0
100
AcDbLine
 10
-76.2088359242166
 20
684.229140640884
 30
0.0
 11
-75.0858050755246
 21
684.8775228036847
 31
0.0
  0
CIRCLE
  5
1CDEE
330
1F
100
AcDbEntity
  8
寸法
 48
0.5
100
AcDbCircle
 10
-58.08929851837411
 20
690.3957294199263
 30
0.0
 40
1.0
  0
CIRCLE
  5
1CDEF
330
1F
100
AcDbEntity
  8
寸法
 48
0.5
100
AcDbCircle
 10
-59.67403068703379
 20
684.4814284500953
 30
0.0
 40
1.0
  0
CIRCLE
  5
1CDF0
330
1F
100
AcDbEntity
  8
寸法
 48
0.5
100
AcDbCircle
 10
-64.9766478716042
 20
681.4199609911748
 30
0.0
 40
1.0
  0
CIRCLE
  5
1CDF1
330
1F
100
AcDbEntity
  8
寸法
 48
0.5
100
AcDbCircle
 10
-62.98976849611927
 20
691.1015198821642
 30
0.0
 40
1.0
  0
LINE
  5
1CDF2
330
1F
100
AcDbEntity
  8
実線
100
AcDbLine
 10
-62.27586388981809
 20
711.6747635694127
 30
0.0
 11
-87.22585029716583
 21
697.2698822008529
 31
0.0
  0
LINE
  5
1CDF3
330
1F
100
AcDbEntity
  8
中心線
100
AcDbLine
 10
-62.59854440612116
 20
710.3938998811413
 30
0.0
 11
-59.57146527254327
 21
705.1508450232532
 31
0.0
  0
CIRCLE
  5
1CDF4
330
1F
100
AcDbEntity
  8
寸法
 48
0.5
100
AcDbCircle
 10
-61.08500483933267
 20
707.7723724521968
 30
0.0
 40
1.524999999999999
  0
ARC
  5
1CDF5
330
1F
100
AcDbEntity
  8
実線
100
AcDbCircle
 10
-60.74830488997077
 20
709.0289537701182
 30
0.0
 40
3.055117999694486
100
AcDbArc
 50
29.99999999999932
 51
119.9999999999977
  0
CIRCLE
  5
1CDF6
330
1F
100
AcDbEntity
  8
寸法
 48
0.5
100
AcDbCircle
 10
-67.06506694712652
 20
697.2830787731536
 30
0.0
 40
1.0
  0
LINE
  5
1CDF7
330
1F
100
AcDbEntity
  8
中心線
100
AcDbLine
 10
-58.46347741038744
 20
709.2859120189857
 30
0.0
 11
-63.70653226827608
 21
706.2588328854076
 31
0.0
  0
CIRCLE
  5
1CDF8
330
1F
100
AcDbEntity
  8
細線
100
AcDbCircle
 10
-10.56191057036335
 20
709.2938062227712
 30
0.0
 40
4.7
  0
ARC
  5
1CDF9
330
1F
100
AcDbEntity
  8
実線
100
AcDbCircle
 10
-46.34342352141129
 20
684.0789673627701
 30
0.0
 40
3.055117999694486
100
AcDbArc
 50
299.9999999999976
 51
29.99999999999932
  0
LINE
  5
1CDFA
330
1F
100
AcDbEntity
  8
細線
100
AcDbLine
 10
-8.493257222416104
 20
708.6768189246631
 30
0.0
 11
-8.579859762794512
 21
708.7268189246637
 31
0.0
  0
LINE
  5
1CDFB
330
1F
100
AcDbEntity
  8
細線
100
AcDbLine
 10
-12.3805639183106
 20
710.3438062227712
 30
0.0
 11
-12.63056391831059
 21
709.910793520879
 31
0.0
  0
LINE
  5
1CDFC
330
1F
100
AcDbEntity
  8
細線
100
AcDbLine
 10
-12.63056391831059
 20
709.910793520879
 30
0.0
 11
-12.54396137793241
 21
709.860793520879
 31
0.0
  0
LINE
  5
1CDFD
330
1F
100
AcDbEntity
  8
細線
100
AcDbLine
 10
-9.994923272255618
 20
711.2758570303401
 30
0.0
 11
-9.944923272255891
 21
711.3624595707185
 31
0.0
  0
LINE
  5
1CDFE
330
1F
100
AcDbEntity
  8
細線
100
AcDbLine
 10
-9.078897868471358
 20
710.8624595707185
 30
0.0
 11
-9.511910570363397
 21
711.1124595707187
 31
0.0
  0
LINE
  5
1CDFF
330
1F
100
AcDbEntity
  8
細線
100
AcDbLine
 10
-9.944923272255891
 20
711.3624595707185
 30
0.0
 11
-9.511910570363397
 21
711.1124595707187
 31
0.0
  0
LINE
  5
1CE00
330
1F
100
AcDbEntity
  8
細線
100
AcDbLine
 10
-12.3805639183106
 20
710.3438062227712
 30
0.0
 11
-12.13056391831059
 21
710.776818924663
 31
0.0
  0
ARC
  5
1CE01
330
1F
100
AcDbEntity
  8
細線
100
AcDbCircle
 10
-11.29396137793219
 20
712.0258570303398
 30
0.0
 40
1.5
100
AcDbArc
 50
240.0000000000023
 51
330.0000000000014
  0
LINE
  5
1CE02
330
1F
100
AcDbEntity
  8
細線
100
AcDbLine
 10
-12.13056391831059
 20
710.776818924663
 30
0.0
 11
-12.04396137793241
 21
710.7268189246635
 31
0.0
  0
LINE
  5
1CE03
330
1F
100
AcDbEntity
  8
細線
100
AcDbLine
 10
-9.128897868471312
 20
710.7758570303401
 30
0.0
 11
-9.078897868471358
 21
710.8624595707185
 31
0.0
  0
ARC
  5
1CE04
330
1F
100
AcDbEntity
  8
細線
100
AcDbCircle
 10
-7.829859762794512
 20
710.0258570303399
 30
0.0
 40
1.5
100
AcDbArc
 50
150.0000000000014
 51
240.0000000000023
  0
LINE
  5
1CE05
330
1F
100
AcDbEntity
  8
細線
100
AcDbLine
 10
-8.743257222416104
 20
708.2438062227713
 30
0.0
 11
-8.993257222416104
 21
707.8107935208791
 31
0.0
  0
LINE
  5
1CE06
330
1F
100
AcDbEntity
  8
細線
100
AcDbLine
 10
-8.993257222416104
 20
707.8107935208791
 30
0.0
 11
-9.079859762794512
 21
707.860793520879
 31
0.0
  0
LINE
  5
1CE07
330
1F
100
AcDbEntity
  8
細線
100
AcDbLine
 10
-11.12889786847131
 20
707.3117554152022
 30
0.0
 11
-11.17889786847126
 21
707.225152874824
 31
0.0
  0
LINE
  5
1CE08
330
1F
100
AcDbEntity
  8
細線
100
AcDbLine
 10
-11.17889786847126
 20
707.225152874824
 30
0.0
 11
-11.6119105703633
 21
707.475152874824
 31
0.0
  0
LINE
  5
1CE09
330
1F
100
AcDbEntity
  8
細線
100
AcDbLine
 10
-11.99492327225561
 20
707.8117554152022
 30
0.0
 11
-12.0449232722558
 21
707.7251528748241
 31
0.0
  0
LINE
  5
1CE0A
330
1F
100
AcDbEntity
  8
細線
100
AcDbLine
 10
-12.0449232722558
 20
707.7251528748241
 30
0.0
 11
-11.6119105703633
 21
707.475152874824
 31
0.0
  0
ARC
  5
1CE0B
330
1F
100
AcDbEntity
  8
細線
100
AcDbCircle
 10
-9.829859762794512
 20
706.5617554152022
 30
0.0
 40
1.5
100
AcDbArc
 50
60.00000000000227
 51
150.0000000000014
  0
LINE
  5
1CE0C
330
1F
100
AcDbEntity
  8
細線
100
AcDbLine
 10
-8.743257222416104
 20
708.2438062227713
 30
0.0
 11
-8.493257222416104
 21
708.6768189246631
 31
0.0
  0
ARC
  5
1CE0D
330
1F
100
AcDbEntity
  8
細線
100
AcDbCircle
 10
-13.29396137793219
 20
708.5617554152022
 30
0.0
 40
1.5
100
AcDbArc
 50
330.0000000000014
 51
60.00000000000227
  0
LWPOLYLINE
  5
1CE0E
330
1F
100
AcDbEntity
  8
外形線
100
AcDbPolyline
 90
       12
 70
   129
 43
0.0
 10
-90.52085740936012
 20
860.9442048625032
 42
0.0418357922730061
 10
-92.41336703070215
 20
864.2221276804784
 10
-109.1283477880199
 20
873.8725263202145
 42
0.041835792273005
 10
-112.9133670307019
 20
873.8725263202145
 10
-129.6283477880183
 20
864.2221276804793
 42
0.0418357922730106
 10
-131.5208574093599
 20
860.9442048625023
 10
-131.5208574093599
 20
841.6434075830306
 42
0.0418357922730243
 10
-129.6283477880183
 20
838.3654847650532
 10
-112.9133670307019
 20
828.7150861253175
 42
0.041835792273011
 10
-109.1283477880183
 20
828.7150861253175
 10
-92.41336703070215
 20
838.3654847650532
 42
0.0418357922730047
 10
-90.52085740936149
 20
841.6434075830293
  0
CIRCLE
  5
1CE0F
330
1F
100
AcDbEntity
  8
外形線
100
AcDbCircle
 10
-111.0208574093605
 20
851.2938062227663
 30
0.0
 40
20.5
  0
ARC
  5
1CE10
330
1F
100
AcDbEntity
  8
中心線
100
AcDbCircle
 10
-111.0208574093605
 20
767.2938062227663
 30
0.0
 40
84.0
100
AcDbArc
 50
72.04478708289222
 51
134.8559875553006
  0
CIRCLE
  5
1CE11
330
1F
100
AcDbEntity
  8
細線
100
AcDbCircle
 10
-211.4798042483585
 20
825.2938062227615
 30
0.0
 40
4.7
  0
LINE
  5
1CE12
330
1F
100
AcDbEntity
  8
細線
100
AcDbLine
 10
-213.2984575963059
 20
826.3438062227617
 30
0.0
 11
-213.0484575963059
 21
826.7768189246535
 31
0.0
  0
LINE
  5
1CE13
330
1F
100
AcDbEntity
  8
細線
100
AcDbLine
 10
-213.0484575963059
 20
826.7768189246535
 30
0.0
 11
-212.9618550559275
 21
826.7268189246538
 31
0.0
  0
LINE
  5
1CE14
330
1F
100
AcDbEntity
  8
細線
100
AcDbLine
 10
-210.9128169502505
 20
827.2758570303308
 30
0.0
 11
-210.8628169502508
 21
827.3624595707092
 31
0.0
  0
LINE
  5
1CE15
330
1F
100
AcDbEntity
  8
細線
100
AcDbLine
 10
-210.8628169502508
 20
827.3624595707092
 30
0.0
 11
-210.4298042483585
 21
827.1124595707087
 31
0.0
  0
LINE
  5
1CE16
330
1F
100
AcDbEntity
  8
細線
100
AcDbLine
 10
-210.0467915464664
 20
826.7758570303303
 30
0.0
 11
-209.996791546466
 21
826.8624595707088
 31
0.0
  0
LINE
  5
1CE17
330
1F
100
AcDbEntity
  8
細線
100
AcDbLine
 10
-209.996791546466
 20
826.8624595707088
 30
0.0
 11
-210.4298042483585
 21
827.1124595707087
 31
0.0
  0
ARC
  5
1CE18
330
1F
100
AcDbEntity
  8
細線
100
AcDbCircle
 10
-212.2118550559275
 20
828.0258570303301
 30
0.0
 40
1.5
100
AcDbArc
 50
240.0000000000023
 51
330.0000000000014
  0
LINE
  5
1CE19
330
1F
100
AcDbEntity
  8
細線
100
AcDbLine
 10
-213.5484575963059
 20
825.9107935208694
 30
0.0
 11
-213.4618550559275
 21
825.8607935208695
 31
0.0
  0
LINE
  5
1CE1A
330
1F
100
AcDbEntity
  8
細線
100
AcDbLine
 10
-209.6611509004115
 20
824.2438062227616
 30
0.0
 11
-209.4111509004114
 21
824.6768189246536
 31
0.0
  0
LINE
  5
1CE1B
330
1F
100
AcDbEntity
  8
細線
100
AcDbLine
 10
-209.4111509004114
 20
824.6768189246536
 30
0.0
 11
-209.4977534407894
 21
824.7268189246538
 31
0.0
  0
LINE
  5
1CE1C
330
1F
100
AcDbEntity
  8
細線
100
AcDbLine
 10
-212.0467915464664
 20
823.3117554151929
 30
0.0
 11
-212.0967915464662
 21
823.2251528748143
 31
0.0
  0
LINE
  5
1CE1D
330
1F
100
AcDbEntity
  8
細線
100
AcDbLine
 10
-212.9628169502505
 20
823.7251528748142
 30
0.0
 11
-212.5298042483584
 21
823.4751528748143
 31
0.0
  0
LINE
  5
1CE1E
330
1F
100
AcDbEntity
  8
細線
100
AcDbLine
 10
-212.0967915464662
 20
823.2251528748143
 30
0.0
 11
-212.5298042483584
 21
823.4751528748143
 31
0.0
  0
LINE
  5
1CE1F
330
1F
100
AcDbEntity
  8
細線
100
AcDbLine
 10
-209.6611509004115
 20
824.2438062227616
 30
0.0
 11
-209.9111509004115
 21
823.8107935208693
 31
0.0
  0
ARC
  5
1CE20
330
1F
100
AcDbEntity
  8
細線
100
AcDbCircle
 10
-210.7477534407899
 20
822.5617554151927
 30
0.0
 40
1.5
100
AcDbArc
 50
60.00000000000227
 51
150.0000000000014
  0
LINE
  5
1CE21
330
1F
100
AcDbEntity
  8
細線
100
AcDbLine
 10
-209.9111509004115
 20
823.8107935208693
 30
0.0
 11
-209.9977534407892
 21
823.8607935208694
 31
0.0
  0
LINE
  5
1CE22
330
1F
100
AcDbEntity
  8
細線
100
AcDbLine
 10
-212.9128169502505
 20
823.8117554151926
 30
0.0
 11
-212.9628169502505
 21
823.7251528748142
 31
0.0
  0
ARC
  5
1CE23
330
1F
100
AcDbEntity
  8
細線
100
AcDbCircle
 10
-214.2118550559275
 20
824.5617554151927
 30
0.0
 40
1.5
100
AcDbArc
 50
330.0000000000014
 51
60.00000000000227
  0
LINE
  5
1CE24
330
1F
100
AcDbEntity
  8
細線
100
AcDbLine
 10
-213.2984575963059
 20
826.3438062227617
 30
0.0
 11
-213.5484575963059
 21
825.9107935208694
 31
0.0
  0
ARC
  5
1CE25
330
1F
100
AcDbEntity
  8
細線
100
AcDbCircle
 10
-208.7477534407899
 20
826.0258570303301
 30
0.0
 40
1.5
100
AcDbArc
 50
150.0000000000014
 51
240.0000000000023
  0
CIRCLE
  5
1CE26
330
1F
100
AcDbEntity
  8
外形線
100
AcDbCircle
 10
-111.0208574093605
 20
851.2938062227663
 30
0.0
 40
14.0
  0
CIRCLE
  5
1CE27
330
1F
100
AcDbEntity
  8
外形線
100
AcDbCircle
 10
-111.0208574093605
 20
851.2938062227663
 30
0.0
 40
12.5
  0
CIRCLE
  5
1CE28
330
1F
100
AcDbEntity
  8
外形線
100
AcDbCircle
 10
-111.0208574093605
 20
851.2938062227663
 30
0.0
 40
6.5
  0
HATCH
  5
1CE29
330
1F
100
AcDbEntity
  8
0
100
AcDbHatch
 10
0.0
 20
0.0
 30
0.0
210
0.0
220
0.0
230
1.0
  2
SOLID
 70
     1
 71
     0
 91
        2
 92
        7
 72
     1
 73
     1
 93
        3
 10
-111.0208574093603
 20
844.7938062227658
 42
0.0
 10
-111.0208574093603
 20
851.2938062227663
 42
0.0
 10
-117.5208574093605
 20
851.2938062227661
 42
0.4142135623730951
 97
        0
 92
        7
 72
     1
 73
     1
 93
        3
 10
-104.5208574093605
 20
851.2938062227661
 42
0.4142135623730951
 10
-111.0208574093603
 20
857.7938062227662
 42
0.0
 10
-111.0208574093603
 20
851.2938062227663
 42
0.0
 97
        0
 75
     0
 76
     1
 47
0.1348330763457408
 98
        2
 10
-113.5015469952359
 20
847.5851818351411
 10
-109.0520564397283
 20
853.1156796382029
  0
CIRCLE
  5
1CE2A
330
1F
100
AcDbEntity
  8
細線
100
AcDbCircle
 10
-111.0208574093605
 20
883.2938062227663
 30
0.0
 40
4.7
  0
LINE
  5
1CE2B
330
1F
100
AcDbEntity
  8
細線
100
AcDbLine
 10
-111.0208574093605
 20
881.1938062227664
 30
0.0
 11
-110.5208574093608
 21
881.1938062227664
 31
0.0
  0
LINE
  5
1CE2C
330
1F
100
AcDbEntity
  8
細線
100
AcDbLine
 10
-110.5208574093608
 20
881.1938062227664
 30
0.0
 11
-110.5208574093608
 21
881.2938062227663
 31
0.0
  0
LINE
  5
1CE2D
330
1F
100
AcDbEntity
  8
細線
100
AcDbLine
 10
-109.0208574093605
 20
883.7938062227662
 30
0.0
 11
-108.9208574093609
 21
883.7938062227662
 31
0.0
  0
LINE
  5
1CE2E
330
1F
100
AcDbEntity
  8
細線
100
AcDbLine
 10
-108.9208574093609
 20
883.7938062227662
 30
0.0
 11
-108.9208574093609
 21
883.2938062227663
 31
0.0
  0
LINE
  5
1CE2F
330
1F
100
AcDbEntity
  8
細線
100
AcDbLine
 10
-109.0208574093605
 20
882.7938062227662
 30
0.0
 11
-108.9208574093609
 21
882.7938062227662
 31
0.0
  0
LINE
  5
1CE30
330
1F
100
AcDbEntity
  8
細線
100
AcDbLine
 10
-108.9208574093609
 20
882.7938062227662
 30
0.0
 11
-108.9208574093609
 21
883.2938062227663
 31
0.0
  0
ARC
  5
1CE31
330
1F
100
AcDbEntity
  8
細線
100
AcDbCircle
 10
-109.0208574093605
 20
881.2938062227663
 30
0.0
 40
1.5
100
AcDbArc
 50
90.0
 51
180.0
  0
ARC
  5
1CE32
330
1F
100
AcDbEntity
  8
細線
100
AcDbCircle
 10
-109.0208574093605
 20
885.2938062227662
 30
0.0
 40
1.5
100
AcDbArc
 50
180.0
 51
270.0
  0
LINE
  5
1CE33
330
1F
100
AcDbEntity
  8
細線
100
AcDbLine
 10
-113.0208574093605
 20
882.7938062227662
 30
0.0
 11
-113.1208574093607
 21
882.7938062227662
 31
0.0
  0
LINE
  5
1CE34
330
1F
100
AcDbEntity
  8
細線
100
AcDbLine
 10
-113.1208574093607
 20
883.7938062227662
 30
0.0
 11
-113.1208574093607
 21
883.2938062227663
 31
0.0
  0
LINE
  5
1CE35
330
1F
100
AcDbEntity
  8
細線
100
AcDbLine
 10
-113.1208574093607
 20
882.7938062227662
 30
0.0
 11
-113.1208574093607
 21
883.2938062227663
 31
0.0
  0
LINE
  5
1CE36
330
1F
100
AcDbEntity
  8
細線
100
AcDbLine
 10
-111.0208574093605
 20
881.1938062227664
 30
0.0
 11
-111.5208574093608
 21
881.1938062227664
 31
0.0
  0
ARC
  5
1CE37
330
1F
100
AcDbEntity
  8
細線
100
AcDbCircle
 10
-113.0208574093605
 20
881.2938062227663
 30
0.0
 40
1.5
100
AcDbArc
 50
0.0
 51
90.0
  0
LINE
  5
1CE38
330
1F
100
AcDbEntity
  8
細線
100
AcDbLine
 10
-111.5208574093608
 20
881.1938062227664
 30
0.0
 11
-111.5208574093608
 21
881.2938062227663
 31
0.0
  0
LINE
  5
1CE39
330
1F
100
AcDbEntity
  8
細線
100
AcDbLine
 10
-113.0208574093605
 20
883.7938062227662
 30
0.0
 11
-113.1208574093607
 21
883.7938062227662
 31
0.0
  0
ARC
  5
1CE3A
330
1F
100
AcDbEntity
  8
細線
100
AcDbCircle
 10
-113.0208574093605
 20
885.2938062227662
 30
0.0
 40
1.5
100
AcDbArc
 50
270.0
 51
0.0
  0
LINE
  5
1CE3B
330
1F
100
AcDbEntity
  8
細線
100
AcDbLine
 10
-111.0208574093605
 20
885.3938062227662
 30
0.0
 11
-110.5208574093608
 21
885.3938062227662
 31
0.0
  0
LINE
  5
1CE3C
330
1F
100
AcDbEntity
  8
細線
100
AcDbLine
 10
-110.5208574093608
 20
885.3938062227662
 30
0.0
 11
-110.5208574093608
 21
885.2938062227662
 31
0.0
  0
LINE
  5
1CE3D
330
1F
100
AcDbEntity
  8
細線
100
AcDbLine
 10
-111.5208574093608
 20
885.3938062227662
 30
0.0
 11
-111.5208574093608
 21
885.2938062227662
 31
0.0
  0
LINE
  5
1CE3E
330
1F
100
AcDbEntity
  8
細線
100
AcDbLine
 10
-111.0208574093605
 20
885.3938062227662
 30
0.0
 11
-111.5208574093608
 21
885.3938062227662
 31
0.0
  0
CIRCLE
  5
1CE3F
330
1F
100
AcDbEntity
  8
細線
100
AcDbCircle
 10
-10.56191057036335
 20
825.2938062227615
 30
0.0
 40
4.7
  0
LINE
  5
1CE40
330
1F
100
AcDbEntity
  8
細線
100
AcDbLine
 10
-8.993257222416104
 20
826.7768189246535
 30
0.0
 11
-9.079859762794512
 21
826.7268189246536
 31
0.0
  0
LINE
  5
1CE41
330
1F
100
AcDbEntity
  8
細線
100
AcDbLine
 10
-8.743257222416104
 20
826.3438062227612
 30
0.0
 11
-8.993257222416104
 21
826.7768189246535
 31
0.0
  0
LINE
  5
1CE42
330
1F
100
AcDbEntity
  8
細線
100
AcDbLine
 10
-11.99492327225561
 20
826.7758570303302
 30
0.0
 11
-12.04492327225557
 21
826.8624595707088
 31
0.0
  0
LINE
  5
1CE43
330
1F
100
AcDbEntity
  8
細線
100
AcDbLine
 10
-11.17889786847126
 20
827.3624595707083
 30
0.0
 11
-11.6119105703633
 21
827.1124595707084
 31
0.0
  0
LINE
  5
1CE44
330
1F
100
AcDbEntity
  8
細線
100
AcDbLine
 10
-12.04492327225557
 20
826.8624595707088
 30
0.0
 11
-11.6119105703633
 21
827.1124595707084
 31
0.0
  0
LINE
  5
1CE45
330
1F
100
AcDbEntity
  8
細線
100
AcDbLine
 10
-11.12889786847108
 20
827.2758570303304
 30
0.0
 11
-11.17889786847126
 21
827.3624595707083
 31
0.0
  0
ARC
  5
1CE46
330
1F
100
AcDbEntity
  8
細線
100
AcDbCircle
 10
-9.829859762794512
 20
828.0258570303301
 30
0.0
 40
1.5
100
AcDbArc
 50
209.9999999999986
 51
299.9999999999976
  0
LINE
  5
1CE47
330
1F
100
AcDbEntity
  8
細線
100
AcDbLine
 10
-8.493257222416104
 20
825.9107935208689
 30
0.0
 11
-8.579859762794512
 21
825.8607935208692
 31
0.0
  0
LINE
  5
1CE48
330
1F
100
AcDbEntity
  8
細線
100
AcDbLine
 10
-12.3805639183106
 20
824.2438062227611
 30
0.0
 11
-12.13056391831059
 21
823.810793520869
 31
0.0
  0
LINE
  5
1CE49
330
1F
100
AcDbEntity
  8
細線
100
AcDbLine
 10
-12.13056391831059
 20
823.810793520869
 30
0.0
 11
-12.04396137793219
 21
823.8607935208692
 31
0.0
  0
LINE
  5
1CE4A
330
1F
100
AcDbEntity
  8
細線
100
AcDbLine
 10
-9.128897868471085
 20
823.8117554151926
 30
0.0
 11
-9.078897868471358
 21
823.7251528748142
 31
0.0
  0
LINE
  5
1CE4B
330
1F
100
AcDbEntity
  8
細線
100
AcDbLine
 10
-9.078897868471358
 20
823.7251528748142
 30
0.0
 11
-9.511910570363397
 21
823.4751528748143
 31
0.0
  0
LINE
  5
1CE4C
330
1F
100
AcDbEntity
  8
細線
100
AcDbLine
 10
-9.994923272255618
 20
823.3117554151924
 30
0.0
 11
-9.944923272255664
 21
823.2251528748143
 31
0.0
  0
LINE
  5
1CE4D
330
1F
100
AcDbEntity
  8
細線
100
AcDbLine
 10
-9.944923272255664
 20
823.2251528748143
 30
0.0
 11
-9.511910570363397
 21
823.4751528748143
 31
0.0
  0
ARC
  5
1CE4E
330
1F
100
AcDbEntity
  8
細線
100
AcDbCircle
 10
-11.29396137793219
 20
822.5617554151927
 30
0.0
 40
1.5
100
AcDbArc
 50
29.99999999999861
 51
119.9999999999977
  0
LINE
  5
1CE4F
330
1F
100
AcDbEntity
  8
細線
100
AcDbLine
 10
-12.3805639183106
 20
824.2438062227611
 30
0.0
 11
-12.63056391831059
 21
824.6768189246536
 31
0.0
  0
LINE
  5
1CE50
330
1F
100
AcDbEntity
  8
細線
100
AcDbLine
 10
-12.63056391831059
 20
824.6768189246536
 30
0.0
 11
-12.54396137793219
 21
824.7268189246536
 31
0.0
  0
ARC
  5
1CE51
330
1F
100
AcDbEntity
  8
細線
100
AcDbCircle
 10
-7.829859762794512
 20
824.5617554151927
 30
0.0
 40
1.5
100
AcDbArc
 50
119.9999999999977
 51
209.9999999999986
  0
LINE
  5
1CE52
330
1F
100
AcDbEntity
  8
細線
100
AcDbLine
 10
-8.743257222416104
 20
826.3438062227612
 30
0.0
 11
-8.493257222416104
 21
825.9107935208689
 31
0.0
  0
ARC
  5
1CE53
330
1F
100
AcDbEntity
  8
細線
100
AcDbCircle
 10
-13.29396137793219
 20
826.0258570303301
 30
0.0
 40
1.5
100
AcDbArc
 50
299.9999999999976
 51
29.99999999999861
  0
LINE
  5
1CE54
330
1F
100
AcDbEntity
  8
0
100
AcDbLine
 10
-496.9691577766354
 20
1207.54478451753
 30
0.0
 11
-498.7855484637552
 21
1205.728393830409
 31
0.0
  0
LINE
  5
1CE55
330
1F
100
AcDbEntity
  8
0
100
AcDbLine
 10
-535.701798463755
 20
1207.54478451753
 30
0.0
 11
-533.8854077766359
 21
1205.728393830409
 31
0.0
  0
LINE
  5
1CE56
330
1F
100
AcDbEntity
  8
外形線
100
AcDbLine
 10
-522.8354781201947
 20
1127.143464173969
 30
0.0
 11
-522.8354781201942
 21
1038.045442172249
 31
0.0
  0
LINE
  5
1CE57
330
1F
100
AcDbEntity
  8
外形線
100
AcDbLine
 10
-509.8354781201947
 20
1127.143464173969
 30
0.0
 11
-509.835478120194
 21
1038.045449753639
 31
0.0
  0
ARC
  5
1CE58
330
1F
100
AcDbEntity
  8
細線
100
AcDbCircle
 10
-513.0854759896401
 20
1026.588420487834
 30
0.0
 40
4.889707262404326
100
AcDbArc
 50
48.34367414321132
 51
131.6563926847128
  0
ARC
  5
1CE59
330
1F
100
AcDbEntity
  8
細線
100
AcDbCircle
 10
-513.085480250751
 20
1033.895057775126
 30
0.0
 40
4.889707262404326
100
AcDbArc
 50
228.3436741432113
 51
311.6563926847128
  0
ARC
  5
1CE5A
330
1F
100
AcDbEntity
  8
細線
100
AcDbCircle
 10
-519.5854759896378
 20
1026.588416697139
 30
0.0
 40
4.889707262404326
100
AcDbArc
 50
48.34367414321132
 51
131.6563926847128
  0
ARC
  5
1CE5B
330
1F
100
AcDbEntity
  8
細線
100
AcDbCircle
 10
-513.0854802507514
 20
1041.698766501936
 30
0.0
 40
4.889707262404326
100
AcDbArc
 50
228.3436741432113
 51
311.6563926847128
  0
ARC
  5
1CE5C
330
1F
100
AcDbEntity
  8
細線
100
AcDbCircle
 10
-519.5854802507492
 20
1041.698762711242
 30
0.0
 40
4.889707262404326
100
AcDbArc
 50
228.3436741432113
 51
311.6563926847128
  0
ARC
  5
1CE5D
330
1F
100
AcDbEntity
  8
細線
100
AcDbCircle
 10
-519.5854759896383
 20
1034.392125423951
 30
0.0
 40
4.889707262404326
100
AcDbArc
 50
48.34367414321132
 51
131.6563926847128
  0
ARC
  5
1CE5E
330
1F
100
AcDbEntity
  8
0
100
AcDbCircle
 10
-530.7854781201958
 20
1191.643464173969
 30
0.0
 40
3.0
100
AcDbArc
 50
90.0
 51
180.0
  0
CIRCLE
  5
1CE5F
330
1F
100
AcDbEntity
  8
0
100
AcDbCircle
 10
-528.6354781201953
 20
1177.19346417397
 30
0.0
 40
4.25
  0
ARC
  5
1CE60
330
1F
100
AcDbEntity
  8
0
100
AcDbCircle
 10
-528.6354781201953
 20
1177.19346417397
 30
0.0
 40
6.350000000000022
100
AcDbArc
 50
90.0
 51
270.0
  0
LINE
  5
1CE61
330
1F
100
AcDbEntity
  8
0
100
AcDbLine
 10
-533.0067281201954
 20
1196.843464173967
 30
0.0
 11
-499.6642281201957
 21
1196.843464173967
 31
0.0
  0
LINE
  5
1CE62
330
1F
100
AcDbEntity
  8
0
100
AcDbLine
 10
-533.7854781201956
 20
1191.643464173969
 30
0.0
 11
-533.7854781201953
 21
1180.908299298168
 31
0.0
  0
LINE
  5
1CE63
330
1F
100
AcDbEntity
  8
0
100
AcDbLine
 10
-533.0067281201954
 20
1203.60707348685
 30
0.0
 11
-533.0067281201954
 21
1196.843464173967
 31
0.0
  0
ARC
  5
1CE64
330
1F
100
AcDbEntity
  8
0
100
AcDbCircle
 10
-536.0067281201954
 20
1203.60707348685
 30
0.0
 40
3.0
100
AcDbArc
 50
0.0
 51
45.00000000000713
  0
LINE
  5
1CE65
330
1F
100
AcDbEntity
  8
0
100
AcDbLine
 10
-525.7354781201952
 20
1170.843464173967
 30
0.0
 11
-525.7354781201952
 21
1127.143464173969
 31
0.0
  0
LINE
  5
1CE66
330
1F
100
AcDbEntity
  8
0
100
AcDbLine
 10
-506.9354781201955
 20
1170.843464173967
 30
0.0
 11
-506.9354781201955
 21
1127.143464173969
 31
0.0
  0
LINE
  5
1CE67
330
1F
100
AcDbEntity
  8
0
100
AcDbLine
 10
-525.7354781201952
 20
1127.143464173969
 30
0.0
 11
-506.9354781201955
 21
1127.143464173969
 31
0.0
  0
ARC
  5
1CE68
330
1F
100
AcDbEntity
  8
0
100
AcDbCircle
 10
-504.0354781201958
 20
1177.19346417397
 30
0.0
 40
6.350000000000022
100
AcDbArc
 50
270.0
 51
90.0
  0
LINE
  5
1CE69
330
1F
100
AcDbEntity
  8
0
100
AcDbLine
 10
-498.8854781201951
 20
1191.643464173969
 30
0.0
 11
-498.8854781201951
 21
1180.908299298168
 31
0.0
  0
LINE
  5
1CE6A
330
1F
100
AcDbEntity
  8
0
100
AcDbLine
 10
-509.8354781201956
 20
1183.543464173969
 30
0.0
 11
-509.8354781201956
 21
1170.843464173967
 31
0.0
  0
LINE
  5
1CE6B
330
1F
100
AcDbEntity
  8
0
100
AcDbLine
 10
-522.8354781201951
 20
1183.543464173969
 30
0.0
 11
-522.8354781201951
 21
1170.843464173967
 31
0.0
  0
LINE
  5
1CE6C
330
1F
100
AcDbEntity
  8
0
100
AcDbLine
 10
-528.6354781201953
 20
1170.843464173967
 30
0.0
 11
-504.0354781201958
 21
1170.843464173967
 31
0.0
  0
LINE
  5
1CE6D
330
1F
100
AcDbEntity
  8
0
100
AcDbLine
 10
-528.6354781201953
 20
1181.443464173969
 30
0.0
 11
-528.6354781201953
 21
1172.943464173969
 31
0.0
  0
LINE
  5
1CE6E
330
1F
100
AcDbEntity
  8
0
100
AcDbLine
 10
-504.0354781201958
 20
1181.443464173969
 30
0.0
 11
-504.0354781201958
 21
1172.943464173969
 31
0.0
  0
CIRCLE
  5
1CE6F
330
1F
100
AcDbEntity
  8
0
100
AcDbCircle
 10
-504.0354781201958
 20
1177.19346417397
 30
0.0
 40
4.25
  0
LINE
  5
1CE70
330
1F
100
AcDbEntity
  8
HIDDEN
 48
0.5
100
AcDbLine
 10
-531.4167281201953
 20
1193.843464173967
 30
0.0
 11
-501.2542281201956
 21
1193.843464173967
 31
0.0
  0
LINE
  5
1CE71
330
1F
100
AcDbEntity
  8
0
100
AcDbLine
 10
-530.7854781201958
 20
1194.643464173969
 30
0.0
 11
-501.8854781201951
 21
1194.643464173969
 31
0.0
  0
LINE
  5
1CE72
330
1F
100
AcDbEntity
  8
HIDDEN
 48
0.5
100
AcDbLine
 10
-530.2167281201954
 20
1184.343464173967
 30
0.0
 11
-502.4542281201957
 21
1184.343464173967
 31
0.0
  0
LINE
  5
1CE73
330
1F
100
AcDbEntity
  8
0
100
AcDbLine
 10
-528.6354781201953
 20
1183.543464173969
 30
0.0
 11
-504.0354781201958
 21
1183.543464173969
 31
0.0
  0
LINE
  5
1CE74
330
1F
100
AcDbEntity
  8
HIDDEN
 48
0.5
100
AcDbLine
 10
-530.2167281201948
 20
1194.643464173969
 30
0.0
 11
-530.2167281201954
 21
1184.343464173967
 31
0.0
  0
LINE
  5
1CE75
330
1F
100
AcDbEntity
  8
0
100
AcDbLine
 10
-530.2167281201948
 20
1196.843464173967
 30
0.0
 11
-530.2167281201948
 21
1194.643464173969
 31
0.0
  0
LINE
  5
1CE76
330
1F
100
AcDbEntity
  8
HIDDEN
 48
0.5
100
AcDbLine
 10
-531.4167281201953
 20
1193.843464173967
 30
0.0
 11
-531.4167281201953
 21
1185.543464173969
 31
0.0
  0
LINE
  5
1CE77
330
1F
100
AcDbEntity
  8
HIDDEN
 48
0.5
100
AcDbLine
 10
-531.4167281201953
 20
1185.543464173969
 30
0.0
 11
-530.2167281201954
 21
1184.343464173967
 31
0.0
  0
LINE
  5
1CE78
330
1F
100
AcDbEntity
  8
0
100
AcDbLine
 10
-499.6642281201957
 20
1203.60707348685
 30
0.0
 11
-499.6642281201957
 21
1196.843464173967
 31
0.0
  0
ARC
  5
1CE79
330
1F
100
AcDbEntity
  8
0
100
AcDbCircle
 10
-496.6642281201957
 20
1203.60707348685
 30
0.0
 40
3.0
100
AcDbArc
 50
134.9999999999928
 51
180.0
  0
LINE
  5
1CE7A
330
1F
100
AcDbEntity
  8
HIDDEN
 48
0.5
100
AcDbLine
 10
-502.4542281201957
 20
1184.343464173967
 30
0.0
 11
-501.2542281201956
 21
1185.543464173969
 31
0.0
  0
LINE
  5
1CE7B
330
1F
100
AcDbEntity
  8
HIDDEN
 48
0.5
100
AcDbLine
 10
-502.4542281201957
 20
1194.643464173969
 30
0.0
 11
-502.4542281201957
 21
1184.343464173967
 31
0.0
  0
LINE
  5
1CE7C
330
1F
100
AcDbEntity
  8
0
100
AcDbLine
 10
-502.4542281201957
 20
1196.843464173967
 30
0.0
 11
-502.4542281201957
 21
1194.643464173969
 31
0.0
  0
LINE
  5
1CE7D
330
1F
100
AcDbEntity
  8
HIDDEN
 48
0.5
100
AcDbLine
 10
-501.2542281201953
 20
1193.843464173967
 30
0.0
 11
-501.2542281201956
 21
1185.543464173969
 31
0.0
  0
ARC
  5
1CE7E
330
1F
100
AcDbEntity
  8
0
100
AcDbCircle
 10
-501.8854781201951
 20
1191.643464173969
 30
0.0
 40
3.0
100
AcDbArc
 50
0.0
 51
90.0
  0
LINE
  5
1CE7F
330
1F
100
AcDbEntity
  8
0
100
AcDbLine
 10
-532.5979781201956
 20
1239.92346417397
 30
0.0
 11
-500.0729781201957
 21
1239.92346417397
 31
0.0
  0
LINE
  5
1CE80
330
1F
100
AcDbEntity
  8
0
100
AcDbLine
 10
-533.7979781201957
 20
1238.723464173968
 30
0.0
 11
-498.8729781201953
 21
1238.723464173968
 31
0.0
  0
LINE
  5
1CE81
330
1F
100
AcDbEntity
  8
0
100
AcDbLine
 10
-536.580478120195
 20
1220.92346417397
 30
0.0
 11
-496.0904781201953
 21
1220.92346417397
 31
0.0
  0
LINE
  5
1CE82
330
1F
100
AcDbEntity
  8
0
100
AcDbLine
 10
-536.580478120195
 20
1217.92346417397
 30
0.0
 11
-496.0904781201953
 21
1217.92346417397
 31
0.0
  0
LINE
  5
1CE83
330
1F
100
AcDbEntity
  8
0
100
AcDbLine
 10
-536.580478120195
 20
1216.42346417397
 30
0.0
 11
-496.0904781201953
 21
1216.42346417397
 31
0.0
  0
LINE
  5
1CE84
330
1F
100
AcDbEntity
  8
0
100
AcDbLine
 10
-532.2104781201951
 20
1224.02346417397
 30
0.0
 11
-500.4604781201951
 21
1224.02346417397
 31
0.0
  0
LINE
  5
1CE85
330
1F
100
AcDbEntity
  8
0
100
AcDbLine
 10
-533.7979781201957
 20
1238.723464173968
 30
0.0
 11
-533.7979781201957
 21
1220.92346417397
 31
0.0
  0
LINE
  5
1CE86
330
1F
100
AcDbEntity
  8
0
100
AcDbLine
 10
-532.5979781201956
 20
1239.92346417397
 30
0.0
 11
-532.5979781201956
 21
1224.02346417397
 31
0.0
  0
LINE
  5
1CE87
330
1F
100
AcDbEntity
  8
0
100
AcDbLine
 10
-532.5979781201956
 20
1224.02346417397
 30
0.0
 11
-533.7979781201957
 21
1221.945003204888
 31
0.0
  0
LINE
  5
1CE88
330
1F
100
AcDbEntity
  8
0
100
AcDbLine
 10
-536.580478120195
 20
1220.92346417397
 30
0.0
 11
-536.580478120195
 21
1217.92346417397
 31
0.0
  0
LINE
  5
1CE89
330
1F
100
AcDbEntity
  8
0
100
AcDbLine
 10
-532.3004781201952
 20
1217.92346417397
 30
0.0
 11
-532.3004781201952
 21
1216.42346417397
 31
0.0
  0
ARC
  5
1CE8A
330
1F
100
AcDbEntity
  8
0
100
AcDbCircle
 10
-533.5804781201955
 20
1209.666104861089
 30
0.0
 40
3.0
100
AcDbArc
 50
180.0
 51
225.0000000000071
  0
LINE
  5
1CE8B
330
1F
100
AcDbEntity
  8
0
100
AcDbLine
 10
-536.580478120195
 20
1216.42346417397
 30
0.0
 11
-536.580478120195
 21
1209.666104861089
 31
0.0
  0
LINE
  5
1CE8C
330
1F
100
AcDbEntity
  8
0
100
AcDbLine
 10
-533.7979781201957
 20
1238.723464173968
 30
0.0
 11
-532.5979781201954
 21
1239.92346417397
 31
0.0
  0
LINE
  5
1CE8D
330
1F
100
AcDbEntity
  8
0
100
AcDbLine
 10
-498.8729781201953
 20
1238.723464173968
 30
0.0
 11
-498.8729781201953
 21
1220.92346417397
 31
0.0
  0
LINE
  5
1CE8E
330
1F
100
AcDbEntity
  8
0
100
AcDbLine
 10
-500.072978120195
 20
1239.92346417397
 30
0.0
 11
-500.072978120195
 21
1224.02346417397
 31
0.0
  0
LINE
  5
1CE8F
330
1F
100
AcDbEntity
  8
0
100
AcDbLine
 10
-500.072978120195
 20
1224.02346417397
 30
0.0
 11
-498.8729781201953
 21
1221.945003204885
 31
0.0
  0
LINE
  5
1CE90
330
1F
100
AcDbEntity
  8
0
100
AcDbLine
 10
-496.0904781201953
 20
1220.92346417397
 30
0.0
 11
-496.0904781201953
 21
1217.92346417397
 31
0.0
  0
ARC
  5
1CE91
330
1F
100
AcDbEntity
  8
0
100
AcDbCircle
 10
-499.0904781201952
 20
1209.666104861089
 30
0.0
 40
3.0
100
AcDbArc
 50
314.9999999999928
 51
0.0
  0
LINE
  5
1CE92
330
1F
100
AcDbEntity
  8
0
100
AcDbLine
 10
-496.0904781201953
 20
1216.42346417397
 30
0.0
 11
-496.0904781201953
 21
1209.666104861089
 31
0.0
  0
LINE
  5
1CE93
330
1F
100
AcDbEntity
  8
0
100
AcDbLine
 10
-500.3704781201947
 20
1217.92346417397
 30
0.0
 11
-500.3704781201947
 21
1216.42346417397
 31
0.0
  0
LINE
  5
1CE94
330
1F
100
AcDbEntity
  8
0
100
AcDbLine
 10
-500.0729781201957
 20
1239.92346417397
 30
0.0
 11
-498.8729781201953
 21
1238.723464173968
 31
0.0
  0
LINE
  5
1CE95
330
1F
100
AcDbEntity
  8
外形線
100
AcDbLine
 10
-278.1242342428991
 20
1022.781540291552
 30
0.0
 11
-280.0487859760146
 21
1025.661835505879
 31
0.0
  0
LINE
  5
1CE96
330
1F
100
AcDbEntity
  8
外形線
100
AcDbLine
 10
-279.6563672132492
 20
1019.674681985328
 30
0.0
 11
-278.124234298456
 21
1022.781540374698
 31
0.0
  0
LINE
  5
1CE97
330
1F
100
AcDbEntity
  8
外形線
100
AcDbLine
 10
-285.0376039276152
 20
1022.328414523495
 30
0.0
 11
-283.5054710683798
 21
1025.435272996015
 31
0.0
  0
LINE
  5
1CE98
330
1F
100
AcDbEntity
  8
外形線
100
AcDbLine
 10
-283.1130519167145
 20
1019.448118893434
 30
0.0
 11
-285.0376036498301
 21
1022.328414107762
 31
0.0
  0
LINE
  5
1CE99
330
1F
100
AcDbEntity
  8
外形線
100
AcDbLine
 10
-283.5054706794803
 20
1025.435272413986
 30
0.0
 11
-280.048785920457
 21
1025.661835422734
 31
0.0
  0
LINE
  5
1CE9A
330
1F
100
AcDbEntity
  8
外形線
100
AcDbLine
 10
-279.6563668243495
 20
1019.674681403299
 30
0.0
 11
-283.1130516389289
 21
1019.4481184777
 31
0.0
  0
CIRCLE
  5
1CE9B
330
1F
100
AcDbEntity
  8
外形線
100
AcDbCircle
 10
-281.5809189463639
 20
1022.554977199658
 30
0.0
 40
6.5
  0
CIRCLE
  5
1CE9C
330
1F
100
AcDbEntity
  8
細線
100
AcDbCircle
 10
-228.5046711454488
 20
1050.924822703735
 30
0.0
 40
3.0
  0
CIRCLE
  5
1CE9D
330
1F
100
AcDbEntity
  8
外形線
100
AcDbCircle
 10
-228.5046711454488
 20
1050.924822703735
 30
0.0
 40
2.475000000000134
  0
CIRCLE
  5
1CE9E
330
1F
100
AcDbEntity
  8
外形線
100
AcDbCircle
 10
-228.5046711454488
 20
1050.924822703735
 30
0.0
 40
3.5
  0
LINE
  5
1CE9F
330
1F
100
AcDbEntity
  8
外形線
100
AcDbLine
 10
-168.309136872986
 20
1070.678928692546
 30
0.0
 11
-171.5893991015339
 21
1071.792427852207
 31
0.0
  0
LINE
  5
1CEA0
330
1F
100
AcDbEntity
  8
外形線
100
AcDbLine
 10
-170.2377734351264
 20
1064.997346760903
 30
0.0
 11
-167.6333239812554
 21
1067.281387852661
 31
0.0
  0
CIRCLE
  5
1CEA1
330
1F
100
AcDbEntity
  8
外形線
100
AcDbCircle
 10
-170.913586268294
 20
1068.39488730656
 30
0.0
 40
6.5
  0
LINE
  5
1CEA2
330
1F
100
AcDbEntity
  8
外形線
100
AcDbLine
 10
-170.2377735716893
 20
1064.997347447454
 30
0.0
 11
-173.5180357807294
 21
1066.110846509035
 31
0.0
  0
LINE
  5
1CEA3
330
1F
100
AcDbEntity
  8
外形線
100
AcDbLine
 10
-171.5893989649703
 20
1071.792427165654
 30
0.0
 11
-174.193848438352
 21
1069.508386171979
 31
0.0
  0
LINE
  5
1CEA4
330
1F
100
AcDbEntity
  8
外形線
100
AcDbLine
 10
-173.5180357612198
 20
1066.110846410953
 30
0.0
 11
-174.1938484578604
 21
1069.508386270057
 31
0.0
  0
LINE
  5
1CEA5
330
1F
100
AcDbEntity
  8
外形線
100
AcDbLine
 10
-167.6333240788003
 20
1067.281388343051
 30
0.0
 11
-168.3091367754409
 21
1070.678928202153
 31
0.0
  0
LINE
  5
1CEA6
330
1F
100
AcDbEntity
  8
外形線
100
AcDbLine
 10
-50.45231585375131
 20
1071.792427165654
 30
0.0
 11
-47.84786638036985
 21
1069.508386171979
 31
0.0
  0
LINE
  5
1CEA7
330
1F
100
AcDbEntity
  8
外形線
100
AcDbLine
 10
-48.52367905750179
 20
1066.110846410953
 30
0.0
 11
-47.84786636086164
 21
1069.508386270057
 31
0.0
  0
CIRCLE
  5
1CEA8
330
1F
100
AcDbEntity
  8
外形線
100
AcDbCircle
 10
-51.12812855039101
 20
1068.394887306553
 30
0.0
 40
6.5
  0
CIRCLE
  5
1CEA9
330
1F
100
AcDbEntity
  8
細線
100
AcDbCircle
 10
-111.0208574093605
 20
1057.293806222765
 30
0.0
 40
8.0
  0
CIRCLE
  5
1CEAA
330
1F
100
AcDbEntity
  8
外形線
100
AcDbCircle
 10
-111.0208574093605
 20
1057.293806222765
 30
0.0
 40
6.400000000000241
  0
LINE
  5
1CEAB
330
1F
100
AcDbEntity
  8
外形線
100
AcDbLine
 10
-53.73257794573556
 20
1070.678928692546
 30
0.0
 11
-50.45231571718796
 21
1071.792427852207
 31
0.0
  0
LINE
  5
1CEAC
330
1F
100
AcDbEntity
  8
外形線
100
AcDbLine
 10
-51.80394124703252
 20
1064.997347447454
 30
0.0
 11
-48.52367903799268
 21
1066.110846509035
 31
0.0
  0
LINE
  5
1CEAD
330
1F
100
AcDbEntity
  8
外形線
100
AcDbLine
 10
-51.80394138359543
 20
1064.997346760903
 30
0.0
 11
-54.40839083746642
 21
1067.281387852661
 31
0.0
  0
LINE
  5
1CEAE
330
1F
100
AcDbEntity
  8
外形線
100
AcDbLine
 10
-54.40839073992174
 20
1067.281388343051
 30
0.0
 11
-53.73257804328114
 21
1070.678928202153
 31
0.0
  0
CIRCLE
  5
1CEAF
330
1F
100
AcDbEntity
  8
外形線
100
AcDbCircle
 10
190.080223674428
 20
707.4010773637967
 30
0.0
 40
6.5
  0
LINE
  5
1CEB0
330
1F
100
AcDbEntity
  8
外形線
100
AcDbLine
 10
192.3642650604199
 20
710.0055267591415
 30
0.0
 11
193.4777642200797
 21
706.7252645305934
 31
0.0
  0
LINE
  5
1CEB1
330
1F
100
AcDbEntity
  8
外形線
100
AcDbLine
 10
193.4777635335292
 20
706.725264667157
 30
0.0
 11
191.1937225398521
 21
704.1208151937753
 31
0.0
  0
LINE
  5
1CEB2
330
1F
100
AcDbEntity
  8
外形線
100
AcDbLine
 10
186.6826838153269
 20
708.076890060438
 30
0.0
 11
187.796182876908
 21
704.7966278513982
 31
0.0
  0
LINE
  5
1CEB3
330
1F
100
AcDbEntity
  8
外形線
100
AcDbLine
 10
186.6826831287769
 20
708.0768901970014
 30
0.0
 11
188.9667242205334
 21
710.6813396508719
 31
0.0
  0
LINE
  5
1CEB4
330
1F
100
AcDbEntity
  8
外形線
100
AcDbLine
 10
187.7961827788294
 20
704.7966278709077
 30
0.0
 11
191.1937226379304
 21
704.1208151742671
 31
0.0
  0
LINE
  5
1CEB5
330
1F
100
AcDbEntity
  8
外形線
100
AcDbLine
 10
188.9667247109259
 20
710.6813395533272
 30
0.0
 11
192.364264570027
 21
710.0055268566866
 31
0.0
  0
CIRCLE
  5
1CEB6
330
1F
100
AcDbEntity
  8
外形線
100
AcDbCircle
 10
178.9791425906389
 20
767.2938062227658
 30
0.0
 40
6.400000000000241
  0
CIRCLE
  5
1CEB7
330
1F
100
AcDbEntity
  8
細線
100
AcDbCircle
 10
178.9791425906389
 20
767.2938062227658
 30
0.0
 40
8.0
  0
CIRCLE
  5
1CEB8
330
1F
100
AcDbEntity
  8
外形線
100
AcDbCircle
 10
190.0802236744348
 20
827.1865350816995
 30
0.0
 40
6.5
  0
LINE
  5
1CEB9
330
1F
100
AcDbEntity
  8
外形線
100
AcDbLine
 10
191.1937231283304
 20
830.4667973687756
 30
0.0
 11
193.4777642200865
 21
827.8623479149045
 31
0.0
  0
LINE
  5
1CEBA
330
1F
100
AcDbEntity
  8
外形線
100
AcDbLine
 10
193.4777635335363
 20
827.8623477783412
 30
0.0
 11
192.3642644719559
 21
824.5820855693013
 31
0.0
  0
LINE
  5
1CEBB
330
1F
100
AcDbEntity
  8
外形線
100
AcDbLine
 10
186.6826838153338
 20
826.5107223850598
 30
0.0
 11
188.9667248090118
 21
823.9062729116788
 31
0.0
  0
LINE
  5
1CEBC
330
1F
100
AcDbEntity
  8
外形線
100
AcDbLine
 10
186.6826831287839
 20
826.5107222484967
 30
0.0
 11
187.7961822884437
 21
829.7909844770442
 31
0.0
  0
LINE
  5
1CEBD
330
1F
100
AcDbEntity
  8
外形線
100
AcDbLine
 10
187.7961827788363
 20
829.7909845745898
 30
0.0
 11
191.1937226379373
 21
830.4667972712305
 31
0.0
  0
LINE
  5
1CEBE
330
1F
100
AcDbEntity
  8
外形線
100
AcDbLine
 10
188.966724710933
 20
823.9062728921703
 30
0.0
 11
192.364264570034
 21
824.5820855888107
 31
0.0
  0
CIRCLE
  5
1CEBF
330
1F
100
AcDbEntity
  8
外形線
100
AcDbCircle
 10
172.6101590715989
 20
884.7776199588507
 30
0.0
 40
2.475000000000134
  0
CIRCLE
  5
1CEC0
330
1F
100
AcDbEntity
  8
外形線
100
AcDbCircle
 10
172.6101590715989
 20
884.7776199588507
 30
0.0
 40
3.5
  0
CIRCLE
  5
1CEC1
330
1F
100
AcDbEntity
  8
細線
100
AcDbCircle
 10
172.6101590715989
 20
884.7776199588507
 30
0.0
 40
3.0
  0
CIRCLE
  5
1CEC2
330
1F
100
AcDbEntity
  8
細線
100
AcDbCircle
 10
94.04010913473825
 20
972.3547727668652
 30
0.0
 40
8.0
  0
CIRCLE
  5
1CEC3
330
1F
100
AcDbEntity
  8
外形線
100
AcDbCircle
 10
94.04010913473825
 20
972.3547727668652
 30
0.0
 40
6.400000000000241
  0
LINE
  5
1CEC4
330
1F
100
AcDbEntity
  8
中心線
100
AcDbLine
 10
85.17119479569101
 20
963.485858427818
 30
0.0
 11
102.9090234737852
 21
981.2236871059116
 31
0.0
  0
LINE
  5
1CEC5
330
1F
100
AcDbEntity
  8
外形線
100
AcDbLine
 10
147.1206087818593
 20
939.7784194928854
 30
0.0
 11
147.3471717906075
 21
936.3217347338622
 31
0.0
  0
LINE
  5
1CEC6
330
1F
100
AcDbEntity
  8
外形線
100
AcDbLine
 10
141.3600177711732
 20
935.9293156377548
 30
0.0
 11
141.1334548455736
 21
939.3860004523345
 31
0.0
  0
CIRCLE
  5
1CEC7
330
1F
100
AcDbEntity
  8
外形線
100
AcDbCircle
 10
144.2403135675313
 20
937.8538677597688
 30
0.0
 40
6.5
  0
LINE
  5
1CEC8
330
1F
100
AcDbEntity
  8
外形線
100
AcDbLine
 10
141.3600183532021
 20
935.9293160266544
 30
0.0
 11
144.4668767425728
 21
934.397183111861
 31
0.0
  0
LINE
  5
1CEC9
330
1F
100
AcDbEntity
  8
外形線
100
AcDbLine
 10
144.4668766594259
 20
934.3971830563042
 30
0.0
 11
147.3471718737541
 21
936.3217347894201
 31
0.0
  0
LINE
  5
1CECA
330
1F
100
AcDbEntity
  8
外形線
100
AcDbLine
 10
141.1334552613079
 20
939.3860007301196
 30
0.0
 11
144.013750475636
 21
941.3105524632355
 31
0.0
  0
LINE
  5
1CECB
330
1F
100
AcDbEntity
  8
外形線
100
AcDbLine
 10
144.0137508913714
 20
941.3105527410207
 30
0.0
 11
147.1206093638884
 21
939.7784198817848
 31
0.0
  0
LINE
  5
1CECC
330
1F
100
AcDbEntity
  8
外形線
100
AcDbLine
 10
58.00707143510772
 20
1025.661835921596
 30
0.0
 11
61.46375624968687
 21
1025.435272995996
 31
0.0
  0
LINE
  5
1CECD
330
1F
100
AcDbEntity
  8
外形線
100
AcDbLine
 10
57.61465239455628
 20
1019.674681985308
 30
0.0
 11
61.07133715357964
 21
1019.448118976562
 31
0.0
  0
LINE
  5
1CECE
330
1F
100
AcDbEntity
  8
外形線
100
AcDbLine
 10
57.61465200565726
 20
1019.67468140328
 30
0.0
 11
56.08251914642233
 21
1022.781539875798
 31
0.0
  0
LINE
  5
1CECF
330
1F
100
AcDbEntity
  8
外形線
100
AcDbLine
 10
56.08251942420679
 20
1022.781540291533
 30
0.0
 11
58.00707115732212
 21
1025.66183550586
 31
0.0
  0
LINE
  5
1CED0
330
1F
100
AcDbEntity
  8
外形線
100
AcDbLine
 10
61.46375586078739
 20
1025.435272413967
 30
0.0
 11
62.99588877558131
 21
1022.328414024596
 31
0.0
  0
LINE
  5
1CED1
330
1F
100
AcDbEntity
  8
外形線
100
AcDbLine
 10
61.07133709802247
 20
1019.448118893415
 30
0.0
 11
62.99588883113756
 21
1022.328414107742
 31
0.0
  0
CIRCLE
  5
1CED2
330
1F
100
AcDbEntity
  8
外形線
100
AcDbCircle
 10
59.53920412767252
 20
1022.554977199635
 30
0.0
 40
6.5
  0
VIEWPORT
  5
17E83
330
17E82
100
AcDbEntity
 67
     1
  8
0
100
AcDbViewport
 10
199.9964146973365
 20
144.0026471682432
 30
0.0
 40
443.4319807698702
 41
290.2196020321077
 68
     1
 69
     1
1001
ACAD
1000
MVIEW
1002
{
1070
    16
1010
0.0
1020
0.0
1030
0.0
1010
0.0
1020
0.0
1030
1.0
1040
0.0
1040
290.2196020321077
1040
199.9964146973365
1040
144.0026471682432
1040
50.0
1040
0.0
1040
0.0
1070
     0
1070
   100
1070
     1
1070
     0
1070
     0
1070
     0
1070
     0
1070
     0
1040
0.0
1040
0.0
1040
0.0
1040
10.0
1040
10.0
1040
10.0
1040
10.0
1070
     0
1002
{
1002
}
1002
}
  0
VIEWPORT
  5
17E84
330
17E82
100
AcDbEntity
 67
     1
  8
M_VIEW
100
AcDbViewport
 10
200.0
 20
144.0
 30
0.0
 40
400.0
 41
288.0
 68
     2
 69
     2
1001
ACAD
1000
MVIEW
1002
{
1070
    16
1010
0.0
1020
0.0
1030
0.0
1010
0.0
1020
0.0
1030
1.0
1040
0.0
1040
1440.000003499544
1040
-753.7087670594996
1040
547.4927373978211
1040
50.0
1040
0.0
1040
0.0
1070
     0
1070
   100
1070
     1
1070
     0
1070
     0
1070
     0
1070
     0
1070
     0
1040
0.0
1040
0.0
1040
0.0
1040
10.0
1040
10.0
1040
10.0
1040
10.0
1070
     0
1002
{
1002
}
1002
}
  0
TEXT
  5
17E8B
330
17E82
100
AcDbEntity
 67
     1
  8
WAKUMOJI
  6
CONTINUOUS
100
AcDbText
 10
323.402284853418
 20
6.326609872841799
 30
0.0
 40
7.0
  1
ＳＥ－４００１２
 41
0.9529999999999999
100
AcDbText
  0
TEXT
  5
17F15
330
17E82
100
AcDbEntity
 67
     1
  8
WAKUMOJI
  6
CONTINUOUS
100
AcDbText
 10
288.2950459724286
 20
28.36480838004309
 30
0.0
 40
4.0
  1

 41
0.65
100
AcDbText
  0
TEXT
  5
17F16
330
17E82
100
AcDbEntity
 67
     1
  8
WAKUMOJI
  6
CONTINUOUS
100
AcDbText
 10
289.2453795729293
 20
17.36480838004307
 30
0.0
 40
4.0
  1

 41
0.65
100
AcDbText
  0
TEXT
  5
17F2D
330
17E82
100
AcDbEntity
 67
     1
  8
WAKUMOJI
  6
CONTINUOUS
100
AcDbText
 10
307.8652350767157
 20
11.96666666666597
 30
0.0
 40
4.0
  1

 41
0.625
100
AcDbText
  0
TEXT
  5
17F2E
330
17E82
100
AcDbEntity
 67
     1
  8
WAKUMOJI
  6
CONTINUOUS
100
AcDbText
 10
316.865235076716
 20
11.96666666666597
 30
0.0
 40
4.0
  1

 41
0.625
100
AcDbText
  0
MTEXT
  5
1C367
330
17E82
100
AcDbEntity
 67
     1
  8
寸法
 48
5.0
100
AcDbMText
 10
217.9526093509553
 20
22.53707289607676
 30
0.0
 40
6.0
 41
174.8844028149749
 71
     1
 72
     5
  1
τDISCﾓｰﾀ D630-125-LP NMR-FVGBA2B-322AP
1001
ACAD
1000
MTEXTBEGIN
1070
    73
1070
     1
1070
    44
1040
1.0
1070
    74
1070
     0
1000
MTEXTEND
  0
ENDSEC
  0
SECTION
  2
OBJECTS
  0
DICTIONARY
  5
C
330
0
100
AcDbDictionary
  3
ACAD_GROUP
350
D
  3
ACAD_LAYOUT
350
1A
  3
ACAD_MLINESTYLE
350
17
  3
ACAD_PLOTSETTINGS
350
19
  3
ACAD_PLOTSTYLENAME
350
E
  3
ACADDIM
350
1BF6D
  3
ACDBHEADERROUNDTRIPXREC
350
1CED4
  3
ACDBVARIABLEDICTIONARY
350
2046
  0
DICTIONARY
  5
1C0A4
330
2
100
AcDbDictionary
280
     1
  3
ACAD_LAYERFILTERS
360
1C0A5
  3
ACAD_LAYERSTATES
360
1C0DC
  0
DICTIONARY
  5
1CEF5
330
1F
100
AcDbDictionary
280
     1
  3
ACAD_LAYOUTSELFREF
360
1CEF6
  0
DICTIONARY
  5
1CEF7
330
17E82
100
AcDbDictionary
280
     1
  3
ACAD_LAYOUTSELFREF
360
1CEF8
  0
DICTIONARY
  5
D
102
{ACAD_REACTORS
330
C
102
}
330
C
100
AcDbDictionary
  3
*A1
350
5EBB
  3
*A10
350
118B8
  3
*A11
350
1BDDF
  3
*A12
350
1BBA9
  3
*A13
350
1BBBA
  3
*A14
350
1BBCA
  3
*A15
350
118A9
  3
*A16
350
1112B
  3
*A17
350
118B3
  3
*A18
350
1737E
  3
*A19
350
11719
  3
*A2
350
112D5
  3
*A20
350
118CA
  3
*A21
350
116D5
  3
*A22
350
C863
  3
*A23
350
118AE
  3
*A24
350
A922
  3
*A25
350
C936
  3
*A26
350
A9F6
  3
*A27
350
C7BC
  3
*A28
350
11DE3
  3
*A29
350
1171E
  3
*A3
350
9CB3
  3
*A30
350
9A76
  3
*A31
350
1736D
  3
*A32
350
11DE7
  3
*A4
350
AA18
  3
*A5
350
118DA
  3
*A6
350
1BDD6
  3
*A7
350
1BEA4
  3
*A8
350
116D0
  3
*A9
350
168BF
  0
DICTIONARY
  5
1A
102
{ACAD_REACTORS
330
C
102
}
330
C
100
AcDbDictionary
  0
DICTIONARY
  5
17
102
{ACAD_REACTORS
330
C
102
}
330
C
100
AcDbDictionary
  3
STANDARD
350
18
  0
DICTIONARY
  5
19
102
{ACAD_REACTORS
330
C
102
}
330
C
100
AcDbDictionary
  0
ACDBDICTIONARYWDFLT
  5
E
102
{ACAD_REACTORS
330
C
102
}
330
C
100
AcDbDictionary
281
     1
  3
Normal
350
F
100
AcDbDictionaryWithDefault
340
F
  0
XRECORD
  5
1BF6D
102
{ACAD_REACTORS
330
C
102
}
330
C
100
AcDbXrecord
 90
   990106
  3

 60
     4
 61
     0
 62
     4
 63
     4
 64
     1
 65
     0
 66
     1
 67
     3
 68
     1
 69
     0
 70
     0
 71
     0
 72
     0
 40
25.99882075392437
170
     0
340
0
  0
DICTIONARY
  5
1CED4
102
{ACAD_REACTORS
330
C
102
}
330
C
100
AcDbDictionary
  3
CEPSNTYPE
350
1CEDE
  3
DIMSTYLEDATA
350
1CEE2
  3
FINGERPRINTGUID
350
1CEDF
  3
HYPERLINKBASE
350
1CED7
  3
INSUNITS
350
1CEDD
  3
LAYOUTDICT
350
1CED9
  3
LWETCUNION
350
1CEDC
  3
PLOTSETDICT
350
1CEDA
  3
PLOTSTYLNAMDICT
350
1CEDB
  3
PSVPSCALE
350
1CEE1
  3
PUCSBASE
350
1CEE5
  3
PUCSORGBACK
350
1CEEB
  3
PUCSORGBOTTOM
350
1CEE7
  3
PUCSORGFRONT
350
1CEEA
  3
PUCSORGLEFT
350
1CEE8
  3
PUCSORGRIGHT
350
1CEE9
  3
PUCSORGTOP
350
1CEE6
  3
PUCSORTHOREF
350
1CEE3
  3
PUCSORTHOVIEW
350
1CEE4
  3
STYLESHEET
350
1CED8
  3
TSTACKALIGN
350
1CED5
  3
TSTACKSIZE
350
1CED6
  3
UCSBASE
350
1CEEE
  3
UCSORGBACK
350
1CEF4
  3
UCSORGBOTTOM
350
1CEF0
  3
UCSORGFRONT
350
1CEF3
  3
UCSORGLEFT
350
1CEF1
  3
UCSORGRIGHT
350
1CEF2
  3
UCSORGTOP
350
1CEEF
  3
UCSORTHOREF
350
1CEEC
  3
UCSORTHOVIEW
350
1CEED
  3
VERSIONGUID
350
1CEE0
  0
DICTIONARY
  5
2046
102
{ACAD_REACTORS
330
C
102
}
330
C
100
AcDbDictionary
  3
SORTENTS
350
2047
  0
DICTIONARY
  5
1C0A5
102
{ACAD_REACTORS
330
1C0A4
102
}
330
1C0A4
100
AcDbDictionary
280
     1
  3
0
360
1C0A6
  3
11
360
1C0A7
  3
150_
360
1C0A8
  3
160_
360
1C0A9
  3
170_
360
1C0AA
  3
171_
360
1C0AB
  3
350_
360
1C0AC
  3
4
360
1C0AD
  3
5
360
1C0AE
  3
7
360
1C0AF
  3
KISEKI
360
1C0B0
  0
DICTIONARY
  5
1C0DC
102
{ACAD_REACTORS
330
1C0A4
102
}
330
1C0A4
100
AcDbDictionary
  0
XRECORD
  5
1CEF6
102
{ACAD_REACTORS
330
1CEF5
102
}
330
1CEF5
100
AcDbXrecord
340
1F
  0
XRECORD
  5
1CEF8
102
{ACAD_REACTORS
330
1CEF7
102
}
330
1CEF7
100
AcDbXrecord
340
17E82
  0
GROUP
  5
5EBB
102
{ACAD_REACTORS
330
D
102
}
330
D
100
AcDbGroup
300

 70
     1
 71
     1
  0
GROUP
  5
118B8
102
{ACAD_REACTORS
330
D
102
}
330
D
100
AcDbGroup
300

 70
     1
 71
     1
  0
GROUP
  5
1BDDF
102
{ACAD_REACTORS
330
D
102
}
330
D
100
AcDbGroup
300

 70
     1
 71
     1
  0
GROUP
  5
1BBA9
102
{ACAD_REACTORS
330
D
102
}
330
D
100
AcDbGroup
300

 70
     1
 71
     1
  0
GROUP
  5
1BBBA
102
{ACAD_REACTORS
330
D
102
}
330
D
100
AcDbGroup
300

 70
     1
 71
     1
  0
GROUP
  5
1BBCA
102
{ACAD_REACTORS
330
D
102
}
330
D
100
AcDbGroup
300

 70
     1
 71
     1
  0
GROUP
  5
118A9
102
{ACAD_REACTORS
330
D
102
}
330
D
100
AcDbGroup
300

 70
     1
 71
     1
  0
GROUP
  5
1112B
102
{ACAD_REACTORS
330
D
102
}
330
D
100
AcDbGroup
300

 70
     1
 71
     1
  0
GROUP
  5
118B3
102
{ACAD_REACTORS
330
D
102
}
330
D
100
AcDbGroup
300

 70
     1
 71
     1
  0
GROUP
  5
1737E
102
{ACAD_REACTORS
330
D
102
}
330
D
100
AcDbGroup
300

 70
     1
 71
     1
  0
GROUP
  5
11719
102
{ACAD_REACTORS
330
D
102
}
330
D
100
AcDbGroup
300

 70
     1
 71
     1
  0
GROUP
  5
112D5
102
{ACAD_REACTORS
330
D
102
}
330
D
100
AcDbGroup
300

 70
     1
 71
     1
  0
GROUP
  5
118CA
102
{ACAD_REACTORS
330
D
102
}
330
D
100
AcDbGroup
300

 70
     1
 71
     1
  0
GROUP
  5
116D5
102
{ACAD_REACTORS
330
D
102
}
330
D
100
AcDbGroup
300

 70
     1
 71
     1
  0
GROUP
  5
C863
102
{ACAD_REACTORS
330
D
102
}
330
D
100
AcDbGroup
300

 70
     1
 71
     1
  0
GROUP
  5
118AE
102
{ACAD_REACTORS
330
D
102
}
330
D
100
AcDbGroup
300

 70
     1
 71
     1
  0
GROUP
  5
A922
102
{ACAD_REACTORS
330
D
102
}
330
D
100
AcDbGroup
300

 70
     1
 71
     1
  0
GROUP
  5
C936
102
{ACAD_REACTORS
330
D
102
}
330
D
100
AcDbGroup
300

 70
     1
 71
     1
  0
GROUP
  5
A9F6
102
{ACAD_REACTORS
330
D
102
}
330
D
100
AcDbGroup
300

 70
     1
 71
     1
  0
GROUP
  5
C7BC
102
{ACAD_REACTORS
330
D
102
}
330
D
100
AcDbGroup
300

 70
     1
 71
     1
  0
GROUP
  5
11DE3
102
{ACAD_REACTORS
330
D
102
}
330
D
100
AcDbGroup
300

 70
     1
 71
     1
  0
GROUP
  5
1171E
102
{ACAD_REACTORS
330
D
102
}
330
D
100
AcDbGroup
300

 70
     1
 71
     1
  0
GROUP
  5
9CB3
102
{ACAD_REACTORS
330
D
102
}
330
D
100
AcDbGroup
300

 70
     1
 71
     1
  0
GROUP
  5
9A76
102
{ACAD_REACTORS
330
D
102
}
330
D
100
AcDbGroup
300

 70
     1
 71
     1
  0
GROUP
  5
1736D
102
{ACAD_REACTORS
330
D
102
}
330
D
100
AcDbGroup
300

 70
     1
 71
     1
  0
GROUP
  5
11DE7
102
{ACAD_REACTORS
330
D
102
}
330
D
100
AcDbGroup
300

 70
     1
 71
     1
  0
GROUP
  5
AA18
102
{ACAD_REACTORS
330
D
102
}
330
D
100
AcDbGroup
300

 70
     1
 71
     1
  0
GROUP
  5
118DA
102
{ACAD_REACTORS
330
D
102
}
330
D
100
AcDbGroup
300

 70
     1
 71
     1
  0
GROUP
  5
1BDD6
102
{ACAD_REACTORS
330
D
102
}
330
D
100
AcDbGroup
300

 70
     1
 71
     1
  0
GROUP
  5
1BEA4
102
{ACAD_REACTORS
330
D
102
}
330
D
100
AcDbGroup
300

 70
     1
 71
     1
  0
GROUP
  5
116D0
102
{ACAD_REACTORS
330
D
102
}
330
D
100
AcDbGroup
300

 70
     1
 71
     1
  0
GROUP
  5
168BF
102
{ACAD_REACTORS
330
D
102
}
330
D
100
AcDbGroup
300

 70
     1
 71
     1
  0
MLINESTYLE
  5
18
102
{ACAD_REACTORS
330
17
102
}
330
17
100
AcDbMlineStyle
  2
STANDARD
 70
     0
  3

 62
   256
 51
90.0
 52
90.0
 71
     2
 49
0.5
 62
   256
  6
BYLAYER
 49
-0.5
 62
   256
  6
BYLAYER
  0
ACDBPLACEHOLDER
  5
F
102
{ACAD_REACTORS
330
E
102
}
330
E
100
AcDbPlaceHolder
280
     0
  0
XRECORD
  5
1CEDE
102
{ACAD_REACTORS
330
1CED4
102
}
330
1CED4
100
AcDbXrecord
 90
        0
  0
XRECORD
  5
1CEE2
102
{ACAD_REACTORS
330
1CED4
102
}
330
1CED4
100
AcDbXrecord
1000
DSTYLE
1002
{
1070
    79
 70
     2
1070
   179
 70
     2
1070
   289
 70
     1
1070
   341
340
31
1070
   342
340
31
1002
}
  0
XRECORD
  5
1CEDF
102
{ACAD_REACTORS
330
1CED4
102
}
330
1CED4
100
AcDbXrecord
  1
{C60DF478-89DD-11D7-AE3C-00045A4313EC}
  0
XRECORD
  5
1CED7
102
{ACAD_REACTORS
330
1CED4
102
}
330
1CED4
100
AcDbXrecord
  1

  0
XRECORD
  5
1CEDD
102
{ACAD_REACTORS
330
1CED4
102
}
330
1CED4
100
AcDbXrecord
 90
        4
  0
XRECORD
  5
1CED9
102
{ACAD_REACTORS
330
1CED4
102
}
330
1CED4
100
AcDbXrecord
340
1A
  0
XRECORD
  5
1CEDC
102
{ACAD_REACTORS
330
1CED4
102
}
330
1CED4
100
AcDbXrecord
 90
    10269
  0
XRECORD
  5
1CEDA
102
{ACAD_REACTORS
330
1CED4
102
}
330
1CED4
100
AcDbXrecord
340
19
  0
XRECORD
  5
1CEDB
102
{ACAD_REACTORS
330
1CED4
102
}
330
1CED4
100
AcDbXrecord
340
E
  0
XRECORD
  5
1CEE1
102
{ACAD_REACTORS
330
1CED4
102
}
330
1CED4
100
AcDbXrecord
 40
0.0
  0
XRECORD
  5
1CEE5
102
{ACAD_REACTORS
330
1CED4
102
}
330
1CED4
100
AcDbXrecord
340
0
  0
XRECORD
  5
1CEEB
102
{ACAD_REACTORS
330
1CED4
102
}
330
1CED4
100
AcDbXrecord
 10
0.0
 20
0.0
 30
0.0
  0
XRECORD
  5
1CEE7
102
{ACAD_REACTORS
330
1CED4
102
}
330
1CED4
100
AcDbXrecord
 10
0.0
 20
0.0
 30
0.0
  0
XRECORD
  5
1CEEA
102
{ACAD_REACTORS
330
1CED4
102
}
330
1CED4
100
AcDbXrecord
 10
0.0
 20
0.0
 30
0.0
  0
XRECORD
  5
1CEE8
102
{ACAD_REACTORS
330
1CED4
102
}
330
1CED4
100
AcDbXrecord
 10
0.0
 20
0.0
 30
0.0
  0
XRECORD
  5
1CEE9
102
{ACAD_REACTORS
330
1CED4
102
}
330
1CED4
100
AcDbXrecord
 10
0.0
 20
0.0
 30
0.0
  0
XRECORD
  5
1CEE6
102
{ACAD_REACTORS
330
1CED4
102
}
330
1CED4
100
AcDbXrecord
 10
0.0
 20
0.0
 30
0.0
  0
XRECORD
  5
1CEE3
102
{ACAD_REACTORS
330
1CED4
102
}
330
1CED4
100
AcDbXrecord
340
0
  0
XRECORD
  5
1CEE4
102
{ACAD_REACTORS
330
1CED4
102
}
330
1CED4
100
AcDbXrecord
 70
     0
  0
XRECORD
  5
1CED8
102
{ACAD_REACTORS
330
1CED4
102
}
330
1CED4
100
AcDbXrecord
  1

  0
XRECORD
  5
1CED5
102
{ACAD_REACTORS
330
1CED4
102
}
330
1CED4
100
AcDbXrecord
 90
        1
  0
XRECORD
  5
1CED6
102
{ACAD_REACTORS
330
1CED4
102
}
330
1CED4
100
AcDbXrecord
 90
       70
  0
XRECORD
  5
1CEEE
102
{ACAD_REACTORS
330
1CED4
102
}
330
1CED4
100
AcDbXrecord
340
0
  0
XRECORD
  5
1CEF4
102
{ACAD_REACTORS
330
1CED4
102
}
330
1CED4
100
AcDbXrecord
 10
0.0
 20
0.0
 30
0.0
  0
XRECORD
  5
1CEF0
102
{ACAD_REACTORS
330
1CED4
102
}
330
1CED4
100
AcDbXrecord
 10
0.0
 20
0.0
 30
0.0
  0
XRECORD
  5
1CEF3
102
{ACAD_REACTORS
330
1CED4
102
}
330
1CED4
100
AcDbXrecord
 10
0.0
 20
0.0
 30
0.0
  0
XRECORD
  5
1CEF1
102
{ACAD_REACTORS
330
1CED4
102
}
330
1CED4
100
AcDbXrecord
 10
0.0
 20
0.0
 30
0.0
  0
XRECORD
  5
1CEF2
102
{ACAD_REACTORS
330
1CED4
102
}
330
1CED4
100
AcDbXrecord
 10
0.0
 20
0.0
 30
0.0
  0
XRECORD
  5
1CEEF
102
{ACAD_REACTORS
330
1CED4
102
}
330
1CED4
100
AcDbXrecord
 10
0.0
 20
0.0
 30
0.0
  0
XRECORD
  5
1CEEC
102
{ACAD_REACTORS
330
1CED4
102
}
330
1CED4
100
AcDbXrecord
340
0
  0
XRECORD
  5
1CEED
102
{ACAD_REACTORS
330
1CED4
102
}
330
1CED4
100
AcDbXrecord
 70
     0
  0
XRECORD
  5
1CEE0
102
{ACAD_REACTORS
330
1CED4
102
}
330
1CED4
100
AcDbXrecord
  1
{7E7991CB-48BA-49EC-8025-1784D846C6A3}
  0
DICTIONARYVAR
  5
2047
102
{ACAD_REACTORS
330
2046
102
}
330
2046
100
DictionaryVariables
280
     0
  1
96
  0
XRECORD
  5
1C0A6
102
{ACAD_REACTORS
330
1C0A5
102
}
330
1C0A5
100
AcDbXrecord
  1
0
  1
*0
  1
*
  1
*
 70
     0
  1
*
  1
*
  0
XRECORD
  5
1C0A7
102
{ACAD_REACTORS
330
1C0A5
102
}
330
1C0A5
100
AcDbXrecord
  1
11
  1
*11
  1
*
  1
*
 70
     0
  1
*
  1
*
  0
XRECORD
  5
1C0A8
102
{ACAD_REACTORS
330
1C0A5
102
}
330
1C0A5
100
AcDbXrecord
  1
150_
  1
150_*
  1
*
  1
*
 70
     0
  1
*
  1
*
  0
XRECORD
  5
1C0A9
102
{ACAD_REACTORS
330
1C0A5
102
}
330
1C0A5
100
AcDbXrecord
  1
160_
  1
160_*
  1
*
  1
*
 70
     0
  1
*
  1
*
  0
XRECORD
  5
1C0AA
102
{ACAD_REACTORS
330
1C0A5
102
}
330
1C0A5
100
AcDbXrecord
  1
170_
  1
170_*
  1
*
  1
*
 70
     0
  1
*
  1
*
  0
XRECORD
  5
1C0AB
102
{ACAD_REACTORS
330
1C0A5
102
}
330
1C0A5
100
AcDbXrecord
  1
171_
  1
171_*
  1
*
  1
*
 70
     0
  1
*
  1
*
  0
XRECORD
  5
1C0AC
102
{ACAD_REACTORS
330
1C0A5
102
}
330
1C0A5
100
AcDbXrecord
  1
350_
  1
350_*
  1
*
  1
*
 70
     0
  1
*
  1
*
  0
XRECORD
  5
1C0AD
102
{ACAD_REACTORS
330
1C0A5
102
}
330
1C0A5
100
AcDbXrecord
  1
4
  1
*4
  1
*
  1
*
 70
     0
  1
*
  1
*
  0
XRECORD
  5
1C0AE
102
{ACAD_REACTORS
330
1C0A5
102
}
330
1C0A5
100
AcDbXrecord
  1
5
  1
*5
  1
*
  1
*
 70
     0
  1
*
  1
*
  0
XRECORD
  5
1C0AF
102
{ACAD_REACTORS
330
1C0A5
102
}
330
1C0A5
100
AcDbXrecord
  1
7
  1
*7
  1
*
  1
*
 70
     0
  1
*
  1
*
  0
XRECORD
  5
1C0B0
102
{ACAD_REACTORS
330
1C0A5
102
}
330
1C0A5
100
AcDbXrecord
  1
kiseki
  1
kiseki*
  1
*
  1
*
 70
     0
  1
*
  1
*
  0
ENDSEC
  0
EOF
