  0
SECTION
  2
HEADER
  9
$ACADVER
  1
AC1014
  9
$ACADMAINTVER
 70
     9
  9
$DWGCODEPAGE
  3
ANSI_932
  9
$INSBASE
 10
0.0
 20
0.0
 30
0.0
  9
$EXTMIN
 10
-176.2123797950386
 20
-890.9813380781994
 30
0.0
  9
$EXTMAX
 10
1138.584553622951
 20
-346.7603343003658
 30
0.0
  9
$LIMMIN
 10
0.0
 20
0.0
  9
$LIMMAX
 10
420.0
 20
297.0
  9
$ORTHOMODE
 70
     0
  9
$REGENMODE
 70
     1
  9
$FILLMODE
 70
     1
  9
$QTEXTMODE
 70
     0
  9
$MIRRTEXT
 70
     0
  9
$DRAGMODE
 70
     2
  9
$LTSCALE
 40
20.0
  9
$OSMODE
 70
    37
  9
$ATTMODE
 70
     2
  9
$TEXTSIZE
 40
2.5
  9
$TRACEWID
 40
1.0
  9
$TEXTSTYLE
  7
STANDARD
  9
$CLAYER
  8
DIMENSION
  9
$CELTYPE
  6
BYLAYER
  9
$CECOLOR
 62
   256
  9
$CELTSCALE
 40
1.0
  9
$DELOBJ
 70
     1
  9
$DISPSILH
 70
     0
  9
$DIMSCALE
 40
2.5
  9
$DIMASZ
 40
2.0
  9
$DIMEXO
 40
0.75
  9
$DIMDLI
 40
5.0
  9
$DIMRND
 40
0.0005
  9
$DIMDLE
 40
0.0
  9
$DIMEXE
 40
1.0
  9
$DIMTP
 40
0.1
  9
$DIMTM
 40
0.000000001
  9
$DIMTXT
 40
3.2
  9
$DIMCEN
 40
0.0
  9
$DIMTSZ
 40
0.0
  9
$DIMTOL
 70
     0
  9
$DIMLIM
 70
     0
  9
$DIMTIH
 70
     0
  9
$DIMTOH
 70
     0
  9
$DIMSE1
 70
     0
  9
$DIMSE2
 70
     0
  9
$DIMTAD
 70
     1
  9
$DIMZIN
 70
     9
  9
$DIMBLK
  1
OPEN30
  9
$DIMASO
 70
     1
  9
$DIMSHO
 70
     1
  9
$DIMPOST
  1

  9
$DIMAPOST
  1

  9
$DIMALT
 70
     0
  9
$DIMALTD
 70
     4
  9
$DIMALTF
 40
0.0394
  9
$DIMLFAC
 40
1.0
  9
$DIMTOFL
 70
     1
  9
$DIMTVP
 40
0.0
  9
$DIMTIX
 70
     0
  9
$DIMSOXD
 70
     0
  9
$DIMSAH
 70
     0
  9
$DIMBLK1
  1

  9
$DIMBLK2
  1

  9
$DIMSTYLE
  2
STANDARD
  9
$DIMCLRD
 70
     4
  9
$DIMCLRE
 70
     4
  9
$DIMCLRT
 70
     2
  9
$DIMTFAC
 40
1.0
  9
$DIMGAP
 40
0.75
  9
$DIMJUST
 70
     0
  9
$DIMSD1
 70
     0
  9
$DIMSD2
 70
     0
  9
$DIMTOLJ
 70
     1
  9
$DIMTZIN
 70
     9
  9
$DIMALTZ
 70
     0
  9
$DIMALTTZ
 70
     0
  9
$DIMFIT
 70
     3
  9
$DIMUPT
 70
     0
  9
$DIMUNIT
 70
     2
  9
$DIMDEC
 70
     2
  9
$DIMTDEC
 70
     2
  9
$DIMALTU
 70
     8
  9
$DIMALTTD
 70
     4
  9
$DIMTXSTY
  7
STANDARD
  9
$DIMAUNIT
 70
     0
  9
$LUNITS
 70
     2
  9
$LUPREC
 70
     4
  9
$SKETCHINC
 40
1.0
  9
$FILLETRAD
 40
20.0
  9
$AUNITS
 70
     0
  9
$AUPREC
 70
     0
  9
$MENU
  1
.
  9
$ELEVATION
 40
0.0
  9
$PELEVATION
 40
0.0
  9
$THICKNESS
 40
0.0
  9
$LIMCHECK
 70
     0
  9
$BLIPMODE
 70
     0
  9
$CHAMFERA
 40
0.5
  9
$CHAMFERB
 40
0.5
  9
$CHAMFERC
 40
20.0
  9
$CHAMFERD
 40
0.0
  9
$SKPOLY
 70
     0
  9
$TDCREATE
 40
2451224.660162384
  9
$TDUPDATE
 40
2455579.500711261
  9
$TDINDWG
 40
18.0330121296
  9
$TDUSRTIMER
 40
18.0330115741
  9
$USRTIMER
 70
     1
  9
$ANGBASE
 50
0.0
  9
$ANGDIR
 70
     0
  9
$PDMODE
 70
     0
  9
$PDSIZE
 40
0.0
  9
$PLINEWID
 40
0.0
  9
$COORDS
 70
     0
  9
$SPLFRAME
 70
     0
  9
$SPLINETYPE
 70
     6
  9
$SPLINESEGS
 70
     8
  9
$ATTDIA
 70
     0
  9
$ATTREQ
 70
     1
  9
$HANDLING
 70
-16383
  9
$HANDSEED
  5
2250D
  9
$SURFTAB1
 70
     6
  9
$SURFTAB2
 70
     6
  9
$SURFTYPE
 70
     6
  9
$SURFU
 70
     6
  9
$SURFV
 70
     6
  9
$UCSNAME
  2

  9
$UCSORG
 10
0.0
 20
0.0
 30
0.0
  9
$UCSXDIR
 10
1.0
 20
0.0
 30
0.0
  9
$UCSYDIR
 10
0.0
 20
1.0
 30
0.0
  9
$PUCSNAME
  2

  9
$PUCSORG
 10
0.0
 20
0.0
 30
0.0
  9
$PUCSXDIR
 10
1.0
 20
0.0
 30
0.0
  9
$PUCSYDIR
 10
0.0
 20
1.0
 30
0.0
  9
$USERI1
 70
     0
  9
$USERI2
 70
     0
  9
$USERI3
 70
     0
  9
$USERI4
 70
     0
  9
$USERI5
 70
     0
  9
$USERR1
 40
28.21133545282214
  9
$USERR2
 40
0.0
  9
$USERR3
 40
0.0
  9
$USERR4
 40
0.0
  9
$USERR5
 40
0.0
  9
$WORLDVIEW
 70
     1
  9
$SHADEDGE
 70
     3
  9
$SHADEDIF
 70
    70
  9
$TILEMODE
 70
     0
  9
$MAXACTVP
 70
    48
  9
$PINSBASE
 10
0.0
 20
0.0
 30
0.0
  9
$PLIMCHECK
 70
     0
  9
$PEXTMIN
 10
0.0
 20
0.0
 30
0.0
  9
$PEXTMAX
 10
400.0
 20
288.0
 30
0.0
  9
$PLIMMIN
 10
-8.561753723710213
 20
-8.543474462114659
  9
$PLIMMAX
 10
422.8608435134092
 20
296.5400814531737
  9
$UNITMODE
 70
     0
  9
$VISRETAIN
 70
     1
  9
$PLINEGEN
 70
     0
  9
$PSLTSCALE
 70
     0
  9
$TREEDEPTH
 70
  3020
  9
$PICKSTYLE
 70
     0
  9
$CMLSTYLE
  2
STANDARD
  9
$CMLJUST
 70
     0
  9
$CMLSCALE
 40
20.0
  9
$PROXYGRAPHICS
 70
     1
  9
$MEASUREMENT
 70
     0
  0
ENDSEC
  0
SECTION
  2
CLASSES
  0
CLASS
  1
HATCH
  2
AcDbHatch
  3
AutoCAD 2000
 90
        0
280
     0
281
     1
  0
CLASS
  1
LWPOLYLINE
  2
AcDbPolyline
  3
AutoCAD 2000
 90
        0
280
     0
281
     1
  0
CLASS
  1
ACDBDICTIONARYWDFLT
  2
AcDbDictionaryWithDefault
  3
AutoCAD 2000
 90
        0
280
     0
281
     0
  0
CLASS
  1
ACDBPLACEHOLDER
  2
AcDbPlaceHolder
  3
AutoCAD 2000
 90
        0
280
     0
281
     0
  0
CLASS
  1
LAYOUT
  2
AcDbLayout
  3
AutoCAD 2000
 90
        0
280
     0
281
     0
  0
CLASS
  1
LONG_TRANSACTION
  2
AcDbLongTransaction
  3
AutoCAD 2000
 90
        0
280
     0
281
     0
  0
CLASS
  1
LWPOLYLINE
  2
AcDbPolyline
  3
AutoCAD 2000
 90
        0
280
     0
281
     1
  0
CLASS
  1
HATCH
  2
AcDbHatch
  3
AutoCAD 2000
 90
        0
280
     0
281
     1
  0
CLASS
  1
XRECORD
  2
AcDbXrecord
  3
AutoCAD 2000
 90
        0
280
     0
281
     0
  0
CLASS
  1
DICTIONARYVAR
  2
AcDbDictionaryVar
  3
AutoCAD 2000
 90
        0
280
     0
281
     0
  0
CLASS
  1
LONG_TRANSACTION
  2
AcDbLongTransaction
  3
AutoCAD 2000
 90
        0
280
     0
281
     0
  0
CLASS
  1
LWPOLYLINE
  2
AcDbPolyline
  3
AutoCAD 2000
 90
        0
280
     0
281
     1
  0
CLASS
  1
HATCH
  2
AcDbHatch
  3
AutoCAD 2000
 90
        0
280
     0
281
     1
  0
CLASS
  1
XRECORD
  2
AcDbXrecord
  3
AutoCAD 2000
 90
        0
280
     0
281
     0
  0
CLASS
  1
LONG_TRANSACTION
  2
AcDbLongTransaction
  3
AutoCAD 2000
 90
        0
280
     0
281
     0
  0
CLASS
  1
LWPOLYLINE
  2
AcDbPolyline
  3
AutoCAD 2000
 90
        0
280
     0
281
     1
  0
CLASS
  1
HATCH
  2
AcDbHatch
  3
AutoCAD 2000
 90
        0
280
     0
281
     1
  0
CLASS
  1
XRECORD
  2
AcDbXrecord
  3
AutoCAD 2000
 90
        0
280
     0
281
     0
  0
ENDSEC
  0
SECTION
  2
TABLES
  0
TABLE
  2
VPORT
  5
8
330
0
100
AcDbSymbolTable
 70
     3
  0
VPORT
  5
224E9
330
8
100
AcDbSymbolTableRecord
100
AcDbViewportTableRecord
  2
*ACTIVE
 70
     0
 10
0.0
 20
0.0
 11
1.0
 21
1.0
 12
481.1860899752068
 22
-618.883650823318
 13
0.0
 23
0.0
 14
10.0
 24
10.0
 15
10.0
 25
10.0
 16
0.0
 26
0.0
 36
1.0
 17
0.0
 27
0.0
 37
0.0
 40
864.8505648888059
 41
1.527918781725888
 42
50.0
 43
0.0
 44
0.0
 50
0.0
 51
0.0
 71
     0
 72
   100
 73
     1
 74
     0
 75
     0
 76
     0
 77
     0
 78
     0
  0
ENDTAB
  0
TABLE
  2
LTYPE
  5
5
330
0
100
AcDbSymbolTable
 70
     6
  0
LTYPE
  5
12
330
5
100
AcDbSymbolTableRecord
100
AcDbLinetypeTableRecord
  2
BYBLOCK
 70
     0
  3

 72
    65
 73
     0
 40
0.0
  0
LTYPE
  5
13
330
5
100
AcDbSymbolTableRecord
100
AcDbLinetypeTableRecord
  2
BYLAYER
 70
     0
  3

 72
    65
 73
     0
 40
0.0
  0
LTYPE
  5
14
330
5
100
AcDbSymbolTableRecord
100
AcDbLinetypeTableRecord
  2
CONTINUOUS
 70
     0
  3
Solid line
 72
    65
 73
     0
 40
0.0
  0
LTYPE
  5
126C
330
5
100
AcDbSymbolTableRecord
100
AcDbLinetypeTableRecord
  2
CENTER
 70
     0
  3
____ _ ____ _ ____ _ ____ _ ____ _ ____ _ ____
 72
    65
 73
     4
 40
2.0
 49
1.25
 74
     0
 49
-0.25
 74
     0
 49
0.25
 74
     0
 49
-0.25
 74
     0
  0
LTYPE
  5
126E
330
5
100
AcDbSymbolTableRecord
100
AcDbLinetypeTableRecord
  2
DASHDOT
 70
     0
  3
__ . __ . __ . __ . __ . __ . __ . __ . __ . __
 72
    65
 73
     4
 40
1.0
 49
0.5
 74
     0
 49
-0.25
 74
     0
 49
0.0
 74
     0
 49
-0.25
 74
     0
  0
LTYPE
  5
1541F
330
5
100
AcDbSymbolTableRecord
100
AcDbLinetypeTableRecord
  2
HIDDEN
 70
     0
  3
_ _ _ _ _ _ _ _ _ _ _ _ _ _ _ _ _ _ _ _ _ _ _
 72
    65
 73
     2
 40
0.375
 49
0.25
 74
     0
 49
-0.125
 74
     0
  0
LTYPE
  5
15420
330
5
100
AcDbSymbolTableRecord
100
AcDbLinetypeTableRecord
  2
CENTER2
 70
     0
  3
Center (.5x) ___ _ ___ _ ___ _ ___ _ ___ _ ___
 72
    65
 73
     4
 40
1.125
 49
0.75
 74
     0
 49
-0.125
 74
     0
 49
0.125
 74
     0
 49
-0.125
 74
     0
  0
LTYPE
  5
15421
330
5
100
AcDbSymbolTableRecord
100
AcDbLinetypeTableRecord
  2
PHANTOM2
 70
     0
  3
Phantom (.5x) ___ _ _ ___ _ _ ___ _ _ ___ _ _
 72
    65
 73
     6
 40
1.25
 49
0.625
 74
     0
 49
-0.125
 74
     0
 49
0.125
 74
     0
 49
-0.125
 74
     0
 49
0.125
 74
     0
 49
-0.125
 74
     0
  0
ENDTAB
  0
TABLE
  2
LAYER
  5
2
102
{ACAD_XDICTIONARY
360
21F33
102
}
330
0
100
AcDbSymbolTable
 70
    17
  0
LAYER
  5
E
330
2
100
AcDbSymbolTableRecord
100
AcDbLayerTableRecord
  2
0
 70
     2
 62
     7
  6
CONTINUOUS
  0
LAYER
  5
2C
330
2
100
AcDbSymbolTableRecord
100
AcDbLayerTableRecord
  2
M_VIEW
 70
     4
 62
    -1
  6
CONTINUOUS
  0
LAYER
  5
30
330
2
100
AcDbSymbolTableRecord
100
AcDbLayerTableRecord
  2
FRAME025
 70
     0
 62
     7
  6
CONTINUOUS
  0
LAYER
  5
12B
330
2
100
AcDbSymbolTableRecord
100
AcDbLayerTableRecord
  2
DEFPOINTS
 70
     4
 62
    -7
  6
CONTINUOUS
  0
LAYER
  5
651
330
2
100
AcDbSymbolTableRecord
100
AcDbLayerTableRecord
  2
FRAME020
 70
     0
 62
     7
  6
CONTINUOUS
  0
LAYER
  5
1271
330
2
100
AcDbSymbolTableRecord
100
AcDbLayerTableRecord
  2
A
 70
     0
 62
     7
  6
CONTINUOUS
  0
LAYER
  5
A9BB
330
2
100
AcDbSymbolTableRecord
100
AcDbLayerTableRecord
  2
文字
 70
     0
 62
     7
  6
CONTINUOUS
  0
LAYER
  5
12163
330
2
100
AcDbSymbolTableRecord
100
AcDbLayerTableRecord
  2
寸法線
 70
     0
 62
     7
  6
CONTINUOUS
  0
LAYER
  5
122DE
330
2
100
AcDbSymbolTableRecord
100
AcDbLayerTableRecord
  2
DIMENSION
 70
     0
 62
     7
  6
CONTINUOUS
  0
LAYER
  5
15422
330
2
100
AcDbSymbolTableRecord
100
AcDbLayerTableRecord
  2
細線
 70
     0
 62
     7
  6
CONTINUOUS
  0
LAYER
  5
15423
330
2
100
AcDbSymbolTableRecord
100
AcDbLayerTableRecord
  2
CENTER
 70
     0
 62
     7
  6
CENTER
  0
LAYER
  5
15425
330
2
100
AcDbSymbolTableRecord
100
AcDbLayerTableRecord
  2
中心線
 70
     0
 62
     7
  6
CENTER2
  0
LAYER
  5
15426
330
2
100
AcDbSymbolTableRecord
100
AcDbLayerTableRecord
  2
仮想線
 70
     0
 62
     7
  6
PHANTOM2
  0
LAYER
  5
15427
330
2
100
AcDbSymbolTableRecord
100
AcDbLayerTableRecord
  2
ﾍ__ｽ
 70
     0
 62
     7
  6
CONTINUOUS
  0
LAYER
  5
17D4F
330
2
100
AcDbSymbolTableRecord
100
AcDbLayerTableRecord
  2
破線
 70
     0
 62
     7
  6
HIDDEN
  0
LAYER
  5
1A847
330
2
100
AcDbSymbolTableRecord
100
AcDbLayerTableRecord
  2
ｷｬｯﾌ_ﾎ_ﾙﾄ
 70
     0
 62
     7
  6
CONTINUOUS
  0
LAYER
  5
1BB55
330
2
100
AcDbSymbolTableRecord
100
AcDbLayerTableRecord
  2
ﾊｯﾁﾝｸ_
 70
     0
 62
     7
  6
CONTINUOUS
  0
ENDTAB
  0
TABLE
  2
STYLE
  5
3
330
0
100
AcDbSymbolTable
 70
     3
  0
STYLE
  5
F
330
3
100
AcDbSymbolTableRecord
100
AcDbTextStyleTableRecord
  2
STANDARD
 70
     0
 40
0.0
 41
1.0
 50
0.0
 71
     0
 42
2.5
  3
isocp.shx
  4
bigfont.shx
  0
STYLE
  5
35
330
3
100
AcDbSymbolTableRecord
100
AcDbTextStyleTableRecord
  2
MSｺ_ｼｯｸ
 70
     0
 40
0.0
 41
1.0
 50
0.0
 71
     0
 42
5.0
  3
MS Gothic.ttf
  4

1001
ACAD
1000
MS Gothic
1071
    32817
  0
STYLE
  5
1275
330
3
100
AcDbSymbolTableRecord
100
AcDbTextStyleTableRecord
  2
BIGFONT
 70
     0
 40
2.0
 41
1.0
 50
0.0
 71
     0
 42
2.0
  3
txt.shx
  4
bigfont.shx
  0
ENDTAB
  0
TABLE
  2
VIEW
  5
6
330
0
100
AcDbSymbolTable
 70
     0
  0
ENDTAB
  0
TABLE
  2
UCS
  5
7
330
0
100
AcDbSymbolTable
 70
     0
  0
ENDTAB
  0
TABLE
  2
APPID
  5
9
330
0
100
AcDbSymbolTable
 70
     4
  0
APPID
  5
10
330
9
100
AcDbSymbolTableRecord
100
AcDbRegAppTableRecord
  2
ACAD
 70
     0
  0
APPID
  5
F013
330
9
100
AcDbSymbolTableRecord
100
AcDbRegAppTableRecord
  2
CONTENTBLOCKDESCRIPTION
 70
     0
  0
APPID
  5
F014
330
9
100
AcDbSymbolTableRecord
100
AcDbRegAppTableRecord
  2
CONTENTBLOCKICON
 70
     0
  0
APPID
  5
1A9A0
330
9
100
AcDbSymbolTableRecord
100
AcDbRegAppTableRecord
  2
DCO15
 70
     0
  0
ENDTAB
  0
TABLE
  2
DIMSTYLE
  5
A
330
0
100
AcDbSymbolTable
 70
     1
  0
DIMSTYLE
105
1D
330
A
100
AcDbSymbolTableRecord
100
AcDbDimStyleTableRecord
  2
STANDARD
 70
     0
  3

  4

  5

  6

  7

 40
1.0
 41
0.18
 42
0.0625
 43
0.38
 44
0.18
 45
0.0
 46
0.0
 47
0.0
 48
0.0
140
0.18
141
0.09
142
0.0
143
25.4
144
1.0
145
0.0
146
1.0
147
0.09
 71
     0
 72
     0
 73
     1
 74
     1
 75
     0
 76
     0
 77
     0
 78
     0
170
     0
171
     2
172
     0
173
     0
174
     0
175
     0
176
     0
177
     0
178
     0
270
     2
271
     4
272
     4
273
     2
274
     2
340
F
275
     0
280
     0
281
     0
282
     0
283
     1
284
     0
285
     0
286
     0
287
     3
288
     0
  0
ENDTAB
  0
TABLE
  2
BLOCK_RECORD
  5
1
330
0
100
AcDbSymbolTable
 70
     2
  0
BLOCK_RECORD
  5
18
102
{ACAD_XDICTIONARY
360
EFC6
102
}
330
1
100
AcDbSymbolTableRecord
100
AcDbBlockTableRecord
  2
*MODEL_SPACE
  0
BLOCK_RECORD
  5
15
102
{ACAD_XDICTIONARY
360
EFC4
102
}
330
1
100
AcDbSymbolTableRecord
100
AcDbBlockTableRecord
  2
*PAPER_SPACE
  0
BLOCK_RECORD
  5
115C
330
1
100
AcDbSymbolTableRecord
100
AcDbBlockTableRecord
  2
機械A4横_LBP
  0
BLOCK_RECORD
  5
1215D
330
1
100
AcDbSymbolTableRecord
100
AcDbBlockTableRecord
  2
_OPEN30
  0
ENDTAB
  0
ENDSEC
  0
SECTION
  2
BLOCKS
  0
BLOCK
  5
19
330
18
100
AcDbEntity
  8
0
100
AcDbBlockBegin
  2
*MODEL_SPACE
 70
     0
 10
0.0
 20
0.0
 30
0.0
  3
*MODEL_SPACE
  1

  0
ENDBLK
  5
1A
330
18
100
AcDbEntity
  8
0
100
AcDbBlockEnd
  0
BLOCK
  5
16
330
15
100
AcDbEntity
 67
     1
  8
0
100
AcDbBlockBegin
  2
*PAPER_SPACE
 70
     0
 10
0.0
 20
0.0
 30
0.0
  3
*PAPER_SPACE
  1

  0
ENDBLK
  5
17
330
15
100
AcDbEntity
 67
     1
  8
0
100
AcDbBlockEnd
  0
BLOCK
  5
115D
330
115C
100
AcDbEntity
  8
0
100
AcDbBlockBegin
  2
機械A4横_LBP
 70
     0
 10
0.0
 20
0.0
 30
0.0
  3
機械A4横_LBP
  1

  0
ENDBLK
  5
115E
330
115C
100
AcDbEntity
  8
0
100
AcDbBlockEnd
  0
BLOCK
  5
12161
330
1215D
100
AcDbEntity
  8
0
100
AcDbBlockBegin
  2
_OPEN30
 70
     0
 10
0.0
 20
0.0
 30
0.0
  3
_OPEN30
  1

  0
LINE
  5
1215E
330
1215D
100
AcDbEntity
  8
0
  6
BYBLOCK
 62
     0
100
AcDbLine
 10
-1.0
 20
0.26794919
 30
0.0
 11
0.0
 21
0.0
 31
0.0
  0
LINE
  5
1215F
330
1215D
100
AcDbEntity
  8
0
  6
BYBLOCK
 62
     0
100
AcDbLine
 10
0.0
 20
0.0
 30
0.0
 11
-1.0
 21
-0.26794919
 31
0.0
  0
LINE
  5
12160
330
1215D
100
AcDbEntity
  8
0
  6
BYBLOCK
 62
     0
100
AcDbLine
 10
0.0
 20
0.0
 30
0.0
 11
-1.0
 21
0.0
 31
0.0
  0
ENDBLK
  5
12162
330
1215D
100
AcDbEntity
  8
0
100
AcDbBlockEnd
  0
ENDSEC
  0
SECTION
  2
ENTITIES
  0
MTEXT
  5
176FC
330
18
100
AcDbEntity
  8
DIMENSION
 62
     2
100
AcDbMText
 10
-100.7823601383244
 20
171.6213144128388
 30
0.0
 40
8.0
 41
0.0
 71
     4
 72
     1
  1

1001
ACAD
1000
MTEXTBEGIN
1070
    73
1070
     1
1070
    44
1040
1.0
1070
    74
1070
     0
1000
MTEXTEND
1000
MTEXTBEGIN
1070
    73
1070
     1
1070
    44
1040
1.0
1070
    74
1070
     0
1000
MTEXTEND
  0
TEXT
  5
187C8
330
18
100
AcDbEntity
  8
A
100
AcDbText
 10
27.08248755054501
 20
1784.547672862094
 30
0.0
 40
2.5
  1

  7
MSｺ_ｼｯｸ
100
AcDbText
  0
TEXT
  5
187C9
330
18
100
AcDbEntity
  8
A
100
AcDbText
 10
19.25748755054502
 20
1784.547672862094
 30
0.0
 40
2.5
  1

 41
0.5
  7
MSｺ_ｼｯｸ
100
AcDbText
  0
TEXT
  5
187CA
330
18
100
AcDbEntity
  8
A
100
AcDbText
 10
167.1825875009164
 20
2214.514692980458
 30
0.0
 40
3.524999999999999
  1
�    
100
AcDbText
  0
MTEXT
  5
187CB
330
18
100
AcDbEntity
  8
0
  6
BYBLOCK
100
AcDbMText
 10
325.4874764241681
 20
2232.511722574347
 30
0.0
 40
2.0
 41
0.0
 71
     4
 72
     5
  1

 11
-0.0000000000000002
 21
-1.0
 31
0.0
1001
ACAD
1000
MTEXTBEGIN
1070
    73
1070
     1
1070
    44
1040
1.0
1070
    74
1070
     0
1000
MTEXTEND
1000
MTEXTBEGIN
1070
    73
1070
     1
1070
    44
1040
1.0
1070
    74
1070
     0
1000
MTEXTEND
1000
MTEXTBEGIN
1070
    73
1070
     1
1070
    44
1040
1.0
1070
    74
1070
     0
1000
MTEXTEND
  0
MTEXT
  5
187CC
330
18
100
AcDbEntity
  8
0
  6
BYBLOCK
100
AcDbMText
 10
360.9528647873208
 20
2221.718414215929
 30
0.0
 40
2.0
 41
0.0
 71
     7
 72
     5
  1

 11
0.0000000000000001
 21
1.0
 31
0.0
1001
ACAD
1000
MTEXTBEGIN
1070
    73
1070
     1
1070
    44
1040
1.0
1070
    74
1070
     0
1000
MTEXTEND
1000
MTEXTBEGIN
1070
    73
1070
     1
1070
    44
1040
1.0
1070
    74
1070
     0
1000
MTEXTEND
1000
MTEXTBEGIN
1070
    73
1070
     1
1070
    44
1040
1.0
1070
    74
1070
     0
1000
MTEXTEND
  0
MTEXT
  5
187CD
330
18
100
AcDbEntity
  8
0
100
AcDbMText
 10
325.1733668026532
 20
2146.938903673639
 30
0.0
 40
2.0
 41
10.1453
 71
     1
 72
     5
  1

 11
-0.0000000000000002
 21
-1.0
 31
0.0
1001
ACAD
1000
MTEXTBEGIN
1070
    73
1070
     1
1070
    44
1040
1.0
1070
    74
1070
     0
1000
MTEXTEND
1000
MTEXTBEGIN
1070
    73
1070
     1
1070
    44
1040
1.0
1070
    74
1070
     0
1000
MTEXTEND
1000
MTEXTBEGIN
1070
    73
1070
     1
1070
    44
1040
1.0
1070
    74
1070
     0
1000
MTEXTEND
  0
MTEXT
  5
187CE
330
18
100
AcDbEntity
  8
0
100
AcDbMText
 10
280.7738750495033
 20
2115.30742008065
 30
0.0
 40
2.0
 41
0.0
 71
     1
 72
     5
  1

1001
ACAD
1000
MTEXTBEGIN
1070
    73
1070
     1
1070
    44
1040
1.0
1070
    74
1070
     0
1000
MTEXTEND
1000
MTEXTBEGIN
1070
    73
1070
     1
1070
    44
1040
1.0
1070
    74
1070
     0
1000
MTEXTEND
1000
MTEXTBEGIN
1070
    73
1070
     1
1070
    44
1040
1.0
1070
    74
1070
     0
1000
MTEXTEND
  0
MTEXT
  5
187CF
330
18
100
AcDbEntity
  8
0
  6
CENTER
100
AcDbMText
 10
606.3621522332661
 20
2216.239946825076
 30
0.0
 40
2.0
 41
15.6417
 71
     1
 72
     5
  1

  7
BIGFONT
1001
ACAD
1000
MTEXTBEGIN
1070
    73
1070
     1
1070
    44
1040
1.0
1070
    74
1070
     0
1000
MTEXTEND
1000
MTEXTBEGIN
1070
    73
1070
     1
1070
    44
1040
1.0
1070
    74
1070
     0
1000
MTEXTEND
1000
MTEXTBEGIN
1070
    73
1070
     1
1070
    44
1040
1.0
1070
    74
1070
     0
1000
MTEXTEND
  0
MTEXT
  5
187D0
330
18
100
AcDbEntity
  8
0
  6
DASHDOT
100
AcDbMText
 10
368.6842112890943
 20
2323.029441652852
 30
0.0
 40
1.0
 41
2.0
 71
     1
 72
     5
  1

  7
BIGFONT
1001
ACAD
1000
MTEXTBEGIN
1070
    73
1070
     1
1070
    44
1040
1.0
1070
    74
1070
     0
1000
MTEXTEND
1000
MTEXTBEGIN
1070
    73
1070
     1
1070
    44
1040
1.0
1070
    74
1070
     0
1000
MTEXTEND
1000
MTEXTBEGIN
1070
    73
1070
     1
1070
    44
1040
1.0
1070
    74
1070
     0
1000
MTEXTEND
  0
MTEXT
  5
187D1
330
18
100
AcDbEntity
  8
0
  6
BYBLOCK
100
AcDbMText
 10
325.4873894192176
 20
2232.511722574347
 30
0.0
 40
2.0
 41
0.0
 71
     4
 72
     5
  1

 11
-0.0000000000000002
 21
-1.0
 31
0.0
1001
ACAD
1000
MTEXTBEGIN
1070
    73
1070
     1
1070
    44
1040
1.0
1070
    74
1070
     0
1000
MTEXTEND
1000
MTEXTBEGIN
1070
    73
1070
     1
1070
    44
1040
1.0
1070
    74
1070
     0
1000
MTEXTEND
1000
MTEXTBEGIN
1070
    73
1070
     1
1070
    44
1040
1.0
1070
    74
1070
     0
1000
MTEXTEND
  0
MTEXT
  5
187D2
330
18
100
AcDbEntity
  8
0
  6
BYBLOCK
100
AcDbMText
 10
360.9527777823706
 20
2221.718414215929
 30
0.0
 40
2.0
 41
0.0
 71
     7
 72
     5
  1

 11
0.0000000000000001
 21
1.0
 31
0.0
1001
ACAD
1000
MTEXTBEGIN
1070
    73
1070
     1
1070
    44
1040
1.0
1070
    74
1070
     0
1000
MTEXTEND
1000
MTEXTBEGIN
1070
    73
1070
     1
1070
    44
1040
1.0
1070
    74
1070
     0
1000
MTEXTEND
1000
MTEXTBEGIN
1070
    73
1070
     1
1070
    44
1040
1.0
1070
    74
1070
     0
1000
MTEXTEND
  0
MTEXT
  5
187D3
330
18
100
AcDbEntity
  8
0
100
AcDbMText
 10
325.1732797977028
 20
2146.938903673639
 30
0.0
 40
2.0
 41
10.1453
 71
     1
 72
     5
  1

 11
-0.0000000000000002
 21
-1.0
 31
0.0
1001
ACAD
1000
MTEXTBEGIN
1070
    73
1070
     1
1070
    44
1040
1.0
1070
    74
1070
     0
1000
MTEXTEND
1000
MTEXTBEGIN
1070
    73
1070
     1
1070
    44
1040
1.0
1070
    74
1070
     0
1000
MTEXTEND
1000
MTEXTBEGIN
1070
    73
1070
     1
1070
    44
1040
1.0
1070
    74
1070
     0
1000
MTEXTEND
  0
MTEXT
  5
187D4
330
18
100
AcDbEntity
  8
0
100
AcDbMText
 10
280.7737880445529
 20
2115.30742008065
 30
0.0
 40
2.0
 41
0.0
 71
     1
 72
     5
  1

1001
ACAD
1000
MTEXTBEGIN
1070
    73
1070
     1
1070
    44
1040
1.0
1070
    74
1070
     0
1000
MTEXTEND
1000
MTEXTBEGIN
1070
    73
1070
     1
1070
    44
1040
1.0
1070
    74
1070
     0
1000
MTEXTEND
1000
MTEXTBEGIN
1070
    73
1070
     1
1070
    44
1040
1.0
1070
    74
1070
     0
1000
MTEXTEND
  0
MTEXT
  5
187D5
330
18
100
AcDbEntity
  8
0
  6
CENTER
100
AcDbMText
 10
606.3620652283159
 20
2216.239946825076
 30
0.0
 40
2.0
 41
15.6417
 71
     1
 72
     5
  1

  7
BIGFONT
1001
ACAD
1000
MTEXTBEGIN
1070
    73
1070
     1
1070
    44
1040
1.0
1070
    74
1070
     0
1000
MTEXTEND
1000
MTEXTBEGIN
1070
    73
1070
     1
1070
    44
1040
1.0
1070
    74
1070
     0
1000
MTEXTEND
1000
MTEXTBEGIN
1070
    73
1070
     1
1070
    44
1040
1.0
1070
    74
1070
     0
1000
MTEXTEND
  0
MTEXT
  5
187D6
330
18
100
AcDbEntity
  8
0
  6
DASHDOT
100
AcDbMText
 10
368.6841242841442
 20
2323.029441652852
 30
0.0
 40
1.0
 41
2.0
 71
     1
 72
     5
  1

  7
BIGFONT
1001
ACAD
1000
MTEXTBEGIN
1070
    73
1070
     1
1070
    44
1040
1.0
1070
    74
1070
     0
1000
MTEXTEND
1000
MTEXTBEGIN
1070
    73
1070
     1
1070
    44
1040
1.0
1070
    74
1070
     0
1000
MTEXTEND
1000
MTEXTBEGIN
1070
    73
1070
     1
1070
    44
1040
1.0
1070
    74
1070
     0
1000
MTEXTEND
  0
INSERT
  5
187D7
330
18
100
AcDbEntity
  8
FRAME025
100
AcDbBlockReference
  2
機械A4横_LBP
 10
271.0019941658661
 20
2006.88884056487
 30
0.0
  0
ARC
  5
1A329
330
18
100
AcDbEntity
  8
中心線
 48
2.0
100
AcDbCircle
 10
926.0845536229524
 20
-628.2347829916962
 30
0.0
 40
90.0
100
AcDbArc
 50
250.0000000000004
 51
290.0000000000078
  0
CIRCLE
  5
1A32A
330
18
100
AcDbEntity
  8
0
100
AcDbCircle
 10
926.0845536229524
 20
-628.2347829916962
 30
0.0
 40
135.0
  0
CIRCLE
  5
1A32B
330
18
100
AcDbEntity
  8
0
100
AcDbCircle
 10
926.0845536229524
 20
-628.2347829916962
 30
0.0
 40
115.0249999999995
  0
CIRCLE
  5
1A32F
330
18
100
AcDbEntity
  8
中心線
 48
2.0
100
AcDbCircle
 10
926.0845536229524
 20
-628.2347829916962
 30
0.0
 40
188.0000021790729
  0
LINE
  5
1A330
330
18
100
AcDbEntity
  8
中心線
 48
2.0
100
AcDbLine
 10
926.0845536229526
 20
-415.7347829916962
 30
0.0
 11
926.0845536229524
 21
-840.7347829916961
 31
0.0
  0
LINE
  5
1A36E
330
18
100
AcDbEntity
  8
中心線
 48
2.0
100
AcDbLine
 10
1138.584553622951
 20
-628.2347829916962
 30
0.0
 11
713.5845536229526
 21
-628.2347829916962
 31
0.0
  0
CIRCLE
  5
1A375
330
18
100
AcDbEntity
  8
0
100
AcDbCircle
 10
926.0845536229524
 20
-628.2347829916962
 30
0.0
 40
32.5
  0
LINE
  5
1A37F
330
18
100
AcDbEntity
  8
中心線
 48
30.0
100
AcDbLine
 10
798.5161855391051
 20
-500.6664149078485
 30
0.0
 11
787.586684012939
 21
-489.7369133816826
 31
0.0
  0
ARC
  5
1A38A
330
18
100
AcDbEntity
  8
中心線
 48
2.0
100
AcDbCircle
 10
926.0845536229524
 20
-628.2347829916962
 30
0.0
 40
90.0
100
AcDbArc
 50
70.00000000000039
 51
109.9999999999949
  0
LINE
  5
1A394
330
18
100
AcDbEntity
  8
中心線
 48
30.0
100
AcDbLine
 10
1053.6529217068
 20
-500.666414907848
 30
0.0
 11
1064.582423232966
 21
-489.7369133816821
 31
0.0
  0
CIRCLE
  5
1A570
330
18
100
AcDbEntity
  8
0
100
AcDbCircle
 10
48.78762020496135
 20
-628.2347829916955
 30
0.0
 40
130.0
  0
CIRCLE
  5
1A571
102
{ACAD_REACTORS
330
1F257
102
}
330
18
100
AcDbEntity
  8
中心線
 48
2.0
100
AcDbCircle
 10
48.78762020496135
 20
-628.2347829916955
 30
0.0
 40
110.0
  0
CIRCLE
  5
1A572
330
18
100
AcDbEntity
  8
0
100
AcDbCircle
 10
48.78762020496135
 20
-628.2347829916955
 30
0.0
 40
150.0
  0
LINE
  5
1A58C
330
18
100
AcDbEntity
  8
仮想線
 48
0.5
100
AcDbLine
 10
266.0876149012092
 20
-609.2053933764153
 30
0.0
 11
266.0876149012092
 21
-617.1053933764151
 31
0.0
  0
LINE
  5
1A58D
330
18
100
AcDbEntity
  8
仮想線
 48
0.5
100
AcDbLine
 10
259.78761490121
 20
-613.2347829916957
 30
0.0
 11
259.787614901209
 21
-618.2347829916957
 31
0.0
  0
LINE
  5
1A58E
330
18
100
AcDbEntity
  8
仮想線
 48
0.5
100
AcDbLine
 10
261.0876149012091
 20
-608.6347829916958
 30
0.0
 11
261.0876149012091
 21
-617.8347829916956
 31
0.0
  0
LINE
  5
1A58F
330
18
100
AcDbEntity
  8
仮想線
 48
0.5
100
AcDbLine
 10
258.7876096354609
 20
-606.1553933764145
 30
0.0
 11
258.7876306984548
 21
-650.1553933764153
 31
0.0
  0
LINE
  5
1A590
330
18
100
AcDbEntity
  8
仮想線
  6
BYBLOCK
 48
0.5
100
AcDbLine
 10
249.78760963546
 20
-606.1553933764147
 30
0.0
 11
249.7876306984543
 21
-650.1553933764149
 31
0.0
  0
LINE
  5
1A59A
330
18
100
AcDbEntity
  8
仮想線
  6
BYBLOCK
 48
0.5
100
AcDbLine
 10
258.7876306984548
 20
-650.1553933764153
 30
0.0
 11
249.7876306984543
 21
-650.1553933764149
 31
0.0
  0
LINE
  5
1A59B
330
18
100
AcDbEntity
  8
仮想線
 48
0.5
100
AcDbLine
 10
261.0876149012091
 20
-617.4053933764152
 30
0.0
 11
265.7876149012095
 21
-617.4053933764152
 31
0.0
  0
LINE
  5
1A59C
330
18
100
AcDbEntity
  8
仮想線
 48
0.5
100
AcDbLine
 10
265.7876149012095
 20
-617.4053933764152
 30
0.0
 11
266.0876149012092
 21
-617.1053933764151
 31
0.0
  0
LINE
  5
1A59F
330
18
100
AcDbEntity
  8
仮想線
 48
0.5
100
AcDbLine
 10
259.7876149012094
 20
-617.8347829916956
 30
0.0
 11
261.0876149012091
 21
-617.8347829916956
 31
0.0
  0
LINE
  5
1A5A0
330
18
100
AcDbEntity
  8
仮想線
 48
0.5
100
AcDbLine
 10
258.7876149012089
 20
-618.2347829916957
 30
0.0
 11
259.787614901209
 21
-618.2347829916957
 31
0.0
  0
LINE
  5
1A5A4
330
18
100
AcDbEntity
  8
仮想線
 48
0.5
100
AcDbLine
 10
249.78760963546
 20
-606.1553933764147
 30
0.0
 11
258.7876096354609
 21
-606.1553933764145
 31
0.0
  0
LINE
  5
1A5A5
330
18
100
AcDbEntity
  8
仮想線
 48
0.5
100
AcDbLine
 10
259.787614901209
 20
-608.2347829916957
 30
0.0
 11
259.78761490121
 21
-613.2347829916957
 31
0.0
  0
LINE
  5
1A5A6
330
18
100
AcDbEntity
  8
仮想線
 48
0.5
100
AcDbLine
 10
259.7876149012094
 20
-608.6347829916958
 30
0.0
 11
261.0876149012091
 21
-608.6347829916958
 31
0.0
  0
LINE
  5
1A5A7
330
18
100
AcDbEntity
  8
仮想線
 48
0.5
100
AcDbLine
 10
258.7876149012089
 20
-608.2347829916957
 30
0.0
 11
259.787614901209
 21
-608.2347829916957
 31
0.0
  0
LINE
  5
1A5A8
330
18
100
AcDbEntity
  8
仮想線
 48
0.5
100
AcDbLine
 10
266.0876149012092
 20
-609.2053933764153
 30
0.0
 11
265.787614901209
 21
-608.9053933764152
 31
0.0
  0
LINE
  5
1A5A9
330
18
100
AcDbEntity
  8
仮想線
 48
0.5
100
AcDbLine
 10
261.0876149012091
 20
-608.9053933764152
 30
0.0
 11
265.787614901209
 21
-608.9053933764152
 31
0.0
  0
SOLID
  5
1A5BF
330
18
100
AcDbEntity
  8
0
  6
BYBLOCK
 62
     0
100
AcDbTrace
 10
-105.7123797950385
 20
-625.9253819116952
 30
0.0
 11
-101.7123797950385
 21
-628.2347829916956
 31
0.0
 12
-105.7123797950385
 22
-630.5441840716956
 32
0.0
 13
-105.7123797950385
 23
-630.5441840716956
 33
0.0
  0
SOLID
  5
1A5C0
330
18
100
AcDbEntity
  8
0
  6
BYBLOCK
 62
     0
100
AcDbTrace
 10
-96.71237979503866
 20
-625.9253819116952
 30
0.0
 11
-100.7123797950385
 21
-628.2347829916956
 31
0.0
 12
-96.71237979503866
 22
-630.5441840716956
 32
0.0
 13
-96.71237979503866
 23
-630.5441840716956
 33
0.0
  0
LINE
  5
1A5C4
330
18
100
AcDbEntity
  8
CENTER
100
AcDbLine
 10
-70.58547766288455
 20
-628.234782991695
 30
0.0
 11
-81.21237979503865
 21
-628.234782991695
 31
0.0
  0
LINE
  5
1A607
330
18
100
AcDbEntity
  8
CENTER
100
AcDbLine
 10
48.78762020496179
 20
-508.8616851238493
 30
0.0
 11
48.78762020496179
 21
-498.2347829916953
 31
0.0
  0
LINE
  5
1A669
330
18
100
AcDbEntity
  8
中心線
 48
2.0
100
AcDbLine
 10
268.2876202049613
 20
-628.2347829916957
 30
0.0
 11
-176.2123797950386
 21
-628.2347829916955
 31
0.0
  0
LINE
  5
1A66A
330
18
100
AcDbEntity
  8
中心線
 48
2.0
100
AcDbLine
 10
48.78762020496135
 20
-843.2347829916958
 30
0.0
 11
48.78762020496135
 21
-403.2347829916957
 31
0.0
  0
ARC
  5
1A9B0
330
18
100
AcDbEntity
  8
中心線
 48
2.0
100
AcDbCircle
 10
926.0845536229526
 20
-628.2347829916967
 30
0.0
 40
90.0
100
AcDbArc
 50
295.0000000000006
 51
335.0000000000078
  0
LINE
  5
1AA0C
330
18
100
AcDbEntity
  8
中心線
100
AcDbLine
 10
926.0845536229524
 20
-628.2347829916946
 30
0.0
 11
1000.896139422328
 21
-703.0463687910727
 31
0.0
  0
CIRCLE
  5
1AEFD
330
18
100
AcDbEntity
  8
0
100
AcDbCircle
 10
926.0845536229542
 20
-628.2347829916962
 30
0.0
 40
34.39999999999999
  0
ARC
  5
1AF51
330
18
100
AcDbEntity
  8
細線
100
AcDbCircle
 10
47.85231276887571
 20
-432.1947829916958
 30
0.0
 40
0.5
100
AcDbArc
 50
282.346387662824
 51
17.65361233717587
  0
ARC
  5
1AF52
330
18
100
AcDbEntity
  8
細線
100
AcDbCircle
 10
47.85231276887571
 20
-433.274782991696
 30
0.0
 40
0.5
100
AcDbArc
 50
342.346387662824
 51
77.65361233717587
  0
CIRCLE
  5
1AF53
330
18
100
AcDbEntity
  8
細線
100
AcDbCircle
 10
48.78762020496293
 20
-432.7347829916956
 30
0.0
 40
3.5
  0
CIRCLE
  5
1AF54
330
18
100
AcDbEntity
  8
細線
100
AcDbCircle
 10
48.78762020496293
 20
-432.7347829916956
 30
0.0
 40
0.8299999999999998
  0
ARC
  5
1AF55
330
18
100
AcDbEntity
  8
細線
100
AcDbCircle
 10
48.78762020496293
 20
-433.8147829916957
 30
0.0
 40
0.5
100
AcDbArc
 50
42.34638766282407
 51
137.6536123371759
  0
ARC
  5
1AF56
330
18
100
AcDbEntity
  8
細線
100
AcDbCircle
 10
48.78762020496293
 20
-431.6547829916958
 30
0.0
 40
0.5
100
AcDbArc
 50
222.3463876628239
 51
317.6536123371758
  0
ARC
  5
1AF57
330
18
100
AcDbEntity
  8
細線
100
AcDbCircle
 10
49.72292764105015
 20
-433.2747829916956
 30
0.0
 40
0.5
100
AcDbArc
 50
102.3463876628241
 51
197.6536123371758
  0
ARC
  5
1AF58
330
18
100
AcDbEntity
  8
細線
100
AcDbCircle
 10
49.72292764105015
 20
-432.1947829916958
 30
0.0
 40
0.5
100
AcDbArc
 50
162.346387662824
 51
257.6536123371758
  0
CIRCLE
  5
1AF59
330
18
100
AcDbEntity
  8
細線
100
AcDbCircle
 10
-89.45175551700657
 20
-489.9954072697243
 30
0.0
 40
3.5
  0
ARC
  5
1AF5A
330
18
100
AcDbEntity
  8
細線
100
AcDbCircle
 10
-89.17223094829585
 20
-488.9522073773322
 30
0.0
 40
0.5
100
AcDbArc
 50
207.346387662824
 51
302.6536123371758
  0
ARC
  5
1AF5B
330
18
100
AcDbEntity
  8
細線
100
AcDbCircle
 10
-88.4085556246144
 20
-489.7158827010135
 30
0.0
 40
0.5
100
AcDbArc
 50
147.3463876628241
 51
242.6536123371759
  0
ARC
  5
1AF5C
330
18
100
AcDbEntity
  8
細線
100
AcDbCircle
 10
-90.21543084068815
 20
-489.2317319460427
 30
0.0
 40
0.5
100
AcDbArc
 50
267.3463876628239
 51
2.653612337175879
  0
ARC
  5
1AF5D
330
18
100
AcDbEntity
  8
細線
100
AcDbCircle
 10
-88.6880801933251
 20
-490.7590825934057
 30
0.0
 40
0.5
100
AcDbArc
 50
87.34638766282406
 51
182.6536123371758
  0
CIRCLE
  5
1AF5E
330
18
100
AcDbEntity
  8
細線
100
AcDbCircle
 10
-89.45175551700657
 20
-489.9954072697243
 30
0.0
 40
0.8299999999999998
  0
ARC
  5
1AF5F
330
18
100
AcDbEntity
  8
細線
100
AcDbCircle
 10
-89.7312800857173
 20
-491.0386071621164
 30
0.0
 40
0.5
100
AcDbArc
 50
27.34638766282401
 51
122.6536123371757
  0
ARC
  5
1AF60
330
18
100
AcDbEntity
  8
細線
100
AcDbCircle
 10
-90.49495540939885
 20
-490.274931838435
 30
0.0
 40
0.5
100
AcDbArc
 50
327.346387662824
 51
62.65361233717588
  0
CIRCLE
  5
1AF61
330
18
100
AcDbEntity
  8
細線
100
AcDbCircle
 10
-146.7123797950373
 20
-628.2347829916929
 30
0.0
 40
3.5
  0
ARC
  5
1AF62
330
18
100
AcDbEntity
  8
細線
100
AcDbCircle
 10
-147.2523797950372
 20
-627.2994755556052
 30
0.0
 40
0.5
100
AcDbArc
 50
252.3463876628238
 51
347.6536123371758
  0
ARC
  5
1AF63
330
18
100
AcDbEntity
  8
細線
100
AcDbCircle
 10
-146.1723797950369
 20
-627.2994755556052
 30
0.0
 40
0.5
100
AcDbArc
 50
192.3463876628241
 51
287.6536123371758
  0
ARC
  5
1AF64
330
18
100
AcDbEntity
  8
細線
100
AcDbCircle
 10
-147.7923797950371
 20
-628.2347829916929
 30
0.0
 40
0.5
100
AcDbArc
 50
312.3463876628238
 51
47.65361233717587
  0
ARC
  5
1AF65
330
18
100
AcDbEntity
  8
細線
100
AcDbCircle
 10
-145.6323797950371
 20
-628.2347829916929
 30
0.0
 40
0.5
100
AcDbArc
 50
132.346387662824
 51
227.6536123371759
  0
CIRCLE
  5
1AF66
330
18
100
AcDbEntity
  8
細線
100
AcDbCircle
 10
-146.7123797950373
 20
-628.2347829916929
 30
0.0
 40
0.8299999999999998
  0
ARC
  5
1AF67
330
18
100
AcDbEntity
  8
細線
100
AcDbCircle
 10
-146.1723797950368
 20
-629.1700904277801
 30
0.0
 40
0.5
100
AcDbArc
 50
72.34638766282401
 51
167.6536123371758
  0
ARC
  5
1AF68
330
18
100
AcDbEntity
  8
細線
100
AcDbCircle
 10
-147.2523797950373
 20
-629.1700904277798
 30
0.0
 40
0.5
100
AcDbArc
 50
12.34638766282406
 51
107.6536123371757
  0
CIRCLE
  5
1AF69
330
18
100
AcDbEntity
  8
細線
100
AcDbCircle
 10
-89.45175551700883
 20
-766.4741587136623
 30
0.0
 40
3.5
  0
ARC
  5
1AF6A
330
18
100
AcDbEntity
  8
細線
100
AcDbCircle
 10
-90.49495540940091
 20
-766.1946341449516
 30
0.0
 40
0.5
100
AcDbArc
 50
297.3463876628238
 51
32.65361233717585
  0
ARC
  5
1AF6B
330
18
100
AcDbEntity
  8
細線
100
AcDbCircle
 10
-89.73128008571956
 20
-765.4309588212701
 30
0.0
 40
0.5
100
AcDbArc
 50
237.3463876628238
 51
332.6536123371758
  0
ARC
  5
1AF6C
330
18
100
AcDbEntity
  8
細線
100
AcDbCircle
 10
-90.21543084069028
 20
-767.2378340373438
 30
0.0
 40
0.5
100
AcDbArc
 50
357.346387662824
 51
92.65361233717589
  0
ARC
  5
1AF6D
330
18
100
AcDbEntity
  8
細線
100
AcDbCircle
 10
-88.68808019332728
 20
-765.7104833899808
 30
0.0
 40
0.5
100
AcDbArc
 50
177.3463876628239
 51
272.6536123371758
  0
CIRCLE
  5
1AF6E
330
18
100
AcDbEntity
  8
細線
100
AcDbCircle
 10
-89.45175551700883
 20
-766.4741587136623
 30
0.0
 40
0.8299999999999998
  0
ARC
  5
1AF6F
330
18
100
AcDbEntity
  8
細線
100
AcDbCircle
 10
-88.40855562461653
 20
-766.753683282373
 30
0.0
 40
0.5
100
AcDbArc
 50
117.3463876628239
 51
212.6536123371758
  0
ARC
  5
1AF70
330
18
100
AcDbEntity
  8
細線
100
AcDbCircle
 10
-89.17223094829813
 20
-767.5173586060545
 30
0.0
 40
0.5
100
AcDbArc
 50
57.34638766282407
 51
152.6536123371758
  0
CIRCLE
  5
1AF71
330
18
100
AcDbEntity
  8
細線
100
AcDbCircle
 10
48.78762020495964
 20
-823.7347829916927
 30
0.0
 40
3.5
  0
ARC
  5
1AF72
330
18
100
AcDbEntity
  8
細線
100
AcDbCircle
 10
47.85231276887254
 20
-824.2747829916929
 30
0.0
 40
0.5
100
AcDbArc
 50
342.346387662824
 51
77.65361233717577
  0
ARC
  5
1AF73
330
18
100
AcDbEntity
  8
細線
100
AcDbCircle
 10
47.85231276887242
 20
-823.1947829916927
 30
0.0
 40
0.5
100
AcDbArc
 50
282.346387662824
 51
17.6536123371758
  0
ARC
  5
1AF74
330
18
100
AcDbEntity
  8
細線
100
AcDbCircle
 10
48.78762020495964
 20
-824.8147829916931
 30
0.0
 40
0.5
100
AcDbArc
 50
42.34638766282396
 51
137.6536123371757
  0
ARC
  5
1AF75
330
18
100
AcDbEntity
  8
細線
100
AcDbCircle
 10
48.78762020495964
 20
-822.6547829916928
 30
0.0
 40
0.5
100
AcDbArc
 50
222.3463876628239
 51
317.6536123371758
  0
CIRCLE
  5
1AF76
330
18
100
AcDbEntity
  8
細線
100
AcDbCircle
 10
48.78762020495964
 20
-823.7347829916927
 30
0.0
 40
0.8299999999999998
  0
ARC
  5
1AF77
330
18
100
AcDbEntity
  8
細線
100
AcDbCircle
 10
49.72292764104685
 20
-823.1947829916927
 30
0.0
 40
0.5
100
AcDbArc
 50
162.346387662824
 51
257.6536123371758
  0
ARC
  5
1AF78
330
18
100
AcDbEntity
  8
細線
100
AcDbCircle
 10
49.72292764104685
 20
-824.2747829916931
 30
0.0
 40
0.5
100
AcDbArc
 50
102.3463876628239
 51
197.6536123371758
  0
CIRCLE
  5
1AF79
330
18
100
AcDbEntity
  8
細線
100
AcDbCircle
 10
187.026995926929
 20
-766.4741587136647
 30
0.0
 40
3.5
  0
ARC
  5
1AF7A
330
18
100
AcDbEntity
  8
細線
100
AcDbCircle
 10
186.7474713582184
 20
-767.5173586060568
 30
0.0
 40
0.5
100
AcDbArc
 50
27.34638766282404
 51
122.6536123371757
  0
ARC
  5
1AF7B
330
18
100
AcDbEntity
  8
細線
100
AcDbCircle
 10
185.983796034537
 20
-766.7536832823754
 30
0.0
 40
0.5
100
AcDbArc
 50
327.346387662824
 51
62.65361233717584
  0
ARC
  5
1AF7C
330
18
100
AcDbEntity
  8
細線
100
AcDbCircle
 10
187.7906712506107
 20
-767.2378340373462
 30
0.0
 40
0.5
100
AcDbArc
 50
87.34638766282401
 51
182.6536123371758
  0
ARC
  5
1AF7D
330
18
100
AcDbEntity
  8
細線
100
AcDbCircle
 10
186.2633206032474
 20
-765.7104833899832
 30
0.0
 40
0.5
100
AcDbArc
 50
267.3463876628239
 51
2.653612337175863
  0
CIRCLE
  5
1AF7E
330
18
100
AcDbEntity
  8
細線
100
AcDbCircle
 10
187.026995926929
 20
-766.4741587136647
 30
0.0
 40
0.8299999999999998
  0
ARC
  5
1AF7F
330
18
100
AcDbEntity
  8
細線
100
AcDbCircle
 10
187.3065204956399
 20
-765.4309588212724
 30
0.0
 40
0.5
100
AcDbArc
 50
207.346387662824
 51
302.6536123371758
  0
ARC
  5
1AF80
330
18
100
AcDbEntity
  8
細線
100
AcDbCircle
 10
188.0701958193214
 20
-766.1946341449541
 30
0.0
 40
0.5
100
AcDbArc
 50
147.346387662824
 51
242.6536123371757
  0
CIRCLE
  5
1AF81
330
18
100
AcDbEntity
  8
細線
100
AcDbCircle
 10
244.2876202049599
 20
-628.2347829916962
 30
0.0
 40
3.5
  0
ARC
  5
1AF82
330
18
100
AcDbEntity
  8
細線
100
AcDbCircle
 10
244.8276202049598
 20
-629.1700904277834
 30
0.0
 40
0.5
100
AcDbArc
 50
72.34638766282401
 51
167.6536123371757
  0
ARC
  5
1AF83
330
18
100
AcDbEntity
  8
細線
100
AcDbCircle
 10
243.7476202049599
 20
-629.1700904277835
 30
0.0
 40
0.5
100
AcDbArc
 50
12.34638766282404
 51
107.6536123371757
  0
ARC
  5
1AF84
330
18
100
AcDbEntity
  8
細線
100
AcDbCircle
 10
245.36762020496
 20
-628.2347829916962
 30
0.0
 40
0.5
100
AcDbArc
 50
132.3463876628235
 51
227.6536123371756
  0
ARC
  5
1AF85
330
18
100
AcDbEntity
  8
細線
100
AcDbCircle
 10
243.2076202049598
 20
-628.2347829916962
 30
0.0
 40
0.5
100
AcDbArc
 50
312.3463876628238
 51
47.65361233717579
  0
CIRCLE
  5
1AF86
330
18
100
AcDbEntity
  8
細線
100
AcDbCircle
 10
244.2876202049599
 20
-628.2347829916962
 30
0.0
 40
0.8299999999999998
  0
ARC
  5
1AF87
330
18
100
AcDbEntity
  8
細線
100
AcDbCircle
 10
243.7476202049598
 20
-627.299475555609
 30
0.0
 40
0.5
100
AcDbArc
 50
252.3463876628238
 51
347.6536123371756
  0
ARC
  5
1AF88
330
18
100
AcDbEntity
  8
細線
100
AcDbCircle
 10
244.82762020496
 20
-627.2994755556091
 30
0.0
 40
0.5
100
AcDbArc
 50
192.3463876628239
 51
287.6536123371758
  0
CIRCLE
  5
1AF89
102
{ACAD_REACTORS
330
1B720
102
}
330
18
100
AcDbEntity
  8
細線
100
AcDbCircle
 10
187.0269959269316
 20
-489.9954072697267
 30
0.0
 40
3.5
  0
ARC
  5
1AF8A
102
{ACAD_REACTORS
330
1B720
102
}
330
18
100
AcDbEntity
  8
細線
100
AcDbCircle
 10
188.0701958193235
 20
-490.2749318384373
 30
0.0
 40
0.5
100
AcDbArc
 50
117.3463876628239
 51
212.6536123371756
  0
ARC
  5
1AF8B
102
{ACAD_REACTORS
330
1B720
102
}
330
18
100
AcDbEntity
  8
細線
100
AcDbCircle
 10
187.3065204956423
 20
-491.0386071621188
 30
0.0
 40
0.5
100
AcDbArc
 50
57.34638766282404
 51
152.6536123371757
  0
ARC
  5
1AF8C
102
{ACAD_REACTORS
330
1B720
102
}
330
18
100
AcDbEntity
  8
細線
100
AcDbCircle
 10
187.7906712506129
 20
-489.2317319460452
 30
0.0
 40
0.5
100
AcDbArc
 50
177.3463876628239
 51
272.6536123371756
  0
ARC
  5
1AF8D
102
{ACAD_REACTORS
330
1B720
102
}
330
18
100
AcDbEntity
  8
細線
100
AcDbCircle
 10
186.2633206032501
 20
-490.7590825934081
 30
0.0
 40
0.5
100
AcDbArc
 50
357.346387662824
 51
92.65361233717579
  0
CIRCLE
  5
1AF8E
102
{ACAD_REACTORS
330
1B720
102
}
330
18
100
AcDbEntity
  8
細線
100
AcDbCircle
 10
187.0269959269316
 20
-489.9954072697267
 30
0.0
 40
0.8299999999999998
  0
ARC
  5
1AF8F
102
{ACAD_REACTORS
330
1B720
102
}
330
18
100
AcDbEntity
  8
細線
100
AcDbCircle
 10
185.9837960345394
 20
-489.715882701016
 30
0.0
 40
0.5
100
AcDbArc
 50
297.3463876628238
 51
32.6536123371758
  0
ARC
  5
1AF90
102
{ACAD_REACTORS
330
1B720
102
}
330
18
100
AcDbEntity
  8
細線
100
AcDbCircle
 10
186.747471358221
 20
-488.9522073773345
 30
0.0
 40
0.5
100
AcDbArc
 50
237.3463876628238
 51
332.6536123371758
  0
CIRCLE
  5
1B721
102
{ACAD_REACTORS
330
1B729
102
}
330
18
100
AcDbEntity
  8
細線
100
AcDbCircle
 10
830.821759206664
 20
-573.2347829916959
 30
0.0
 40
3.5
  0
ARC
  5
1B722
102
{ACAD_REACTORS
330
1B729
102
}
330
18
100
AcDbEntity
  8
細線
100
AcDbCircle
 10
830.5422346379533
 20
-572.1915830993041
 30
0.0
 40
0.5
100
AcDbArc
 50
237.3463876628238
 51
332.6536123371758
  0
ARC
  5
1B723
102
{ACAD_REACTORS
330
1B729
102
}
330
18
100
AcDbEntity
  8
細線
100
AcDbCircle
 10
829.7785593142716
 20
-572.9552584229857
 30
0.0
 40
0.5
100
AcDbArc
 50
297.3463876628238
 51
32.6536123371758
  0
CIRCLE
  5
1B724
102
{ACAD_REACTORS
330
1B729
102
}
330
18
100
AcDbEntity
  8
細線
100
AcDbCircle
 10
830.821759206664
 20
-573.2347829916959
 30
0.0
 40
0.8299999999999998
  0
ARC
  5
1B725
102
{ACAD_REACTORS
330
1B729
102
}
330
18
100
AcDbEntity
  8
細線
100
AcDbCircle
 10
830.0580838829828
 20
-573.9984583153779
 30
0.0
 40
0.5
100
AcDbArc
 50
357.346387662824
 51
92.65361233717579
  0
ARC
  5
1B726
102
{ACAD_REACTORS
330
1B729
102
}
330
18
100
AcDbEntity
  8
細線
100
AcDbCircle
 10
831.5854345303458
 20
-572.4711076680147
 30
0.0
 40
0.5
100
AcDbArc
 50
177.3463876628239
 51
272.6536123371756
  0
ARC
  5
1B727
102
{ACAD_REACTORS
330
1B729
102
}
330
18
100
AcDbEntity
  8
細線
100
AcDbCircle
 10
831.1012837753747
 20
-574.2779828840886
 30
0.0
 40
0.5
100
AcDbArc
 50
57.34638766282404
 51
152.6536123371757
  0
ARC
  5
1B728
102
{ACAD_REACTORS
330
1B729
102
}
330
18
100
AcDbEntity
  8
細線
100
AcDbCircle
 10
831.8649590990562
 20
-573.5143075604071
 30
0.0
 40
0.5
100
AcDbArc
 50
117.3463876628239
 51
212.6536123371756
  0
CIRCLE
  5
1B72A
102
{ACAD_REACTORS
330
1B732
102
}
330
18
100
AcDbEntity
  8
細線
100
AcDbCircle
 10
830.821759206664
 20
-683.2347829916962
 30
0.0
 40
3.5
  0
ARC
  5
1B72B
102
{ACAD_REACTORS
330
1B732
102
}
330
18
100
AcDbEntity
  8
細線
100
AcDbCircle
 10
830.5422346379533
 20
-682.1915830993041
 30
0.0
 40
0.5
100
AcDbArc
 50
237.3463876628238
 51
332.6536123371758
  0
ARC
  5
1B72C
102
{ACAD_REACTORS
330
1B732
102
}
330
18
100
AcDbEntity
  8
細線
100
AcDbCircle
 10
829.7785593142716
 20
-682.9552584229857
 30
0.0
 40
0.5
100
AcDbArc
 50
297.3463876628238
 51
32.6536123371758
  0
CIRCLE
  5
1B72D
102
{ACAD_REACTORS
330
1B732
102
}
330
18
100
AcDbEntity
  8
細線
100
AcDbCircle
 10
830.821759206664
 20
-683.2347829916962
 30
0.0
 40
0.8299999999999998
  0
ARC
  5
1B72E
102
{ACAD_REACTORS
330
1B732
102
}
330
18
100
AcDbEntity
  8
細線
100
AcDbCircle
 10
830.0580838829828
 20
-683.9984583153777
 30
0.0
 40
0.5
100
AcDbArc
 50
357.346387662824
 51
92.65361233717579
  0
ARC
  5
1B72F
102
{ACAD_REACTORS
330
1B732
102
}
330
18
100
AcDbEntity
  8
細線
100
AcDbCircle
 10
831.5854345303458
 20
-682.4711076680147
 30
0.0
 40
0.5
100
AcDbArc
 50
177.3463876628239
 51
272.6536123371756
  0
ARC
  5
1B730
102
{ACAD_REACTORS
330
1B732
102
}
330
18
100
AcDbEntity
  8
細線
100
AcDbCircle
 10
831.1012837753747
 20
-684.2779828840884
 30
0.0
 40
0.5
100
AcDbArc
 50
57.34638766282404
 51
152.6536123371757
  0
ARC
  5
1B731
102
{ACAD_REACTORS
330
1B732
102
}
330
18
100
AcDbEntity
  8
細線
100
AcDbCircle
 10
831.8649590990562
 20
-683.5143075604071
 30
0.0
 40
0.5
100
AcDbArc
 50
117.3463876628239
 51
212.6536123371756
  0
CIRCLE
  5
1B733
102
{ACAD_REACTORS
330
1B73B
102
}
330
18
100
AcDbEntity
  8
細線
100
AcDbCircle
 10
926.0845536229524
 20
-738.2347829916962
 30
0.0
 40
3.5
  0
ARC
  5
1B734
102
{ACAD_REACTORS
330
1B73B
102
}
330
18
100
AcDbEntity
  8
細線
100
AcDbCircle
 10
925.8050290542417
 20
-737.1915830993042
 30
0.0
 40
0.5
100
AcDbArc
 50
237.3463876628238
 51
332.6536123371758
  0
ARC
  5
1B735
102
{ACAD_REACTORS
330
1B73B
102
}
330
18
100
AcDbEntity
  8
細線
100
AcDbCircle
 10
925.04135373056
 20
-737.9552584229856
 30
0.0
 40
0.5
100
AcDbArc
 50
297.3463876628238
 51
32.6536123371758
  0
CIRCLE
  5
1B736
102
{ACAD_REACTORS
330
1B73B
102
}
330
18
100
AcDbEntity
  8
細線
100
AcDbCircle
 10
926.0845536229524
 20
-738.2347829916962
 30
0.0
 40
0.8299999999999998
  0
ARC
  5
1B737
102
{ACAD_REACTORS
330
1B73B
102
}
330
18
100
AcDbEntity
  8
細線
100
AcDbCircle
 10
925.3208782992707
 20
-738.9984583153777
 30
0.0
 40
0.5
100
AcDbArc
 50
357.346387662824
 51
92.65361233717579
  0
ARC
  5
1B738
102
{ACAD_REACTORS
330
1B73B
102
}
330
18
100
AcDbEntity
  8
細線
100
AcDbCircle
 10
926.8482289466341
 20
-737.4711076680147
 30
0.0
 40
0.5
100
AcDbArc
 50
177.3463876628239
 51
272.6536123371756
  0
ARC
  5
1B739
102
{ACAD_REACTORS
330
1B73B
102
}
330
18
100
AcDbEntity
  8
細線
100
AcDbCircle
 10
926.3640781916633
 20
-739.2779828840886
 30
0.0
 40
0.5
100
AcDbArc
 50
57.34638766282404
 51
152.6536123371757
  0
ARC
  5
1B73A
102
{ACAD_REACTORS
330
1B73B
102
}
330
18
100
AcDbEntity
  8
細線
100
AcDbCircle
 10
927.1277535153442
 20
-738.5143075604071
 30
0.0
 40
0.5
100
AcDbArc
 50
117.3463876628239
 51
212.6536123371756
  0
CIRCLE
  5
1B73C
102
{ACAD_REACTORS
330
1B744
102
}
330
18
100
AcDbEntity
  8
細線
100
AcDbCircle
 10
1021.34734803924
 20
-683.2347829916962
 30
0.0
 40
3.5
  0
ARC
  5
1B73D
102
{ACAD_REACTORS
330
1B744
102
}
330
18
100
AcDbEntity
  8
細線
100
AcDbCircle
 10
1021.067823470529
 20
-682.1915830993041
 30
0.0
 40
0.5
100
AcDbArc
 50
237.3463876628238
 51
332.6536123371758
  0
ARC
  5
1B73E
102
{ACAD_REACTORS
330
1B744
102
}
330
18
100
AcDbEntity
  8
細線
100
AcDbCircle
 10
1020.304148146848
 20
-682.9552584229857
 30
0.0
 40
0.5
100
AcDbArc
 50
297.3463876628238
 51
32.6536123371758
  0
CIRCLE
  5
1B73F
102
{ACAD_REACTORS
330
1B744
102
}
330
18
100
AcDbEntity
  8
細線
100
AcDbCircle
 10
1021.34734803924
 20
-683.2347829916962
 30
0.0
 40
0.8299999999999998
  0
ARC
  5
1B740
102
{ACAD_REACTORS
330
1B744
102
}
330
18
100
AcDbEntity
  8
細線
100
AcDbCircle
 10
1020.583672715557
 20
-683.9984583153777
 30
0.0
 40
0.5
100
AcDbArc
 50
357.346387662824
 51
92.65361233717579
  0
ARC
  5
1B741
102
{ACAD_REACTORS
330
1B744
102
}
330
18
100
AcDbEntity
  8
細線
100
AcDbCircle
 10
1022.111023362922
 20
-682.4711076680147
 30
0.0
 40
0.5
100
AcDbArc
 50
177.3463876628239
 51
272.6536123371756
  0
ARC
  5
1B742
102
{ACAD_REACTORS
330
1B744
102
}
330
18
100
AcDbEntity
  8
細線
100
AcDbCircle
 10
1021.626872607951
 20
-684.2779828840884
 30
0.0
 40
0.5
100
AcDbArc
 50
57.34638766282404
 51
152.6536123371757
  0
ARC
  5
1B743
102
{ACAD_REACTORS
330
1B744
102
}
330
18
100
AcDbEntity
  8
細線
100
AcDbCircle
 10
1022.390547931631
 20
-683.5143075604071
 30
0.0
 40
0.5
100
AcDbArc
 50
117.3463876628239
 51
212.6536123371756
  0
CIRCLE
  5
1B745
102
{ACAD_REACTORS
330
1B74D
102
}
330
18
100
AcDbEntity
  8
細線
100
AcDbCircle
 10
1021.34734803924
 20
-573.2347829916959
 30
0.0
 40
3.5
  0
ARC
  5
1B746
102
{ACAD_REACTORS
330
1B74D
102
}
330
18
100
AcDbEntity
  8
細線
100
AcDbCircle
 10
1021.067823470529
 20
-572.1915830993041
 30
0.0
 40
0.5
100
AcDbArc
 50
237.3463876628238
 51
332.6536123371758
  0
ARC
  5
1B747
102
{ACAD_REACTORS
330
1B74D
102
}
330
18
100
AcDbEntity
  8
細線
100
AcDbCircle
 10
1020.304148146848
 20
-572.9552584229857
 30
0.0
 40
0.5
100
AcDbArc
 50
297.3463876628238
 51
32.6536123371758
  0
CIRCLE
  5
1B748
102
{ACAD_REACTORS
330
1B74D
102
}
330
18
100
AcDbEntity
  8
細線
100
AcDbCircle
 10
1021.34734803924
 20
-573.2347829916959
 30
0.0
 40
0.8299999999999998
  0
ARC
  5
1B749
102
{ACAD_REACTORS
330
1B74D
102
}
330
18
100
AcDbEntity
  8
細線
100
AcDbCircle
 10
1020.583672715557
 20
-573.9984583153779
 30
0.0
 40
0.5
100
AcDbArc
 50
357.346387662824
 51
92.65361233717579
  0
ARC
  5
1B74A
102
{ACAD_REACTORS
330
1B74D
102
}
330
18
100
AcDbEntity
  8
細線
100
AcDbCircle
 10
1022.111023362922
 20
-572.4711076680147
 30
0.0
 40
0.5
100
AcDbArc
 50
177.3463876628239
 51
272.6536123371756
  0
ARC
  5
1B74B
102
{ACAD_REACTORS
330
1B74D
102
}
330
18
100
AcDbEntity
  8
細線
100
AcDbCircle
 10
1021.626872607951
 20
-574.2779828840886
 30
0.0
 40
0.5
100
AcDbArc
 50
57.34638766282404
 51
152.6536123371757
  0
ARC
  5
1B74C
102
{ACAD_REACTORS
330
1B74D
102
}
330
18
100
AcDbEntity
  8
細線
100
AcDbCircle
 10
1022.390547931631
 20
-573.5143075604071
 30
0.0
 40
0.5
100
AcDbArc
 50
117.3463876628239
 51
212.6536123371756
  0
CIRCLE
  5
1B74E
102
{ACAD_REACTORS
330
1B756
102
}
330
18
100
AcDbEntity
  8
細線
100
AcDbCircle
 10
926.0845536229524
 20
-518.234782991696
 30
0.0
 40
3.5
  0
ARC
  5
1B74F
102
{ACAD_REACTORS
330
1B756
102
}
330
18
100
AcDbEntity
  8
細線
100
AcDbCircle
 10
925.8050290542417
 20
-517.1915830993041
 30
0.0
 40
0.5
100
AcDbArc
 50
237.3463876628238
 51
332.6536123371758
  0
ARC
  5
1B750
102
{ACAD_REACTORS
330
1B756
102
}
330
18
100
AcDbEntity
  8
細線
100
AcDbCircle
 10
925.04135373056
 20
-517.9552584229857
 30
0.0
 40
0.5
100
AcDbArc
 50
297.3463876628238
 51
32.6536123371758
  0
CIRCLE
  5
1B751
102
{ACAD_REACTORS
330
1B756
102
}
330
18
100
AcDbEntity
  8
細線
100
AcDbCircle
 10
926.0845536229524
 20
-518.234782991696
 30
0.0
 40
0.8299999999999998
  0
ARC
  5
1B752
102
{ACAD_REACTORS
330
1B756
102
}
330
18
100
AcDbEntity
  8
細線
100
AcDbCircle
 10
925.3208782992707
 20
-518.9984583153779
 30
0.0
 40
0.5
100
AcDbArc
 50
357.346387662824
 51
92.65361233717579
  0
ARC
  5
1B753
102
{ACAD_REACTORS
330
1B756
102
}
330
18
100
AcDbEntity
  8
細線
100
AcDbCircle
 10
926.8482289466341
 20
-517.4711076680148
 30
0.0
 40
0.5
100
AcDbArc
 50
177.3463876628239
 51
272.6536123371756
  0
ARC
  5
1B754
102
{ACAD_REACTORS
330
1B756
102
}
330
18
100
AcDbEntity
  8
細線
100
AcDbCircle
 10
926.3640781916633
 20
-519.2779828840886
 30
0.0
 40
0.5
100
AcDbArc
 50
57.34638766282404
 51
152.6536123371757
  0
ARC
  5
1B755
102
{ACAD_REACTORS
330
1B756
102
}
330
18
100
AcDbEntity
  8
細線
100
AcDbCircle
 10
927.1277535153442
 20
-518.5143075604071
 30
0.0
 40
0.5
100
AcDbArc
 50
117.3463876628239
 51
212.6536123371756
  0
ARC
  5
1D759
330
18
100
AcDbEntity
  8
0
100
AcDbCircle
 10
48.78762020496135
 20
-628.2347829916957
 30
0.0
 40
202.0
100
AcDbArc
 50
185.7034977261223
 51
354.2965022738777
  0
CIRCLE
  5
1D75A
330
18
100
AcDbEntity
  8
0
100
AcDbCircle
 10
48.78762020495964
 20
-518.234782991696
 30
0.0
 40
5.124999999995452
  0
CIRCLE
  5
1D75B
330
18
100
AcDbEntity
  8
細線
 48
5.0
100
AcDbCircle
 10
48.78762020495964
 20
-518.234782991696
 30
0.0
 40
5.999999999995452
  0
CIRCLE
  5
1D75C
330
18
100
AcDbEntity
  8
細線
 48
5.0
100
AcDbCircle
 10
-28.99412572556006
 20
-550.4530370611758
 30
0.0
 40
5.999999999995452
  0
CIRCLE
  5
1D75D
330
18
100
AcDbEntity
  8
0
100
AcDbCircle
 10
-28.99412572556006
 20
-550.4530370611758
 30
0.0
 40
5.124999999995452
  0
CIRCLE
  5
1D75E
330
18
100
AcDbEntity
  8
細線
 48
5.0
100
AcDbCircle
 10
-61.2123797950399
 20
-628.2347829916957
 30
0.0
 40
5.999999999995452
  0
CIRCLE
  5
1D75F
330
18
100
AcDbEntity
  8
0
100
AcDbCircle
 10
-61.2123797950399
 20
-628.2347829916957
 30
0.0
 40
5.124999999995452
  0
CIRCLE
  5
1D760
330
18
100
AcDbEntity
  8
細線
  6
CONTINUOUS
100
AcDbCircle
 10
-89.71237979504161
 20
-628.2347829916962
 30
0.0
 40
6.5
  0
LINE
  5
1D762
330
18
100
AcDbEntity
  8
細線
  6
CONTINUOUS
100
AcDbLine
 10
-87.98032849504028
 20
-625.2347829916962
 30
0.0
 11
-86.24827749504134
 21
-628.2347829916962
 31
0.0
  0
LINE
  5
1D763
330
18
100
AcDbEntity
  8
細線
  6
CONTINUOUS
100
AcDbLine
 10
-93.17648209504213
 20
-628.2347829916962
 30
0.0
 11
-91.44443109503567
 21
-625.2347829916962
 31
0.0
  0
LINE
  5
1D765
330
18
100
AcDbEntity
  8
細線
  6
CONTINUOUS
100
AcDbLine
 10
-86.2482781950394
 20
-628.2347829916962
 30
0.0
 11
-87.98032909503769
 21
-631.2347829916959
 31
0.0
  0
LINE
  5
1D766
330
18
100
AcDbEntity
  8
細線
  6
CONTINUOUS
100
AcDbLine
 10
-91.44443059503927
 20
-631.2347829916959
 30
0.0
 11
-87.98032899503693
 21
-631.2347829916959
 31
0.0
  0
LINE
  5
1D767
330
18
100
AcDbEntity
  8
細線
  6
CONTINUOUS
100
AcDbLine
 10
-93.17648139503678
 20
-628.2347829916962
 30
0.0
 11
-91.44443049503848
 21
-631.2347829916959
 31
0.0
  0
LINE
  5
1D768
330
18
100
AcDbEntity
  8
細線
  6
CONTINUOUS
100
AcDbLine
 10
-91.44443059503911
 20
-625.2347829916962
 30
0.0
 11
-87.98032899503681
 21
-625.2347829916962
 31
0.0
  0
CIRCLE
  5
1D769
330
18
100
AcDbEntity
  8
0
100
AcDbCircle
 10
-89.71237979503991
 20
-628.2347829916957
 30
0.0
 40
6.999999999995907
  0
CIRCLE
  5
1D76A
330
18
100
AcDbEntity
  8
0
100
AcDbCircle
 10
-79.16969504785498
 20
-575.2331276091306
 30
0.0
 40
6.999999999995907
  0
CIRCLE
  5
1D76B
330
18
100
AcDbEntity
  8
細線
  6
CONTINUOUS
100
AcDbCircle
 10
-79.16969504785498
 20
-575.2331276091306
 30
0.0
 40
6.5
  0
LINE
  5
1D76C
330
18
100
AcDbEntity
  8
中心線
 48
0.3
100
AcDbLine
 10
-86.11357342942875
 20
-572.3568790080133
 30
0.0
 11
-72.2258166662744
 21
-578.1093762102506
 31
0.0
  0
LINE
  5
1D76D
330
18
100
AcDbEntity
  8
細線
  6
CONTINUOUS
100
AcDbLine
 10
-76.42143800542891
 20
-573.1243163481138
 30
0.0
 11
-75.96928183435927
 21
-576.5587821673586
 31
0.0
  0
LINE
  5
1D76E
330
18
100
AcDbEntity
  8
細線
  6
CONTINUOUS
100
AcDbLine
 10
-82.37010826135049
 20
-573.9074730509027
 30
0.0
 11
-79.62185149608379
 21
-571.7986616750826
 31
0.0
  0
LINE
  5
1D770
330
18
100
AcDbEntity
  8
細線
  6
CONTINUOUS
100
AcDbLine
 10
-75.96928248107321
 20
-576.5587818994807
 30
0.0
 11
-78.71753915394453
 21
-578.6675933135724
 31
0.0
  0
LINE
  5
1D771
330
18
100
AcDbEntity
  8
細線
  6
CONTINUOUS
100
AcDbLine
 10
-81.91795162833779
 20
-577.3419390614907
 30
0.0
 11
-78.71753906155601
 21
-578.6675933518409
 31
0.0
  0
LINE
  5
1D772
330
18
100
AcDbEntity
  8
細線
  6
CONTINUOUS
100
AcDbLine
 10
-82.37010761462995
 20
-573.907473318783
 30
0.0
 11
-81.91795153594904
 21
-577.3419390997592
 31
0.0
  0
LINE
  5
1D773
330
18
100
AcDbEntity
  8
細線
  6
CONTINUOUS
100
AcDbLine
 10
-79.62185103414714
 20
-571.7986618664228
 30
0.0
 11
-76.42143846736536
 21
-573.1243161567732
 31
0.0
  0
CIRCLE
  5
1D774
330
18
100
AcDbEntity
  8
0
100
AcDbCircle
 10
-49.14666898937918
 20
-530.3004937973589
 30
0.0
 40
6.999999999995907
  0
CIRCLE
  5
1D775
330
18
100
AcDbEntity
  8
細線
  6
CONTINUOUS
100
AcDbCircle
 10
-49.14666898937838
 20
-530.3004937973581
 30
0.0
 40
6.5
  0
LINE
  5
1D776
330
18
100
AcDbEntity
  8
中心線
 48
0.3
100
AcDbLine
 10
-54.46128341535114
 20
-524.9858793713848
 30
0.0
 11
-42.07560117751331
 21
-537.371561609223
 31
0.0
  0
LINE
  5
1D777
330
18
100
AcDbEntity
  8
細線
  6
CONTINUOUS
100
AcDbLine
 10
-45.80060342622488
 20
-529.4039186733921
 30
0.0
 11
-46.69717876232431
 21
-532.7499840244121
 31
0.0
  0
LINE
  5
1D778
330
18
100
AcDbEntity
  8
細線
  6
CONTINUOUS
100
AcDbLine
 10
-51.59615921643267
 20
-527.8510035703036
 30
0.0
 11
-48.25009386540756
 21
-526.9544282342095
 31
0.0
  0
LINE
  5
1D77A
330
18
100
AcDbEntity
  8
細線
  6
CONTINUOUS
100
AcDbLine
 10
-46.6971792572977
 20
-532.7499835294387
 30
0.0
 11
-50.0432445376062
 21
-533.6465589362493
 31
0.0
  0
LINE
  5
1D77B
330
18
100
AcDbEntity
  8
細線
  6
CONTINUOUS
100
AcDbLine
 10
-52.49273419897583
 20
-531.1970692748798
 30
0.0
 11
-50.04324446689502
 21
-533.6465590069606
 31
0.0
  0
LINE
  5
1D77C
330
18
100
AcDbEntity
  8
細線
  6
CONTINUOUS
100
AcDbLine
 10
-51.59615872145407
 20
-527.8510040652823
 30
0.0
 11
-52.49273412826465
 21
-531.197069345591
 31
0.0
  0
LINE
  5
1D77D
330
18
100
AcDbEntity
  8
細線
  6
CONTINUOUS
100
AcDbLine
 10
-48.25009351185649
 20
-526.9544285877604
 30
0.0
 11
-45.80060377977571
 21
-529.4039183198413
 31
0.0
  0
LINE
  5
1D77E
330
18
100
AcDbEntity
  8
細線
  6
CONTINUOUS
100
AcDbLine
 10
-7.648500920313662
 20
-499.8253117525886
 30
0.0
 11
-6.322846629963177
 21
-503.0257243193706
 31
0.0
  0
LINE
  5
1D77F
330
18
100
AcDbEntity
  8
中心線
 48
0.3
100
AcDbLine
 10
-7.090283778723062
 20
-493.3335893573072
 30
0.0
 11
-1.337786576486053
 21
-507.2213461204616
 31
0.0
  0
CIRCLE
  5
1D780
330
18
100
AcDbEntity
  8
細線
  6
CONTINUOUS
100
AcDbCircle
 10
-4.214035177605921
 20
-500.2774677388812
 30
0.0
 40
6.5
  0
LINE
  5
1D781
330
18
100
AcDbEntity
  8
細線
  6
CONTINUOUS
100
AcDbLine
 10
-0.7795692435552724
 20
-500.7296241871165
 30
0.0
 11
-2.888380619378096
 21
-503.4778809523767
 31
0.0
  0
LINE
  5
1D782
330
18
100
AcDbEntity
  8
細線
  6
CONTINUOUS
100
AcDbLine
 10
-5.539689735833974
 20
-497.0770545253852
 30
0.0
 11
-2.105223916586339
 21
-497.5292106964617
 31
0.0
  0
LINE
  5
1D784
330
18
100
AcDbEntity
  8
細線
  6
CONTINUOUS
100
AcDbLine
 10
-2.888380887255663
 20
-503.4778803056625
 30
0.0
 11
-6.322846668231986
 21
-503.0257242269819
 31
0.0
  0
LINE
  5
1D785
330
18
100
AcDbEntity
  8
細線
  6
CONTINUOUS
100
AcDbLine
 10
-5.53968946795345
 20
-497.077055172106
 30
0.0
 11
-7.648500882044857
 21
-499.8253118449773
 31
0.0
  0
LINE
  5
1D786
330
18
100
AcDbEntity
  8
細線
  6
CONTINUOUS
100
AcDbLine
 10
-2.105223725245934
 20
-497.5292111583983
 30
0.0
 11
-0.7795694348954499
 21
-500.7296237251799
 31
0.0
  0
CIRCLE
  5
1D787
330
18
100
AcDbEntity
  8
0
100
AcDbCircle
 10
-4.214035177602966
 20
-500.2774677388794
 30
0.0
 40
6.999999999995907
  0
CIRCLE
  5
1D788
330
18
100
AcDbEntity
  8
細線
  6
CONTINUOUS
100
AcDbCircle
 10
48.78762020495964
 20
-489.7347829916937
 30
0.0
 40
6.5
  0
LINE
  5
1D789
330
18
100
AcDbEntity
  8
中心線
 48
0.3
100
AcDbLine
 10
48.78762020495964
 20
-482.2187831916992
 30
0.0
 11
48.78762020495964
 21
-497.2507827916956
 31
0.0
  0
LINE
  5
1D78A
330
18
100
AcDbEntity
  8
細線
  6
CONTINUOUS
100
AcDbLine
 10
51.78762020495963
 20
-491.4668342916952
 30
0.0
 11
48.78762020495964
 21
-493.1988852916942
 31
0.0
  0
LINE
  5
1D78B
330
18
100
AcDbEntity
  8
細線
  6
CONTINUOUS
100
AcDbLine
 10
48.78762020495964
 20
-486.2706806916935
 30
0.0
 11
51.78762020495963
 21
-488.0027316916998
 31
0.0
  0
LINE
  5
1D78D
330
18
100
AcDbEntity
  8
細線
  6
CONTINUOUS
100
AcDbLine
 10
48.78762020495964
 20
-493.198884591696
 30
0.0
 11
45.78762020495964
 21
-491.4668336916978
 31
0.0
  0
LINE
  5
1D78E
330
18
100
AcDbEntity
  8
細線
  6
CONTINUOUS
100
AcDbLine
 10
45.78762020495964
 20
-488.0027321916964
 30
0.0
 11
45.78762020495964
 21
-491.4668337916985
 31
0.0
  0
LINE
  5
1D78F
330
18
100
AcDbEntity
  8
細線
  6
CONTINUOUS
100
AcDbLine
 10
48.78762020495964
 20
-486.2706813916988
 30
0.0
 11
45.78762020495964
 21
-488.0027322916971
 31
0.0
  0
LINE
  5
1D790
330
18
100
AcDbEntity
  8
細線
  6
CONTINUOUS
100
AcDbLine
 10
51.78762020495963
 20
-488.0027321916964
 30
0.0
 11
51.78762020495963
 21
-491.4668337916985
 31
0.0
  0
CIRCLE
  5
1D791
330
18
100
AcDbEntity
  8
0
100
AcDbCircle
 10
48.78762020495782
 20
-489.7347829916941
 30
0.0
 40
6.999999999995907
  0
CIRCLE
  5
1D792
330
18
100
AcDbEntity
  8
細線
  6
CONTINUOUS
100
AcDbCircle
 10
101.7892755875255
 20
-500.2774677388805
 30
0.0
 40
6.5
  0
CIRCLE
  5
1D793
330
18
100
AcDbEntity
  8
0
100
AcDbCircle
 10
101.789275587523
 20
-500.2774677388794
 30
0.0
 40
6.999999999995907
  0
LINE
  5
1D794
330
18
100
AcDbEntity
  8
中心線
 48
0.3
100
AcDbLine
 10
104.6655241886427
 20
-493.3335893573069
 30
0.0
 11
98.9130269864057
 21
-507.2213461204611
 31
0.0
  0
LINE
  5
1D795
330
18
100
AcDbEntity
  8
細線
  6
CONTINUOUS
100
AcDbLine
 10
103.8980868485425
 20
-503.0257247813068
 30
0.0
 11
100.4636210292976
 21
-503.4778809523763
 31
0.0
  0
LINE
  5
1D796
330
18
100
AcDbEntity
  8
細線
  6
CONTINUOUS
100
AcDbLine
 10
103.1149301457535
 20
-497.0770545253849
 30
0.0
 11
105.2237415215734
 21
-499.8253112906517
 31
0.0
  0
LINE
  5
1D798
330
18
100
AcDbEntity
  8
細線
  6
CONTINUOUS
100
AcDbLine
 10
100.4636212971751
 20
-503.4778803056624
 30
0.0
 11
98.35480988308388
 21
-500.7296236327911
 31
0.0
  0
LINE
  5
1D799
330
18
100
AcDbEntity
  8
細線
  6
CONTINUOUS
100
AcDbLine
 10
99.68046413516557
 20
-497.5292111583978
 30
0.0
 11
98.35480984481524
 21
-500.7296237251797
 31
0.0
  0
LINE
  5
1D79A
330
18
100
AcDbEntity
  8
細線
  6
CONTINUOUS
100
AcDbLine
 10
103.114929877873
 20
-497.0770551721057
 30
0.0
 11
99.68046409689684
 21
-497.5292112507863
 31
0.0
  0
LINE
  5
1D79B
330
18
100
AcDbEntity
  8
細線
  6
CONTINUOUS
100
AcDbLine
 10
105.223741330233
 20
-499.8253117525885
 30
0.0
 11
103.8980870398829
 21
-503.0257243193703
 31
0.0
  0
CIRCLE
  5
1D79C
330
18
100
AcDbEntity
  8
細線
 48
5.0
100
AcDbCircle
 10
126.56936613548
 20
-550.4530370611749
 30
0.0
 40
5.999999999995452
  0
CIRCLE
  5
1D79D
330
18
100
AcDbEntity
  8
0
100
AcDbCircle
 10
126.56936613548
 20
-550.4530370611749
 30
0.0
 40
5.124999999995452
  0
CIRCLE
  5
1D79E
330
18
100
AcDbEntity
  8
細線
  6
CONTINUOUS
100
AcDbCircle
 10
146.721909399298
 20
-530.3004937973573
 30
0.0
 40
6.5
  0
CIRCLE
  5
1D79F
330
18
100
AcDbEntity
  8
0
100
AcDbCircle
 10
146.7219093992989
 20
-530.3004937973589
 30
0.0
 40
6.999999999995907
  0
LINE
  5
1D7A0
330
18
100
AcDbEntity
  8
細線
  6
CONTINUOUS
100
AcDbLine
 10
150.0679746088953
 20
-531.1970692748791
 30
0.0
 11
147.6184848768145
 21
-533.6465590069598
 31
0.0
  0
LINE
  5
1D7A1
330
18
100
AcDbEntity
  8
細線
  6
CONTINUOUS
100
AcDbLine
 10
147.6184845232638
 20
-533.646559360511
 30
0.0
 11
144.2724191722438
 21
-532.7499840244114
 31
0.0
  0
LINE
  5
1D7A2
330
18
100
AcDbEntity
  8
中心線
 48
0.3
100
AcDbLine
 10
152.0365238252709
 20
-524.9858793713846
 30
0.0
 11
139.6508415874339
 21
-537.3715616092213
 31
0.0
  0
LINE
  5
1D7A3
330
18
100
AcDbEntity
  8
細線
  6
CONTINUOUS
100
AcDbLine
 10
149.1713996263523
 20
-527.8510035703032
 30
0.0
 11
150.0679749624465
 21
-531.1970689213283
 31
0.0
  0
LINE
  5
1D7A5
330
18
100
AcDbEntity
  8
細線
  6
CONTINUOUS
100
AcDbLine
 10
144.272419667217
 20
-532.749983529438
 30
0.0
 11
143.3758442604067
 21
-529.4039182491294
 31
0.0
  0
LINE
  5
1D7A6
330
18
100
AcDbEntity
  8
細線
  6
CONTINUOUS
100
AcDbLine
 10
145.8253339217763
 20
-526.9544285877598
 30
0.0
 11
143.3758441896955
 21
-529.4039183198407
 31
0.0
  0
LINE
  5
1D7A7
330
18
100
AcDbEntity
  8
細線
  6
CONTINUOUS
100
AcDbLine
 10
149.1713991313737
 20
-527.8510040652816
 30
0.0
 11
145.8253338510651
 21
-526.9544286584712
 31
0.0
  0
CIRCLE
  5
1D7A8
330
18
100
AcDbEntity
  8
細線
  6
CONTINUOUS
100
AcDbCircle
 10
176.7449354577745
 20
-575.2331276091297
 30
0.0
 40
6.5
  0
CIRCLE
  5
1D7A9
330
18
100
AcDbEntity
  8
0
100
AcDbCircle
 10
176.7449354577751
 20
-575.2331276091306
 30
0.0
 40
6.999999999995907
  0
LINE
  5
1D7AA
330
18
100
AcDbEntity
  8
細線
  6
CONTINUOUS
100
AcDbLine
 10
179.4931920382572
 20
-577.34193906149
 30
0.0
 11
176.2927794714759
 21
-578.6675933518402
 31
0.0
  0
LINE
  5
1D7AB
330
18
100
AcDbEntity
  8
細線
  6
CONTINUOUS
100
AcDbLine
 10
176.2927790095393
 20
-578.6675935431807
 30
0.0
 11
173.5445222442791
 21
-576.5587821673578
 31
0.0
  0
LINE
  5
1D7AC
330
18
100
AcDbEntity
  8
中心線
 48
0.3
100
AcDbLine
 10
183.6888138393486
 20
-572.3568790080125
 30
0.0
 11
169.8010570761943
 21
-578.1093762102498
 31
0.0
  0
LINE
  5
1D7AD
330
18
100
AcDbEntity
  8
細線
  6
CONTINUOUS
100
AcDbLine
 10
179.9453486712704
 20
-573.9074730509019
 30
0.0
 11
179.493192500194
 21
-577.3419388701496
 31
0.0
  0
LINE
  5
1D7AF
330
18
100
AcDbEntity
  8
細線
  6
CONTINUOUS
100
AcDbLine
 10
173.544522890993
 20
-576.5587818994799
 30
0.0
 11
173.996678969674
 21
-573.1243161185037
 31
0.0
  0
LINE
  5
1D7B0
330
18
100
AcDbEntity
  8
細線
  6
CONTINUOUS
100
AcDbLine
 10
177.197091444067
 20
-571.7986618664223
 30
0.0
 11
173.9966788772853
 21
-573.1243161567725
 31
0.0
  0
LINE
  5
1D7B1
330
18
100
AcDbEntity
  8
細線
  6
CONTINUOUS
100
AcDbLine
 10
179.9453480245499
 20
-573.9074733187822
 30
0.0
 11
177.1970913516783
 21
-571.7986619046909
 31
0.0
  0
CIRCLE
  5
1D7B2
330
18
100
AcDbEntity
  8
0
100
AcDbCircle
 10
187.2876202049605
 20
-628.2347829916913
 30
0.0
 40
6.999999999995907
  0
CIRCLE
  5
1D7B3
330
18
100
AcDbEntity
  8
細線
  6
CONTINUOUS
100
AcDbCircle
 10
187.2876202049618
 20
-628.2347829916952
 30
0.0
 40
6.5
  0
LINE
  5
1D7B4
330
18
100
AcDbEntity
  8
細線
  6
CONTINUOUS
100
AcDbLine
 10
183.8235186049596
 20
-628.2347829916952
 30
0.0
 11
185.5555695049579
 21
-625.2347829916953
 31
0.0
  0
LINE
  5
1D7B5
330
18
100
AcDbEntity
  8
中心線
 48
0.3
100
AcDbLine
 10
194.8036200049564
 20
-628.2347829916954
 30
0.0
 11
179.77162040496
 21
-628.2347829916952
 31
0.0
  0
LINE
  5
1D7B6
330
18
100
AcDbEntity
  8
細線
  6
CONTINUOUS
100
AcDbLine
 10
185.5555689049605
 20
-631.2347829916952
 30
0.0
 11
183.8235179049615
 21
-628.2347829916952
 31
0.0
  0
LINE
  5
1D7B7
330
18
100
AcDbEntity
  8
細線
  6
CONTINUOUS
100
AcDbLine
 10
190.7517225049623
 20
-628.2347829916954
 30
0.0
 11
189.019671504956
 21
-631.2347829916952
 31
0.0
  0
LINE
  5
1D7B9
330
18
100
AcDbEntity
  8
細線
  6
CONTINUOUS
100
AcDbLine
 10
189.0196710049591
 20
-625.2347829916954
 30
0.0
 11
185.5555694049572
 21
-625.2347829916953
 31
0.0
  0
LINE
  5
1D7BA
330
18
100
AcDbEntity
  8
細線
  6
CONTINUOUS
100
AcDbLine
 10
190.751721804957
 20
-628.2347829916954
 30
0.0
 11
189.0196709049588
 21
-625.2347829916954
 31
0.0
  0
LINE
  5
1D7BB
330
18
100
AcDbEntity
  8
細線
  6
CONTINUOUS
100
AcDbLine
 10
189.019671004959
 20
-631.2347829916952
 30
0.0
 11
185.555569404957
 21
-631.2347829916952
 31
0.0
  0
CIRCLE
  5
1D7BC
330
18
100
AcDbEntity
  8
0
100
AcDbCircle
 10
158.7876202049599
 20
-628.2347829916955
 30
0.0
 40
5.124999999995452
  0
CIRCLE
  5
1D7BD
330
18
100
AcDbEntity
  8
細線
 48
5.0
100
AcDbCircle
 10
158.7876202049599
 20
-628.2347829916955
 30
0.0
 40
5.999999999995452
  0
CIRCLE
  5
1D7BE
330
18
100
AcDbEntity
  8
0
100
AcDbCircle
 10
126.56936613548
 20
-706.0165289222156
 30
0.0
 40
5.124999999995452
  0
CIRCLE
  5
1D7BF
330
18
100
AcDbEntity
  8
細線
 48
5.0
100
AcDbCircle
 10
126.56936613548
 20
-706.0165289222156
 30
0.0
 40
5.999999999995452
  0
CIRCLE
  5
1D7C0
330
18
100
AcDbEntity
  8
細線
  6
CONTINUOUS
100
AcDbCircle
 10
176.7449354577752
 20
-681.2364383742608
 30
0.0
 40
6.5
  0
CIRCLE
  5
1D7C1
330
18
100
AcDbEntity
  8
0
100
AcDbCircle
 10
176.7449354577751
 20
-681.2364383742615
 30
0.0
 40
6.999999999995907
  0
LINE
  5
1D7C2
330
18
100
AcDbEntity
  8
中心線
 48
0.3
100
AcDbLine
 10
183.6888138393489
 20
-684.1126869753781
 30
0.0
 11
169.8010570761947
 21
-678.360189773141
 31
0.0
  0
LINE
  5
1D7C3
330
18
100
AcDbEntity
  8
細線
  6
CONTINUOUS
100
AcDbLine
 10
173.996678415349
 20
-683.3452496352777
 30
0.0
 11
173.5445222442795
 21
-679.910783816033
 31
0.0
  0
LINE
  5
1D7C4
330
18
100
AcDbEntity
  8
細線
  6
CONTINUOUS
100
AcDbLine
 10
179.9453486712706
 20
-682.5620929324887
 30
0.0
 11
177.1970919060039
 21
-684.6709043083087
 31
0.0
  0
LINE
  5
1D7C6
330
18
100
AcDbEntity
  8
細線
  6
CONTINUOUS
100
AcDbLine
 10
173.5445228909934
 20
-679.9107840839107
 30
0.0
 11
176.2927795638648
 21
-677.801972669819
 31
0.0
  0
LINE
  5
1D7C7
330
18
100
AcDbEntity
  8
細線
  6
CONTINUOUS
100
AcDbLine
 10
179.4931920382579
 20
-679.1276269219007
 30
0.0
 11
176.2927794714761
 21
-677.8019726315505
 31
0.0
  0
LINE
  5
1D7C8
330
18
100
AcDbEntity
  8
細線
  6
CONTINUOUS
100
AcDbLine
 10
179.9453480245501
 20
-682.5620926646084
 30
0.0
 11
179.4931919458693
 21
-679.1276268836322
 31
0.0
  0
LINE
  5
1D7C9
330
18
100
AcDbEntity
  8
細線
  6
CONTINUOUS
100
AcDbLine
 10
177.1970914440674
 20
-684.6709041169686
 30
0.0
 11
173.9966788772854
 21
-683.3452498266182
 31
0.0
  0
CIRCLE
  5
1D7CA
330
18
100
AcDbEntity
  8
細線
  6
CONTINUOUS
100
AcDbCircle
 10
146.7219093992983
 20
-726.1690721860335
 30
0.0
 40
6.5
  0
CIRCLE
  5
1D7CB
330
18
100
AcDbEntity
  8
0
100
AcDbCircle
 10
146.7219093992989
 20
-726.1690721860333
 30
0.0
 40
6.999999999995907
  0
LINE
  5
1D7CC
330
18
100
AcDbEntity
  8
中心線
 48
0.3
100
AcDbLine
 10
152.0365238252713
 20
-731.483686612006
 30
0.0
 11
139.6508415874339
 21
-719.0980043741689
 31
0.0
  0
LINE
  5
1D7CD
330
18
100
AcDbEntity
  8
細線
  6
CONTINUOUS
100
AcDbLine
 10
143.375843836145
 20
-727.0656473099992
 30
0.0
 11
144.2724191722443
 21
-723.7195819589792
 31
0.0
  0
LINE
  5
1D7CE
330
18
100
AcDbEntity
  8
細線
  6
CONTINUOUS
100
AcDbLine
 10
149.1713996263527
 20
-728.6185624130877
 30
0.0
 11
145.8253342753273
 21
-729.5151377491817
 31
0.0
  0
LINE
  5
1D7D0
330
18
100
AcDbEntity
  8
細線
  6
CONTINUOUS
100
AcDbLine
 10
144.2724196672173
 20
-723.7195824539526
 30
0.0
 11
147.6184849475265
 21
-722.8230070471421
 31
0.0
  0
LINE
  5
1D7D1
330
18
100
AcDbEntity
  8
細線
  6
CONTINUOUS
100
AcDbLine
 10
150.067974608896
 20
-725.2724967085117
 30
0.0
 11
147.6184848768149
 21
-722.8230069764308
 31
0.0
  0
LINE
  5
1D7D2
330
18
100
AcDbEntity
  8
細線
  6
CONTINUOUS
100
AcDbLine
 10
149.1713991313739
 20
-728.618561918109
 30
0.0
 11
150.0679745381848
 21
-725.2724966378004
 31
0.0
  0
LINE
  5
1D7D3
330
18
100
AcDbEntity
  8
細線
  6
CONTINUOUS
100
AcDbLine
 10
145.8253339217768
 20
-729.515137395631
 30
0.0
 11
143.375844189696
 21
-727.0656476635498
 31
0.0
  0
CIRCLE
  5
1D7D4
330
18
100
AcDbEntity
  8
細線
  6
CONTINUOUS
100
AcDbCircle
 10
101.7892755875262
 20
-756.1920982445108
 30
0.0
 40
6.5
  0
CIRCLE
  5
1D7D5
330
18
100
AcDbEntity
  8
0
100
AcDbCircle
 10
101.7892755875225
 20
-756.1920982445122
 30
0.0
 40
6.999999999995907
  0
LINE
  5
1D7D6
330
18
100
AcDbEntity
  8
中心線
 48
0.3
100
AcDbLine
 10
104.6655241886432
 20
-763.1359766260843
 30
0.0
 11
98.91302698640613
 21
-749.24821986293
 31
0.0
  0
LINE
  5
1D7D7
330
18
100
AcDbEntity
  8
細線
  6
CONTINUOUS
100
AcDbLine
 10
98.35480965347523
 20
-755.7399417962747
 30
0.0
 11
100.463621029298
 21
-752.9916850310147
 31
0.0
  0
LINE
  5
1D7D8
330
18
100
AcDbEntity
  8
細線
  6
CONTINUOUS
100
AcDbLine
 10
103.1149301457539
 20
-759.3925114580056
 30
0.0
 11
99.68046432650631
 21
-758.9403552869297
 31
0.0
  0
LINE
  5
1D7DA
330
18
100
AcDbEntity
  8
細線
  6
CONTINUOUS
100
AcDbLine
 10
100.4636212971754
 20
-752.9916856777287
 30
0.0
 11
103.898087078152
 21
-753.4438417564095
 31
0.0
  0
LINE
  5
1D7DB
330
18
100
AcDbEntity
  8
細線
  6
CONTINUOUS
100
AcDbLine
 10
105.2237413302334
 20
-756.6442542308027
 30
0.0
 11
103.8980870398833
 21
-753.443841664021
 31
0.0
  0
LINE
  5
1D7DC
330
18
100
AcDbEntity
  8
細線
  6
CONTINUOUS
100
AcDbLine
 10
103.1149298778734
 20
-759.3925108112856
 30
0.0
 11
105.223741291965
 21
-756.6442541384141
 31
0.0
  0
LINE
  5
1D7DD
330
18
100
AcDbEntity
  8
細線
  6
CONTINUOUS
100
AcDbLine
 10
99.68046413516589
 20
-758.9403548249933
 30
0.0
 11
98.35480984481563
 21
-755.7399422582115
 31
0.0
  0
CIRCLE
  5
1D7E8
330
18
100
AcDbEntity
  8
0
100
AcDbCircle
 10
48.7876202049601
 20
-738.2347829916953
 30
0.0
 40
5.124999999995452
  0
CIRCLE
  5
1D7E9
330
18
100
AcDbEntity
  8
細線
 48
5.0
100
AcDbCircle
 10
48.7876202049601
 20
-738.2347829916953
 30
0.0
 40
5.999999999995452
  0
CIRCLE
  5
1D7EA
330
18
100
AcDbEntity
  8
細線
  6
CONTINUOUS
100
AcDbCircle
 10
-4.214035177605011
 20
-756.1920982445108
 30
0.0
 40
6.5
  0
CIRCLE
  5
1D7EB
330
18
100
AcDbEntity
  8
0
100
AcDbCircle
 10
-4.214035177603419
 20
-756.1920982445122
 30
0.0
 40
6.999999999995907
  0
LINE
  5
1D7EC
330
18
100
AcDbEntity
  8
中心線
 48
0.3
100
AcDbLine
 10
-7.09028377872238
 20
-763.1359766260844
 30
0.0
 11
-1.337786576485143
 21
-749.2482198629303
 31
0.0
  0
LINE
  5
1D7ED
330
18
100
AcDbEntity
  8
細線
  6
CONTINUOUS
100
AcDbLine
 10
-6.322846438621977
 20
-753.4438412020848
 30
0.0
 11
-2.888380619377187
 21
-752.9916850310153
 31
0.0
  0
LINE
  5
1D7EE
330
18
100
AcDbEntity
  8
細線
  6
CONTINUOUS
100
AcDbLine
 10
-5.539689735833063
 20
-759.3925114580064
 30
0.0
 11
-7.648501111653048
 21
-756.6442546927397
 31
0.0
  0
LINE
  5
1D7F0
330
18
100
AcDbEntity
  8
細線
  6
CONTINUOUS
100
AcDbLine
 10
-2.888380887254752
 20
-752.991685677729
 30
0.0
 11
-0.7795694731633489
 21
-755.7399423506004
 31
0.0
  0
LINE
  5
1D7F1
330
18
100
AcDbEntity
  8
細線
  6
CONTINUOUS
100
AcDbLine
 10
-2.105223725245024
 20
-758.9403548249936
 30
0.0
 11
-0.7795694348947677
 21
-755.7399422582118
 31
0.0
  0
LINE
  5
1D7F2
330
18
100
AcDbEntity
  8
細線
  6
CONTINUOUS
100
AcDbLine
 10
-5.539689467952655
 20
-759.3925108112856
 30
0.0
 11
-2.10522368697633
 21
-758.9403547326049
 31
0.0
  0
LINE
  5
1D7F3
330
18
100
AcDbEntity
  8
細線
  6
CONTINUOUS
100
AcDbLine
 10
-7.648500920312643
 20
-756.6442542308029
 30
0.0
 11
-6.322846629962382
 21
-753.4438416640213
 31
0.0
  0
CIRCLE
  5
1D7F4
330
18
100
AcDbEntity
  8
細線
  6
CONTINUOUS
100
AcDbCircle
 10
-49.1466689893776
 20
-726.1690721860341
 30
0.0
 40
6.5
  0
CIRCLE
  5
1D7F5
330
18
100
AcDbEntity
  8
0
100
AcDbCircle
 10
-49.14666898937963
 20
-726.1690721860327
 30
0.0
 40
6.999999999995907
  0
LINE
  5
1D7F6
330
18
100
AcDbEntity
  8
中心線
 48
0.3
100
AcDbLine
 10
-54.46128341535047
 20
-731.4836866120066
 30
0.0
 11
-42.07560117751222
 21
-719.0980043741685
 31
0.0
  0
LINE
  5
1D7F7
330
18
100
AcDbEntity
  8
細線
  6
CONTINUOUS
100
AcDbLine
 10
-50.04324411334327
 20
-722.8230066228806
 30
0.0
 11
-46.69717876232339
 21
-723.7195819589799
 31
0.0
  0
LINE
  5
1D7F8
330
18
100
AcDbEntity
  8
細線
  6
CONTINUOUS
100
AcDbLine
 10
-51.59615921643177
 20
-728.618562413088
 30
0.0
 11
-52.49273455252597
 21
-725.2724970620633
 31
0.0
  0
LINE
  5
1D7FA
330
18
100
AcDbEntity
  8
細線
  6
CONTINUOUS
100
AcDbLine
 10
-46.69717925729679
 20
-723.7195824539532
 30
0.0
 11
-45.80060385048621
 21
-727.0656477342619
 31
0.0
  0
LINE
  5
1D7FB
330
18
100
AcDbEntity
  8
細線
  6
CONTINUOUS
100
AcDbLine
 10
-48.25009351185582
 20
-729.5151373956315
 30
0.0
 11
-45.80060377977503
 21
-727.0656476635507
 31
0.0
  0
LINE
  5
1D7FC
330
18
100
AcDbEntity
  8
細線
  6
CONTINUOUS
100
AcDbLine
 10
-51.59615872145328
 20
-728.6185619181098
 30
0.0
 11
-48.25009344114466
 21
-729.5151373249201
 31
0.0
  0
LINE
  5
1D7FD
330
18
100
AcDbEntity
  8
細線
  6
CONTINUOUS
100
AcDbLine
 10
-52.49273419897514
 20
-725.2724967085121
 30
0.0
 11
-50.04324446689435
 21
-722.8230069764314
 31
0.0
  0
CIRCLE
  5
1D7FE
330
18
100
AcDbEntity
  8
細線
 48
5.0
100
AcDbCircle
 10
-28.99412572556006
 20
-706.0165289222164
 30
0.0
 40
5.999999999995452
  0
CIRCLE
  5
1D7FF
330
18
100
AcDbEntity
  8
0
100
AcDbCircle
 10
-28.99412572556006
 20
-706.0165289222164
 30
0.0
 40
5.124999999995452
  0
CIRCLE
  5
1D800
330
18
100
AcDbEntity
  8
細線
  6
CONTINUOUS
100
AcDbCircle
 10
-79.16969504785464
 20
-681.2364383742617
 30
0.0
 40
6.5
  0
CIRCLE
  5
1D801
330
18
100
AcDbEntity
  8
0
100
AcDbCircle
 10
-79.16969504785498
 20
-681.236438374261
 30
0.0
 40
6.999999999995907
  0
LINE
  5
1D802
330
18
100
AcDbEntity
  8
中心線
 48
0.3
100
AcDbLine
 10
-86.11357342942843
 20
-684.1126869753789
 30
0.0
 11
-72.22581666627404
 21
-678.3601897731418
 31
0.0
  0
LINE
  5
1D803
330
18
100
AcDbEntity
  8
細線
  6
CONTINUOUS
100
AcDbLine
 10
-78.71753859961909
 20
-677.801972440211
 30
0.0
 11
-75.96928183435903
 21
-679.9107838160338
 31
0.0
  0
LINE
  5
1D804
330
18
100
AcDbEntity
  8
細線
  6
CONTINUOUS
100
AcDbLine
 10
-82.37010826135023
 20
-682.5620929324895
 30
0.0
 11
-81.91795209027402
 21
-679.127627113242
 31
0.0
  0
LINE
  5
1D806
330
18
100
AcDbEntity
  8
細線
  6
CONTINUOUS
100
AcDbLine
 10
-75.96928248107285
 20
-679.9107840839115
 30
0.0
 11
-76.42143855975376
 21
-683.3452498648878
 31
0.0
  0
LINE
  5
1D807
330
18
100
AcDbEntity
  8
細線
  6
CONTINUOUS
100
AcDbLine
 10
-79.62185103414691
 20
-684.6709041169694
 30
0.0
 11
-76.42143846736512
 21
-683.3452498266191
 31
0.0
  0
LINE
  5
1D808
330
18
100
AcDbEntity
  8
細線
  6
CONTINUOUS
100
AcDbLine
 10
-82.37010761462959
 20
-682.5620926646092
 30
0.0
 11
-79.62185094175817
 21
-684.6709040787007
 31
0.0
  0
LINE
  5
1D809
330
18
100
AcDbEntity
  8
細線
  6
CONTINUOUS
100
AcDbLine
 10
-81.91795162833733
 20
-679.1276269219016
 30
0.0
 11
-78.71753906155554
 21
-677.8019726315513
 31
0.0
  0
ARC
  5
1D872
330
18
100
AcDbEntity
  8
0
100
AcDbCircle
 10
926.0845536229542
 20
-628.2347829916962
 30
0.0
 40
202.0
100
AcDbArc
 50
5.703525148202324
 51
174.296474840341
  0
CIRCLE
  5
1D873
330
18
100
AcDbEntity
  8
ﾍ__ｽ
100
AcDbCircle
 10
926.0845536229531
 20
-440.2347808126203
 30
0.0
 40
4.999997820926636
  0
CIRCLE
  5
1D874
330
18
100
AcDbEntity
  8
DIMENSION
100
AcDbCircle
 10
926.0845536229528
 20
-440.2347808126206
 30
0.0
 40
6.0
  0
CIRCLE
  5
1D875
330
18
100
AcDbEntity
  8
DIMENSION
100
AcDbCircle
 10
793.1484772190446
 20
-495.2987065877866
 30
0.0
 40
6.0
  0
CIRCLE
  5
1D876
330
18
100
AcDbEntity
  8
ﾍ__ｽ
100
AcDbCircle
 10
793.1484772190446
 20
-495.2987065877864
 30
0.0
 40
4.999997820926636
  0
LINE
  5
1D877
330
18
100
AcDbEntity
  8
中心線
 48
30.0
100
AcDbLine
 10
798.5161855391051
 20
-500.6664149078468
 30
0.0
 11
787.5866840129391
 21
-489.7369133816805
 31
0.0
  0
CIRCLE
  5
1D87B
330
18
100
AcDbEntity
  8
DIMENSION
100
AcDbCircle
 10
926.0845536229547
 20
-816.2347851707687
 30
0.0
 40
6.0
  0
CIRCLE
  5
1D87C
330
18
100
AcDbEntity
  8
ﾍ__ｽ
100
AcDbCircle
 10
926.0845536229542
 20
-816.2347851707689
 30
0.0
 40
4.999997820926636
  0
CIRCLE
  5
1D880
330
18
100
AcDbEntity
  8
ﾍ__ｽ
100
AcDbCircle
 10
1059.020630026862
 20
-495.2987065877842
 30
0.0
 40
4.999997820926636
  0
CIRCLE
  5
1D881
330
18
100
AcDbEntity
  8
DIMENSION
100
AcDbCircle
 10
1059.020630026862
 20
-495.2987065877842
 30
0.0
 40
6.0
  0
LINE
  5
1D882
330
18
100
AcDbEntity
  8
中心線
 48
30.0
100
AcDbLine
 10
1053.652921706799
 20
-500.6664149078464
 30
0.0
 11
1064.582423232966
 21
-489.7369133816804
 31
0.0
  0
LINE
  5
1D892
330
18
100
AcDbEntity
  8
中心線
 48
2.0
100
AcDbLine
 10
371.4418441524435
 20
-628.2347829916962
 30
0.0
 11
600.0836102191859
 21
-628.2347829916962
 31
0.0
  0
LINE
  5
1D893
330
18
100
AcDbEntity
  8
0
100
AcDbLine
 10
409.8052106187843
 20
-426.2347829916961
 30
0.0
 11
547.2052106187841
 21
-426.2347829916961
 31
0.0
  0
LINE
  5
1D897
330
18
100
AcDbEntity
  8
0
100
AcDbLine
 10
409.805210618784
 20
-830.2347829916957
 30
0.0
 11
547.2052106187842
 21
-830.2347829916959
 31
0.0
  0
LINE
  5
1D898
330
18
100
AcDbEntity
  8
破線
100
AcDbLine
 10
405.505210618784
 20
-595.7347829916955
 30
0.0
 11
589.5052106187837
 21
-595.7347829916962
 31
0.0
  0
LINE
  5
1D899
330
18
100
AcDbEntity
  8
破線
100
AcDbLine
 10
405.505210618784
 20
-660.7347829916959
 30
0.0
 11
589.5052106187837
 21
-660.7347829916959
 31
0.0
  0
LINE
  5
1D89D
330
18
100
AcDbEntity
  8
0
100
AcDbLine
 10
403.5052106187841
 20
-757.7347829916957
 30
0.0
 11
403.5052106187841
 21
-628.2347829916957
 31
0.0
  0
LINE
  5
1D89E
330
18
100
AcDbEntity
  8
0
100
AcDbLine
 10
407.5052106187841
 20
-628.2347829916957
 30
0.0
 11
407.5052106187841
 21
-778.2347829916957
 31
0.0
  0
LINE
  5
1D89F
330
18
100
AcDbEntity
  8
0
100
AcDbLine
 10
409.3052106187839
 20
-830.2347829916957
 30
0.0
 11
409.3052106187839
 21
-628.2347829916962
 31
0.0
  0
LINE
  5
1D8A0
330
18
100
AcDbEntity
  8
0
100
AcDbLine
 10
408.8052106187835
 20
-830.2347829916957
 30
0.0
 11
408.8052106187835
 21
-628.2347829916962
 31
0.0
  0
LINE
  5
1D8A9
330
18
100
AcDbEntity
  8
中心線
 48
0.2
100
AcDbLine
 10
419.5466791077661
 20
-823.7347829916961
 30
0.0
 11
408.4362440405818
 21
-823.7347829916961
 31
0.0
  0
LINE
  5
1D8AA
330
18
100
AcDbEntity
  8
ｷｬｯﾌ_ﾎ_ﾙﾄ
100
AcDbLine
 10
408.0052106187838
 20
-821.2847829916963
 30
0.0
 11
408.0052106187838
 21
-826.1847829916959
 31
0.0
  0
LINE
  5
1D8AB
330
18
100
AcDbEntity
  8
ｷｬｯﾌ_ﾎ_ﾙﾄ
100
AcDbLine
 10
408.305210618784
 20
-820.2347829916961
 30
0.0
 11
408.305210618784
 21
-827.2347829916961
 31
0.0
  0
LINE
  5
1D8AC
330
18
100
AcDbEntity
  8
ｷｬｯﾌ_ﾎ_ﾙﾄ
100
AcDbLine
 10
408.8052106187835
 20
-820.2347829916961
 30
0.0
 11
408.8052106187835
 21
-827.2347829916961
 31
0.0
  0
LINE
  5
1D8AD
330
18
100
AcDbEntity
  8
ｷｬｯﾌ_ﾎ_ﾙﾄ
100
AcDbLine
 10
408.305210618784
 20
-827.2347829916961
 30
0.0
 11
408.8052106187835
 21
-827.2347829916961
 31
0.0
  0
LINE
  5
1D8AE
330
18
100
AcDbEntity
  8
ｷｬｯﾌ_ﾎ_ﾙﾄ
100
AcDbLine
 10
408.305210618784
 20
-827.2347829916961
 30
0.0
 11
408.0052106187838
 21
-826.1847829916959
 31
0.0
  0
LINE
  5
1D8AF
330
18
100
AcDbEntity
  8
0
100
AcDbLine
 10
409.3052106187839
 20
-829.7347829916954
 30
0.0
 11
409.805210618784
 21
-830.2347829916957
 31
0.0
  0
LINE
  5
1D8B0
330
18
100
AcDbEntity
  8
0
100
AcDbLine
 10
408.8052106187835
 20
-830.2347829916957
 30
0.0
 11
409.3052106187839
 21
-830.2347829916957
 31
0.0
  0
LINE
  5
1D8B1
330
18
100
AcDbEntity
  8
ｷｬｯﾌ_ﾎ_ﾙﾄ
100
AcDbLine
 10
408.305210618784
 20
-820.2347829916961
 30
0.0
 11
408.8052106187835
 21
-820.2347829916961
 31
0.0
  0
LINE
  5
1D8B2
330
18
100
AcDbEntity
  8
ｷｬｯﾌ_ﾎ_ﾙﾄ
100
AcDbLine
 10
408.305210618784
 20
-820.2347829916961
 30
0.0
 11
408.0052106187838
 21
-821.2847829916963
 31
0.0
  0
LINE
  5
1D8B3
330
18
100
AcDbEntity
  8
中心線
 48
0.5
100
AcDbLine
 10
407.0052106187837
 20
-823.7347829916961
 30
0.0
 11
415.8052106187835
 21
-823.7347829916961
 31
0.0
  0
LINE
  5
1D8B6
330
18
100
AcDbEntity
  8
0
100
AcDbLine
 10
408.5052106187835
 20
-778.2347829916963
 30
0.0
 11
407.5052106187841
 21
-778.2347829916963
 31
0.0
  0
LINE
  5
1D8B7
330
18
100
AcDbEntity
  8
0
100
AcDbLine
 10
404.005210618784
 20
-758.2347829916957
 30
0.0
 11
407.5052106187841
 21
-758.2347829916957
 31
0.0
  0
LINE
  5
1D8B8
330
18
100
AcDbEntity
  8
0
100
AcDbLine
 10
403.5052106187841
 20
-757.7347829916957
 30
0.0
 11
404.005210618784
 21
-758.2347829916957
 31
0.0
  0
LINE
  5
1D8B9
330
18
100
AcDbEntity
  8
0
100
AcDbLine
 10
409.3052106187839
 20
-628.2347829916962
 30
0.0
 11
409.3052106187839
 21
-426.2347829916961
 31
0.0
  0
LINE
  5
1D8BA
330
18
100
AcDbEntity
  8
0
100
AcDbLine
 10
408.8052106187835
 20
-628.2347829916962
 30
0.0
 11
408.8052106187835
 21
-426.2347829916961
 31
0.0
  0
LINE
  5
1D8BB
330
18
100
AcDbEntity
  8
0
100
AcDbLine
 10
403.5052106187841
 20
-498.7347829916956
 30
0.0
 11
403.5052106187841
 21
-628.2347829916962
 31
0.0
  0
LINE
  5
1D8BC
330
18
100
AcDbEntity
  8
0
100
AcDbLine
 10
407.5052106187841
 20
-628.2347829916962
 30
0.0
 11
407.5052106187841
 21
-478.2347829916957
 31
0.0
  0
LINE
  5
1D8CE
330
18
100
AcDbEntity
  8
0
100
AcDbLine
 10
404.005210618784
 20
-498.2347829916958
 30
0.0
 11
407.505210618784
 21
-498.2347829916959
 31
0.0
  0
LINE
  5
1D8CF
330
18
100
AcDbEntity
  8
0
100
AcDbLine
 10
404.005210618784
 20
-498.2347829916957
 30
0.0
 11
403.5052106187841
 21
-498.7347829916956
 31
0.0
  0
LINE
  5
1D8D0
330
18
100
AcDbEntity
  8
0
100
AcDbLine
 10
408.5052106187835
 20
-478.2347829916957
 30
0.0
 11
407.5052106187841
 21
-478.2347829916957
 31
0.0
  0
LINE
  5
1D8D1
330
18
100
AcDbEntity
  8
中心線
 48
0.2
100
AcDbLine
 10
419.5466791077661
 20
-432.734782991696
 30
0.0
 11
408.4362440405818
 21
-432.734782991696
 31
0.0
  0
LINE
  5
1D8D2
330
18
100
AcDbEntity
  8
ｷｬｯﾌ_ﾎ_ﾙﾄ
100
AcDbLine
 10
408.0052106187838
 20
-430.2847829916963
 30
0.0
 11
408.0052106187838
 21
-435.1847829916957
 31
0.0
  0
LINE
  5
1D8D3
330
18
100
AcDbEntity
  8
ｷｬｯﾌ_ﾎ_ﾙﾄ
100
AcDbLine
 10
408.305210618784
 20
-429.2347829916961
 30
0.0
 11
408.305210618784
 21
-436.234782991696
 31
0.0
  0
LINE
  5
1D8D4
330
18
100
AcDbEntity
  8
ｷｬｯﾌ_ﾎ_ﾙﾄ
100
AcDbLine
 10
408.8052106187835
 20
-429.2347829916961
 30
0.0
 11
408.8052106187835
 21
-436.234782991696
 31
0.0
  0
LINE
  5
1D8D5
330
18
100
AcDbEntity
  8
ｷｬｯﾌ_ﾎ_ﾙﾄ
100
AcDbLine
 10
408.305210618784
 20
-436.234782991696
 30
0.0
 11
408.8052106187835
 21
-436.234782991696
 31
0.0
  0
LINE
  5
1D8D6
330
18
100
AcDbEntity
  8
ｷｬｯﾌ_ﾎ_ﾙﾄ
100
AcDbLine
 10
408.305210618784
 20
-436.234782991696
 30
0.0
 11
408.0052106187838
 21
-435.1847829916957
 31
0.0
  0
LINE
  5
1D8D7
330
18
100
AcDbEntity
  8
ｷｬｯﾌ_ﾎ_ﾙﾄ
100
AcDbLine
 10
408.305210618784
 20
-429.2347829916961
 30
0.0
 11
408.8052106187835
 21
-429.2347829916961
 31
0.0
  0
LINE
  5
1D8D8
330
18
100
AcDbEntity
  8
ｷｬｯﾌ_ﾎ_ﾙﾄ
100
AcDbLine
 10
408.305210618784
 20
-429.2347829916961
 30
0.0
 11
408.0052106187838
 21
-430.2847829916963
 31
0.0
  0
LINE
  5
1D8D9
330
18
100
AcDbEntity
  8
中心線
 48
0.5
100
AcDbLine
 10
407.0052106187837
 20
-432.734782991696
 30
0.0
 11
415.8052106187835
 21
-432.734782991696
 31
0.0
  0
LINE
  5
1D8DA
330
18
100
AcDbEntity
  8
0
100
AcDbLine
 10
409.3052106187843
 20
-426.7347829916963
 30
0.0
 11
409.8052106187843
 21
-426.2347829916961
 31
0.0
  0
LINE
  5
1D8DB
330
18
100
AcDbEntity
  8
0
100
AcDbLine
 10
408.8052106187835
 20
-426.2347829916961
 30
0.0
 11
409.3052106187839
 21
-426.2347829916961
 31
0.0
  0
LINE
  5
1D8DC
330
18
100
AcDbEntity
  8
0
100
AcDbLine
 10
547.2052106187842
 20
-830.2347829916959
 30
0.0
 11
547.2052106187836
 21
-628.2347829916962
 31
0.0
  0
LINE
  5
1D8DD
330
18
100
AcDbEntity
  8
0
100
AcDbLine
 10
550.5052106187843
 20
-831.2347829916959
 30
0.0
 11
550.5052106187839
 21
-628.2347829916962
 31
0.0
  0
LINE
  5
1D8DF
330
18
100
AcDbEntity
  8
0
100
AcDbLine
 10
593.5052141416909
 20
-762.7347829916957
 30
0.0
 11
593.5052141416909
 21
-628.2347829916957
 31
0.0
  0
LINE
  5
1D8E0
330
18
100
AcDbEntity
  8
0
100
AcDbLine
 10
589.505210618784
 20
-830.7347829916961
 30
0.0
 11
589.5052106187837
 21
-628.2347829916957
 31
0.0
  0
LINE
  5
1D8EE
330
18
100
AcDbEntity
  8
0
100
AcDbLine
 10
589.005210618784
 20
-831.2347829916962
 30
0.0
 11
589.505210618784
 21
-830.7347829916961
 31
0.0
  0
LINE
  5
1D8EF
330
18
100
AcDbEntity
  8
0
100
AcDbLine
 10
589.5052106187837
 20
-763.2347829916962
 30
0.0
 11
593.0052141416907
 21
-763.2347829916962
 31
0.0
  0
LINE
  5
1D8F0
330
18
100
AcDbEntity
  8
0
100
AcDbLine
 10
593.5052141416909
 20
-762.7347829916957
 30
0.0
 11
593.0052141416909
 21
-763.2347829916957
 31
0.0
  0
LINE
  5
1D8F4
330
18
100
AcDbEntity
  8
0
100
AcDbLine
 10
547.2052106187841
 20
-426.2347829916961
 30
0.0
 11
547.2052106187836
 21
-628.2347829916957
 31
0.0
  0
LINE
  5
1D8F5
330
18
100
AcDbEntity
  8
0
100
AcDbLine
 10
550.505210618784
 20
-425.2347829916962
 30
0.0
 11
550.5052106187839
 21
-628.2347829916957
 31
0.0
  0
LINE
  5
1D8F6
330
18
100
AcDbEntity
  8
0
100
AcDbLine
 10
593.5052141416909
 20
-493.7347829916958
 30
0.0
 11
593.5052141416909
 21
-628.2347829916962
 31
0.0
  0
LINE
  5
1D8F7
330
18
100
AcDbEntity
  8
0
100
AcDbLine
 10
589.505210618784
 20
-425.7347829916962
 30
0.0
 11
589.5052106187837
 21
-628.2347829916962
 31
0.0
  0
LINE
  5
1D8FF
330
18
100
AcDbEntity
  8
中心線
100
AcDbLine
 10
616.3418642423919
 20
-691.8743834223468
 30
0.0
 11
580.3266077876501
 21
-691.8743834223472
 31
0.0
  0
LINE
  5
1D900
330
18
100
AcDbEntity
  8
中心線
100
AcDbLine
 10
616.0962811069069
 20
-718.234782991696
 30
0.0
 11
580.3266077876501
 21
-718.2347829916963
 31
0.0
  0
LINE
  5
1D921
330
18
100
AcDbEntity
  8
0
100
AcDbLine
 10
612.5052141416907
 20
-720.3347829916967
 30
0.0
 11
619.9710739638044
 21
-720.3347829916963
 31
0.0
  0
LINE
  5
1D922
330
18
100
AcDbEntity
  8
0
100
AcDbLine
 10
612.5052141416907
 20
-716.1347829916969
 30
0.0
 11
619.9710739638044
 21
-716.1347829916967
 31
0.0
  0
LINE
  5
1D927
330
18
100
AcDbEntity
  8
0
100
AcDbLine
 10
612.505214141691
 20
-689.7743834223477
 30
0.0
 11
641.8819621263422
 21
-689.774383422347
 31
0.0
  0
LINE
  5
1D928
330
18
100
AcDbEntity
  8
0
100
AcDbLine
 10
612.5052141416907
 20
-693.9743834223477
 30
0.0
 11
641.8819621263422
 21
-693.9743834223468
 31
0.0
  0
LINE
  5
1D930
330
18
100
AcDbEntity
  8
中心線
100
AcDbLine
 10
623.8778374820242
 20
-538.2347829916964
 30
0.0
 11
580.3266077876505
 21
-538.2347829916964
 31
0.0
  0
LINE
  5
1D952
330
18
100
AcDbEntity
  8
0
100
AcDbLine
 10
589.5052106187837
 20
-493.2347829916956
 30
0.0
 11
593.0052141416907
 21
-493.2347829916958
 31
0.0
  0
LINE
  5
1D953
330
18
100
AcDbEntity
  8
0
100
AcDbLine
 10
593.0052141416909
 20
-493.234782991696
 30
0.0
 11
593.5052141416909
 21
-493.7347829916958
 31
0.0
  0
LINE
  5
1D95A
330
18
100
AcDbEntity
  8
0
100
AcDbLine
 10
589.0052106187837
 20
-425.2347829916961
 30
0.0
 11
589.5052106187837
 21
-425.7347829916961
 31
0.0
  0
LINE
  5
1EA48
330
18
100
AcDbEntity
  8
中心線
100
AcDbLine
 10
623.8778374820242
 20
-538.2347829916964
 30
0.0
 11
582.3266077876505
 21
-538.2347829916964
 31
0.0
  0
LINE
  5
1EAF4
330
18
100
AcDbEntity
  8
0
100
AcDbLine
 10
652.9932831334292
 20
-815.1977838659156
 30
0.0
 11
652.9932831334292
 21
-792.8489950526278
 31
0.0
  0
LINE
  5
1EAF5
330
18
100
AcDbEntity
  8
0
100
AcDbLine
 10
648.7819621263428
 20
-797.7347829916963
 30
0.0
 11
648.7819621263428
 21
-792.8554897937171
 31
0.0
  0
LINE
  5
1EAF6
330
18
100
AcDbEntity
  8
0
100
AcDbLine
 10
648.7819621263418
 20
-815.1977838659156
 30
0.0
 11
648.7819621263428
 21
-792.8516235446926
 31
0.0
  0
ARC
  5
1EAF8
330
18
100
AcDbEntity
  8
0
100
AcDbCircle
 10
619.9710739638049
 20
-738.2347829916962
 30
0.0
 40
22.09999999999948
100
AcDbArc
 50
0.0
 51
90.0
  0
ARC
  5
1EAF9
330
18
100
AcDbEntity
  8
0
100
AcDbCircle
 10
619.9710739638049
 20
-738.2347829916962
 30
0.0
 40
17.89999999999969
100
AcDbArc
 50
0.0
 51
90.0
  0
LINE
  5
1EAFA
330
18
100
AcDbEntity
  8
0
100
AcDbLine
 10
659.7819621263428
 20
-711.8743834223462
 30
0.0
 11
659.7819621263425
 21
-770.5883672683577
 31
0.0
  0
LINE
  5
1EAFB
330
18
100
AcDbEntity
  8
0
100
AcDbLine
 10
663.981962126343
 20
-770.5909957604224
 30
0.0
 11
663.981962126343
 21
-711.8743834223462
 31
0.0
  0
LINE
  5
1EB00
330
18
100
AcDbEntity
  8
0
100
AcDbLine
 10
642.0710739638044
 20
-738.2347829916962
 30
0.0
 11
641.8710739638075
 21
-770.3984173289946
 31
0.0
  0
LINE
  5
1EB01
330
18
100
AcDbEntity
  8
0
100
AcDbLine
 10
637.8710739638047
 20
-770.7388472493732
 30
0.0
 11
637.8710739638046
 21
-738.2347829916962
 31
0.0
  0
LINE
  5
1EB02
330
18
100
AcDbEntity
  8
0
100
AcDbLine
 10
650.8884944939835
 20
-786.6792529949544
 30
0.0
 11
643.6160487893306
 21
-776.0424016812721
 31
0.0
  0
LINE
  5
1EB03
330
18
100
AcDbEntity
  8
0
100
AcDbLine
 10
647.0308219180004
 20
-787.2024983610704
 30
0.0
 11
639.6222141721472
 21
-776.3918386820201
 31
0.0
  0
ARC
  5
1EB04
330
18
100
AcDbEntity
  8
0
100
AcDbCircle
 10
647.8710739638047
 20
-770.7388472493732
 30
0.0
 40
10.0
100
AcDbArc
 50
180.0
 51
214.4230669294485
  0
ARC
  5
1EB05
330
18
100
AcDbEntity
  8
0
100
AcDbCircle
 10
651.8710739638073
 20
-770.3984173289946
 30
0.0
 40
10.0
100
AcDbArc
 50
180.0
 51
214.3605280011005
  0
ARC
  5
1EB06
330
18
100
AcDbEntity
  8
0
100
AcDbCircle
 10
653.9819621263427
 20
-770.5909957604224
 30
0.0
 40
10.0
100
AcDbArc
 50
325.6448534167714
 51
0.0
  0
ARC
  5
1EB07
330
18
100
AcDbEntity
  8
0
100
AcDbCircle
 10
649.7819621263422
 20
-770.5883672683577
 30
0.0
 40
10.0
100
AcDbArc
 50
325.6173623158453
 51
0.0
  0
ARC
  5
1EB08
330
18
100
AcDbEntity
  8
0
100
AcDbCircle
 10
662.9932831334294
 20
-792.8489950526278
 30
0.0
 40
10.0
100
AcDbArc
 50
145.6448534167714
 51
180.0
  0
ARC
  5
1EB09
330
18
100
AcDbEntity
  8
0
100
AcDbCircle
 10
658.7819621263427
 20
-792.8516235446933
 30
0.0
 40
10.0
100
AcDbArc
 50
145.6173623158446
 51
180.0
  0
ARC
  5
1EB0A
330
18
100
AcDbEntity
  8
0
100
AcDbCircle
 10
638.7819621263428
 20
-792.8554897937171
 30
0.0
 40
10.0
100
AcDbArc
 50
0.0
 51
34.42306692944868
  0
LINE
  5
1EB0B
330
18
100
AcDbEntity
  8
0
100
AcDbLine
 10
650.5291155053027
 20
-787.2044541077458
 30
0.0
 11
658.0348087473826
 21
-776.2355367053045
 31
0.0
  0
LINE
  5
1EB0C
330
18
100
AcDbEntity
  8
0
100
AcDbLine
 10
654.7377278928237
 20
-787.2057860657737
 30
0.0
 11
662.2375173669484
 21
-776.2342047472766
 31
0.0
  0
LINE
  5
1EB0F
330
18
100
AcDbEntity
  8
0
100
AcDbLine
 10
612.5052141416907
 20
-720.3347829916967
 30
0.0
 11
619.9710739638044
 21
-720.3347829916963
 31
0.0
  0
LINE
  5
1EB10
330
18
100
AcDbEntity
  8
0
100
AcDbLine
 10
612.5052141416907
 20
-716.1347829916969
 30
0.0
 11
619.9710739638044
 21
-716.1347829916967
 31
0.0
  0
ARC
  5
1EB12
330
18
100
AcDbEntity
  8
0
100
AcDbCircle
 10
641.881962126343
 20
-711.8743834223462
 30
0.0
 40
22.1
100
AcDbArc
 50
0.0
 51
90.00000000000047
  0
ARC
  5
1EB13
330
18
100
AcDbEntity
  8
0
100
AcDbCircle
 10
641.881962126343
 20
-711.8743834223462
 30
0.0
 40
17.9
100
AcDbArc
 50
0.0
 51
90.00000000000047
  0
LINE
  5
1EB16
330
18
100
AcDbEntity
  8
0
100
AcDbLine
 10
612.505214141691
 20
-689.7743834223477
 30
0.0
 11
641.8819621263422
 21
-689.774383422347
 31
0.0
  0
LINE
  5
1EB17
330
18
100
AcDbEntity
  8
0
100
AcDbLine
 10
612.5052141416907
 20
-693.9743834223477
 30
0.0
 11
641.8819621263422
 21
-693.9743834223468
 31
0.0
  0
LINE
  5
1EB1E
330
18
100
AcDbEntity
  8
中心線
100
AcDbLine
 10
616.0962811069069
 20
-718.234782991696
 30
0.0
 11
582.3266077876501
 21
-718.2347829916963
 31
0.0
  0
LINE
  5
1EB47
330
18
100
AcDbEntity
  8
中心線
100
AcDbLine
 10
616.3418642423919
 20
-691.8743834223468
 30
0.0
 11
582.3266077876501
 21
-691.8743834223472
 31
0.0
  0
CIRCLE
  5
1F1DF
330
18
100
AcDbEntity
  8
細線
  6
CONTINUOUS
100
AcDbCircle
 10
24.79151059697815
 20
-507.5981935020966
 30
0.0
 40
3.399999999999999
  0
CIRCLE
  5
1F1E0
330
18
100
AcDbEntity
  8
DIMENSION
100
AcDbCircle
 10
24.79151059697679
 20
-507.5981935020974
 30
0.0
 40
4.0
  0
CIRCLE
  5
1F1E3
330
18
100
AcDbEntity
  8
DIMENSION
100
AcDbCircle
 10
72.78372981294515
 20
-507.5981935020966
 30
0.0
 40
4.0
  0
CIRCLE
  5
1F1E4
330
18
100
AcDbEntity
  8
細線
  6
CONTINUOUS
100
AcDbCircle
 10
72.78372981294744
 20
-507.5981935020974
 30
0.0
 40
3.399999999999999
  0
CIRCLE
  5
1F1E6
330
18
100
AcDbEntity
  8
DIMENSION
100
AcDbCircle
 10
-19.54751845645077
 20
-525.9640206784824
 30
0.0
 40
4.0
  0
CIRCLE
  5
1F1E7
330
18
100
AcDbEntity
  8
細線
  6
CONTINUOUS
100
AcDbCircle
 10
-19.54751845644985
 20
-525.9640206784811
 30
0.0
 40
3.399999999999999
  0
CIRCLE
  5
1F1E9
330
18
100
AcDbEntity
  8
DIMENSION
100
AcDbCircle
 10
-53.48314210825318
 20
-559.8996443302846
 30
0.0
 40
4.0
  0
CIRCLE
  5
1F1EA
330
18
100
AcDbEntity
  8
細線
  6
CONTINUOUS
100
AcDbCircle
 10
-53.48314210825228
 20
-559.8996443302833
 30
0.0
 40
3.399999999999999
  0
CIRCLE
  5
1F1EC
330
18
100
AcDbEntity
  8
DIMENSION
100
AcDbCircle
 10
-71.84896928463931
 20
-604.2386733837122
 30
0.0
 40
4.0
  0
CIRCLE
  5
1F1ED
330
18
100
AcDbEntity
  8
細線
  6
CONTINUOUS
100
AcDbCircle
 10
-71.84896928463931
 20
-604.2386733837111
 30
0.0
 40
3.399999999999999
  0
CIRCLE
  5
1F1EF
330
18
100
AcDbEntity
  8
DIMENSION
100
AcDbCircle
 10
-71.8489692846384
 20
-652.2308925996802
 30
0.0
 40
4.0
  0
CIRCLE
  5
1F1F0
330
18
100
AcDbEntity
  8
細線
  6
CONTINUOUS
100
AcDbCircle
 10
-71.8489692846384
 20
-652.230892599679
 30
0.0
 40
3.399999999999999
  0
CIRCLE
  5
1F1F2
330
18
100
AcDbEntity
  8
DIMENSION
100
AcDbCircle
 10
-53.4831421082541
 20
-696.5699216531077
 30
0.0
 40
4.0
  0
CIRCLE
  5
1F1F3
330
18
100
AcDbEntity
  8
細線
  6
CONTINUOUS
100
AcDbCircle
 10
-53.48314210825499
 20
-696.5699216531064
 30
0.0
 40
3.399999999999999
  0
CIRCLE
  5
1F1F5
330
18
100
AcDbEntity
  8
DIMENSION
100
AcDbCircle
 10
-19.54751845644985
 20
-730.5055453049118
 30
0.0
 40
4.0
  0
CIRCLE
  5
1F1F6
330
18
100
AcDbEntity
  8
細線
  6
CONTINUOUS
100
AcDbCircle
 10
-19.54751845645168
 20
-730.505545304911
 30
0.0
 40
3.399999999999999
  0
CIRCLE
  5
1F1F9
330
18
100
AcDbEntity
  8
DIMENSION
100
AcDbCircle
 10
24.7915105969777
 20
-748.8713724812957
 30
0.0
 40
4.0
  0
CIRCLE
  5
1F1FA
330
18
100
AcDbEntity
  8
細線
  6
CONTINUOUS
100
AcDbCircle
 10
24.79151059697588
 20
-748.8713724812953
 30
0.0
 40
3.399999999999999
  0
CIRCLE
  5
1F1FC
330
18
100
AcDbEntity
  8
細線
  6
CONTINUOUS
100
AcDbCircle
 10
72.78372981294471
 20
-748.8713724812953
 30
0.0
 40
4.0
  0
CIRCLE
  5
1F1FD
330
18
100
AcDbEntity
  8
細線
  6
CONTINUOUS
100
AcDbCircle
 10
72.78372981294332
 20
-748.8713724812957
 30
0.0
 40
3.399999999999999
  0
CIRCLE
  5
1F1FF
330
18
100
AcDbEntity
  8
DIMENSION
100
AcDbCircle
 10
117.1227588663735
 20
-730.505545304911
 30
0.0
 40
4.0
  0
CIRCLE
  5
1F200
330
18
100
AcDbEntity
  8
細線
  6
CONTINUOUS
100
AcDbCircle
 10
117.1227588663727
 20
-730.5055453049118
 30
0.0
 40
3.399999999999999
  0
CIRCLE
  5
1F202
330
18
100
AcDbEntity
  8
DIMENSION
100
AcDbCircle
 10
151.0583825181746
 20
-696.5699216531079
 30
0.0
 40
4.0
  0
CIRCLE
  5
1F203
330
18
100
AcDbEntity
  8
細線
  6
CONTINUOUS
100
AcDbCircle
 10
151.0583825181742
 20
-696.5699216531094
 30
0.0
 40
3.399999999999999
  0
CIRCLE
  5
1F205
330
18
100
AcDbEntity
  8
DIMENSION
100
AcDbCircle
 10
169.4242096945608
 20
-652.230892599681
 30
0.0
 40
4.0
  0
CIRCLE
  5
1F206
330
18
100
AcDbEntity
  8
細線
  6
CONTINUOUS
100
AcDbCircle
 10
169.4242096945603
 20
-652.2308925996824
 30
0.0
 40
3.399999999999999
  0
CIRCLE
  5
1F208
330
18
100
AcDbEntity
  8
DIMENSION
100
AcDbCircle
 10
169.424209694559
 20
-604.2386733837122
 30
0.0
 40
4.0
  0
CIRCLE
  5
1F209
330
18
100
AcDbEntity
  8
細線
  6
CONTINUOUS
100
AcDbCircle
 10
169.4242096945598
 20
-604.2386733837139
 30
0.0
 40
3.399999999999999
  0
CIRCLE
  5
1F20B
330
18
100
AcDbEntity
  8
DIMENSION
100
AcDbCircle
 10
151.058382518175
 20
-559.8996443302846
 30
0.0
 40
4.0
  0
CIRCLE
  5
1F20C
330
18
100
AcDbEntity
  8
細線
  6
CONTINUOUS
100
AcDbCircle
 10
151.0583825181759
 20
-559.8996443302853
 30
0.0
 40
3.399999999999999
  0
CIRCLE
  5
1F20E
330
18
100
AcDbEntity
  8
DIMENSION
100
AcDbCircle
 10
117.1227588663727
 20
-525.9640206784822
 30
0.0
 40
4.0
  0
CIRCLE
  5
1F20F
330
18
100
AcDbEntity
  8
細線
  6
CONTINUOUS
100
AcDbCircle
 10
117.1227588663735
 20
-525.9640206784829
 30
0.0
 40
3.399999999999999
  0
CIRCLE
  5
1F210
330
18
100
AcDbEntity
  8
0
100
AcDbCircle
 10
150.4143687812028
 20
-586.1396054315346
 30
0.0
 40
4.5
  0
LINE
  5
1F211
330
18
100
AcDbEntity
  8
CENTER
100
AcDbLine
 10
143.4852722873683
 20
-589.0097311742732
 30
0.0
 11
157.3434652750376
 21
-583.2694796887968
 31
0.0
  0
CIRCLE
  5
1F212
102
{ACAD_REACTORS
330
1F257
102
}
330
18
100
AcDbEntity
  8
0
100
AcDbCircle
 10
-52.83912837128227
 20
-670.3299605518582
 30
0.0
 40
4.5
  0
LINE
  5
1F213
102
{ACAD_REACTORS
330
1F257
102
}
330
18
100
AcDbEntity
  8
CENTER
100
AcDbLine
 10
-45.91003187744772
 20
-667.4598348091192
 30
0.0
 11
-59.76822486511773
 21
-673.2000862945961
 31
0.0
  0
HATCH
  5
1F24E
330
18
100
AcDbEntity
  8
ﾊｯﾁﾝｸ_
100
AcDbHatch
 10
0.0
 20
0.0
 30
0.0
210
0.0
220
0.0
230
1.0
  2
SOLID
 70
     1
 71
     0
 91
        2
 92
        7
 72
     1
 73
     1
 93
        3
 10
148.6076147099539
 20
-582.0182416128424
 42
-0.0102283426942606
 10
150.4143687812026
 20
-586.1396054315353
 42
0.0
 10
154.5718266775038
 20
-584.4175299858917
 42
0.4202177487920983
 97
        0
 92
        7
 72
     1
 73
     1
 93
        3
 10
150.4143687812026
 20
-586.1396054315353
 42
0.0
 10
146.2569108849022
 20
-587.8616808771777
 42
0.4082347595648621
 10
152.0510450294205
 20
-590.3314177911852
 42
0.0102283426942585
 97
        0
 75
     0
 76
     1
 47
0.0744358706889464
 98
        2
 10
151.1118717711505
 20
-583.6404608103102
 10
150.0694146943294
 20
-587.8088692163437
  0
HATCH
  5
1F257
330
18
100
AcDbEntity
  8
ﾊｯﾁﾝｸ_
100
AcDbHatch
 10
0.0
 20
0.0
 30
0.0
210
0.0
220
0.0
230
1.0
  2
SOLID
 70
     1
 71
     1
 91
        2
 92
        7
 72
     1
 73
     1
 93
        3
 10
-48.68167047498172
 20
-668.6078851062148
 42
0.4082347595646949
 10
-54.47580461949759
 20
-666.1381481922067
 42
0.0102283426942582
 10
-52.83912837127974
 20
-670.3299605518565
 42
0.0
 97
        3
330
1A571
330
1F213
330
1F212
 92
        7
 72
     1
 73
     1
 93
        3
 10
-51.03237430003093
 20
-674.4513243705494
 42
-0.0102283426942609
 10
-52.83912837127974
 20
-670.3299605518565
 42
0.0
 10
-56.9965862675833
 20
-672.0520359975004
 42
0.4202177487922879
 97
        3
330
1F213
330
1F212
330
1A571
 75
     0
 76
     1
 47
0.0686593547369527
 98
        2
 10
-51.73766830716886
 20
-668.2293998673549
 10
-53.24869698239126
 20
-673.7908089021174
  0
ARC
  5
1F2AD
330
18
100
AcDbEntity
  8
中心線
100
AcDbCircle
 10
48.78762020496114
 20
-628.2347829916952
 30
0.0
 40
138.5000000000028
100
AcDbArc
 50
288.2829997899538
 51
296.637778505655
  0
CIRCLE
  5
1F30A
330
18
100
AcDbEntity
  8
細線
 48
5.0
100
AcDbCircle
 10
1118.318468581984
 20
-589.9970798765356
 30
0.0
 40
4.25
  0
LINE
  5
1F30C
330
18
100
AcDbEntity
  8
細線
 48
5.0
100
AcDbLine
 10
1120.505310054679
 20
-590.7394125842597
 30
0.0
 11
1118.769010464286
 21
-592.2621068742787
 31
0.0
  0
LINE
  5
1F30D
330
18
100
AcDbEntity
  8
細線
 48
5.0
100
AcDbLine
 10
1117.867926699686
 20
-587.732052878792
 30
0.0
 11
1120.054768230906
 21
-588.474385880754
 31
0.0
  0
LINE
  5
1F30E
330
18
100
AcDbEntity
  8
中心線
 48
0.3
100
AcDbLine
 10
1113.153652314593
 20
-591.0244257073635
 30
0.0
 11
1123.483283574354
 21
-588.9697342993256
 31
0.0
  0
LINE
  5
1F30F
330
18
100
AcDbEntity
  8
細線
 48
5.0
100
AcDbLine
 10
1116.131627128801
 20
-589.2547472668907
 30
0.0
 11
1116.582168913555
 21
-591.5197737742447
 31
0.0
  0
LINE
  5
1F310
330
18
100
AcDbEntity
  8
細線
 48
5.0
100
AcDbLine
 10
1118.76901036674
 20
-592.2621063838826
 30
0.0
 11
1116.582167874244
 21
-591.5197736750973
 31
0.0
  0
LINE
  5
1F311
330
18
100
AcDbEntity
  8
細線
 48
5.0
100
AcDbLine
 10
1117.867926797232
 20
-587.7320533691884
 30
0.0
 11
1116.131626206543
 21
-589.2547477562187
 31
0.0
  0
LINE
  5
1F312
330
18
100
AcDbEntity
  8
細線
 48
5.0
100
AcDbLine
 10
1120.054768250412
 20
-588.4743859788261
 30
0.0
 11
1120.50531003517
 21
-590.7394124861802
 31
0.0
  0
CIRCLE
  5
1F316
330
18
100
AcDbEntity
  8
0
100
AcDbCircle
 10
1118.318468581984
 20
-589.9970798765356
 30
0.0
 40
4.75
  0
CIRCLE
  5
1F31A
330
18
100
AcDbEntity
  8
0
100
AcDbCircle
 10
1089.052597634251
 20
-519.3430173198541
 30
0.0
 40
4.75
  0
LINE
  5
1F31B
330
18
100
AcDbEntity
  8
中心線
 48
0.3
100
AcDbLine
 10
1084.674077824393
 20
-522.2686507225078
 30
0.0
 11
1093.431116363196
 21
-516.4173846394436
 31
0.0
  0
LINE
  5
1F31C
330
18
100
AcDbEntity
  8
細線
 48
5.0
100
AcDbLine
 10
1090.335632085956
 20
-521.2632140739741
 30
0.0
 11
1088.031174637355
 21
-521.4142564690837
 31
0.0
  0
LINE
  5
1F31D
330
18
100
AcDbEntity
  8
細線
 48
5.0
100
AcDbLine
 10
1091.357054140268
 20
-519.1919753140256
 30
0.0
 11
1090.335632363744
 21
-521.263214489712
 31
0.0
  0
LINE
  5
1F31E
330
18
100
AcDbEntity
  8
細線
 48
5.0
100
AcDbLine
 10
1090.074019633002
 20
-517.2717784767518
 30
0.0
 11
1091.357054084711
 21
-519.1919752308778
 31
0.0
  0
LINE
  5
1F31F
330
18
100
AcDbEntity
  8
細線
 48
5.0
100
AcDbLine
 10
1087.769562904759
 20
-517.4228201499963
 30
0.0
 11
1090.074019577449
 21
-517.2717783936104
 31
0.0
  0
LINE
  5
1F320
330
18
100
AcDbEntity
  8
細線
 48
5.0
100
AcDbLine
 10
1087.769563182545
 20
-517.4228205657341
 30
0.0
 11
1086.748140518994
 21
-519.4940602138435
 31
0.0
  0
LINE
  5
1F321
330
18
100
AcDbEntity
  8
細線
 48
5.0
100
AcDbLine
 10
1086.74814118379
 20
-519.4940594088303
 30
0.0
 11
1088.031175635499
 21
-521.4142561629564
 31
0.0
  0
CIRCLE
  5
1F322
330
18
100
AcDbEntity
  8
細線
 48
5.0
100
AcDbCircle
 10
1089.052597634251
 20
-519.3430173198541
 30
0.0
 40
4.25
  0
CIRCLE
  5
1F325
330
18
100
AcDbEntity
  8
0
100
AcDbCircle
 10
1034.976319294795
 20
-465.266738980397
 30
0.0
 40
4.75
  0
LINE
  5
1F326
330
18
100
AcDbEntity
  8
中心線
 48
0.3
100
AcDbLine
 10
1032.05068589214
 20
-469.6452587902548
 30
0.0
 11
1037.901951975203
 21
-460.8882202514521
 31
0.0
  0
LINE
  5
1F327
330
18
100
AcDbEntity
  8
細線
 48
5.0
100
AcDbLine
 10
1036.896516048914
 20
-466.5497734321018
 30
0.0
 11
1034.825276400805
 21
-467.5711960956541
 31
0.0
  0
LINE
  5
1F328
330
18
100
AcDbEntity
  8
細線
 48
5.0
100
AcDbLine
 10
1037.047558221044
 20
-464.2453170372038
 30
0.0
 11
1036.896516464651
 21
-466.5497737098887
 31
0.0
  0
LINE
  5
1F329
330
18
100
AcDbEntity
  8
細線
 48
5.0
100
AcDbLine
 10
1035.127361383771
 20
-462.9622825299373
 30
0.0
 11
1037.047558137895
 21
-464.2453169816463
 31
0.0
  0
LINE
  5
1F32A
330
18
100
AcDbEntity
  8
細線
 48
5.0
100
AcDbLine
 10
1033.056122124936
 20
-463.9837042509048
 30
0.0
 11
1035.127361300629
 21
-462.9622824743838
 31
0.0
  0
LINE
  5
1F32B
330
18
100
AcDbEntity
  8
細線
 48
5.0
100
AcDbLine
 10
1033.056122540675
 20
-463.9837045286919
 30
0.0
 11
1032.905080145565
 21
-466.2881619772896
 31
0.0
  0
LINE
  5
1F32C
330
18
100
AcDbEntity
  8
細線
 48
5.0
100
AcDbLine
 10
1032.905080451692
 20
-466.2881609791475
 30
0.0
 11
1034.825277205818
 21
-467.5711954308564
 31
0.0
  0
CIRCLE
  5
1F32D
330
18
100
AcDbEntity
  8
細線
 48
5.0
100
AcDbCircle
 10
1034.976319294795
 20
-465.266738980397
 30
0.0
 40
4.25
  0
CIRCLE
  5
1F330
330
18
100
AcDbEntity
  8
0
100
AcDbCircle
 10
964.3222567381142
 20
-436.0008680326619
 30
0.0
 40
4.75
  0
LINE
  5
1F331
330
18
100
AcDbEntity
  8
中心線
 48
0.3
100
AcDbLine
 10
963.294910907286
 20
-441.1656843000542
 30
0.0
 11
965.3496023153239
 21
-430.8360530402937
 31
0.0
  0
LINE
  5
1F332
330
18
100
AcDbEntity
  8
細線
 48
5.0
100
AcDbLine
 10
966.587283245461
 20
-436.4514098174161
 30
0.0
 11
965.0645888584303
 21
-438.1877104081044
 31
0.0
  0
LINE
  5
1F333
330
18
100
AcDbEntity
  8
細線
 48
5.0
100
AcDbLine
 10
965.8449507339026
 20
-434.2645683837428
 30
0.0
 11
966.5872837358572
 21
-436.451409914962
 31
0.0
  0
LINE
  5
1F334
330
18
100
AcDbEntity
  8
細線
 48
5.0
100
AcDbLine
 10
963.579924128469
 20
-433.8140265794778
 30
0.0
 11
965.8449506358232
 21
-434.2645683642333
 31
0.0
  0
LINE
  5
1F335
330
18
100
AcDbEntity
  8
細線
 48
5.0
100
AcDbLine
 10
962.0572297403702
 20
-435.5503261503621
 30
0.0
 11
963.5799240303967
 21
-433.8140265599697
 31
0.0
  0
LINE
  5
1F336
330
18
100
AcDbEntity
  8
細線
 48
5.0
100
AcDbLine
 10
962.0572302307667
 20
-435.5503262479079
 30
0.0
 11
962.7995629395522
 21
-437.737168740404
 31
0.0
  0
LINE
  5
1F337
330
18
100
AcDbEntity
  8
細線
 48
5.0
100
AcDbLine
 10
962.7995628404049
 20
-437.7371677010907
 30
0.0
 11
965.0645893477587
 21
-438.1877094858464
 31
0.0
  0
CIRCLE
  5
1F338
330
18
100
AcDbEntity
  8
細線
 48
5.0
100
AcDbCircle
 10
964.3222567381142
 20
-436.0008680326619
 30
0.0
 40
4.25
  0
CIRCLE
  5
1F33B
330
18
100
AcDbEntity
  8
0
100
AcDbCircle
 10
887.8468505077915
 20
-436.0008680326616
 30
0.0
 40
4.75
  0
LINE
  5
1F33C
330
18
100
AcDbEntity
  8
中心線
 48
0.3
100
AcDbLine
 10
888.8741963386191
 20
-441.1656843000542
 30
0.0
 11
886.8195049305814
 21
-430.8360530402933
 31
0.0
  0
LINE
  5
1F33D
330
18
100
AcDbEntity
  8
細線
 48
5.0
100
AcDbLine
 10
890.1118770151382
 20
-435.5503262479078
 30
0.0
 11
889.3695443063533
 21
-437.7371687404038
 31
0.0
  0
LINE
  5
1F33E
330
18
100
AcDbEntity
  8
細線
 48
5.0
100
AcDbLine
 10
888.5891832155156
 20
-433.8140265599686
 30
0.0
 11
890.1118775055348
 21
-435.5503261503618
 31
0.0
  0
LINE
  5
1F33F
330
18
100
AcDbEntity
  8
細線
 48
5.0
100
AcDbLine
 10
886.3241566100819
 20
-434.264568364233
 30
0.0
 11
888.5891831174362
 21
-433.8140265794776
 31
0.0
  0
LINE
  5
1F340
330
18
100
AcDbEntity
  8
細線
 48
5.0
100
AcDbLine
 10
885.5818235100478
 20
-436.4514099149618
 30
0.0
 11
886.3241565120096
 21
-434.2645683837408
 31
0.0
  0
LINE
  5
1F341
330
18
100
AcDbEntity
  8
細線
 48
5.0
100
AcDbLine
 10
885.5818240004442
 20
-436.4514098174158
 30
0.0
 11
887.1045183874748
 21
-438.187710408104
 31
0.0
  0
LINE
  5
1F342
330
18
100
AcDbEntity
  8
細線
 48
5.0
100
AcDbLine
 10
887.1045178981466
 20
-438.1877094858459
 30
0.0
 11
889.3695444055008
 21
-437.7371677010906
 31
0.0
  0
CIRCLE
  5
1F343
330
18
100
AcDbEntity
  8
細線
 48
5.0
100
AcDbCircle
 10
887.8468505077915
 20
-436.0008680326616
 30
0.0
 40
4.25
  0
CIRCLE
  5
1F346
330
18
100
AcDbEntity
  8
0
100
AcDbCircle
 10
817.1927879511097
 20
-465.2667389803958
 30
0.0
 40
4.75
  0
LINE
  5
1F347
330
18
100
AcDbEntity
  8
中心線
 48
0.3
100
AcDbLine
 10
820.1184213537635
 20
-469.6452587902538
 30
0.0
 11
814.2671552706993
 21
-460.8882202514512
 31
0.0
  0
LINE
  5
1F348
330
18
100
AcDbEntity
  8
細線
 48
5.0
100
AcDbLine
 10
819.1129847052298
 20
-463.9837045286911
 30
0.0
 11
819.2640271003398
 21
-466.2881619772888
 31
0.0
  0
LINE
  5
1F349
330
18
100
AcDbEntity
  8
細線
 48
5.0
100
AcDbLine
 10
817.0417459452815
 20
-462.962282474379
 30
0.0
 11
819.1129851209677
 21
-463.9837042509038
 31
0.0
  0
LINE
  5
1F34A
330
18
100
AcDbEntity
  8
細線
 48
5.0
100
AcDbLine
 10
815.1215491080078
 20
-464.2453169816453
 30
0.0
 11
817.0417458621336
 21
-462.9622825299363
 31
0.0
  0
LINE
  5
1F34B
330
18
100
AcDbEntity
  8
細線
 48
5.0
100
AcDbLine
 10
815.272590781252
 20
-466.5497737098879
 30
0.0
 11
815.1215490248661
 21
-464.2453170371986
 31
0.0
  0
LINE
  5
1F34C
330
18
100
AcDbEntity
  8
細線
 48
5.0
100
AcDbLine
 10
815.27259119699
 20
-466.5497734321006
 30
0.0
 11
817.3438308450991
 21
-467.5711960956531
 31
0.0
  0
LINE
  5
1F34D
330
18
100
AcDbEntity
  8
細線
 48
5.0
100
AcDbLine
 10
817.3438300400862
 20
-467.5711954308551
 30
0.0
 11
819.264026794212
 21
-466.2881609791464
 31
0.0
  0
CIRCLE
  5
1F34E
330
18
100
AcDbEntity
  8
細線
 48
5.0
100
AcDbCircle
 10
817.1927879511097
 20
-465.2667389803958
 30
0.0
 40
4.25
  0
CIRCLE
  5
1F351
330
18
100
AcDbEntity
  8
0
100
AcDbCircle
 10
763.1165096116525
 20
-519.3430173198527
 30
0.0
 40
4.75
  0
LINE
  5
1F352
330
18
100
AcDbEntity
  8
中心線
 48
0.3
100
AcDbLine
 10
767.4950294215106
 20
-522.2686507225062
 30
0.0
 11
758.7379908827077
 21
-516.4173846394422
 31
0.0
  0
LINE
  5
1F353
330
18
100
AcDbEntity
  8
細線
 48
5.0
100
AcDbLine
 10
764.3995440633575
 20
-517.4228205657326
 30
0.0
 11
765.4209667269098
 21
-519.4940602138422
 31
0.0
  0
LINE
  5
1F354
330
18
100
AcDbEntity
  8
細線
 48
5.0
100
AcDbLine
 10
762.0950876684596
 20
-517.2717783936032
 30
0.0
 11
764.3995443411445
 21
-517.422820149995
 31
0.0
  0
LINE
  5
1F355
330
18
100
AcDbEntity
  8
細線
 48
5.0
100
AcDbLine
 10
760.8120531611929
 20
-519.1919752308764
 30
0.0
 11
762.095087612902
 21
-517.2717784767508
 31
0.0
  0
LINE
  5
1F356
330
18
100
AcDbEntity
  8
細線
 48
5.0
100
AcDbLine
 10
761.8334748821605
 20
-521.2632144897108
 30
0.0
 11
760.8120531056392
 21
-519.1919753140181
 31
0.0
  0
LINE
  5
1F357
330
18
100
AcDbEntity
  8
細線
 48
5.0
100
AcDbLine
 10
761.8334751599478
 20
-521.2632140739726
 30
0.0
 11
764.1379326085452
 21
-521.4142564690826
 31
0.0
  0
LINE
  5
1F358
330
18
100
AcDbEntity
  8
細線
 48
5.0
100
AcDbLine
 10
764.1379316104032
 20
-521.4142561629548
 30
0.0
 11
765.4209660621121
 21
-519.4940594088291
 31
0.0
  0
CIRCLE
  5
1F359
330
18
100
AcDbEntity
  8
細線
 48
5.0
100
AcDbCircle
 10
763.1165096116525
 20
-519.3430173198527
 30
0.0
 40
4.25
  0
CIRCLE
  5
1F35C
330
18
100
AcDbEntity
  8
0
100
AcDbCircle
 10
733.8506386639177
 20
-589.9970798765341
 30
0.0
 40
4.75
  0
LINE
  5
1F35D
330
18
100
AcDbEntity
  8
中心線
 48
0.3
100
AcDbLine
 10
739.0154549313102
 20
-591.0244257073617
 30
0.0
 11
728.6858236715494
 21
-588.969734299324
 31
0.0
  0
LINE
  5
1F35E
330
18
100
AcDbEntity
  8
細線
 48
5.0
100
AcDbLine
 10
734.3011804486722
 20
-587.732053369187
 30
0.0
 11
736.0374810393601
 21
-589.2547477562175
 31
0.0
  0
LINE
  5
1F35F
330
18
100
AcDbEntity
  8
細線
 48
5.0
100
AcDbLine
 10
732.1143390149983
 20
-588.4743858807452
 30
0.0
 11
734.301180546218
 21
-587.7320528787906
 31
0.0
  0
LINE
  5
1F360
330
18
100
AcDbEntity
  8
細線
 48
5.0
100
AcDbLine
 10
731.6637972107336
 20
-590.7394124861789
 30
0.0
 11
732.1143389954892
 21
-588.4743859788247
 31
0.0
  0
LINE
  5
1F361
330
18
100
AcDbEntity
  8
細線
 48
5.0
100
AcDbLine
 10
733.4000967816177
 20
-592.2621068742776
 30
0.0
 11
731.663797191226
 21
-590.7394125842511
 31
0.0
  0
LINE
  5
1F362
330
18
100
AcDbEntity
  8
細線
 48
5.0
100
AcDbLine
 10
733.4000968791638
 20
-592.2621063838811
 30
0.0
 11
735.5869393716597
 21
-591.5197736750957
 31
0.0
  0
LINE
  5
1F363
330
18
100
AcDbEntity
  8
細線
 48
5.0
100
AcDbLine
 10
735.5869383323462
 20
-591.5197737742432
 30
0.0
 11
736.037480117102
 21
-589.2547472668891
 31
0.0
  0
CIRCLE
  5
1F364
330
18
100
AcDbEntity
  8
細線
 48
5.0
100
AcDbCircle
 10
733.8506386639177
 20
-589.9970798765341
 30
0.0
 40
4.25
  0
CIRCLE
  5
1F367
330
18
100
AcDbEntity
  8
0
100
AcDbCircle
 10
733.8506386639177
 20
-666.4724861068565
 30
0.0
 40
4.75
  0
LINE
  5
1F368
330
18
100
AcDbEntity
  8
中心線
 48
0.3
100
AcDbLine
 10
739.0154549313098
 20
-665.4451402760286
 30
0.0
 11
728.6858236715491
 21
-667.4998316840665
 31
0.0
  0
LINE
  5
1F369
330
18
100
AcDbEntity
  8
細線
 48
5.0
100
AcDbLine
 10
733.4000968791634
 20
-664.2074595995095
 30
0.0
 11
735.5869393716595
 21
-664.9497923082947
 31
0.0
  0
LINE
  5
1F36A
330
18
100
AcDbEntity
  8
細線
 48
5.0
100
AcDbLine
 10
731.6637971912244
 20
-665.7301533991324
 30
0.0
 11
733.4000967816174
 21
-664.2074591091131
 31
0.0
  0
LINE
  5
1F36B
330
18
100
AcDbEntity
  8
細線
 48
5.0
100
AcDbLine
 10
732.1143389954889
 20
-667.9951800045659
 30
0.0
 11
731.6637972107335
 21
-665.7301534972117
 31
0.0
  0
LINE
  5
1F36C
330
18
100
AcDbEntity
  8
細線
 48
5.0
100
AcDbLine
 10
734.3011805462176
 20
-668.7375131046001
 30
0.0
 11
732.1143390149966
 21
-667.9951801026382
 31
0.0
  0
LINE
  5
1F36D
330
18
100
AcDbEntity
  8
細線
 48
5.0
100
AcDbLine
 10
734.3011804486715
 20
-668.7375126142037
 30
0.0
 11
736.0374810393595
 21
-667.2148182271732
 31
0.0
  0
LINE
  5
1F36E
330
18
100
AcDbEntity
  8
細線
 48
5.0
100
AcDbLine
 10
736.0374801171017
 20
-667.2148187165014
 30
0.0
 11
735.5869383323462
 21
-664.9497922091472
 31
0.0
  0
CIRCLE
  5
1F36F
330
18
100
AcDbEntity
  8
細線
 48
5.0
100
AcDbCircle
 10
733.8506386639177
 20
-666.4724861068565
 30
0.0
 40
4.25
  0
CIRCLE
  5
1F372
330
18
100
AcDbEntity
  8
0
100
AcDbCircle
 10
763.1165096116513
 20
-737.1265486635377
 30
0.0
 40
4.75
  0
LINE
  5
1F373
330
18
100
AcDbEntity
  8
中心線
 48
0.3
100
AcDbLine
 10
767.4950294215094
 20
-734.2009152608842
 30
0.0
 11
758.7379908827062
 21
-740.0521813439484
 31
0.0
  0
LINE
  5
1F374
330
18
100
AcDbEntity
  8
細線
 48
5.0
100
AcDbLine
 10
761.8334751599467
 20
-735.2063519094182
 30
0.0
 11
764.1379326085443
 21
-735.0553095143083
 31
0.0
  0
LINE
  5
1F375
330
18
100
AcDbEntity
  8
細線
 48
5.0
100
AcDbLine
 10
760.8120531056347
 20
-737.2775906693663
 30
0.0
 11
761.8334748821593
 21
-735.2063514936801
 31
0.0
  0
LINE
  5
1F376
330
18
100
AcDbEntity
  8
細線
 48
5.0
100
AcDbLine
 10
762.0950876129009
 20
-739.1977875066403
 30
0.0
 11
760.8120531611921
 21
-737.2775907525142
 31
0.0
  0
LINE
  5
1F377
330
18
100
AcDbEntity
  8
細線
 48
5.0
100
AcDbLine
 10
764.3995443411434
 20
-739.0467458333956
 30
0.0
 11
762.0950876684544
 21
-739.1977875897818
 31
0.0
  0
LINE
  5
1F378
330
18
100
AcDbEntity
  8
細線
 48
5.0
100
AcDbLine
 10
764.3995440633562
 20
-739.0467454176578
 30
0.0
 11
765.4209667269086
 21
-736.9755057695486
 31
0.0
  0
LINE
  5
1F379
330
18
100
AcDbEntity
  8
細線
 48
5.0
100
AcDbLine
 10
765.420966062111
 20
-736.9755065745613
 30
0.0
 11
764.1379316104021
 21
-735.0553098204358
 31
0.0
  0
CIRCLE
  5
1F37A
330
18
100
AcDbEntity
  8
細線
 48
5.0
100
AcDbCircle
 10
763.1165096116513
 20
-737.1265486635377
 30
0.0
 40
4.25
  0
CIRCLE
  5
1F37D
330
18
100
AcDbEntity
  8
0
100
AcDbCircle
 10
817.1927879511081
 20
-791.202827002995
 30
0.0
 40
4.75
  0
LINE
  5
1F37E
330
18
100
AcDbEntity
  8
中心線
 48
0.3
100
AcDbLine
 10
820.1184213537617
 20
-786.8243071931372
 30
0.0
 11
814.2671552706978
 21
-795.58134573194
 31
0.0
  0
LINE
  5
1F37F
330
18
100
AcDbEntity
  8
細線
 48
5.0
100
AcDbLine
 10
815.2725911969884
 20
-789.9197925512902
 30
0.0
 11
817.3438308450979
 21
-788.898369887738
 31
0.0
  0
LINE
  5
1F380
330
18
100
AcDbEntity
  8
細線
 48
5.0
100
AcDbLine
 10
815.1215490248587
 20
-792.2242489461882
 30
0.0
 11
815.2725907812506
 21
-789.9197922735031
 31
0.0
  0
LINE
  5
1F381
330
18
100
AcDbEntity
  8
細線
 48
5.0
100
AcDbLine
 10
817.0417458621319
 20
-793.5072834534548
 30
0.0
 11
815.1215491080062
 21
-792.2242490017459
 31
0.0
  0
LINE
  5
1F382
330
18
100
AcDbEntity
  8
細線
 48
5.0
100
AcDbLine
 10
819.1129851209662
 20
-792.4858617324871
 30
0.0
 11
817.0417459452737
 21
-793.5072835090082
 31
0.0
  0
LINE
  5
1F383
330
18
100
AcDbEntity
  8
細線
 48
5.0
100
AcDbLine
 10
819.1129847052282
 20
-792.4858614547003
 30
0.0
 11
819.264027100338
 21
-790.1814040061024
 31
0.0
  0
LINE
  5
1F384
330
18
100
AcDbEntity
  8
細線
 48
5.0
100
AcDbLine
 10
819.2640267942104
 20
-790.1814050042446
 30
0.0
 11
817.3438300400846
 21
-788.8983705525355
 31
0.0
  0
CIRCLE
  5
1F385
330
18
100
AcDbEntity
  8
細線
 48
5.0
100
AcDbCircle
 10
817.1927879511081
 20
-791.202827002995
 30
0.0
 40
4.25
  0
CIRCLE
  5
1F388
330
18
100
AcDbEntity
  8
0
100
AcDbCircle
 10
887.846850507789
 20
-820.4686979507297
 30
0.0
 40
4.75
  0
LINE
  5
1F389
330
18
100
AcDbEntity
  8
中心線
 48
0.3
100
AcDbLine
 10
888.8741963386172
 20
-815.3038816833374
 30
0.0
 11
886.8195049305795
 21
-825.6335129430985
 31
0.0
  0
LINE
  5
1F38A
330
18
100
AcDbEntity
  8
細線
 48
5.0
100
AcDbLine
 10
885.5818240004422
 20
-820.0181561659757
 30
0.0
 11
887.1045183874727
 21
-818.2818555752872
 31
0.0
  0
LINE
  5
1F38B
330
18
100
AcDbEntity
  8
細線
 48
5.0
100
AcDbLine
 10
886.3241565120008
 20
-822.2049975996494
 30
0.0
 11
885.5818235100459
 21
-820.0181560684299
 31
0.0
  0
LINE
  5
1F38C
330
18
100
AcDbEntity
  8
細線
 48
5.0
100
AcDbLine
 10
888.5891831174344
 20
-822.655539403914
 30
0.0
 11
886.3241566100803
 21
-822.2049976191586
 31
0.0
  0
LINE
  5
1F38D
330
18
100
AcDbEntity
  8
細線
 48
5.0
100
AcDbLine
 10
890.111877505533
 20
-820.9192398330298
 30
0.0
 11
888.5891832155063
 21
-822.6555394234219
 31
0.0
  0
LINE
  5
1F38E
330
18
100
AcDbEntity
  8
細線
 48
5.0
100
AcDbLine
 10
890.1118770151365
 20
-820.919239735484
 30
0.0
 11
889.3695443063514
 21
-818.7323972429881
 31
0.0
  0
LINE
  5
1F38F
330
18
100
AcDbEntity
  8
細線
 48
5.0
100
AcDbLine
 10
889.3695444054987
 20
-818.7323982823013
 30
0.0
 11
887.1045178981447
 21
-818.2818564975457
 31
0.0
  0
CIRCLE
  5
1F390
330
18
100
AcDbEntity
  8
細線
 48
5.0
100
AcDbCircle
 10
887.846850507789
 20
-820.4686979507297
 30
0.0
 40
4.25
  0
CIRCLE
  5
1F393
330
18
100
AcDbEntity
  8
0
100
AcDbCircle
 10
964.3222567381121
 20
-820.4686979507304
 30
0.0
 40
4.75
  0
LINE
  5
1F394
330
18
100
AcDbEntity
  8
中心線
 48
0.3
100
AcDbLine
 10
963.2949109072839
 20
-815.303881683338
 30
0.0
 11
965.349602315322
 21
-825.6335129430986
 31
0.0
  0
LINE
  5
1F395
330
18
100
AcDbEntity
  8
細線
 48
5.0
100
AcDbLine
 10
962.057230230765
 20
-820.9192397354843
 30
0.0
 11
962.7995629395503
 21
-818.7323972429883
 31
0.0
  0
LINE
  5
1F396
330
18
100
AcDbEntity
  8
細線
 48
5.0
100
AcDbLine
 10
963.5799240303876
 20
-822.6555394234233
 30
0.0
 11
962.0572297403686
 21
-820.9192398330301
 31
0.0
  0
LINE
  5
1F397
330
18
100
AcDbEntity
  8
細線
 48
5.0
100
AcDbLine
 10
965.8449506358214
 20
-822.2049976191589
 30
0.0
 11
963.5799241284672
 21
-822.6555394039142
 31
0.0
  0
LINE
  5
1F398
330
18
100
AcDbEntity
  8
細線
 48
5.0
100
AcDbLine
 10
966.5872837358556
 20
-820.0181560684301
 30
0.0
 11
965.8449507338936
 21
-822.2049975996512
 31
0.0
  0
LINE
  5
1F399
330
18
100
AcDbEntity
  8
細線
 48
5.0
100
AcDbLine
 10
966.5872832454592
 20
-820.0181561659762
 30
0.0
 11
965.0645888584287
 21
-818.2818555752881
 31
0.0
  0
LINE
  5
1F39A
330
18
100
AcDbEntity
  8
細線
 48
5.0
100
AcDbLine
 10
965.064589347757
 20
-818.2818564975461
 30
0.0
 11
962.7995628404027
 21
-818.7323982823015
 31
0.0
  0
CIRCLE
  5
1F39B
330
18
100
AcDbEntity
  8
細線
 48
5.0
100
AcDbCircle
 10
964.3222567381121
 20
-820.4686979507304
 30
0.0
 40
4.25
  0
CIRCLE
  5
1F39E
330
18
100
AcDbEntity
  8
0
100
AcDbCircle
 10
1034.976319294793
 20
-791.2028270029962
 30
0.0
 40
4.75
  0
LINE
  5
1F39F
330
18
100
AcDbEntity
  8
中心線
 48
0.3
100
AcDbLine
 10
1032.05068589214
 20
-786.8243071931384
 30
0.0
 11
1037.901951975203
 21
-795.5813457319412
 31
0.0
  0
LINE
  5
1F3A0
330
18
100
AcDbEntity
  8
細線
 48
5.0
100
AcDbLine
 10
1033.056122540672
 20
-792.4858614547011
 30
0.0
 11
1032.905080145563
 21
-790.1814040061032
 31
0.0
  0
LINE
  5
1F3A1
330
18
100
AcDbEntity
  8
細線
 48
5.0
100
AcDbLine
 10
1035.127361300621
 20
-793.5072835090131
 30
0.0
 11
1033.056122124935
 21
-792.4858617324884
 31
0.0
  0
LINE
  5
1F3A2
330
18
100
AcDbEntity
  8
細線
 48
5.0
100
AcDbLine
 10
1037.047558137895
 20
-792.2242490017468
 30
0.0
 11
1035.127361383769
 21
-793.5072834534557
 31
0.0
  0
LINE
  5
1F3A3
330
18
100
AcDbEntity
  8
細線
 48
5.0
100
AcDbLine
 10
1036.896516464651
 20
-789.9197922735037
 30
0.0
 11
1037.047558221037
 21
-792.2242489461937
 31
0.0
  0
LINE
  5
1F3A4
330
18
100
AcDbEntity
  8
細線
 48
5.0
100
AcDbLine
 10
1036.896516048912
 20
-789.9197925512916
 30
0.0
 11
1034.825276400803
 21
-788.8983698877392
 31
0.0
  0
LINE
  5
1F3A5
330
18
100
AcDbEntity
  8
細線
 48
5.0
100
AcDbLine
 10
1034.825277205817
 20
-788.8983705525369
 30
0.0
 11
1032.905080451691
 21
-790.1814050042453
 31
0.0
  0
CIRCLE
  5
1F3A6
330
18
100
AcDbEntity
  8
細線
 48
5.0
100
AcDbCircle
 10
1034.976319294793
 20
-791.2028270029962
 30
0.0
 40
4.25
  0
CIRCLE
  5
1F3A9
330
18
100
AcDbEntity
  8
0
100
AcDbCircle
 10
1089.05259763425
 20
-737.1265486635394
 30
0.0
 40
4.75
  0
LINE
  5
1F3AA
330
18
100
AcDbEntity
  8
中心線
 48
0.3
100
AcDbLine
 10
1084.674077824393
 20
-734.2009152608859
 30
0.0
 11
1093.431116363196
 21
-740.05218134395
 31
0.0
  0
LINE
  5
1F3AB
330
18
100
AcDbEntity
  8
細線
 48
5.0
100
AcDbLine
 10
1087.769563182545
 20
-739.0467454176595
 30
0.0
 11
1086.748140518993
 21
-736.9755057695497
 31
0.0
  0
LINE
  5
1F3AC
330
18
100
AcDbEntity
  8
細線
 48
5.0
100
AcDbLine
 10
1090.074019577442
 20
-739.197787589789
 30
0.0
 11
1087.769562904757
 21
-739.0467458333972
 31
0.0
  0
LINE
  5
1F3AD
330
18
100
AcDbEntity
  8
細線
 48
5.0
100
AcDbLine
 10
1091.35705408471
 20
-737.2775907525157
 30
0.0
 11
1090.074019633
 21
-739.1977875066417
 31
0.0
  0
LINE
  5
1F3AE
330
18
100
AcDbEntity
  8
細線
 48
5.0
100
AcDbLine
 10
1090.335632363742
 20
-735.2063514936816
 30
0.0
 11
1091.357054140263
 21
-737.2775906693743
 31
0.0
  0
LINE
  5
1F3AF
330
18
100
AcDbEntity
  8
細線
 48
5.0
100
AcDbLine
 10
1090.335632085956
 20
-735.2063519094196
 30
0.0
 11
1088.031174637355
 21
-735.0553095143096
 31
0.0
  0
LINE
  5
1F3B0
330
18
100
AcDbEntity
  8
細線
 48
5.0
100
AcDbLine
 10
1088.031175635499
 20
-735.0553098204373
 30
0.0
 11
1086.74814118379
 21
-736.9755065745631
 31
0.0
  0
CIRCLE
  5
1F3B1
330
18
100
AcDbEntity
  8
細線
 48
5.0
100
AcDbCircle
 10
1089.05259763425
 20
-737.1265486635394
 30
0.0
 40
4.25
  0
CIRCLE
  5
1F3B4
330
18
100
AcDbEntity
  8
0
100
AcDbCircle
 10
1118.318468581984
 20
-666.4724861068584
 30
0.0
 40
4.75
  0
LINE
  5
1F3B5
330
18
100
AcDbEntity
  8
中心線
 48
0.3
100
AcDbLine
 10
1113.153652314593
 20
-665.4451402760306
 30
0.0
 11
1123.483283574354
 21
-667.4998316840685
 31
0.0
  0
LINE
  5
1F3B6
330
18
100
AcDbEntity
  8
細線
 48
5.0
100
AcDbLine
 10
1117.867926797231
 20
-668.7375126142057
 30
0.0
 11
1116.131626206543
 21
-667.2148182271752
 31
0.0
  0
LINE
  5
1F3B7
330
18
100
AcDbEntity
  8
細線
 48
5.0
100
AcDbLine
 10
1120.054768230902
 20
-667.9951801026474
 30
0.0
 11
1117.867926699685
 21
-668.7375131046019
 31
0.0
  0
LINE
  5
1F3B8
330
18
100
AcDbEntity
  8
細線
 48
5.0
100
AcDbLine
 10
1120.505310035169
 20
-665.7301534972138
 30
0.0
 11
1120.054768250412
 21
-667.9951800045677
 31
0.0
  0
LINE
  5
1F3B9
330
18
100
AcDbEntity
  8
細線
 48
5.0
100
AcDbLine
 10
1118.769010464285
 20
-664.2074591091151
 30
0.0
 11
1120.505310054677
 21
-665.7301533991414
 31
0.0
  0
LINE
  5
1F3BA
330
18
100
AcDbEntity
  8
細線
 48
5.0
100
AcDbLine
 10
1118.769010366738
 20
-664.2074595995116
 30
0.0
 11
1116.582167874244
 21
-664.9497923082967
 31
0.0
  0
LINE
  5
1F3BB
330
18
100
AcDbEntity
  8
細線
 48
5.0
100
AcDbLine
 10
1116.582168913555
 20
-664.9497922091492
 30
0.0
 11
1116.131627128801
 21
-667.2148187165035
 31
0.0
  0
CIRCLE
  5
1F3BC
330
18
100
AcDbEntity
  8
細線
 48
5.0
100
AcDbCircle
 10
1118.318468581984
 20
-666.4724861068584
 30
0.0
 40
4.25
  0
LINE
  5
1F3CE
330
18
100
AcDbEntity
  8
中心線
 48
30.0
100
AcDbLine
 10
745.6756373489715
 20
-628.2347829916957
 30
0.0
 11
730.2189880606897
 21
-628.2347829916957
 31
0.0
  0
CIRCLE
  5
1F3CF
330
18
100
AcDbEntity
  8
DIMENSION
100
AcDbCircle
 10
738.0845514438792
 20
-628.2347829916957
 30
0.0
 40
6.0
  0
LINE
  5
1F3D0
330
18
100
AcDbEntity
  8
中心線
 48
30.0
100
AcDbLine
 10
745.6756373489723
 20
-628.2347829916972
 30
0.0
 11
730.2189880606912
 21
-628.2347829916972
 31
0.0
  0
CIRCLE
  5
1F3D1
330
18
100
AcDbEntity
  8
ﾍ__ｽ
100
AcDbCircle
 10
738.0845514438792
 20
-628.2347829916957
 30
0.0
 40
4.999997820926636
  0
CIRCLE
  5
1F3D2
330
18
100
AcDbEntity
  8
ﾍ__ｽ
100
AcDbCircle
 10
1114.084555802025
 20
-628.2347829916957
 30
0.0
 40
4.999997820926636
  0
CIRCLE
  5
1F3D3
330
18
100
AcDbEntity
  8
DIMENSION
100
AcDbCircle
 10
1114.084555802025
 20
-628.2347829916962
 30
0.0
 40
6.0
  0
LINE
  5
1F3D6
330
18
100
AcDbEntity
  8
0
100
AcDbLine
 10
550.505210618784
 20
-831.2347829916959
 30
0.0
 11
589.0052106187843
 21
-831.2347829916959
 31
0.0
  0
LINE
  5
1F3D7
330
18
100
AcDbEntity
  8
0
100
AcDbLine
 10
550.505210618784
 20
-425.2347829916962
 30
0.0
 11
589.0052106187837
 21
-425.2347829916962
 31
0.0
  0
LINE
  5
1F421
330
18
100
AcDbEntity
  8
0
100
AcDbLine
 10
547.205210618784
 20
-828.2347829916961
 30
0.0
 11
550.505210618784
 21
-828.2347829916961
 31
0.0
  0
LINE
  5
1F422
330
18
100
AcDbEntity
  8
0
100
AcDbLine
 10
547.205210618784
 20
-428.234782991696
 30
0.0
 11
550.505210618784
 21
-428.234782991696
 31
0.0
  0
ARC
  5
1F59C
330
18
100
AcDbEntity
  8
中心線
100
AcDbCircle
 10
926.0845536229524
 20
-628.2347829916946
 30
0.0
 40
195.9999999999995
100
AcDbArc
 50
99.34979777621265
 51
103.1502022237872
  0
ARC
  5
1F5B0
330
18
100
AcDbEntity
  8
中心線
100
AcDbCircle
 10
926.0845536229524
 20
-628.2347829916946
 30
0.0
 40
195.9999999999995
100
AcDbArc
 50
76.84979777621233
 51
80.6502022237869
  0
ARC
  5
1F5B1
330
18
100
AcDbEntity
  8
中心線
100
AcDbCircle
 10
926.0845536229524
 20
-628.2347829916946
 30
0.0
 40
195.9999999999995
100
AcDbArc
 50
54.34979777621212
 51
58.15020222378668
  0
ARC
  5
1F5B2
330
18
100
AcDbEntity
  8
中心線
100
AcDbCircle
 10
926.0845536229524
 20
-628.2347829916946
 30
0.0
 40
195.9999999999995
100
AcDbArc
 50
31.84979777621201
 51
35.65020222378661
  0
ARC
  5
1F5B3
330
18
100
AcDbEntity
  8
中心線
100
AcDbCircle
 10
926.0845536229524
 20
-628.2347829916946
 30
0.0
 40
195.9999999999995
100
AcDbArc
 50
9.349797776211929
 51
13.15020222378652
  0
ARC
  5
1F5B4
330
18
100
AcDbEntity
  8
中心線
100
AcDbCircle
 10
926.0845536229524
 20
-628.2347829916946
 30
0.0
 40
195.9999999999995
100
AcDbArc
 50
346.8497977762118
 51
350.6502022237866
  0
ARC
  5
1F5B5
330
18
100
AcDbEntity
  8
中心線
100
AcDbCircle
 10
926.0845536229524
 20
-628.2347829916946
 30
0.0
 40
195.9999999999995
100
AcDbArc
 50
324.349797776212
 51
328.1502022237866
  0
ARC
  5
1F5B6
330
18
100
AcDbEntity
  8
中心線
100
AcDbCircle
 10
926.0845536229524
 20
-628.2347829916946
 30
0.0
 40
195.9999999999995
100
AcDbArc
 50
301.8497977762121
 51
305.6502022237868
  0
ARC
  5
1F5B7
330
18
100
AcDbEntity
  8
中心線
100
AcDbCircle
 10
926.0845536229524
 20
-628.2347829916946
 30
0.0
 40
195.9999999999995
100
AcDbArc
 50
279.3497977762124
 51
283.1502022237868
  0
ARC
  5
1F5B8
330
18
100
AcDbEntity
  8
中心線
100
AcDbCircle
 10
926.0845536229524
 20
-628.2347829916946
 30
0.0
 40
195.9999999999995
100
AcDbArc
 50
256.8497977762126
 51
260.650202223787
  0
ARC
  5
1F5B9
330
18
100
AcDbEntity
  8
中心線
100
AcDbCircle
 10
926.0845536229524
 20
-628.2347829916946
 30
0.0
 40
195.9999999999995
100
AcDbArc
 50
234.3497977762125
 51
238.1502022237873
  0
ARC
  5
1F5BA
330
18
100
AcDbEntity
  8
中心線
100
AcDbCircle
 10
926.0845536229524
 20
-628.2347829916946
 30
0.0
 40
195.9999999999995
100
AcDbArc
 50
211.8497977762129
 51
215.6502022237874
  0
ARC
  5
1F5BB
330
18
100
AcDbEntity
  8
中心線
100
AcDbCircle
 10
926.0845536229524
 20
-628.2347829916946
 30
0.0
 40
195.9999999999995
100
AcDbArc
 50
189.349797776213
 51
193.1502022237874
  0
ARC
  5
1F5BC
330
18
100
AcDbEntity
  8
中心線
100
AcDbCircle
 10
926.0845536229524
 20
-628.2347829916946
 30
0.0
 40
195.9999999999995
100
AcDbArc
 50
166.849797776213
 51
170.6502022237874
  0
ARC
  5
1F5BD
330
18
100
AcDbEntity
  8
中心線
100
AcDbCircle
 10
926.0845536229524
 20
-628.2347829916946
 30
0.0
 40
195.9999999999995
100
AcDbArc
 50
144.3497977762129
 51
148.1502022237876
  0
ARC
  5
1F5BE
330
18
100
AcDbEntity
  8
中心線
100
AcDbCircle
 10
926.0845536229524
 20
-628.2347829916946
 30
0.0
 40
195.9999999999995
100
AcDbArc
 50
121.8497977762127
 51
125.6502022237872
  0
ARC
  5
1F5FB
330
18
100
AcDbEntity
  8
中心線
100
AcDbCircle
 10
48.78762020496114
 20
-628.2347829916952
 30
0.0
 40
138.5000000000028
100
AcDbArc
 50
40.86222149434728
 51
49.13777850565328
  0
ARC
  5
1F5FC
330
18
100
AcDbEntity
  8
中心線
100
AcDbCircle
 10
48.78762020496114
 20
-628.2347829916952
 30
0.0
 40
138.5000000000028
100
AcDbArc
 50
63.36222149434693
 51
71.63777850565293
  0
ARC
  5
1F5FD
330
18
100
AcDbEntity
  8
中心線
100
AcDbCircle
 10
48.78762020496114
 20
-628.2347829916952
 30
0.0
 40
138.5000000000028
100
AcDbArc
 50
85.86222149434691
 51
94.13777850565294
  0
ARC
  5
1F5FE
330
18
100
AcDbEntity
  8
中心線
100
AcDbCircle
 10
48.78762020496114
 20
-628.2347829916952
 30
0.0
 40
138.5000000000028
100
AcDbArc
 50
108.3622214943467
 51
116.6377785056528
  0
ARC
  5
1F5FF
330
18
100
AcDbEntity
  8
中心線
100
AcDbCircle
 10
48.78762020496114
 20
-628.2347829916952
 30
0.0
 40
138.5000000000028
100
AcDbArc
 50
130.8622214943466
 51
139.1377785056529
  0
ARC
  5
1F600
330
18
100
AcDbEntity
  8
中心線
100
AcDbCircle
 10
48.78762020496114
 20
-628.2347829916952
 30
0.0
 40
138.5000000000028
100
AcDbArc
 50
153.3622214943471
 51
161.6377785056531
  0
ARC
  5
1F601
330
18
100
AcDbEntity
  8
中心線
100
AcDbCircle
 10
48.78762020496114
 20
-628.2347829916952
 30
0.0
 40
138.5000000000028
100
AcDbArc
 50
175.8622214943476
 51
184.1377785056536
  0
ARC
  5
1F602
330
18
100
AcDbEntity
  8
中心線
100
AcDbCircle
 10
48.78762020496114
 20
-628.2347829916952
 30
0.0
 40
138.5000000000028
100
AcDbArc
 50
198.362221494348
 51
206.6377785056541
  0
ARC
  5
1F603
330
18
100
AcDbEntity
  8
中心線
100
AcDbCircle
 10
48.78762020496114
 20
-628.2347829916952
 30
0.0
 40
138.5000000000028
100
AcDbArc
 50
220.8622214943483
 51
229.1377785056543
  0
ARC
  5
1F604
330
18
100
AcDbEntity
  8
中心線
100
AcDbCircle
 10
48.78762020496114
 20
-628.2347829916952
 30
0.0
 40
138.5000000000028
100
AcDbArc
 50
243.3622214943487
 51
251.6377785056548
  0
ARC
  5
1F606
330
18
100
AcDbEntity
  8
中心線
100
AcDbCircle
 10
48.78762020496114
 20
-628.2347829916952
 30
0.0
 40
138.5000000000028
100
AcDbArc
 50
310.8622214943488
 51
319.1377785056548
  0
ARC
  5
1F607
330
18
100
AcDbEntity
  8
中心線
100
AcDbCircle
 10
48.78762020496114
 20
-628.2347829916952
 30
0.0
 40
138.5000000000028
100
AcDbArc
 50
333.3622214943483
 51
341.6377785056543
  0
ARC
  5
1F608
330
18
100
AcDbEntity
  8
中心線
100
AcDbCircle
 10
48.78762020496114
 20
-628.2347829916952
 30
0.0
 40
138.5000000000028
100
AcDbArc
 50
355.8622214943481
 51
4.13777850565409
  0
ARC
  5
1F609
330
18
100
AcDbEntity
  8
中心線
100
AcDbCircle
 10
48.78762020496114
 20
-628.2347829916952
 30
0.0
 40
138.5000000000028
100
AcDbArc
 50
18.36222149434777
 51
26.63777850565372
  0
LINE
  5
1F62B
330
18
100
AcDbEntity
  8
中心線
 48
0.3
100
AcDbLine
 10
133.6404339473463
 20
-543.3819692493091
 30
0.0
 11
120.9125118859884
 21
-556.1098913106668
 31
0.0
  0
LINE
  5
1F62F
330
18
100
AcDbEntity
  8
中心線
 48
0.3
100
AcDbLine
 10
133.6404339473465
 20
-713.0875967340815
 30
0.0
 11
120.9125118859887
 21
-700.3596746727237
 31
0.0
  0
LINE
  5
1F630
330
18
100
AcDbEntity
  8
中心線
 48
0.3
100
AcDbLine
 10
-36.06519353742547
 20
-543.3819692493109
 30
0.0
 11
-23.33727147606759
 21
-556.1098913106688
 31
0.0
  0
LINE
  5
1F631
330
18
100
AcDbEntity
  8
中心線
 48
0.3
100
AcDbLine
 10
-36.06519353742462
 20
-713.0875967340807
 30
0.0
 11
-23.33727147606673
 21
-700.3596746727229
 31
0.0
  0
CIRCLE
  5
1F6C8
330
18
100
AcDbEntity
  8
ﾍ__ｽ
100
AcDbCircle
 10
793.1484772190446
 20
-761.1708593956059
 30
0.0
 40
4.999997820926636
  0
LINE
  5
1F6C9
330
18
100
AcDbEntity
  8
中心線
 48
30.0
100
AcDbLine
 10
798.5161855391051
 20
-755.8031510755438
 30
0.0
 11
787.586684012939
 21
-766.7326526017098
 31
0.0
  0
CIRCLE
  5
1F6CA
330
18
100
AcDbEntity
  8
DIMENSION
100
AcDbCircle
 10
793.1484772190446
 20
-761.1708593956056
 30
0.0
 40
6.0
  0
LINE
  5
1F6CB
330
18
100
AcDbEntity
  8
中心線
 48
30.0
100
AcDbLine
 10
798.5161855391051
 20
-755.8031510755455
 30
0.0
 11
787.5866840129391
 21
-766.7326526017116
 31
0.0
  0
LINE
  5
1F6CC
330
18
100
AcDbEntity
  8
中心線
 48
30.0
100
AcDbLine
 10
1053.6529217068
 20
-755.8031510755442
 30
0.0
 11
1064.582423232966
 21
-766.7326526017102
 31
0.0
  0
CIRCLE
  5
1F6CD
330
18
100
AcDbEntity
  8
ﾍ__ｽ
100
AcDbCircle
 10
1059.020630026862
 20
-761.170859395608
 30
0.0
 40
4.999997820926636
  0
CIRCLE
  5
1F6CE
330
18
100
AcDbEntity
  8
DIMENSION
100
AcDbCircle
 10
1059.020630026862
 20
-761.170859395608
 30
0.0
 40
6.0
  0
LINE
  5
1F6CF
330
18
100
AcDbEntity
  8
中心線
 48
30.0
100
AcDbLine
 10
1053.652921706799
 20
-755.8031510755458
 30
0.0
 11
1064.582423232966
 21
-766.732652601712
 31
0.0
  0
CIRCLE
  5
1F7BC
330
18
100
AcDbEntity
  8
0
100
AcDbCircle
 10
150.4143687812028
 20
-586.1396054315346
 30
0.0
 40
5.0
  0
CIRCLE
  5
1F7BD
330
18
100
AcDbEntity
  8
0
100
AcDbCircle
 10
-52.83912837128227
 20
-670.3299605518582
 30
0.0
 40
5.0
  0
LINE
  5
1F825
330
18
100
AcDbEntity
  8
中心線
 48
0.5
100
AcDbLine
 10
239.2546155829124
 20
-613.2347829916957
 30
0.0
 11
268.8454786250844
 21
-613.2347829916957
 31
0.0
  0
LINE
  5
1F826
330
18
100
AcDbEntity
  8
中心線
 48
0.5
100
AcDbLine
 10
239.2523195055004
 20
-643.2304911387159
 30
0.0
 11
268.8431822009017
 21
-643.2350213142667
 31
0.0
  0
LINE
  5
1F827
330
18
100
AcDbEntity
  8
仮想線
 48
0.5
100
AcDbLine
 10
258.7845531262506
 20
-648.2334814598147
 30
0.0
 11
259.7845531145318
 21
-648.2336345535434
 31
0.0
  0
LINE
  5
1F828
330
18
100
AcDbEntity
  8
仮想線
 48
0.5
100
AcDbLine
 10
261.0846557655416
 20
-647.5632231985297
 30
0.0
 11
265.7846557104629
 21
-647.5639427390532
 31
0.0
  0
LINE
  5
1F829
330
18
100
AcDbEntity
  8
仮想線
 48
0.5
100
AcDbLine
 10
266.0847016350659
 20
-647.2639886706872
 30
0.0
 11
265.7846557104629
 21
-647.5639427390532
 31
0.0
  0
LINE
  5
1F82A
330
18
100
AcDbEntity
  8
仮想線
 48
0.5
100
AcDbLine
 10
259.7846143520237
 20
-647.8336345582309
 30
0.0
 11
261.0846143367889
 21
-647.8338335800779
 31
0.0
  0
LINE
  5
1F82B
330
18
100
AcDbEntity
  8
仮想線
 48
0.5
100
AcDbLine
 10
259.7845531145318
 20
-648.2336345535434
 30
0.0
 11
259.785318583175
 21
-643.2336346121377
 31
0.0
  0
LINE
  5
1F82C
330
18
100
AcDbEntity
  8
仮想線
 48
0.5
100
AcDbLine
 10
258.7860840635348
 20
-638.2334815770034
 30
0.0
 11
259.7860840518161
 21
-638.2336346707319
 31
0.0
  0
LINE
  5
1F82D
330
18
100
AcDbEntity
  8
仮想線
 48
0.5
100
AcDbLine
 10
259.7860228143253
 20
-638.6336346660446
 30
0.0
 11
261.0860227990904
 21
-638.6338336878914
 31
0.0
  0
LINE
  5
1F82E
330
18
100
AcDbEntity
  8
仮想線
 48
0.5
100
AcDbLine
 10
265.785957007155
 20
-639.0639428386633
 30
0.0
 11
266.0859110755205
 21
-639.3639887632665
 31
0.0
  0
LINE
  5
1F82F
330
18
100
AcDbEntity
  8
仮想線
 48
0.5
100
AcDbLine
 10
261.0859570622333
 20
-639.0632232981397
 30
0.0
 11
265.785957007155
 21
-639.0639428386633
 31
0.0
  0
LINE
  5
1F830
330
18
100
AcDbEntity
  8
仮想線
 48
0.5
100
AcDbLine
 10
261.0846143367889
 20
-647.8338335800779
 30
0.0
 11
261.0860227990904
 21
-638.6338336878914
 31
0.0
  0
LINE
  5
1F831
330
18
100
AcDbEntity
  8
仮想線
 48
0.5
100
AcDbLine
 10
259.785318583175
 20
-643.2336346121377
 30
0.0
 11
259.7860840518161
 21
-638.2336346707319
 31
0.0
  0
LINE
  5
1F832
330
18
100
AcDbEntity
  8
仮想線
 48
0.5
100
AcDbLine
 10
266.0847016350659
 20
-647.2639886706872
 30
0.0
 11
266.0859110755205
 21
-639.3639887632665
 31
0.0
  0
LINE
  5
1F84D
330
18
100
AcDbEntity
  8
仮想線
 48
0.5
100
AcDbLine
 10
-162.209312704609
 20
-648.2336345535434
 30
0.0
 11
-162.2100781732523
 21
-643.2336346121377
 31
0.0
  0
LINE
  5
1F84E
330
18
100
AcDbEntity
  8
中心線
 48
0.5
100
AcDbLine
 10
-141.6770790955778
 20
-643.2304911387159
 30
0.0
 11
-171.2679417909789
 21
-643.2350213142667
 31
0.0
  0
LINE
  5
1F84F
330
18
100
AcDbEntity
  8
仮想線
 48
0.5
100
AcDbLine
 10
-168.5094612251433
 20
-647.2639886706872
 30
0.0
 11
-168.5106706655979
 21
-639.3639887632665
 31
0.0
  0
LINE
  5
1F850
330
18
100
AcDbEntity
  8
仮想線
 48
0.5
100
AcDbLine
 10
-162.2100781732523
 20
-643.2336346121377
 30
0.0
 11
-162.2108436418933
 21
-638.2336346707319
 31
0.0
  0
LINE
  5
1F851
330
18
100
AcDbEntity
  8
仮想線
 48
0.5
100
AcDbLine
 10
-163.5093739268658
 20
-647.8338335800779
 30
0.0
 11
-163.5107823891677
 21
-638.6338336878914
 31
0.0
  0
LINE
  5
1F852
330
18
100
AcDbEntity
  8
仮想線
 48
0.5
100
AcDbLine
 10
-163.5107166523106
 20
-639.0632232981397
 30
0.0
 11
-168.2107165972323
 21
-639.0639428386633
 31
0.0
  0
LINE
  5
1F853
330
18
100
AcDbEntity
  8
仮想線
 48
0.5
100
AcDbLine
 10
-168.2107165972323
 20
-639.0639428386633
 30
0.0
 11
-168.5106706655979
 21
-639.3639887632665
 31
0.0
  0
LINE
  5
1F854
330
18
100
AcDbEntity
  8
仮想線
 48
0.5
100
AcDbLine
 10
-162.2107824044024
 20
-638.6336346660446
 30
0.0
 11
-163.5107823891677
 21
-638.6338336878914
 31
0.0
  0
LINE
  5
1F855
330
18
100
AcDbEntity
  8
仮想線
 48
0.5
100
AcDbLine
 10
-161.2108436536123
 20
-638.2334815770034
 30
0.0
 11
-162.2108436418933
 21
-638.2336346707319
 31
0.0
  0
LINE
  5
1F856
330
18
100
AcDbEntity
  8
仮想線
 48
0.5
100
AcDbLine
 10
-162.209373942101
 20
-647.8336345582309
 30
0.0
 11
-163.5093739268658
 21
-647.8338335800779
 31
0.0
  0
LINE
  5
1F857
330
18
100
AcDbEntity
  8
仮想線
 48
0.5
100
AcDbLine
 10
-168.5094612251433
 20
-647.2639886706872
 30
0.0
 11
-168.2094153005403
 21
-647.5639427390532
 31
0.0
  0
LINE
  5
1F858
330
18
100
AcDbEntity
  8
仮想線
 48
0.5
100
AcDbLine
 10
-163.5094153556189
 20
-647.5632231985297
 30
0.0
 11
-168.2094153005403
 21
-647.5639427390532
 31
0.0
  0
LINE
  5
1F859
330
18
100
AcDbEntity
  8
仮想線
 48
0.5
100
AcDbLine
 10
-161.2093127163279
 20
-648.2334814598147
 30
0.0
 11
-162.209312704609
 21
-648.2336345535434
 31
0.0
  0
LINE
  5
1F85A
330
18
100
AcDbEntity
  8
仮想線
  6
BYBLOCK
 48
0.5
100
AcDbLine
 10
-161.212390288532
 20
-650.1553933764153
 30
0.0
 11
-152.2123902885313
 21
-650.1553933764149
 31
0.0
  0
LINE
  5
1F85B
330
18
100
AcDbEntity
  8
仮想線
 48
0.5
100
AcDbLine
 10
-161.2123692255382
 20
-606.1553933764145
 30
0.0
 11
-161.212390288532
 21
-650.1553933764153
 31
0.0
  0
LINE
  5
1F85C
330
18
100
AcDbEntity
  8
中心線
 48
0.5
100
AcDbLine
 10
-141.6793751729897
 20
-613.2347829916957
 30
0.0
 11
-171.2702382151617
 21
-613.2347829916957
 31
0.0
  0
LINE
  5
1F85D
330
18
100
AcDbEntity
  8
仮想線
 48
0.5
100
AcDbLine
 10
-161.2123744912863
 20
-608.2347829916957
 30
0.0
 11
-162.2123744912863
 21
-608.2347829916957
 31
0.0
  0
LINE
  5
1F85E
330
18
100
AcDbEntity
  8
仮想線
 48
0.5
100
AcDbLine
 10
-163.5123744912865
 20
-608.9053933764152
 30
0.0
 11
-168.2123744912863
 21
-608.9053933764152
 31
0.0
  0
LINE
  5
1F85F
330
18
100
AcDbEntity
  8
仮想線
 48
0.5
100
AcDbLine
 10
-168.5123744912864
 20
-609.2053933764153
 30
0.0
 11
-168.2123744912863
 21
-608.9053933764152
 31
0.0
  0
LINE
  5
1F860
330
18
100
AcDbEntity
  8
仮想線
 48
0.5
100
AcDbLine
 10
-162.2123744912865
 20
-608.6347829916958
 30
0.0
 11
-163.5123744912865
 21
-608.6347829916958
 31
0.0
  0
LINE
  5
1F861
330
18
100
AcDbEntity
  8
仮想線
 48
0.5
100
AcDbLine
 10
-162.2123744912863
 20
-608.2347829916957
 30
0.0
 11
-162.2123744912873
 21
-613.2347829916957
 31
0.0
  0
LINE
  5
1F862
330
18
100
AcDbEntity
  8
仮想線
 48
0.5
100
AcDbLine
 10
-161.2123744912863
 20
-618.2347829916957
 30
0.0
 11
-162.2123744912863
 21
-618.2347829916957
 31
0.0
  0
LINE
  5
1F863
330
18
100
AcDbEntity
  8
仮想線
 48
0.5
100
AcDbLine
 10
-162.2123744912865
 20
-617.8347829916956
 30
0.0
 11
-163.5123744912865
 21
-617.8347829916956
 31
0.0
  0
LINE
  5
1F864
330
18
100
AcDbEntity
  8
仮想線
 48
0.5
100
AcDbLine
 10
-168.2123744912866
 20
-617.4053933764152
 30
0.0
 11
-168.5123744912864
 21
-617.1053933764151
 31
0.0
  0
LINE
  5
1F865
330
18
100
AcDbEntity
  8
仮想線
 48
0.5
100
AcDbLine
 10
-163.5123744912865
 20
-617.4053933764152
 30
0.0
 11
-168.2123744912866
 21
-617.4053933764152
 31
0.0
  0
LINE
  5
1F866
330
18
100
AcDbEntity
  8
仮想線
 48
0.5
100
AcDbLine
 10
-163.5123744912865
 20
-608.6347829916958
 30
0.0
 11
-163.5123744912865
 21
-617.8347829916956
 31
0.0
  0
LINE
  5
1F867
330
18
100
AcDbEntity
  8
仮想線
 48
0.5
100
AcDbLine
 10
-162.2123744912873
 20
-613.2347829916957
 30
0.0
 11
-162.2123744912863
 21
-618.2347829916957
 31
0.0
  0
LINE
  5
1F868
330
18
100
AcDbEntity
  8
仮想線
 48
0.5
100
AcDbLine
 10
-168.5123744912864
 20
-609.2053933764153
 30
0.0
 11
-168.5123744912864
 21
-617.1053933764151
 31
0.0
  0
LINE
  5
1F869
330
18
100
AcDbEntity
  8
仮想線
 48
0.5
100
AcDbLine
 10
-152.2123692255374
 20
-606.1553933764147
 30
0.0
 11
-161.2123692255382
 21
-606.1553933764145
 31
0.0
  0
LINE
  5
1F86A
330
18
100
AcDbEntity
  8
仮想線
  6
BYBLOCK
 48
0.5
100
AcDbLine
 10
-152.2123692255374
 20
-606.1553933764147
 30
0.0
 11
-152.2123902885313
 21
-650.1553933764149
 31
0.0
  0
LINE
  5
1F8DF
330
18
100
AcDbEntity
  8
仮想線
 48
0.5
100
AcDbLine
 10
435.305210618784
 20
-645.2347829916962
 30
0.0
 11
435.305210618784
 21
-611.2347829916962
 31
0.0
  0
LINE
  5
1F8E2
330
18
100
AcDbEntity
  8
仮想線
 48
0.5
100
AcDbLine
 10
360.305210618784
 20
-616.2347829916962
 30
0.0
 11
370.305210618784
 21
-606.2347829916959
 31
0.0
  0
CIRCLE
  5
1F8E3
330
18
100
AcDbEntity
  8
仮想線
 48
0.5
100
AcDbCircle
 10
420.3052106187841
 20
-613.2347829916962
 30
0.0
 40
4.5
  0
LINE
  5
1F8E4
330
18
100
AcDbEntity
  8
中心線
100
AcDbLine
 10
380.305210618784
 20
-653.8517564716876
 30
0.0
 11
380.305210618784
 21
-604.300819904476
 31
0.0
  0
LINE
  5
1F8E7
330
18
100
AcDbEntity
  8
仮想線
 48
0.5
100
AcDbLine
 10
370.305210618784
 20
-650.2347829916962
 30
0.0
 11
430.305210618784
 21
-650.2347829916962
 31
0.0
  0
LINE
  5
1F8E8
330
18
100
AcDbEntity
  8
中心線
100
AcDbLine
 10
356.027021699954
 20
-628.2347829916962
 30
0.0
 11
437.1590221305781
 21
-628.2347829916962
 31
0.0
  0
CIRCLE
  5
1F8E9
330
18
100
AcDbEntity
  8
仮想線
 48
0.5
100
AcDbCircle
 10
380.3052106187843
 20
-628.2347829916962
 30
0.0
 40
10.0
  0
LINE
  5
1F8EA
330
18
100
AcDbEntity
  8
仮想線
 48
0.5
100
AcDbLine
 10
430.305210618784
 20
-650.2347829916962
 30
0.0
 11
435.305210618784
 21
-645.2347829916962
 31
0.0
  0
LINE
  5
1F8EB
330
18
100
AcDbEntity
  8
中心線
100
AcDbLine
 10
420.305210618784
 20
-649.6824072449497
 30
0.0
 11
420.305210618784
 21
-604.1563046984956
 31
0.0
  0
CIRCLE
  5
1F8EC
330
18
100
AcDbEntity
  8
仮想線
 48
0.5
100
AcDbCircle
 10
420.3052106187841
 20
-643.234782991696
 30
0.0
 40
4.5
  0
LINE
  5
1F8EF
330
18
100
AcDbEntity
  8
中心線
100
AcDbLine
 10
412.6495935855341
 20
-643.234782991696
 30
0.0
 11
427.9687028563673
 21
-643.234782991696
 31
0.0
  0
LINE
  5
1F8F0
330
18
100
AcDbEntity
  8
仮想線
 48
0.5
100
AcDbLine
 10
370.305210618784
 20
-650.2347829916962
 30
0.0
 11
360.305210618784
 21
-640.2347829916962
 31
0.0
  0
LINE
  5
1F8F4
330
18
100
AcDbEntity
  8
仮想線
 48
0.5
100
AcDbLine
 10
360.305210618784
 20
-616.2347829916962
 30
0.0
 11
360.305210618784
 21
-640.2347829916962
 31
0.0
  0
LINE
  5
1F8F6
330
18
100
AcDbEntity
  8
仮想線
 48
0.5
100
AcDbLine
 10
430.305210618784
 20
-606.2347829916959
 30
0.0
 11
370.305210618784
 21
-606.2347829916959
 31
0.0
  0
LINE
  5
1F8F9
330
18
100
AcDbEntity
  8
中心線
100
AcDbLine
 10
412.6443047418722
 20
-613.2347829916962
 30
0.0
 11
427.7305148733153
 21
-613.2347829916962
 31
0.0
  0
LINE
  5
1F8FA
330
18
100
AcDbEntity
  8
仮想線
 48
0.5
100
AcDbLine
 10
435.305210618784
 20
-611.2347829916962
 30
0.0
 11
430.305210618784
 21
-606.2347829916959
 31
0.0
  0
LINE
  5
1F9C9
330
18
100
AcDbEntity
  8
0
100
AcDbLine
 10
439.305210618784
 20
-648.3096428915803
 30
0.0
 11
439.305210618784
 21
-608.1599230918112
 31
0.0
  0
LINE
  5
1F9D9
330
18
100
AcDbEntity
  8
0
100
AcDbLine
 10
249.7876202049613
 20
-648.3096428915803
 30
0.0
 11
249.7876202049613
 21
-608.1599230918111
 31
0.0
  0
LINE
  5
1F9DA
330
18
100
AcDbEntity
  8
0
100
AcDbLine
 10
-152.2123797950385
 20
-648.3096428915803
 30
0.0
 11
-152.2123797950385
 21
-608.1599230918108
 31
0.0
  0
ARC
  5
1F9DB
330
18
100
AcDbEntity
  8
0
100
AcDbCircle
 10
48.78762020496135
 20
-628.2347829916957
 30
0.0
 40
202.0
100
AcDbArc
 50
5.703497726122265
 51
174.2965022738776
  0
LINE
  5
1F9DC
330
18
100
AcDbEntity
  8
0
100
AcDbLine
 10
409.3052106187839
 20
-608.1599230918112
 30
0.0
 11
439.305210618784
 21
-608.1599230918112
 31
0.0
  0
LINE
  5
1F9DD
330
18
100
AcDbEntity
  8
0
100
AcDbLine
 10
409.3052106187839
 20
-648.3096428915803
 30
0.0
 11
439.305210618784
 21
-648.3096428915803
 31
0.0
  0
LINE
  5
1F9DF
330
18
100
AcDbEntity
  8
0
100
AcDbLine
 10
1127.084544014991
 20
-608.1598268920912
 30
0.0
 11
1127.084563234838
 21
-648.3095466521291
 31
0.0
  0
LINE
  5
1F9E0
330
18
100
AcDbEntity
  8
0
100
AcDbLine
 10
725.0845632349312
 20
-608.1598268519011
 30
0.0
 11
725.0845440150833
 21
-648.3095466923181
 31
0.0
  0
ARC
  5
1F9E1
330
18
100
AcDbEntity
  8
0
100
AcDbCircle
 10
926.0845536229542
 20
-628.2347829916962
 30
0.0
 40
202.0
100
AcDbArc
 50
185.7034703041739
 51
354.2965297072826
  0
LINE
  5
206EC
102
{ACAD_REACTORS
330
20781
102
}
330
18
100
AcDbEntity
  8
0
  6
CONTINUOUS
 62
     7
100
AcDbLine
 10
663.937842834921
 20
-869.4009418663606
 30
0.0
 11
663.937842834921
 21
-862.0547657064996
 31
0.0
  0
LINE
  5
206ED
102
{ACAD_REACTORS
330
20781
102
}
330
18
100
AcDbEntity
  8
0
  6
CONTINUOUS
 62
     7
100
AcDbLine
 10
637.9378428349211
 20
-869.4009418663606
 30
0.0
 11
637.9378428349211
 21
-862.0547657064996
 31
0.0
  0
LINE
  5
206EE
102
{ACAD_REACTORS
330
20781
102
}
330
18
100
AcDbEntity
  8
中心線
100
AcDbLine
 10
650.9177341592582
 20
-890.9813380781994
 30
0.0
 11
650.9177341592589
 21
-809.8746497671161
 31
0.0
  0
LINE
  5
206EF
102
{ACAD_REACTORS
330
20781
102
}
330
18
100
AcDbEntity
  8
0
  6
CONTINUOUS
 62
     7
100
AcDbLine
 10
662.9878428349212
 20
-886.9009418663607
 30
0.0
 11
638.8878428349207
 21
-886.9009418663607
 31
0.0
  0
LINE
  5
206F0
102
{ACAD_REACTORS
330
20781
102
}
330
18
100
AcDbEntity
  8
0
  6
CONTINUOUS
 62
     7
100
AcDbLine
 10
663.7878428349213
 20
-886.1009418663604
 30
0.0
 11
638.0878428349206
 21
-886.1009418663604
 31
0.0
  0
LINE
  5
206F1
102
{ACAD_REACTORS
330
20781
102
}
330
18
100
AcDbEntity
  8
0
  6
CONTINUOUS
 62
     7
100
AcDbLine
 10
638.0878428349206
 20
-881.4009418663607
 30
0.0
 11
663.7878428349213
 21
-881.4009418663607
 31
0.0
  0
LINE
  5
206F2
102
{ACAD_REACTORS
330
20781
102
}
330
18
100
AcDbEntity
  8
0
  6
CONTINUOUS
 62
     7
100
AcDbLine
 10
663.737842834856
 20
-870.4009418663877
 30
0.0
 11
638.137842834921
 21
-870.4009418677738
 31
0.0
  0
LINE
  5
206F3
102
{ACAD_REACTORS
330
20781
102
}
330
18
100
AcDbEntity
  8
0
  6
CONTINUOUS
 62
     7
100
AcDbLine
 10
663.937842834921
 20
-869.4009418663606
 30
0.0
 11
637.9378428349211
 21
-869.4009418663606
 31
0.0
  0
LINE
  5
206F4
102
{ACAD_REACTORS
330
20781
102
}
330
18
100
AcDbEntity
  8
0
  6
CONTINUOUS
 62
     7
100
AcDbLine
 10
663.7378428350181
 20
-873.4009418663879
 30
0.0
 11
638.1378428350832
 21
-873.4009418677738
 31
0.0
  0
LINE
  5
206F5
102
{ACAD_REACTORS
330
20781
102
}
330
18
100
AcDbEntity
  8
0
  6
CONTINUOUS
 62
     3
100
AcDbLine
 10
639.8378428349206
 20
-869.4009418663606
 30
0.0
 11
639.437842834921
 21
-870.093762189388
 31
0.0
  0
LINE
  5
206F6
102
{ACAD_REACTORS
330
20781
102
}
330
18
100
AcDbEntity
  8
0
  6
CONTINUOUS
 62
     7
100
AcDbLine
 10
639.437842834921
 20
-869.4009418663606
 30
0.0
 11
639.437842834921
 21
-870.4009418663606
 31
0.0
  0
LINE
  5
206F7
102
{ACAD_REACTORS
330
20781
102
}
330
18
100
AcDbEntity
  8
0
  6
CONTINUOUS
 62
     7
100
AcDbLine
 10
636.937842834921
 20
-871.6009418663603
 30
0.0
 11
636.9378428349535
 21
-872.2009622520785
 31
0.0
  0
LINE
  5
206F8
102
{ACAD_REACTORS
330
20781
102
}
330
18
100
AcDbEntity
  8
0
  6
CONTINUOUS
 62
     3
100
AcDbLine
 10
638.5878428349207
 20
-881.4009418663607
 30
0.0
 11
638.0878428349206
 21
-880.5349164625765
 31
0.0
  0
LINE
  5
206F9
102
{ACAD_REACTORS
330
20781
102
}
330
18
100
AcDbEntity
  8
0
  6
CONTINUOUS
 62
     7
100
AcDbLine
 10
638.8878428349207
 20
-886.9009418663607
 30
0.0
 11
638.0878428349206
 21
-886.1009418663604
 31
0.0
  0
LINE
  5
206FA
102
{ACAD_REACTORS
330
20781
102
}
330
18
100
AcDbEntity
  8
0
  6
CONTINUOUS
 62
     3
100
AcDbLine
 10
638.5878428349207
 20
-886.6009418663605
 30
0.0
 11
638.5878428349207
 21
-881.4009418663607
 31
0.0
  0
LINE
  5
206FB
102
{ACAD_REACTORS
330
20781
102
}
330
18
100
AcDbEntity
  8
0
  6
CONTINUOUS
 62
     7
100
AcDbLine
 10
638.0878428348911
 20
-886.1009418663604
 30
0.0
 11
638.0878428345146
 21
-873.4009418677761
 31
0.0
  0
ARC
  5
206FC
102
{ACAD_REACTORS
330
20781
102
}
330
18
100
AcDbEntity
  8
0
  6
CONTINUOUS
 62
     7
100
AcDbCircle
 10
638.137842834921
 20
-871.6009418677741
 30
0.0
 40
1.199999999999999
100
AcDbArc
 50
90.0
 51
180.0000015352188
  0
ARC
  5
206FD
102
{ACAD_REACTORS
330
20781
102
}
330
18
100
AcDbEntity
  8
0
  6
CONTINUOUS
 62
     7
100
AcDbCircle
 10
638.1378428349534
 20
-872.2009622520785
 30
0.0
 40
1.199999999999999
100
AcDbArc
 50
179.999998470982
 51
270.0000000062011
  0
ARC
  5
206FE
102
{ACAD_REACTORS
330
20781
102
}
330
18
100
AcDbEntity
  8
0
  6
CONTINUOUS
 62
     7
100
AcDbCircle
 10
663.737842834921
 20
-871.6009418663615
 30
0.0
 40
1.199999999999999
100
AcDbArc
 50
359.999998464729
 51
90.0
  0
LINE
  5
206FF
102
{ACAD_REACTORS
330
20781
102
}
330
18
100
AcDbEntity
  8
0
  6
CONTINUOUS
 62
     7
100
AcDbLine
 10
662.437842834921
 20
-869.4009418663606
 30
0.0
 11
662.437842834921
 21
-870.4009418663606
 31
0.0
  0
LINE
  5
20700
102
{ACAD_REACTORS
330
20781
102
}
330
18
100
AcDbEntity
  8
0
  6
CONTINUOUS
 62
     3
100
AcDbLine
 10
662.0378428349213
 20
-869.4009418663606
 30
0.0
 11
662.437842834921
 21
-870.093762189388
 31
0.0
  0
LINE
  5
20701
102
{ACAD_REACTORS
330
20781
102
}
330
18
100
AcDbEntity
  8
0
  6
CONTINUOUS
 62
     7
100
AcDbLine
 10
664.937842834921
 20
-871.6009418663603
 30
0.0
 11
664.9378428349535
 21
-872.2009622507245
 31
0.0
  0
ARC
  5
20702
102
{ACAD_REACTORS
330
20781
102
}
330
18
100
AcDbEntity
  8
0
  6
CONTINUOUS
 62
     7
100
AcDbCircle
 10
663.7378428349535
 20
-872.2009622507192
 30
0.0
 40
1.199999999999999
100
AcDbArc
 50
270.0000000062011
 51
0.0000015414720599
  0
LINE
  5
20703
102
{ACAD_REACTORS
330
20781
102
}
330
18
100
AcDbEntity
  8
0
  6
CONTINUOUS
 62
     3
100
AcDbLine
 10
663.2878428349213
 20
-886.6009418663605
 30
0.0
 11
663.2878428349213
 21
-881.4009418663607
 31
0.0
  0
LINE
  5
20704
102
{ACAD_REACTORS
330
20781
102
}
330
18
100
AcDbEntity
  8
0
  6
CONTINUOUS
 62
     3
100
AcDbLine
 10
663.2878428349213
 20
-881.4009418663607
 30
0.0
 11
663.7878428349213
 21
-880.5349164625765
 31
0.0
  0
LINE
  5
20705
102
{ACAD_REACTORS
330
20781
102
}
330
18
100
AcDbEntity
  8
0
  6
CONTINUOUS
 62
     7
100
AcDbLine
 10
662.9878428349212
 20
-886.9009418663607
 30
0.0
 11
663.7878428349213
 21
-886.1009418663604
 31
0.0
  0
LINE
  5
20706
102
{ACAD_REACTORS
330
20781
102
}
330
18
100
AcDbEntity
  8
0
  6
CONTINUOUS
 62
     7
100
AcDbLine
 10
663.7878428349213
 20
-886.1009418663604
 30
0.0
 11
663.7878428349213
 21
-873.3999201315484
 31
0.0
  0
LINE
  5
20707
102
{ACAD_REACTORS
330
20781
102
}
330
18
100
AcDbEntity
  8
0
100
AcDbLine
 10
658.7177341592622
 20
-833.8964738575121
 30
0.0
 11
643.1177341592619
 21
-833.8964738575111
 31
0.0
  0
LINE
  5
20708
102
{ACAD_REACTORS
330
20781
102
}
330
18
100
AcDbEntity
  8
0
100
AcDbLine
 10
654.417734156329
 20
-833.9009418663604
 30
0.0
 11
647.4177341621887
 21
-833.9009418663604
 31
0.0
  0
LINE
  5
20709
102
{ACAD_REACTORS
330
20781
102
}
330
18
100
AcDbEntity
  8
0
  6
CONTINUOUS
 62
     7
100
AcDbLine
 10
639.9378428349213
 20
-833.9009418663604
 30
0.0
 11
649.437842834921
 21
-833.9009418663604
 31
0.0
  0
LINE
  5
2070A
102
{ACAD_REACTORS
330
20781
102
}
330
18
100
AcDbEntity
  8
CENTER
  6
CENTER
 62
     1
100
AcDbLine
 10
656.437842834921
 20
-837.4944780763119
 30
0.0
 11
643.437842834921
 21
-837.4944780763119
 31
0.0
  0
LINE
  5
2070B
102
{ACAD_REACTORS
330
20781
102
}
330
18
100
AcDbEntity
  8
0
100
AcDbLine
 10
653.8577341592572
 20
-833.8964738575111
 30
0.0
 11
647.9777341592575
 21
-833.8964738575111
 31
0.0
  0
HATCH
  5
2070C
102
{ACAD_REACTORS
330
20781
102
}
330
18
100
AcDbEntity
  8
文字
100
AcDbHatch
 10
0.0
 20
0.0
 30
0.0
210
0.0
220
0.0
230
1.0
  2
ANSI31
 70
     0
 71
     0
 91
        2
 92
        7
 72
     0
 73
     1
 93
        4
 10
647.3740493447243
 20
-815.1977838659155
 10
647.3740493447243
 20
-833.8964738575114
 10
650.8843082055607
 20
-833.8964738575109
 10
650.8816472114499
 20
-815.1977838659155
 97
        0
 92
        7
 72
     0
 73
     1
 93
        4
 10
650.8816472114499
 20
-815.1977838659151
 10
650.884308205561
 20
-833.8964738575111
 10
654.3740493388642
 20
-833.8964738575114
 10
654.3740493388642
 20
-815.1977838659156
 97
        0
 75
     0
 76
     1
 52
90.0
 41
5.0
 77
     0
 78
     1
 53
135.0
 43
1139.511340605447
 44
356.8885250143495
 45
-0.4419417382415923
 46
-0.4419417382415923
 79
     0
 47
0.1744887513937942
 98
        2
 10
649.2746704311095
 20
-825.8470425954406
 10
652.4154689555281
 20
-826.7199425421866
  0
LWPOLYLINE
  5
2070D
102
{ACAD_REACTORS
330
20781
102
}
330
18
100
AcDbEntity
  8
文字
100
AcDbPolyline
 90
        4
 70
     1
 43
0.0
 10
647.3740493447243
 20
-833.8964738575111
 10
647.3740493447243
 20
-815.1977838659156
 10
654.3740493388642
 20
-815.1977838659156
 10
654.3740493388642
 20
-833.8964738575111
  0
LINE
  5
2070E
102
{ACAD_REACTORS
330
20781
102
}
330
18
100
AcDbEntity
  8
0
100
AcDbLine
 10
641.5177341592573
 20
-833.8964738575111
 30
0.0
 11
660.3177341592576
 21
-833.8964738575111
 31
0.0
  0
LINE
  5
2070F
102
{ACAD_REACTORS
330
20781
102
}
330
18
100
AcDbEntity
  8
0
  6
CONTINUOUS
 62
     7
100
AcDbLine
 10
639.937842834921
 20
-841.133552204544
 30
0.0
 11
661.9272985659618
 21
-841.133552204544
 31
0.0
  0
LINE
  5
20710
102
{ACAD_REACTORS
330
20781
102
}
330
18
100
AcDbEntity
  8
0
  6
CONTINUOUS
 62
     7
100
AcDbLine
 10
640.0498240073752
 20
-843.6110658679343
 30
0.0
 11
661.8258616624667
 21
-843.6110658679343
 31
0.0
  0
LINE
  5
20711
102
{ACAD_REACTORS
330
20781
102
}
330
18
100
AcDbEntity
  8
0
  6
CONTINUOUS
 62
     7
100
AcDbLine
 10
640.3140632820349
 20
-845.214989292641
 30
0.0
 11
661.5616223878072
 21
-845.214989292641
 31
0.0
  0
LINE
  5
20712
102
{ACAD_REACTORS
330
20781
102
}
330
18
100
AcDbEntity
  8
0
  6
CONTINUOUS
 62
     7
100
AcDbLine
 10
663.937842834921
 20
-862.0547657064996
 30
0.0
 11
637.9378428349211
 21
-862.0547657064996
 31
0.0
  0
LINE
  5
20713
102
{ACAD_REACTORS
330
20781
102
}
330
18
100
AcDbEntity
  8
0
  6
CONTINUOUS
 62
     7
100
AcDbLine
 10
645.9378428349211
 20
-833.9009418663604
 30
0.0
 11
645.9378428349211
 21
-841.1335522045437
 31
0.0
  0
ARC
  5
20714
102
{ACAD_REACTORS
330
20781
102
}
330
18
100
AcDbEntity
  8
0
100
AcDbCircle
 10
643.937842834921
 20
-840.0880142862629
 30
0.0
 40
5.0
100
AcDbArc
 50
180.0
 51
206.103609749039
  0
ARC
  5
20715
102
{ACAD_REACTORS
330
20781
102
}
330
18
100
AcDbEntity
  8
0
100
AcDbCircle
 10
639.937842834921
 20
-840.0880142862629
 30
0.0
 40
1.0
100
AcDbArc
 50
180.0
 51
270.0
  0
LINE
  5
20716
102
{ACAD_REACTORS
330
20781
102
}
330
18
100
AcDbEntity
  8
0
100
AcDbLine
 10
639.44784355028
 20
-842.2879930188694
 30
0.0
 11
639.8040625666761
 21
-843.0150105600345
 31
0.0
  0
ARC
  5
20717
102
{ACAD_REACTORS
330
20781
102
}
330
18
100
AcDbEntity
  8
0
100
AcDbCircle
 10
635.3140632820347
 20
-845.214989292641
 30
0.0
 40
5.0
100
AcDbArc
 50
351.7957590117371
 51
26.103609749039
  0
LINE
  5
20718
102
{ACAD_REACTORS
330
20781
102
}
330
18
100
AcDbEntity
  8
0
  6
CONTINUOUS
 62
     7
100
AcDbLine
 10
643.937842834921
 20
-843.6110658679343
 30
0.0
 11
643.937842834921
 21
-845.214989292641
 31
0.0
  0
LINE
  5
20719
102
{ACAD_REACTORS
330
20781
102
}
330
18
100
AcDbEntity
  8
0
  6
CONTINUOUS
 62
     7
100
AcDbLine
 10
637.9378428349211
 20
-862.0547657064996
 30
0.0
 11
640.2628916366126
 21
-845.9285002714821
 31
0.0
  0
ARC
  5
2071A
102
{ACAD_REACTORS
330
20781
102
}
330
18
100
AcDbEntity
  8
0
  6
CONTINUOUS
 62
     7
100
AcDbCircle
 10
645.1987226932963
 20
-835.7444780763119
 30
0.0
 40
1.0
100
AcDbArc
 50
90.0
 51
163.0422379459657
  0
LINE
  5
2071B
102
{ACAD_REACTORS
330
20781
102
}
330
18
100
AcDbEntity
  8
0
  6
CONTINUOUS
 62
     7
100
AcDbLine
 10
645.9378428349211
 20
-834.7444780763119
 30
0.0
 11
645.1987226932963
 21
-834.7444780763119
 31
0.0
  0
ARC
  5
2071C
102
{ACAD_REACTORS
330
20781
102
}
330
18
100
AcDbEntity
  8
0
  6
CONTINUOUS
 62
     7
100
AcDbCircle
 10
650.9378428349211
 20
-837.4944780763119
 30
0.0
 40
7.0
100
AcDbArc
 50
163.0422379459657
 51
196.9577651245225
  0
LINE
  5
2071D
102
{ACAD_REACTORS
330
20781
102
}
330
18
100
AcDbEntity
  8
0
  6
CONTINUOUS
 62
     7
100
AcDbLine
 10
644.5378428349213
 20
-836.9944780763118
 30
0.0
 11
644.5378428349213
 21
-837.9944780763119
 31
0.0
  0
LINE
  5
2071E
102
{ACAD_REACTORS
330
20781
102
}
330
18
100
AcDbEntity
  8
0
  6
CONTINUOUS
 62
     7
100
AcDbLine
 10
644.5378428349213
 20
-837.9944780763119
 30
0.0
 11
643.9557227978422
 21
-837.9944780763119
 31
0.0
  0
LINE
  5
2071F
102
{ACAD_REACTORS
330
20781
102
}
330
18
100
AcDbEntity
  8
0
  6
CONTINUOUS
 62
     7
100
AcDbLine
 10
643.9557227978422
 20
-836.9944780763118
 30
0.0
 11
644.5378428349213
 21
-836.9944780763118
 31
0.0
  0
LINE
  5
20720
102
{ACAD_REACTORS
330
20781
102
}
330
18
100
AcDbEntity
  8
0
  6
CONTINUOUS
 62
     7
100
AcDbLine
 10
645.9378428349211
 20
-840.2444780763119
 30
0.0
 11
645.1987226932963
 21
-840.2444780763119
 31
0.0
  0
ARC
  5
20721
102
{ACAD_REACTORS
330
20781
102
}
330
18
100
AcDbEntity
  8
0
  6
CONTINUOUS
 62
     7
100
AcDbCircle
 10
645.1987226932963
 20
-839.2444780763119
 30
0.0
 40
1.0
100
AcDbArc
 50
196.9577651245225
 51
270.0000030704375
  0
ARC
  5
20722
102
{ACAD_REACTORS
330
20781
102
}
330
18
100
AcDbEntity
  8
0
  6
CONTINUOUS
 62
     7
100
AcDbCircle
 10
639.9378428349213
 20
-834.9009418663607
 30
0.0
 40
1.0
100
AcDbArc
 50
90.0
 51
180.0
  0
LINE
  5
20723
102
{ACAD_REACTORS
330
20781
102
}
330
18
100
AcDbEntity
  8
0
  6
CONTINUOUS
 62
     7
100
AcDbLine
 10
638.937842834921
 20
-840.0880142862629
 30
0.0
 11
638.9378428349212
 21
-834.9009418663607
 31
0.0
  0
ARC
  5
20726
102
{ACAD_REACTORS
330
20781
102
}
330
18
100
AcDbEntity
  8
0
100
AcDbCircle
 10
657.937842834921
 20
-840.152339174055
 30
0.0
 40
5.0
100
AcDbArc
 50
329.5846372733068
 51
0.0
  0
ARC
  5
20727
102
{ACAD_REACTORS
330
20781
102
}
330
18
100
AcDbEntity
  8
0
100
AcDbCircle
 10
661.9231567878711
 20
-840.1335607811713
 30
0.0
 40
1.0
100
AcDbArc
 50
270.2373070827531
 51
0.2373070827595914
  0
LINE
  5
20728
102
{ACAD_REACTORS
330
20781
102
}
330
18
100
AcDbEntity
  8
0
  6
CONTINUOUS
 62
     7
100
AcDbLine
 10
652.437842834921
 20
-834.4009418663606
 30
0.0
 11
652.437842834921
 21
-841.1335522045437
 31
0.0
  0
LINE
  5
20729
102
{ACAD_REACTORS
330
20781
102
}
330
18
100
AcDbEntity
  8
0
  6
CONTINUOUS
 62
     7
100
AcDbLine
 10
649.437842834921
 20
-833.9009418663604
 30
0.0
 11
649.437842834921
 21
-841.1335522045437
 31
0.0
  0
ARC
  5
2072A
102
{ACAD_REACTORS
330
20781
102
}
330
18
100
AcDbEntity
  8
0
100
AcDbCircle
 10
666.5616223878072
 20
-845.214989292641
 30
0.0
 40
5.0
100
AcDbArc
 50
149.5846372733067
 51
188.2042409882629
  0
LINE
  5
2072B
102
{ACAD_REACTORS
330
20781
102
}
330
18
100
AcDbEntity
  8
0
  6
CONTINUOUS
 62
     7
100
AcDbLine
 10
663.937842834921
 20
-862.0547657064996
 30
0.0
 11
661.6127940332291
 21
-845.9285002714821
 31
0.0
  0
LINE
  5
2072C
102
{ACAD_REACTORS
330
20781
102
}
330
18
100
AcDbEntity
  8
0
  6
CONTINUOUS
 62
     7
100
AcDbLine
 10
657.937842834921
 20
-843.6110658679343
 30
0.0
 11
657.937842834921
 21
-845.214989292641
 31
0.0
  0
ARC
  5
2072D
102
{ACAD_REACTORS
330
20781
102
}
330
18
100
AcDbEntity
  8
0
  6
CONTINUOUS
 62
     7
100
AcDbCircle
 10
661.937842834921
 20
-834.9009418663607
 30
0.0
 40
1.0
100
AcDbArc
 50
0.0
 51
90.0
  0
LINE
  5
2072E
102
{ACAD_REACTORS
330
20781
102
}
330
18
100
AcDbEntity
  8
0
  6
CONTINUOUS
 62
     7
100
AcDbLine
 10
649.437842834921
 20
-835.9944780763118
 30
0.0
 11
651.1378428349209
 21
-835.9944780763118
 31
0.0
  0
LINE
  5
2072F
102
{ACAD_REACTORS
330
20781
102
}
330
18
100
AcDbEntity
  8
0
  6
CONTINUOUS
 62
     7
100
AcDbLine
 10
651.1378428349209
 20
-835.27228741809
 30
0.0
 11
651.1378428349209
 21
-839.7166687345336
 31
0.0
  0
LINE
  5
20730
102
{ACAD_REACTORS
330
20781
102
}
330
18
100
AcDbEntity
  8
0
  6
CONTINUOUS
 62
     7
100
AcDbLine
 10
652.437842834921
 20
-834.8944780763115
 30
0.0
 11
651.4148338852557
 21
-834.9731710724402
 31
0.0
  0
ARC
  5
20731
102
{ACAD_REACTORS
330
20781
102
}
330
18
100
AcDbEntity
  8
0
  6
CONTINUOUS
 62
     7
100
AcDbCircle
 10
651.437842834921
 20
-835.2722874180908
 30
0.0
 40
0.3
100
AcDbArc
 50
94.39870543002205
 51
180.0000015352188
  0
ARC
  5
20732
102
{ACAD_REACTORS
330
20781
102
}
330
18
100
AcDbEntity
  8
0
  6
CONTINUOUS
 62
     7
100
AcDbCircle
 10
652.937842834921
 20
-834.4009418663606
 30
0.0
 40
0.5
100
AcDbArc
 50
90.0
 51
180.0000015352188
  0
ARC
  5
20733
102
{ACAD_REACTORS
330
20781
102
}
330
18
100
AcDbEntity
  8
0
  6
CONTINUOUS
 62
     7
100
AcDbCircle
 10
651.437842834921
 20
-839.7166687345336
 30
0.0
 40
0.3
100
AcDbArc
 50
180.0000015352188
 51
265.601297640445
  0
LINE
  5
20734
102
{ACAD_REACTORS
330
20781
102
}
330
18
100
AcDbEntity
  8
0
  6
CONTINUOUS
 62
     7
100
AcDbLine
 10
652.437842834921
 20
-840.0944780763122
 30
0.0
 11
651.4148338852557
 21
-840.0157850801836
 31
0.0
  0
LINE
  5
20735
102
{ACAD_REACTORS
330
20781
102
}
330
18
100
AcDbEntity
  8
0
  6
CONTINUOUS
 62
     7
100
AcDbLine
 10
651.1378428349209
 20
-838.9944780763119
 30
0.0
 11
649.437842834921
 21
-838.9944780763119
 31
0.0
  0
LINE
  5
20736
102
{ACAD_REACTORS
330
20781
102
}
330
18
100
AcDbEntity
  8
0
  6
CONTINUOUS
 62
     3
100
AcDbLine
 10
649.437842834921
 20
-838.4944780763117
 30
0.0
 11
651.1378428349209
 21
-838.4944780763117
 31
0.0
  0
LINE
  5
20737
102
{ACAD_REACTORS
330
20781
102
}
330
18
100
AcDbEntity
  8
0
  6
CONTINUOUS
 62
     3
100
AcDbLine
 10
649.437842834921
 20
-836.4944780763119
 30
0.0
 11
651.1378428349209
 21
-836.4944780763119
 31
0.0
  0
LINE
  5
20739
102
{ACAD_REACTORS
330
20781
102
}
330
18
100
AcDbEntity
  8
0
  6
CONTINUOUS
 62
     7
100
AcDbLine
 10
661.937842834921
 20
-833.9009418663604
 30
0.0
 11
652.937842834921
 21
-833.9009418663604
 31
0.0
  0
LINE
  5
2073A
102
{ACAD_REACTORS
330
20781
102
}
330
18
100
AcDbEntity
  8
0
  6
CONTINUOUS
 62
     7
100
AcDbLine
 10
662.9378428349211
 20
-840.1523391740548
 30
0.0
 11
662.9378428349211
 21
-834.9009418663607
 31
0.0
  0
LINE
  5
208E7
102
{ACAD_REACTORS
330
20A1F
102
}
330
18
100
AcDbEntity
  8
中心線
 48
2.0
100
AcDbLine
 10
664.6279946964382
 20
-434.2597079017933
 30
0.0
 11
664.6279946964382
 21
-346.7603343003658
 31
0.0
  0
LINE
  5
208E8
102
{ACAD_REACTORS
330
20A1F
102
}
330
18
100
AcDbEntity
  8
0
  6
CONTINUOUS
 62
     7
100
AcDbLine
 10
656.1279946964382
 20
-432.2597079017931
 30
0.0
 11
656.1279946964382
 21
-422.2597079017933
 31
0.0
  0
LINE
  5
208E9
102
{ACAD_REACTORS
330
20A1F
102
}
330
18
100
AcDbEntity
  8
0
  6
CONTINUOUS
 62
     7
100
AcDbLine
 10
661.1279946964382
 20
-433.2597079017932
 30
0.0
 11
661.1279946964382
 21
-420.2597079017932
 31
0.0
  0
LINE
  5
208EA
102
{ACAD_REACTORS
330
20A1F
102
}
330
18
100
AcDbEntity
  8
0
  6
CONTINUOUS
 62
     7
100
AcDbLine
 10
664.0279946964381
 20
-430.2863439885863
 30
0.0
 11
664.0279946964381
 21
-424.2330718150001
 31
0.0
  0
LINE
  5
208EB
102
{ACAD_REACTORS
330
20A1F
102
}
330
18
100
AcDbEntity
  8
0
  6
CONTINUOUS
 62
     7
100
AcDbLine
 10
651.6279946964382
 20
-432.2597079017931
 30
0.0
 11
651.6279946964382
 21
-422.2597079017933
 31
0.0
  0
ARC
  5
208EC
102
{ACAD_REACTORS
330
20A1F
102
}
330
18
100
AcDbEntity
  8
0
  6
CONTINUOUS
 62
     7
100
AcDbCircle
 10
666.4279946964382
 20
-427.2597079017931
 30
0.0
 40
9.0
100
AcDbArc
 50
343.3984516530188
 51
16.60155141744828
  0
LINE
  5
208ED
102
{ACAD_REACTORS
330
20A1F
102
}
330
18
100
AcDbEntity
  8
0
  6
CONTINUOUS
 62
     7
100
AcDbLine
 10
672.8279946964382
 20
-430.7597079017932
 30
0.0
 11
672.8279946964382
 21
-423.7597079017931
 31
0.0
  0
ARC
  5
208EE
102
{ACAD_REACTORS
330
20A1F
102
}
330
18
100
AcDbEntity
  8
0
  6
CONTINUOUS
 62
     7
100
AcDbCircle
 10
672.0255891187621
 20
-427.2597079017931
 30
0.0
 40
5.363684023199856
100
AcDbArc
 50
318.1744071516481
 51
41.82559591882418
  0
LINE
  5
208EF
102
{ACAD_REACTORS
330
20A1F
102
}
330
18
100
AcDbEntity
  8
0
  6
CONTINUOUS
 62
     7
100
AcDbLine
 10
672.1279946964382
 20
-421.2597079017932
 30
0.0
 11
672.1279946964382
 21
-433.2597079017932
 31
0.0
  0
LINE
  5
208F0
102
{ACAD_REACTORS
330
20A1F
102
}
330
18
100
AcDbEntity
  8
0
  6
CONTINUOUS
 62
     7
100
AcDbLine
 10
680.6279946964382
 20
-422.2597079017933
 30
0.0
 11
680.6279946964382
 21
-432.2597079017931
 31
0.0
  0
LINE
  5
208F1
102
{ACAD_REACTORS
330
20A1F
102
}
330
18
100
AcDbEntity
  8
0
  6
CONTINUOUS
 62
     7
100
AcDbLine
 10
667.1279946964382
 20
-433.2597079017932
 30
0.0
 11
667.1279946964382
 21
-421.2597079017932
 31
0.0
  0
LINE
  5
208F2
102
{ACAD_REACTORS
330
20A1F
102
}
330
18
100
AcDbEntity
  8
0
  6
CONTINUOUS
 62
     7
100
AcDbLine
 10
644.1279946964382
 20
-358.7603343003659
 30
0.0
 11
644.1279946964382
 21
-367.9603343003658
 31
0.0
  0
ARC
  5
208F3
102
{ACAD_REACTORS
330
20A1F
102
}
330
18
100
AcDbEntity
  8
0
  6
CONTINUOUS
 62
     7
100
AcDbCircle
 10
644.1279946964382
 20
-360.2603343003658
 30
0.0
 40
1.5
100
AcDbArc
 50
90.0000030704637
 51
179.9999984647681
  0
ARC
  5
208F4
102
{ACAD_REACTORS
330
20A1F
102
}
330
18
100
AcDbEntity
  8
0
  6
CONTINUOUS
 62
     7
100
AcDbCircle
 10
650.0736366354693
 20
-360.2603343003658
 30
0.0
 40
1.158185949502684
100
AcDbArc
 50
0.0000015352318498
 51
52.32741172652625
  0
ARC
  5
208F5
102
{ACAD_REACTORS
330
20A1F
102
}
330
18
100
AcDbEntity
  8
0
  6
CONTINUOUS
 62
     7
100
AcDbCircle
 10
652.2990048422807
 20
-360.2603343003658
 30
0.0
 40
3.666699160167071
100
AcDbArc
 50
157.751152362936
 51
179.9999984647615
  0
ARC
  5
208F6
102
{ACAD_REACTORS
330
20A1F
102
}
330
18
100
AcDbEntity
  8
0
  6
CONTINUOUS
 62
     7
100
AcDbCircle
 10
664.6279946964382
 20
-360.2603343003658
 30
0.0
 40
1.500000000000095
100
AcDbArc
 50
89.99999692953627
 51
179.9999984647681
  0
ARC
  5
208F7
102
{ACAD_REACTORS
330
20A1F
102
}
330
18
100
AcDbEntity
  8
0
  6
CONTINUOUS
 62
     7
100
AcDbCircle
 10
664.6279946964382
 20
-360.2603343003658
 30
0.0
 40
1.500000000000095
100
AcDbArc
 50
0.0000015352318498
 51
90.0000030704637
  0
ARC
  5
208F8
102
{ACAD_REACTORS
330
20A1F
102
}
330
18
100
AcDbEntity
  8
0
  6
CONTINUOUS
 62
     7
100
AcDbCircle
 10
676.9569845505955
 20
-360.2603343003658
 30
0.0
 40
3.666699160167071
100
AcDbArc
 50
0.0000015352383636
 51
22.24884763706387
  0
ARC
  5
208F9
102
{ACAD_REACTORS
330
20A1F
102
}
330
18
100
AcDbEntity
  8
0
  6
CONTINUOUS
 62
     7
100
AcDbCircle
 10
679.1823527574067
 20
-360.2603343003658
 30
0.0
 40
1.158185949502684
100
AcDbArc
 50
127.6725882734737
 51
179.9999984647681
  0
LINE
  5
208FA
102
{ACAD_REACTORS
330
20A1F
102
}
330
18
100
AcDbEntity
  8
0
  6
CONTINUOUS
 62
     7
100
AcDbLine
 10
685.1279946964382
 20
-358.7603343003659
 30
0.0
 11
685.1279946964382
 21
-367.9603343003658
 31
0.0
  0
ARC
  5
208FB
102
{ACAD_REACTORS
330
20A1F
102
}
330
18
100
AcDbEntity
  8
0
  6
CONTINUOUS
 62
     7
100
AcDbCircle
 10
685.1279946964382
 20
-360.2603343003658
 30
0.0
 40
1.5
100
AcDbArc
 50
0.0000015352318498
 51
89.99999692953627
  0
LINE
  5
208FC
102
{ACAD_REACTORS
330
20A1F
102
}
330
18
100
AcDbEntity
  8
0
  6
CONTINUOUS
 62
     7
100
AcDbLine
 10
681.7279946964378
 20
-348.1603343003655
 30
0.0
 11
647.5279946964382
 21
-348.1603343003658
 31
0.0
  0
LINE
  5
208FD
102
{ACAD_REACTORS
330
20A1F
102
}
330
18
100
AcDbEntity
  8
0
  6
CONTINUOUS
 62
     7
100
AcDbLine
 10
681.3279946964382
 20
-347.7603343003658
 30
0.0
 11
647.9279946964382
 21
-347.7603343003658
 31
0.0
  0
LINE
  5
208FE
102
{ACAD_REACTORS
330
20A1F
102
}
330
18
100
AcDbEntity
  8
0
  6
CONTINUOUS
 62
     7
100
AcDbLine
 10
644.6279946964382
 20
-358.2603343003659
 30
0.0
 11
684.6279946964382
 21
-358.2603343003659
 31
0.0
  0
LINE
  5
208FF
102
{ACAD_REACTORS
330
20A1F
102
}
330
18
100
AcDbEntity
  8
0
  6
CONTINUOUS
 62
     7
100
AcDbLine
 10
681.9279946964384
 20
-349.2603343003658
 30
0.0
 11
647.3279946964382
 21
-349.2603343003658
 31
0.0
  0
LINE
  5
20900
102
{ACAD_REACTORS
330
20A1F
102
}
330
18
100
AcDbEntity
  8
0
  6
CONTINUOUS
 62
     7
100
AcDbLine
 10
683.1279946964382
 20
-350.4603343003656
 30
0.0
 11
646.1279946964382
 21
-350.4603343003656
 31
0.0
  0
LINE
  5
20901
102
{ACAD_REACTORS
330
20A1F
102
}
330
18
100
AcDbEntity
  8
0
  6
CONTINUOUS
 62
     7
100
AcDbLine
 10
683.1279946964382
 20
-355.7603343003656
 30
0.0
 11
646.1279946964382
 21
-355.7603343003658
 31
0.0
  0
LINE
  5
20902
102
{ACAD_REACTORS
330
20A1F
102
}
330
18
100
AcDbEntity
  8
細線
 48
5.0
100
AcDbLine
 10
646.5779946964381
 20
-350.0103343003658
 30
0.0
 11
646.5779946964381
 21
-355.7603343003658
 31
0.0
  0
LINE
  5
20903
102
{ACAD_REACTORS
330
20A1F
102
}
330
18
100
AcDbEntity
  8
0
  6
CONTINUOUS
 62
     7
100
AcDbLine
 10
646.1279946964382
 20
-357.7603343003659
 30
0.0
 11
646.1279946964382
 21
-350.4603343003656
 31
0.0
  0
LINE
  5
20904
102
{ACAD_REACTORS
330
20A1F
102
}
330
18
100
AcDbEntity
  8
0
  6
CONTINUOUS
 62
     7
100
AcDbLine
 10
647.3279946964382
 20
-349.2603343003658
 30
0.0
 11
646.1279946964382
 21
-350.4603343003656
 31
0.0
  0
LINE
  5
20905
102
{ACAD_REACTORS
330
20A1F
102
}
330
18
100
AcDbEntity
  8
0
  6
CONTINUOUS
 62
     7
100
AcDbLine
 10
647.5279946964382
 20
-348.1603343003658
 30
0.0
 11
647.9279946964382
 21
-347.7603343003658
 31
0.0
  0
LINE
  5
20906
102
{ACAD_REACTORS
330
20A1F
102
}
330
18
100
AcDbEntity
  8
0
  6
CONTINUOUS
 62
     7
100
AcDbLine
 10
647.5279946964382
 20
-349.2603343003658
 30
0.0
 11
647.5279946964382
 21
-348.1603343003658
 31
0.0
  0
ARC
  5
20907
102
{ACAD_REACTORS
330
20A1F
102
}
330
18
100
AcDbEntity
  8
0
  6
CONTINUOUS
 62
     7
100
AcDbCircle
 10
645.6279946964382
 20
-357.7603343003658
 30
0.0
 40
0.5
100
AcDbArc
 50
270.0
 51
0.0000015352318498
  0
ARC
  5
20908
102
{ACAD_REACTORS
330
20A1F
102
}
330
18
100
AcDbEntity
  8
0
  6
CONTINUOUS
 62
     7
100
AcDbCircle
 10
644.6279946964382
 20
-358.7603343003658
 30
0.0
 40
0.5
100
AcDbArc
 50
90.0000030704637
 51
179.9999984647681
  0
LINE
  5
20909
102
{ACAD_REACTORS
330
20A1F
102
}
330
18
100
AcDbEntity
  8
細線
 48
5.0
100
AcDbLine
 10
646.5779946964381
 20
-355.7603343003658
 30
0.0
 11
646.1279946964382
 21
-356.5397571637719
 31
0.0
  0
ARC
  5
2090A
102
{ACAD_REACTORS
330
20A1F
102
}
330
18
100
AcDbEntity
  8
0
  6
CONTINUOUS
 62
     7
100
AcDbCircle
 10
649.071645510334
 20
-361.5580418820787
 30
0.0
 40
2.797707581713066
100
AcDbArc
 50
52.32741172652625
 51
90.00000178645516
  0
ARC
  5
2090B
102
{ACAD_REACTORS
330
20A1F
102
}
330
18
100
AcDbEntity
  8
0
  6
CONTINUOUS
 62
     7
100
AcDbCircle
 10
649.071645510334
 20
-358.9400626373643
 30
0.0
 40
0.1797283369983934
100
AcDbArc
 50
89.99998220026029
 51
157.751152362936
  0
LINE
  5
2090C
102
{ACAD_REACTORS
330
20A1F
102
}
330
18
100
AcDbEntity
  8
0
  6
CONTINUOUS
 62
     7
100
AcDbLine
 10
683.1279946964382
 20
-357.7603343003659
 30
0.0
 11
683.1279946964382
 21
-350.4603343003656
 31
0.0
  0
LINE
  5
2090D
102
{ACAD_REACTORS
330
20A1F
102
}
330
18
100
AcDbEntity
  8
細線
 48
5.0
100
AcDbLine
 10
682.6779946964381
 20
-350.0103343003658
 30
0.0
 11
682.6779946964381
 21
-355.7603343003658
 31
0.0
  0
LINE
  5
2090E
102
{ACAD_REACTORS
330
20A1F
102
}
330
18
100
AcDbEntity
  8
0
  6
CONTINUOUS
 62
     7
100
AcDbLine
 10
681.7279946964381
 20
-349.2603343003658
 30
0.0
 11
681.7279946964381
 21
-348.1603343003658
 31
0.0
  0
LINE
  5
2090F
102
{ACAD_REACTORS
330
20A1F
102
}
330
18
100
AcDbEntity
  8
0
  6
CONTINUOUS
 62
     7
100
AcDbLine
 10
681.7279946964381
 20
-348.1603343003658
 30
0.0
 11
681.3279946964382
 21
-347.7603343003658
 31
0.0
  0
LINE
  5
20910
102
{ACAD_REACTORS
330
20A1F
102
}
330
18
100
AcDbEntity
  8
0
  6
CONTINUOUS
 62
     7
100
AcDbLine
 10
681.9279946964382
 20
-349.2603343003658
 30
0.0
 11
683.1279946964382
 21
-350.4603343003656
 31
0.0
  0
ARC
  5
20911
102
{ACAD_REACTORS
330
20A1F
102
}
330
18
100
AcDbEntity
  8
0
  6
CONTINUOUS
 62
     7
100
AcDbCircle
 10
680.1843438825422
 20
-361.5580418820787
 30
0.0
 40
2.797707581713066
100
AcDbArc
 50
89.99999821354482
 51
127.6725882734737
  0
LINE
  5
20912
102
{ACAD_REACTORS
330
20A1F
102
}
330
18
100
AcDbEntity
  8
細線
 48
5.0
100
AcDbLine
 10
682.6779946964381
 20
-355.7603343003658
 30
0.0
 11
683.1279946964382
 21
-356.5397571637719
 31
0.0
  0
ARC
  5
20913
102
{ACAD_REACTORS
330
20A1F
102
}
330
18
100
AcDbEntity
  8
0
  6
CONTINUOUS
 62
     7
100
AcDbCircle
 10
684.6279946964382
 20
-358.7603343003658
 30
0.0
 40
0.5
100
AcDbArc
 50
0.0000015352318498
 51
89.99999692953627
  0
ARC
  5
20914
102
{ACAD_REACTORS
330
20A1F
102
}
330
18
100
AcDbEntity
  8
0
  6
CONTINUOUS
 62
     7
100
AcDbCircle
 10
683.6279946964382
 20
-357.7603343003658
 30
0.0
 40
0.5
100
AcDbArc
 50
179.9999984647681
 51
270.0
  0
LINE
  5
20915
102
{ACAD_REACTORS
330
20A1F
102
}
330
18
100
AcDbEntity
  8
0
  6
CONTINUOUS
 62
     7
100
AcDbLine
 10
646.1279946937597
 20
-387.2597079017932
 30
0.0
 11
683.1279946964382
 21
-387.2597079017932
 31
0.0
  0
LINE
  5
20916
102
{ACAD_REACTORS
330
20A1F
102
}
330
18
100
AcDbEntity
  8
0
  6
CONTINUOUS
 62
     7
100
AcDbLine
 10
646.1279946964382
 20
-376.7597079017932
 30
0.0
 11
683.127994696438
 21
-376.7597079017932
 31
0.0
  0
LINE
  5
20917
102
{ACAD_REACTORS
330
20A1F
102
}
330
18
100
AcDbEntity
  8
0
  6
CONTINUOUS
 62
     7
100
AcDbLine
 10
682.6279946964382
 20
-376.2597079017932
 30
0.0
 11
646.6279946964382
 21
-376.2597079017932
 31
0.0
  0
LINE
  5
20918
102
{ACAD_REACTORS
330
20A1F
102
}
330
18
100
AcDbEntity
  8
0
  6
CONTINUOUS
 62
     7
100
AcDbLine
 10
643.1279946964382
 20
-374.4603343003658
 30
0.0
 11
686.1279946964382
 21
-374.4603343003658
 31
0.0
  0
LINE
  5
20919
102
{ACAD_REACTORS
330
20A1F
102
}
330
18
100
AcDbEntity
  8
0
  6
CONTINUOUS
 62
     7
100
AcDbLine
 10
686.6279946964382
 20
-367.9603343003658
 30
0.0
 11
643.1279946964382
 21
-367.9603343003658
 31
0.0
  0
LINE
  5
2091A
102
{ACAD_REACTORS
330
20A1F
102
}
330
18
100
AcDbEntity
  8
0
  6
CONTINUOUS
 62
     7
100
AcDbLine
 10
647.6279946964382
 20
-420.2597079017932
 30
0.0
 11
664.6279946964382
 21
-420.2597079017932
 31
0.0
  0
LINE
  5
2091B
102
{ACAD_REACTORS
330
20A1F
102
}
330
18
100
AcDbEntity
  8
0
  6
CONTINUOUS
 62
     7
100
AcDbLine
 10
682.4027635328422
 20
-414.2597079017932
 30
0.0
 11
646.6279946964382
 21
-414.2597079017932
 31
0.0
  0
ARC
  5
2091C
102
{ACAD_REACTORS
330
20A1F
102
}
330
18
100
AcDbEntity
  8
0
  6
CONTINUOUS
 62
     7
100
AcDbCircle
 10
649.6279946964382
 20
-422.2597079017932
 30
0.0
 40
2.0
100
AcDbArc
 50
0.0000015352318498
 51
90.0000030704637
  0
LINE
  5
2091D
102
{ACAD_REACTORS
330
20A1F
102
}
330
18
100
AcDbEntity
  8
0
  6
CONTINUOUS
 62
     7
100
AcDbLine
 10
646.1279946964382
 20
-387.2597079017932
 30
0.0
 11
648.3475179071717
 21
-412.6289742876718
 31
0.0
  0
LINE
  5
2091E
102
{ACAD_REACTORS
330
20A1F
102
}
330
18
100
AcDbEntity
  8
0
  6
CONTINUOUS
 62
     7
100
AcDbLine
 10
646.6279946964382
 20
-376.2597079017932
 30
0.0
 11
646.1279946964382
 21
-376.7597079017932
 31
0.0
  0
LINE
  5
2091F
102
{ACAD_REACTORS
330
20A1F
102
}
330
18
100
AcDbEntity
  8
0
  6
CONTINUOUS
 62
     7
100
AcDbLine
 10
642.6279946964382
 20
-373.9603343003658
 30
0.0
 11
642.6279946964382
 21
-360.2603343003659
 31
0.0
  0
ARC
  5
20920
102
{ACAD_REACTORS
330
20A1F
102
}
330
18
100
AcDbEntity
  8
0
  6
CONTINUOUS
 62
     7
100
AcDbCircle
 10
643.1279946964382
 20
-368.4603343003656
 30
0.0
 40
0.5
100
AcDbArc
 50
90.0000030704637
 51
179.9999984647681
  0
LINE
  5
20921
102
{ACAD_REACTORS
330
20A1F
102
}
330
18
100
AcDbEntity
  8
0
  6
CONTINUOUS
 62
     7
100
AcDbLine
 10
648.6323056821137
 20
-360.2603343003659
 30
0.0
 11
648.6323056821137
 21
-367.9603343003658
 31
0.0
  0
LINE
  5
20922
102
{ACAD_REACTORS
330
20A1F
102
}
330
18
100
AcDbEntity
  8
0
  6
CONTINUOUS
 62
     7
100
AcDbLine
 10
651.2318225849721
 20
-360.2603343003659
 30
0.0
 11
651.2318225849721
 21
-367.9603343003658
 31
0.0
  0
ARC
  5
20923
102
{ACAD_REACTORS
330
20A1F
102
}
330
18
100
AcDbEntity
  8
0
  6
CONTINUOUS
 62
     7
100
AcDbCircle
 10
643.1279946964382
 20
-373.9603343003658
 30
0.0
 40
0.5
100
AcDbArc
 50
179.9999984647681
 51
270.0
  0
ARC
  5
20924
102
{ACAD_REACTORS
330
20A1F
102
}
330
18
100
AcDbEntity
  8
0
  6
CONTINUOUS
 62
     7
100
AcDbCircle
 10
648.1279946964382
 20
-374.9603343003656
 30
0.0
 40
0.5
100
AcDbArc
 50
0.0000015352318498
 51
90.0000030704637
  0
LINE
  5
20925
102
{ACAD_REACTORS
330
20A1F
102
}
330
18
100
AcDbEntity
  8
細線
 48
5.0
100
AcDbLine
 10
648.9698980181348
 20
-376.2597079017932
 30
0.0
 11
648.6279946964382
 21
-375.6675139773383
 31
0.0
  0
LINE
  5
20926
102
{ACAD_REACTORS
330
20A1F
102
}
330
18
100
AcDbEntity
  8
0
  6
CONTINUOUS
 62
     7
100
AcDbLine
 10
648.6279946964382
 20
-376.2597079017932
 30
0.0
 11
648.6279946964382
 21
-374.9603343003658
 31
0.0
  0
LINE
  5
20927
102
{ACAD_REACTORS
330
20A1F
102
}
330
18
100
AcDbEntity
  8
0
  6
CONTINUOUS
 62
     7
100
AcDbLine
 10
646.1279946964382
 20
-376.7597079017932
 30
0.0
 11
646.1279946964382
 21
-387.2597079017935
 31
0.0
  0
LINE
  5
20928
102
{ACAD_REACTORS
330
20A1F
102
}
330
18
100
AcDbEntity
  8
中心線
 48
2.0
100
AcDbLine
 10
647.6279946964382
 20
-379.7597079017932
 30
0.0
 11
645.6279946964382
 21
-379.7597079017932
 31
0.0
  0
ARC
  5
20929
102
{ACAD_REACTORS
330
20A1F
102
}
330
18
100
AcDbEntity
  8
0
  6
CONTINUOUS
 62
     7
100
AcDbCircle
 10
645.1279946964382
 20
-379.7597079017932
 30
0.0
 40
2.0
100
AcDbArc
 50
323.1301032604566
 51
36.86989981000699
  0
ARC
  5
2092A
102
{ACAD_REACTORS
330
20A1F
102
}
330
18
100
AcDbEntity
  8
0
  6
CONTINUOUS
 62
     7
100
AcDbCircle
 10
645.214889600644
 20
-379.7597079017932
 30
0.0
 40
1.714260155046523
100
AcDbArc
 50
323.9013102757293
 51
36.09869279473751
  0
LINE
  5
2092B
102
{ACAD_REACTORS
330
20A1F
102
}
330
18
100
AcDbEntity
  8
0
  6
CONTINUOUS
 62
     7
100
AcDbLine
 10
646.6992834725532
 20
-380.2597079017932
 30
0.0
 11
646.1279946964382
 21
-380.7520818528714
 31
0.0
  0
LINE
  5
2092C
102
{ACAD_REACTORS
330
20A1F
102
}
330
18
100
AcDbEntity
  8
0
  6
CONTINUOUS
 62
     7
100
AcDbLine
 10
646.6992834725532
 20
-379.2597079017931
 30
0.0
 11
646.1279946964382
 21
-378.7673339507151
 31
0.0
  0
ARC
  5
2092D
102
{ACAD_REACTORS
330
20A1F
102
}
330
18
100
AcDbEntity
  8
0
  6
CONTINUOUS
 62
     7
100
AcDbCircle
 10
646.1279946964382
 20
-379.0097079017932
 30
0.0
 40
0.75
100
AcDbArc
 50
36.86989981000699
 51
90.0000030704637
  0
ARC
  5
2092E
102
{ACAD_REACTORS
330
20A1F
102
}
330
18
100
AcDbEntity
  8
0
  6
CONTINUOUS
 62
     7
100
AcDbCircle
 10
646.1279946964382
 20
-379.0938921757596
 30
0.0
 40
0.5841842739664014
100
AcDbArc
 50
36.09869279473751
 51
90.0000030704637
  0
LINE
  5
2092F
102
{ACAD_REACTORS
330
20A1F
102
}
330
18
100
AcDbEntity
  8
0
  6
CONTINUOUS
 62
     7
100
AcDbLine
 10
646.6992834725532
 20
-380.2597079017932
 30
0.0
 11
646.6992834725532
 21
-379.2597079017931
 31
0.0
  0
ARC
  5
20930
102
{ACAD_REACTORS
330
20A1F
102
}
330
18
100
AcDbEntity
  8
0
  6
CONTINUOUS
 62
     7
100
AcDbCircle
 10
646.1279946964382
 20
-380.5097079017932
 30
0.0
 40
0.75
100
AcDbArc
 50
270.0
 51
323.1301032604566
  0
ARC
  5
20931
102
{ACAD_REACTORS
330
20A1F
102
}
330
18
100
AcDbEntity
  8
0
  6
CONTINUOUS
 62
     7
100
AcDbCircle
 10
646.1279946964382
 20
-380.4255236278268
 30
0.0
 40
0.5841842739664014
100
AcDbArc
 50
270.0
 51
323.9013102757293
  0
LINE
  5
20932
102
{ACAD_REACTORS
330
20A1F
102
}
330
18
100
AcDbEntity
  8
0
  6
CONTINUOUS
 62
     7
100
AcDbLine
 10
645.6279946964382
 20
-415.2597079017931
 30
0.0
 11
645.6279946964382
 21
-418.2597079017932
 31
0.0
  0
ARC
  5
20933
102
{ACAD_REACTORS
330
20A1F
102
}
330
18
100
AcDbEntity
  8
0
  6
CONTINUOUS
 62
     7
100
AcDbCircle
 10
646.6279946964382
 20
-415.2597079017931
 30
0.0
 40
1.0
100
AcDbArc
 50
90.0000030704637
 51
179.9999984647681
  0
ARC
  5
20934
102
{ACAD_REACTORS
330
20A1F
102
}
330
18
100
AcDbEntity
  8
0
  6
CONTINUOUS
 62
     7
100
AcDbCircle
 10
646.853225860034
 20
-412.7597079017932
 30
0.0
 40
1.5
100
AcDbArc
 50
270.0
 51
5.000001620527527
  0
ARC
  5
20935
102
{ACAD_REACTORS
330
20A1F
102
}
330
18
100
AcDbEntity
  8
0
  6
CONTINUOUS
 62
     7
100
AcDbCircle
 10
647.6279946964382
 20
-418.2597079017932
 30
0.0
 40
2.0
100
AcDbArc
 50
179.9999984647681
 51
270.0
  0
LINE
  5
20936
102
{ACAD_REACTORS
330
20A1F
102
}
330
18
100
AcDbEntity
  8
0
  6
CONTINUOUS
 62
     7
100
AcDbLine
 10
683.1279946964382
 20
-387.2597079017932
 30
0.0
 11
680.9084714857046
 21
-412.6289742876718
 31
0.0
  0
LINE
  5
20937
102
{ACAD_REACTORS
330
20A1F
102
}
330
18
100
AcDbEntity
  8
0
  6
CONTINUOUS
 62
     7
100
AcDbLine
 10
663.1279946964382
 20
-360.2603343003659
 30
0.0
 11
663.1279946964382
 21
-367.9603343003658
 31
0.0
  0
LINE
  5
20938
102
{ACAD_REACTORS
330
20A1F
102
}
330
18
100
AcDbEntity
  8
0
  6
CONTINUOUS
 62
     7
100
AcDbLine
 10
666.1279946964382
 20
-360.2603343003659
 30
0.0
 11
666.1279946964382
 21
-367.9603343003658
 31
0.0
  0
LINE
  5
20939
102
{ACAD_REACTORS
330
20A1F
102
}
330
18
100
AcDbEntity
  8
0
  6
CONTINUOUS
 62
     7
100
AcDbLine
 10
682.6279946964382
 20
-376.2597079017932
 30
0.0
 11
683.1279946964382
 21
-376.7597079017932
 31
0.0
  0
ARC
  5
2093A
102
{ACAD_REACTORS
330
20A1F
102
}
330
18
100
AcDbEntity
  8
0
  6
CONTINUOUS
 62
     7
100
AcDbCircle
 10
686.1279946964382
 20
-368.4603343003656
 30
0.0
 40
0.5
100
AcDbArc
 50
0.0000015352318498
 51
89.99999692953627
  0
ARC
  5
2093B
102
{ACAD_REACTORS
330
20A1F
102
}
330
18
100
AcDbEntity
  8
0
  6
CONTINUOUS
 62
     7
100
AcDbCircle
 10
686.1279946964382
 20
-373.9603343003658
 30
0.0
 40
0.5
100
AcDbArc
 50
270.0
 51
0.0000015352318498
  0
LINE
  5
2093C
102
{ACAD_REACTORS
330
20A1F
102
}
330
18
100
AcDbEntity
  8
0
  6
CONTINUOUS
 62
     7
100
AcDbLine
 10
678.0241668079042
 20
-360.2603343003659
 30
0.0
 11
678.0241668079042
 21
-367.9603343003658
 31
0.0
  0
LINE
  5
2093D
102
{ACAD_REACTORS
330
20A1F
102
}
330
18
100
AcDbEntity
  8
0
  6
CONTINUOUS
 62
     7
100
AcDbLine
 10
680.6236837107626
 20
-360.2603343003659
 30
0.0
 11
680.6236837107626
 21
-367.9603343003658
 31
0.0
  0
ARC
  5
2093E
102
{ACAD_REACTORS
330
20A1F
102
}
330
18
100
AcDbEntity
  8
0
  6
CONTINUOUS
 62
     7
100
AcDbCircle
 10
681.1279946964382
 20
-374.9603343003656
 30
0.0
 40
0.5
100
AcDbArc
 50
89.99999692953627
 51
179.9999984647681
  0
LINE
  5
2093F
102
{ACAD_REACTORS
330
20A1F
102
}
330
18
100
AcDbEntity
  8
0
  6
CONTINUOUS
 62
     7
100
AcDbLine
 10
680.6279946964382
 20
-376.2597079017932
 30
0.0
 11
680.6279946964382
 21
-374.9603343003658
 31
0.0
  0
LINE
  5
20940
102
{ACAD_REACTORS
330
20A1F
102
}
330
18
100
AcDbEntity
  8
細線
 48
5.0
100
AcDbLine
 10
680.2860913747418
 20
-376.2597079017932
 30
0.0
 11
680.6279946964382
 21
-375.6675139773383
 31
0.0
  0
LINE
  5
20941
102
{ACAD_REACTORS
330
20A1F
102
}
330
18
100
AcDbEntity
  8
0
  6
CONTINUOUS
 62
     7
100
AcDbLine
 10
686.6279946964382
 20
-373.9603343003658
 30
0.0
 11
686.6279946964382
 21
-360.2603343003659
 31
0.0
  0
LINE
  5
20942
102
{ACAD_REACTORS
330
20A1F
102
}
330
18
100
AcDbEntity
  8
0
  6
CONTINUOUS
 62
     7
100
AcDbLine
 10
683.1279946964382
 20
-376.7597079017932
 30
0.0
 11
683.1279946964382
 21
-387.2597079017935
 31
0.0
  0
LINE
  5
20943
102
{ACAD_REACTORS
330
20A1F
102
}
330
18
100
AcDbEntity
  8
0
  6
CONTINUOUS
 62
     7
100
AcDbLine
 10
681.6279946964382
 20
-420.2597079017932
 30
0.0
 11
664.6279946964382
 21
-420.2597079017932
 31
0.0
  0
LINE
  5
20944
102
{ACAD_REACTORS
330
20A1F
102
}
330
18
100
AcDbEntity
  8
0
  6
CONTINUOUS
 62
     7
100
AcDbLine
 10
679.6279946964382
 20
-421.2597079017932
 30
0.0
 11
667.1279946964382
 21
-421.2597079017932
 31
0.0
  0
ARC
  5
20945
102
{ACAD_REACTORS
330
20A1F
102
}
330
18
100
AcDbEntity
  8
0
  6
CONTINUOUS
 62
     7
100
AcDbCircle
 10
673.2864759912165
 20
-426.1313310321636
 30
0.0
 40
3.671623130370298
100
AcDbArc
 50
41.82559591882418
 51
90.0000030704637
  0
ARC
  5
20946
102
{ACAD_REACTORS
330
20A1F
102
}
330
18
100
AcDbEntity
  8
0
  6
CONTINUOUS
 62
     7
100
AcDbCircle
 10
673.8070190221873
 20
-425.0597079017934
 30
0.0
 40
1.299999999999998
100
AcDbArc
 50
16.60155141744828
 51
90.0000030704637
  0
LINE
  5
20947
102
{ACAD_REACTORS
330
20A1F
102
}
330
18
100
AcDbEntity
  8
0
  6
CONTINUOUS
 62
     7
100
AcDbLine
 10
663.6555155330841
 20
-423.8340196836309
 30
0.0
 11
661.5004738597922
 21
-423.6853961199556
 31
0.0
  0
ARC
  5
20948
102
{ACAD_REACTORS
330
20A1F
102
}
330
18
100
AcDbEntity
  8
0
  6
CONTINUOUS
 62
     7
100
AcDbCircle
 10
654.1279946964382
 20
-422.2597079017932
 30
0.0
 40
2.0
100
AcDbArc
 50
0.0000015352318498
 51
90.0000030704637
  0
ARC
  5
20949
102
{ACAD_REACTORS
330
20A1F
102
}
330
18
100
AcDbEntity
  8
0
  6
CONTINUOUS
 62
     7
100
AcDbCircle
 10
661.5279946964382
 20
-423.2863439885863
 30
0.0
 40
0.4
100
AcDbArc
 50
179.9999984647681
 51
266.0548137036676
  0
LINE
  5
2094A
102
{ACAD_REACTORS
330
20A1F
102
}
330
18
100
AcDbEntity
  8
0
  6
CONTINUOUS
 62
     7
100
AcDbLine
 10
664.0279946964381
 20
-425.2597079017932
 30
0.0
 11
667.1279946964382
 21
-425.2597079017932
 31
0.0
  0
ARC
  5
2094B
102
{ACAD_REACTORS
330
20A1F
102
}
330
18
100
AcDbEntity
  8
0
  6
CONTINUOUS
 62
     7
100
AcDbCircle
 10
663.6279946964382
 20
-424.2330718149998
 30
0.0
 40
0.4
100
AcDbArc
 50
0.0000015352318498
 51
86.05481677412498
  0
LINE
  5
2094C
102
{ACAD_REACTORS
330
20A1F
102
}
330
18
100
AcDbEntity
  8
0
  6
CONTINUOUS
 62
     7
100
AcDbLine
 10
673.2864759912165
 20
-422.4597079017931
 30
0.0
 11
672.1279946964382
 21
-422.4597079017931
 31
0.0
  0
LINE
  5
2094D
102
{ACAD_REACTORS
330
20A1F
102
}
330
18
100
AcDbEntity
  8
0
  6
CONTINUOUS
 62
     7
100
AcDbLine
 10
672.8279946964382
 20
-423.7597079017931
 30
0.0
 11
673.8070190221873
 21
-423.7597079017931
 31
0.0
  0
LINE
  5
2094E
102
{ACAD_REACTORS
330
20A1F
102
}
330
18
100
AcDbEntity
  8
0
  6
CONTINUOUS
 62
     7
100
AcDbLine
 10
672.8279946964382
 20
-423.7597079017931
 30
0.0
 11
672.1279946964382
 21
-423.7597079017931
 31
0.0
  0
LINE
  5
2094F
102
{ACAD_REACTORS
330
20A1F
102
}
330
18
100
AcDbEntity
  8
0
  6
CONTINUOUS
 62
     7
100
AcDbLine
 10
683.6279946964382
 20
-415.2597079017931
 30
0.0
 11
683.6279946964382
 21
-418.2597079017932
 31
0.0
  0
ARC
  5
20950
102
{ACAD_REACTORS
330
20A1F
102
}
330
18
100
AcDbEntity
  8
0
  6
CONTINUOUS
 62
     7
100
AcDbCircle
 10
682.4027635328422
 20
-412.7597079017932
 30
0.0
 40
1.5
100
AcDbArc
 50
174.9999983794723
 51
270.0
  0
ARC
  5
20951
102
{ACAD_REACTORS
330
20A1F
102
}
330
18
100
AcDbEntity
  8
0
  6
CONTINUOUS
 62
     7
100
AcDbCircle
 10
682.6279946964382
 20
-415.2597079017931
 30
0.0
 40
1.0
100
AcDbArc
 50
0.0000015352318498
 51
89.99999692953627
  0
ARC
  5
20952
102
{ACAD_REACTORS
330
20A1F
102
}
330
18
100
AcDbEntity
  8
0
  6
CONTINUOUS
 62
     7
100
AcDbCircle
 10
679.6279946964382
 20
-422.2597079017932
 30
0.0
 40
1.0
100
AcDbArc
 50
0.0000015352318498
 51
90.0000030704637
  0
ARC
  5
20953
102
{ACAD_REACTORS
330
20A1F
102
}
330
18
100
AcDbEntity
  8
0
  6
CONTINUOUS
 62
     7
100
AcDbCircle
 10
681.6279946964382
 20
-418.2597079017932
 30
0.0
 40
2.0
100
AcDbArc
 50
270.0
 51
0.0000015352318498
  0
ARC
  5
20954
102
{ACAD_REACTORS
330
20A1F
102
}
330
18
100
AcDbEntity
  8
0
  6
CONTINUOUS
 62
     7
100
AcDbCircle
 10
652.6279946964382
 20
-432.2597079017931
 30
0.0
 40
1.0
100
AcDbArc
 50
179.9999984647681
 51
270.0
  0
LINE
  5
20955
102
{ACAD_REACTORS
330
20A1F
102
}
330
18
100
AcDbEntity
  8
中心線
 48
2.0
100
AcDbLine
 10
676.4279946964381
 20
-427.2597079017931
 30
0.0
 11
655.1279946964382
 21
-427.2597079017931
 31
0.0
  0
LINE
  5
20956
102
{ACAD_REACTORS
330
20A1F
102
}
330
18
100
AcDbEntity
  8
0
  6
CONTINUOUS
 62
     7
100
AcDbLine
 10
679.6279946964382
 20
-433.2597079017932
 30
0.0
 11
667.1279946964382
 21
-433.2597079017932
 31
0.0
  0
ARC
  5
20957
102
{ACAD_REACTORS
330
20A1F
102
}
330
18
100
AcDbEntity
  8
0
  6
CONTINUOUS
 62
     7
100
AcDbCircle
 10
673.2864759912165
 20
-428.3880847714228
 30
0.0
 40
3.671623130370298
100
AcDbArc
 50
270.0
 51
318.1744071516481
  0
LINE
  5
20958
102
{ACAD_REACTORS
330
20A1F
102
}
330
18
100
AcDbEntity
  8
0
  6
CONTINUOUS
 62
     7
100
AcDbLine
 10
674.6279946964382
 20
-426.7597079017932
 30
0.0
 11
675.4140950363277
 21
-426.7597079017932
 31
0.0
  0
LINE
  5
20959
102
{ACAD_REACTORS
330
20A1F
102
}
330
18
100
AcDbEntity
  8
0
  6
CONTINUOUS
 62
     7
100
AcDbLine
 10
675.4140950363277
 20
-427.7597079017931
 30
0.0
 11
674.6279946964382
 21
-427.7597079017931
 31
0.0
  0
ARC
  5
2095A
102
{ACAD_REACTORS
330
20A1F
102
}
330
18
100
AcDbEntity
  8
0
  6
CONTINUOUS
 62
     7
100
AcDbCircle
 10
673.8070190221873
 20
-429.4597079017933
 30
0.0
 40
1.299999999999998
100
AcDbArc
 50
270.0
 51
343.3984516530188
  0
LINE
  5
2095B
102
{ACAD_REACTORS
330
20A1F
102
}
330
18
100
AcDbEntity
  8
0
  6
CONTINUOUS
 62
     7
100
AcDbLine
 10
663.6555155330841
 20
-430.6853961199556
 30
0.0
 11
661.5004738597922
 21
-430.8340196836309
 31
0.0
  0
LINE
  5
2095C
102
{ACAD_REACTORS
330
20A1F
102
}
330
18
100
AcDbEntity
  8
0
  6
CONTINUOUS
 62
     7
100
AcDbLine
 10
661.1279946964382
 20
-433.2597079017932
 30
0.0
 11
652.6279946964382
 21
-433.2597079017932
 31
0.0
  0
ARC
  5
2095D
102
{ACAD_REACTORS
330
20A1F
102
}
330
18
100
AcDbEntity
  8
0
  6
CONTINUOUS
 62
     7
100
AcDbCircle
 10
657.1279946964382
 20
-432.2597079017931
 30
0.0
 40
1.0
100
AcDbArc
 50
179.9999984647681
 51
270.0
  0
ARC
  5
2095E
102
{ACAD_REACTORS
330
20A1F
102
}
330
18
100
AcDbEntity
  8
0
  6
CONTINUOUS
 62
     7
100
AcDbCircle
 10
661.5279946964382
 20
-431.2330718150001
 30
0.0
 40
0.4
100
AcDbArc
 50
93.94518322586201
 51
179.9999984647681
  0
LINE
  5
2095F
102
{ACAD_REACTORS
330
20A1F
102
}
330
18
100
AcDbEntity
  8
細線
 48
5.0
100
AcDbLine
 10
667.1279946964382
 20
-428.9597079017933
 30
0.0
 11
664.0279946964381
 21
-428.9597079017933
 31
0.0
  0
LINE
  5
20960
102
{ACAD_REACTORS
330
20A1F
102
}
330
18
100
AcDbEntity
  8
細線
 48
5.0
100
AcDbLine
 10
667.1279946964382
 20
-425.5597079017932
 30
0.0
 11
664.0279946964381
 21
-425.5597079017932
 31
0.0
  0
LINE
  5
20961
102
{ACAD_REACTORS
330
20A1F
102
}
330
18
100
AcDbEntity
  8
0
  6
CONTINUOUS
 62
     7
100
AcDbLine
 10
667.1279946964382
 20
-429.2597079017932
 30
0.0
 11
664.0279946964381
 21
-429.2597079017932
 31
0.0
  0
ARC
  5
20962
102
{ACAD_REACTORS
330
20A1F
102
}
330
18
100
AcDbEntity
  8
0
  6
CONTINUOUS
 62
     7
100
AcDbCircle
 10
663.6279946964382
 20
-430.2863439885863
 30
0.0
 40
0.4
100
AcDbArc
 50
273.9451862963452
 51
0.0000015352318498
  0
LINE
  5
20963
102
{ACAD_REACTORS
330
20A1F
102
}
330
18
100
AcDbEntity
  8
0
  6
CONTINUOUS
 62
     7
100
AcDbLine
 10
672.8279946964382
 20
-426.8311460342878
 30
0.0
 11
672.1279946964382
 21
-427.3311460342878
 31
0.0
  0
LINE
  5
20964
102
{ACAD_REACTORS
330
20A1F
102
}
330
18
100
AcDbEntity
  8
0
  6
CONTINUOUS
 62
     7
100
AcDbLine
 10
672.8279946964382
 20
-427.1811460342878
 30
0.0
 11
672.1279946964382
 21
-427.6811460342877
 31
0.0
  0
LINE
  5
20965
102
{ACAD_REACTORS
330
20A1F
102
}
330
18
100
AcDbEntity
  8
0
  6
CONTINUOUS
 62
     7
100
AcDbLine
 10
674.6279946964382
 20
-427.7597079017931
 30
0.0
 11
674.6279946964382
 21
-426.7597079017932
 31
0.0
  0
LINE
  5
20966
102
{ACAD_REACTORS
330
20A1F
102
}
330
18
100
AcDbEntity
  8
0
  6
CONTINUOUS
 62
     7
100
AcDbLine
 10
673.2864759912168
 20
-432.0597079017931
 30
0.0
 11
672.1279946964382
 21
-432.0597079017931
 31
0.0
  0
LINE
  5
20967
102
{ACAD_REACTORS
330
20A1F
102
}
330
18
100
AcDbEntity
  8
0
  6
CONTINUOUS
 62
     7
100
AcDbLine
 10
672.8279946964382
 20
-430.7597079017932
 30
0.0
 11
673.8070190221873
 21
-430.7597079017932
 31
0.0
  0
LINE
  5
20968
102
{ACAD_REACTORS
330
20A1F
102
}
330
18
100
AcDbEntity
  8
0
  6
CONTINUOUS
 62
     7
100
AcDbLine
 10
672.8279946964382
 20
-430.7597079017932
 30
0.0
 11
672.1279946964382
 21
-430.7597079017932
 31
0.0
  0
ARC
  5
20969
102
{ACAD_REACTORS
330
20A1F
102
}
330
18
100
AcDbEntity
  8
0
  6
CONTINUOUS
 62
     7
100
AcDbCircle
 10
679.6279946964382
 20
-432.2597079017931
 30
0.0
 40
1.0
100
AcDbArc
 50
270.0
 51
0.0000015352318498
  0
ARC
  5
20C49
330
18
100
AcDbEntity
  8
0
100
AcDbCircle
 10
30.66262020496171
 20
-596.8413621045137
 30
0.0
 40
4.0
100
AcDbArc
 50
26.83724759084002
 51
213.1627524091598
  0
ARC
  5
20C4A
330
18
100
AcDbEntity
  8
0
100
AcDbCircle
 10
30.66262020496461
 20
-659.6282038788793
 30
0.0
 40
4.0
100
AcDbArc
 50
146.83724759084
 51
333.1627524091599
  0
CIRCLE
  5
20C51
330
18
100
AcDbEntity
  8
0
100
AcDbCircle
 10
48.78762020496129
 20
-628.2347829916972
 30
0.0
 40
32.5
  0
LINE
  5
20C54
330
18
100
AcDbEntity
  8
0
100
AcDbLine
 10
12.75830986013738
 20
-632.2286903611915
 30
0.0
 11
16.53395833651688
 21
-632.2286903611916
 31
0.0
  0
ARC
  5
20C56
330
18
100
AcDbEntity
  8
0
100
AcDbCircle
 10
12.5376202049649
 20
-628.2347829916972
 30
0.0
 40
4.0
100
AcDbArc
 50
86.83724759083686
 51
273.1627524091631
  0
ARC
  5
20C5A
330
18
100
AcDbEntity
  8
0
100
AcDbCircle
 10
66.9126202049609
 20
-659.6282038788772
 30
0.0
 40
4.0
100
AcDbArc
 50
206.8372475908399
 51
33.16275240915997
  0
LINE
  5
20C5B
330
18
100
AcDbEntity
  8
0
100
AcDbLine
 10
70.26110061971866
 20
-657.4401273463982
 30
0.0
 11
68.37327638152911
 21
-654.1703198500937
 31
0.0
  0
LINE
  5
20C5C
330
18
100
AcDbEntity
  8
0
100
AcDbLine
 10
27.314139790207
 20
-657.4401273464002
 30
0.0
 11
29.2019640283968
 21
-654.1703198500957
 31
0.0
  0
LINE
  5
20C5E
330
18
100
AcDbEntity
  8
0
100
AcDbLine
 10
34.23179027489473
 20
-661.4340347158944
 30
0.0
 11
36.11961451308454
 21
-658.16422721959
 31
0.0
  0
LINE
  5
20C64
330
18
100
AcDbEntity
  8
0
100
AcDbLine
 10
63.34345013503102
 20
-661.4340347158927
 30
0.0
 11
61.45562589684136
 21
-658.164227219588
 31
0.0
  0
LINE
  5
20C6B
330
18
100
AcDbEntity
  8
0
100
AcDbLine
 10
34.23179027489169
 20
-595.0355312674982
 30
0.0
 11
36.11961451308136
 21
-598.305338763803
 31
0.0
  0
LINE
  5
20C6D
330
18
100
AcDbEntity
  8
0
100
AcDbLine
 10
27.31413979020397
 20
-599.0294386369924
 30
0.0
 11
29.2019640283936
 21
-602.2992461332973
 31
0.0
  0
LINE
  5
20C71
330
18
100
AcDbEntity
  8
0
100
AcDbLine
 10
84.81693054978519
 20
-632.228690361188
 30
0.0
 11
81.04128207340568
 21
-632.2286903611877
 31
0.0
  0
ARC
  5
20C72
330
18
100
AcDbEntity
  8
0
100
AcDbCircle
 10
85.03762020495766
 20
-628.2347829916936
 30
0.0
 40
4.0
100
AcDbArc
 50
266.8372475908368
 51
93.16275240916313
  0
LINE
  5
20C76
330
18
100
AcDbEntity
  8
0
100
AcDbLine
 10
70.26110061971545
 20
-599.0294386369908
 30
0.0
 11
68.37327638152564
 21
-602.2992461332952
 31
0.0
  0
ARC
  5
20C77
330
18
100
AcDbEntity
  8
0
100
AcDbCircle
 10
66.91262020495774
 20
-596.8413621045117
 30
0.0
 40
4.0
100
AcDbArc
 50
326.83724759084
 51
153.1627524091599
  0
LINE
  5
20C79
330
18
100
AcDbEntity
  8
0
100
AcDbLine
 10
63.34345013502773
 20
-595.0355312674965
 30
0.0
 11
61.4556258968379
 21
-598.3053387638011
 31
0.0
  0
CIRCLE
  5
20CCD
102
{ACAD_REACTORS
330
20CD7
102
}
330
18
100
AcDbEntity
  8
細線
 48
5.0
100
AcDbCircle
 10
30.66262020496008
 20
-596.8413621045137
 30
0.0
 40
3.099999999999988
  0
CIRCLE
  5
20CCE
102
{ACAD_REACTORS
330
20CD7
102
}
330
18
100
AcDbEntity
  8
細線
 48
5.0
100
AcDbCircle
 10
30.66262020496008
 20
-596.8413621045137
 30
0.0
 40
3.5
  0
LINE
  5
20CCF
102
{ACAD_REACTORS
330
20CD7
102
}
330
18
100
AcDbEntity
  8
細線
 48
5.0
100
AcDbLine
 10
31.52864555495998
 20
-598.3413620113562
 30
0.0
 11
29.79659467428318
 21
-598.34136188473
 31
0.0
  0
LINE
  5
20CD0
102
{ACAD_REACTORS
330
20CD7
102
}
330
18
100
AcDbEntity
  8
細線
 48
5.0
100
AcDbLine
 10
29.79659485496
 20
-595.3413621976709
 30
0.0
 11
28.93056952428313
 21
-596.8413623242972
 31
0.0
  0
LINE
  5
20CD1
102
{ACAD_REACTORS
330
20CD7
102
}
330
18
100
AcDbEntity
  8
細線
 48
5.0
100
AcDbLine
 10
28.93056940428328
 20
-596.8413621164512
 30
0.0
 11
29.79659467428318
 21
-598.34136188473
 31
0.0
  0
LINE
  5
20CD2
102
{ACAD_REACTORS
330
20CD7
102
}
330
18
100
AcDbEntity
  8
細線
 48
5.0
100
AcDbLine
 10
32.39467109563657
 20
-596.8413622484607
 30
0.0
 11
31.52864570496004
 21
-598.341362271164
 31
0.0
  0
LINE
  5
20CD3
102
{ACAD_REACTORS
330
20CD7
102
}
330
18
100
AcDbEntity
  8
細線
 48
5.0
100
AcDbLine
 10
31.96165840029866
 20
-597.5913622598118
 30
0.0
 11
31.96174500283911
 21
-597.5913122598117
 31
0.0
  0
LINE
  5
20CD4
102
{ACAD_REACTORS
330
20CD7
102
}
330
18
100
AcDbEntity
  8
細線
 48
5.0
100
AcDbLine
 10
32.17816474796782
 20
-597.2163622541362
 30
0.0
 11
32.17811474796798
 21
-597.2162756515959
 31
0.0
  0
LINE
  5
20CD5
102
{ACAD_REACTORS
330
20CD7
102
}
330
18
100
AcDbEntity
  8
細線
 48
5.0
100
AcDbLine
 10
29.79659470496008
 20
-595.3413619378636
 30
0.0
 11
31.52864552563682
 21
-595.3413619605668
 31
0.0
  0
LINE
  5
20CD6
102
{ACAD_REACTORS
330
20CD7
102
}
330
18
100
AcDbEntity
  8
細線
 48
5.0
100
AcDbLine
 10
31.5286456156366
 20
-595.3413621164513
 30
0.0
 11
32.39467109563657
 21
-596.8413622484607
 31
0.0
  0
CIRCLE
  5
20CD8
102
{ACAD_REACTORS
330
20CE2
102
}
330
18
100
AcDbEntity
  8
細線
 48
5.0
100
AcDbCircle
 10
12.53762020496286
 20
-628.2347829916992
 30
0.0
 40
3.099999999999988
  0
CIRCLE
  5
20CD9
102
{ACAD_REACTORS
330
20CE2
102
}
330
18
100
AcDbEntity
  8
細線
 48
5.0
100
AcDbCircle
 10
12.53762020496286
 20
-628.2347829916992
 30
0.0
 40
3.5
  0
LINE
  5
20CDA
102
{ACAD_REACTORS
330
20CE2
102
}
330
18
100
AcDbEntity
  8
細線
 48
5.0
100
AcDbLine
 10
14.26967090496293
 20
-628.2347829916992
 30
0.0
 11
13.4036453549628
 21
-629.7347829916994
 31
0.0
  0
LINE
  5
20CDB
102
{ACAD_REACTORS
330
20CE2
102
}
330
18
100
AcDbEntity
  8
細線
 48
5.0
100
AcDbLine
 10
10.80556950496281
 20
-628.2347829916992
 30
0.0
 11
11.67159505496272
 21
-629.7347829916994
 31
0.0
  0
LINE
  5
20CDC
102
{ACAD_REACTORS
330
20CE2
102
}
330
18
100
AcDbEntity
  8
細線
 48
5.0
100
AcDbLine
 10
11.67159481496286
 20
-629.7347829916994
 30
0.0
 11
13.4036453549628
 21
-629.7347829916994
 31
0.0
  0
LINE
  5
20CDD
102
{ACAD_REACTORS
330
20CE2
102
}
330
18
100
AcDbEntity
  8
細線
 48
5.0
100
AcDbLine
 10
13.4036457749629
 20
-626.7347829916992
 30
0.0
 11
14.26967120496294
 21
-628.2347829916992
 31
0.0
  0
LINE
  5
20CDE
102
{ACAD_REACTORS
330
20CE2
102
}
330
18
100
AcDbEntity
  8
細線
 48
5.0
100
AcDbLine
 10
13.83665848996281
 20
-627.4847829916987
 30
0.0
 11
13.83665848996281
 21
-627.4846829916987
 31
0.0
  0
LINE
  5
20CDF
102
{ACAD_REACTORS
330
20CE2
102
}
330
18
100
AcDbEntity
  8
細線
 48
5.0
100
AcDbLine
 10
13.62015213246285
 20
-627.1097829916988
 30
0.0
 11
13.620052132463
 21
-627.1097829916988
 31
0.0
  0
LINE
  5
20CE0
102
{ACAD_REACTORS
330
20CE2
102
}
330
18
100
AcDbEntity
  8
細線
 48
5.0
100
AcDbLine
 10
10.80556920496299
 20
-628.2347829916992
 30
0.0
 11
11.67159463496307
 21
-626.7347829916992
 31
0.0
  0
LINE
  5
20CE1
102
{ACAD_REACTORS
330
20CE2
102
}
330
18
100
AcDbEntity
  8
細線
 48
5.0
100
AcDbLine
 10
11.67159481496286
 20
-626.7347829916992
 30
0.0
 11
13.4036457749629
 21
-626.7347829916992
 31
0.0
  0
CIRCLE
  5
20CE3
102
{ACAD_REACTORS
330
20CED
102
}
330
18
100
AcDbEntity
  8
細線
 48
5.0
100
AcDbCircle
 10
30.66262020496401
 20
-659.628203878883
 30
0.0
 40
3.099999999999988
  0
CIRCLE
  5
20CE4
102
{ACAD_REACTORS
330
20CED
102
}
330
18
100
AcDbEntity
  8
細線
 48
5.0
100
AcDbCircle
 10
30.66262020496401
 20
-659.628203878883
 30
0.0
 40
3.5
  0
LINE
  5
20CE5
102
{ACAD_REACTORS
330
20CED
102
}
330
18
100
AcDbEntity
  8
細線
 48
5.0
100
AcDbLine
 10
31.52864555496412
 20
-658.1282039720404
 30
0.0
 11
32.39467088564069
 21
-659.6282040986667
 31
0.0
  0
LINE
  5
20CE6
102
{ACAD_REACTORS
330
20CED
102
}
330
18
100
AcDbEntity
  8
細線
 48
5.0
100
AcDbLine
 10
29.79659485496407
 20
-661.1282037857257
 30
0.0
 11
31.52864573564065
 21
-661.1282036590993
 31
0.0
  0
LINE
  5
20CE7
102
{ACAD_REACTORS
330
20CED
102
}
330
18
100
AcDbEntity
  8
細線
 48
5.0
100
AcDbLine
 10
31.52864561564064
 20
-661.1282038669452
 30
0.0
 11
32.39467088564069
 21
-659.6282040986667
 31
0.0
  0
LINE
  5
20CE8
102
{ACAD_REACTORS
330
20CED
102
}
330
18
100
AcDbEntity
  8
細線
 48
5.0
100
AcDbLine
 10
29.7965948842874
 20
-658.1282037349361
 30
0.0
 11
31.5286457049641
 21
-658.1282037122328
 31
0.0
  0
LINE
  5
20CE9
102
{ACAD_REACTORS
330
20CED
102
}
330
18
100
AcDbEntity
  8
細線
 48
5.0
100
AcDbLine
 10
30.66262029462524
 20
-658.1282037235841
 30
0.0
 11
30.66253369208491
 21
-658.1281537235842
 31
0.0
  0
LINE
  5
20CEA
102
{ACAD_REACTORS
330
20CED
102
}
330
18
100
AcDbEntity
  8
細線
 48
5.0
100
AcDbLine
 10
30.22960758945612
 20
-658.1282037292601
 30
0.0
 11
30.22955758945613
 21
-658.1282903318004
 31
0.0
  0
LINE
  5
20CEB
102
{ACAD_REACTORS
330
20CED
102
}
330
18
100
AcDbEntity
  8
細線
 48
5.0
100
AcDbLine
 10
29.79659470496414
 20
-661.1282040455332
 30
0.0
 11
28.9305693142875
 21
-659.6282040228297
 31
0.0
  0
LINE
  5
20CEC
102
{ACAD_REACTORS
330
20CED
102
}
330
18
100
AcDbEntity
  8
細線
 48
5.0
100
AcDbLine
 10
28.93056940428741
 20
-659.6282038669452
 30
0.0
 11
29.7965948842874
 21
-658.1282037349361
 31
0.0
  0
CIRCLE
  5
20CF9
102
{ACAD_REACTORS
330
20D03
102
}
330
18
100
AcDbEntity
  8
細線
 48
5.0
100
AcDbCircle
 10
66.91262020496168
 20
-659.6282038788809
 30
0.0
 40
3.099999999999988
  0
CIRCLE
  5
20CFA
102
{ACAD_REACTORS
330
20D03
102
}
330
18
100
AcDbEntity
  8
細線
 48
5.0
100
AcDbCircle
 10
66.91262020496168
 20
-659.6282038788809
 30
0.0
 40
3.5
  0
LINE
  5
20CFB
102
{ACAD_REACTORS
330
20D03
102
}
330
18
100
AcDbEntity
  8
細線
 48
5.0
100
AcDbLine
 10
66.04659485496168
 20
-658.1282039720385
 30
0.0
 11
67.77864573563846
 21
-658.1282040986648
 31
0.0
  0
LINE
  5
20CFC
102
{ACAD_REACTORS
330
20D03
102
}
330
18
100
AcDbEntity
  8
細線
 48
5.0
100
AcDbLine
 10
67.77864555496165
 20
-661.1282037857237
 30
0.0
 11
68.64467088563838
 21
-659.6282036590975
 31
0.0
  0
LINE
  5
20CFD
102
{ACAD_REACTORS
330
20D03
102
}
330
18
100
AcDbEntity
  8
細線
 48
5.0
100
AcDbLine
 10
68.64467100563825
 20
-659.6282038669435
 30
0.0
 11
67.77864573563846
 21
-658.1282040986648
 31
0.0
  0
LINE
  5
20CFE
102
{ACAD_REACTORS
330
20D03
102
}
330
18
100
AcDbEntity
  8
細線
 48
5.0
100
AcDbLine
 10
65.18056931428507
 20
-659.6282037349342
 30
0.0
 11
66.04659470496158
 21
-658.1282037122307
 31
0.0
  0
LINE
  5
20CFF
102
{ACAD_REACTORS
330
20D03
102
}
330
18
100
AcDbEntity
  8
細線
 48
5.0
100
AcDbLine
 10
65.61358200962286
 20
-658.8782037235827
 30
0.0
 11
65.61349540708256
 21
-658.8782537235828
 31
0.0
  0
LINE
  5
20D00
102
{ACAD_REACTORS
330
20D03
102
}
330
18
100
AcDbEntity
  8
細線
 48
5.0
100
AcDbLine
 10
65.39707566195369
 20
-659.2532037292586
 30
0.0
 11
65.39712566195368
 21
-659.253290331799
 31
0.0
  0
LINE
  5
20D01
102
{ACAD_REACTORS
330
20D03
102
}
330
18
100
AcDbEntity
  8
細線
 48
5.0
100
AcDbLine
 10
67.77864570496156
 20
-661.1282040455312
 30
0.0
 11
66.04659488428485
 21
-661.1282040228277
 31
0.0
  0
LINE
  5
20D02
102
{ACAD_REACTORS
330
20D03
102
}
330
18
100
AcDbEntity
  8
細線
 48
5.0
100
AcDbLine
 10
66.04659479428504
 20
-661.1282038669433
 30
0.0
 11
65.18056931428507
 21
-659.6282037349342
 31
0.0
  0
CIRCLE
  5
20D04
102
{ACAD_REACTORS
330
20D0E
102
}
330
18
100
AcDbEntity
  8
細線
 48
5.0
100
AcDbCircle
 10
85.03762020495969
 20
-628.2347829916956
 30
0.0
 40
3.099999999999988
  0
CIRCLE
  5
20D05
102
{ACAD_REACTORS
330
20D0E
102
}
330
18
100
AcDbEntity
  8
細線
 48
5.0
100
AcDbCircle
 10
85.03762020495969
 20
-628.2347829916956
 30
0.0
 40
3.5
  0
LINE
  5
20D06
102
{ACAD_REACTORS
330
20D0E
102
}
330
18
100
AcDbEntity
  8
細線
 48
5.0
100
AcDbLine
 10
83.30556950495973
 20
-628.2347829916957
 30
0.0
 11
84.17159505495988
 21
-626.7347829916957
 31
0.0
  0
LINE
  5
20D07
102
{ACAD_REACTORS
330
20D0E
102
}
330
18
100
AcDbEntity
  8
細線
 48
5.0
100
AcDbLine
 10
86.76967090495987
 20
-628.2347829916957
 30
0.0
 11
85.90364535495995
 21
-626.7347829916957
 31
0.0
  0
LINE
  5
20D08
102
{ACAD_REACTORS
330
20D0E
102
}
330
18
100
AcDbEntity
  8
細線
 48
5.0
100
AcDbLine
 10
85.90364559495981
 20
-626.7347829916957
 30
0.0
 11
84.17159505495988
 21
-626.7347829916957
 31
0.0
  0
LINE
  5
20D09
102
{ACAD_REACTORS
330
20D0E
102
}
330
18
100
AcDbEntity
  8
細線
 48
5.0
100
AcDbLine
 10
84.17159463495975
 20
-629.7347829916957
 30
0.0
 11
83.30556920495974
 21
-628.2347829916957
 31
0.0
  0
LINE
  5
20D0A
102
{ACAD_REACTORS
330
20D0E
102
}
330
18
100
AcDbEntity
  8
細線
 48
5.0
100
AcDbLine
 10
83.73858191995989
 20
-628.984782991696
 30
0.0
 11
83.73858191995989
 21
-628.9848829916961
 31
0.0
  0
LINE
  5
20D0B
102
{ACAD_REACTORS
330
20D0E
102
}
330
18
100
AcDbEntity
  8
細線
 48
5.0
100
AcDbLine
 10
83.95508827745983
 20
-629.3597829916961
 30
0.0
 11
83.95518827745968
 21
-629.3597829916961
 31
0.0
  0
LINE
  5
20D0C
102
{ACAD_REACTORS
330
20D0E
102
}
330
18
100
AcDbEntity
  8
細線
 48
5.0
100
AcDbLine
 10
86.76967120495964
 20
-628.2347829916957
 30
0.0
 11
85.90364577495959
 21
-629.7347829916957
 31
0.0
  0
LINE
  5
20D0D
102
{ACAD_REACTORS
330
20D0E
102
}
330
18
100
AcDbEntity
  8
細線
 48
5.0
100
AcDbLine
 10
85.90364559495981
 20
-629.7347829916957
 30
0.0
 11
84.17159463495975
 21
-629.7347829916957
 31
0.0
  0
CIRCLE
  5
20D0F
102
{ACAD_REACTORS
330
20D19
102
}
330
18
100
AcDbEntity
  8
細線
 48
5.0
100
AcDbCircle
 10
66.91262020495958
 20
-596.8413621045121
 30
0.0
 40
3.099999999999988
  0
CIRCLE
  5
20D10
102
{ACAD_REACTORS
330
20D19
102
}
330
18
100
AcDbEntity
  8
細線
 48
5.0
100
AcDbCircle
 10
66.91262020495958
 20
-596.8413621045121
 30
0.0
 40
3.5
  0
LINE
  5
20D11
102
{ACAD_REACTORS
330
20D19
102
}
330
18
100
AcDbEntity
  8
細線
 48
5.0
100
AcDbLine
 10
66.04659485495943
 20
-598.3413620113545
 30
0.0
 11
65.18056952428299
 21
-596.8413618847282
 31
0.0
  0
LINE
  5
20D12
102
{ACAD_REACTORS
330
20D19
102
}
330
18
100
AcDbEntity
  8
細線
 48
5.0
100
AcDbLine
 10
67.77864555495956
 20
-595.3413621976692
 30
0.0
 11
66.04659467428304
 21
-595.3413623242957
 31
0.0
  0
LINE
  5
20D13
102
{ACAD_REACTORS
330
20D19
102
}
330
18
100
AcDbEntity
  8
細線
 48
5.0
100
AcDbLine
 10
66.04659479428292
 20
-595.3413621164497
 30
0.0
 11
65.18056952428299
 21
-596.8413618847282
 31
0.0
  0
LINE
  5
20D14
102
{ACAD_REACTORS
330
20D19
102
}
330
18
100
AcDbEntity
  8
細線
 48
5.0
100
AcDbLine
 10
67.77864552563617
 20
-598.3413622484588
 30
0.0
 11
66.04659470495957
 21
-598.3413622711622
 31
0.0
  0
LINE
  5
20D15
102
{ACAD_REACTORS
330
20D19
102
}
330
18
100
AcDbEntity
  8
細線
 48
5.0
100
AcDbLine
 10
66.91262011529833
 20
-598.3413622598106
 30
0.0
 11
66.91270671783863
 21
-598.3414122598106
 31
0.0
  0
LINE
  5
20D16
102
{ACAD_REACTORS
330
20D19
102
}
330
18
100
AcDbEntity
  8
細線
 48
5.0
100
AcDbLine
 10
67.34563282046742
 20
-598.3413622541347
 30
0.0
 11
67.34568282046732
 21
-598.3412756515947
 31
0.0
  0
LINE
  5
20D17
102
{ACAD_REACTORS
330
20D19
102
}
330
18
100
AcDbEntity
  8
細線
 48
5.0
100
AcDbLine
 10
67.77864570495953
 20
-595.3413619378617
 30
0.0
 11
68.64467109563604
 21
-596.8413619605652
 31
0.0
  0
LINE
  5
20D18
102
{ACAD_REACTORS
330
20D19
102
}
330
18
100
AcDbEntity
  8
細線
 48
5.0
100
AcDbLine
 10
68.64467100563624
 20
-596.8413621164496
 30
0.0
 11
67.77864552563617
 21
-598.3413622484588
 31
0.0
  0
LINE
  5
20D27
330
18
100
AcDbEntity
  8
0
100
AcDbLine
 10
12.7583098601374
 20
-624.2408756221998
 30
0.0
 11
16.5339583365169
 21
-624.2408756221998
 31
0.0
  0
LINE
  5
20D28
330
18
100
AcDbEntity
  8
0
100
AcDbLine
 10
84.81693054978519
 20
-624.2408756222037
 30
0.0
 11
81.0412820734057
 21
-624.2408756222037
 31
0.0
  0
LINE
  5
20EAA
330
18
100
AcDbEntity
  8
0
100
AcDbLine
 10
660.3779946964382
 20
-518.2347829916964
 30
0.0
 11
660.3779946964382
 21
-452.4583978933888
 31
0.0
  0
LINE
  5
20EAB
330
18
100
AcDbEntity
  8
0
100
AcDbLine
 10
668.8779946928383
 20
-518.2347829916964
 30
0.0
 11
668.8779946928385
 21
-452.4583978933888
 31
0.0
  0
ARC
  5
20EAC
330
18
100
AcDbEntity
  8
0
100
AcDbCircle
 10
644.6279946946382
 20
-518.2347829916964
 30
0.0
 40
15.75000000180011
100
AcDbArc
 50
270.0
 51
0.0
  0
ARC
  5
20EAD
330
18
100
AcDbEntity
  8
0
100
AcDbCircle
 10
644.6279946946382
 20
-518.2347829916964
 30
0.0
 40
24.24999999820034
100
AcDbArc
 50
270.0
 51
0.0
  0
LINE
  5
20EAE
330
18
100
AcDbEntity
  8
0
100
AcDbLine
 10
644.6279946946382
 20
-533.9847829934963
 30
0.0
 11
616.5052141416907
 21
-533.9847829934963
 31
0.0
  0
LINE
  5
20EAF
330
18
100
AcDbEntity
  8
0
100
AcDbLine
 10
644.6279946946382
 20
-542.4847829898964
 30
0.0
 11
616.5052141416907
 21
-542.4847829898966
 31
0.0
  0
LWPOLYLINE
  5
20EFC
330
18
100
AcDbEntity
  8
0
100
AcDbPolyline
 90
        4
 70
     1
 43
0.0
 10
672.1279946935082
 20
-433.2597079017932
 10
672.1279946935082
 20
-452.4583978933888
 10
657.1279946993683
 20
-452.4583978933888
 10
657.1279946993683
 20
-433.2597079017932
  0
CIRCLE
  5
21BB3
102
{ACAD_REACTORS
330
21BB7
102
}
330
18
100
AcDbEntity
  8
0
100
AcDbCircle
 10
926.0845496866098
 20
-538.2347764405198
 30
0.0
 40
7.099714100902929
  0
LWPOLYLINE
  5
21BB4
102
{ACAD_REACTORS
330
21BB7
102
}
330
18
100
AcDbEntity
  8
0
100
AcDbPolyline
 90
        6
 70
   129
 43
0.0
 10
937.0845496866095
 20
-531.8839234794338
 10
926.0845496866098
 20
-525.533070518348
 10
915.0845496866097
 20
-531.8839234794338
 10
915.0845496866097
 20
-544.5856294016057
 10
926.0845496866098
 20
-550.9364823626915
 10
937.0845496866095
 20
-544.5856294016057
  0
CIRCLE
  5
21BB5
102
{ACAD_REACTORS
330
21BB7
102
}
330
18
100
AcDbEntity
  8
0
100
AcDbCircle
 10
926.0845496866098
 20
-538.2347764405198
 30
0.0
 40
10.05022988573726
  0
CIRCLE
  5
21BB6
102
{ACAD_REACTORS
330
21BB7
102
}
330
18
100
AcDbEntity
  8
0
100
AcDbCircle
 10
926.0845536229524
 20
-538.2347829916957
 30
0.0
 40
3.2
  0
LWPOLYLINE
  5
21BB9
102
{ACAD_REACTORS
330
21BC1
102
}
330
18
100
AcDbEntity
  8
0
100
AcDbPolyline
 90
        6
 70
     1
 43
0.0
 10
982.3903347096685
 20
-684.5405556782732
 10
979.7059674483582
 20
-694.5587506836576
 10
987.0397951924324
 20
-701.892578427731
 10
997.0579901978164
 20
-699.2082111664212
 10
999.7423574591268
 20
-689.1900161610372
 10
992.4085297150528
 20
-681.8561884169634
  0
CIRCLE
  5
21BBA
102
{ACAD_REACTORS
330
21BC1
102
}
330
18
100
AcDbEntity
  8
0
100
AcDbCircle
 10
926.0845536229519
 20
-718.2347829916968
 30
0.0
 40
4.607147494343506
  0
CIRCLE
  5
21BBB
102
{ACAD_REACTORS
330
21BC1
102
}
330
18
100
AcDbEntity
  8
0
100
AcDbCircle
 10
926.0845536229519
 20
-718.2347829916968
 30
0.0
 40
2.400000000000195
  0
CIRCLE
  5
21BBC
102
{ACAD_REACTORS
330
21BC1
102
}
330
18
100
AcDbEntity
  8
0
100
AcDbCircle
 10
926.0845595627479
 20
-718.2347749645225
 30
0.0
 40
7.564530200546926
  0
LWPOLYLINE
  5
21BBD
102
{ACAD_REACTORS
330
21BC1
102
}
330
18
100
AcDbEntity
  8
0
100
AcDbPolyline
 90
        6
 70
     1
 43
0.0
 10
926.0845595627477
 20
-707.8631763047451
 10
917.1024916455236
 20
-713.048975634634
 10
917.1024916455239
 20
-723.4205742944112
 10
926.0845595627479
 20
-728.6063736243001
 10
935.0666274799717
 20
-723.4205742944115
 10
935.0666274799717
 20
-713.048975634634
  0
CIRCLE
  5
21BBE
102
{ACAD_REACTORS
330
21BC1
102
}
330
18
100
AcDbEntity
  8
0
100
AcDbCircle
 10
989.7241639297419
 20
-691.8743932984861
 30
0.0
 40
4.607147494343506
  0
CIRCLE
  5
21BBF
102
{ACAD_REACTORS
330
21BC1
102
}
330
18
100
AcDbEntity
  8
0
100
AcDbCircle
 10
989.7241639297419
 20
-691.8743932984861
 30
0.0
 40
2.400000000000195
  0
CIRCLE
  5
21BC0
102
{ACAD_REACTORS
330
21BC1
102
}
330
18
100
AcDbEntity
  8
0
100
AcDbCircle
 10
989.724162453743
 20
-691.8743834223472
 30
0.0
 40
7.564530200546926
  0
LINE
  5
21BC5
102
{ACAD_REACTORS
330
21C11
330
21C12
102
}
330
18
100
AcDbEntity
  8
A
100
AcDbLine
 10
613.0052141416902
 20
-527.9062115631244
 30
0.0
 11
613.0052141416909
 21
-548.5633544202674
 31
0.0
  0
LINE
  5
21BC6
102
{ACAD_REACTORS
330
21C11
330
21C12
102
}
330
18
100
AcDbEntity
  8
0
100
AcDbLine
 10
601.5052141416909
 20
-527.2347829916959
 30
0.0
 11
601.5052141416909
 21
-549.2347829916964
 31
0.0
  0
LINE
  5
21BC7
102
{ACAD_REACTORS
330
21C11
330
21C12
102
}
330
18
100
AcDbEntity
  8
0
100
AcDbLine
 10
594.50521414169
 20
-549.2347829916964
 30
0.0
 11
594.5052141416907
 21
-527.2347829916964
 31
0.0
  0
LINE
  5
21BC8
102
{ACAD_REACTORS
330
21C11
330
21C12
102
}
330
18
100
AcDbEntity
  8
A
100
AcDbLine
 10
616.5052141416907
 20
-532.0062115631243
 30
0.0
 11
616.5052141416907
 21
-544.4633544202686
 31
0.0
  0
LINE
  5
21BC9
102
{ACAD_REACTORS
330
21C11
330
21C12
102
}
330
18
100
AcDbEntity
  8
A
100
AcDbLine
 10
601.5052141416909
 20
-549.2347829916964
 30
0.0
 11
612.4320434099836
 21
-549.2347829916964
 31
0.0
  0
LINE
  5
21BCA
102
{ACAD_REACTORS
330
21C11
330
21C12
102
}
330
18
100
AcDbEntity
  8
A
100
AcDbLine
 10
612.0052141416907
 20
-544.2259563501486
 30
0.0
 11
601.5052141416909
 21
-544.2259563501486
 31
0.0
  0
LINE
  5
21BCB
102
{ACAD_REACTORS
330
21C11
330
21C12
102
}
330
18
100
AcDbEntity
  8
0
100
AcDbLine
 10
594.5052141416907
 20
-546.2347831719291
 30
0.0
 11
601.5052141416909
 21
-546.2347821626242
 31
0.0
  0
LINE
  5
21BCC
102
{ACAD_REACTORS
330
21C11
330
21C12
102
}
330
18
100
AcDbEntity
  8
A
100
AcDbLine
 10
593.5052141416909
 20
-549.2347829916964
 30
0.0
 11
594.5052141416907
 21
-549.2347829916964
 31
0.0
  0
LINE
  5
21BCD
102
{ACAD_REACTORS
330
21C11
330
21C12
102
}
330
18
100
AcDbEntity
  8
A
100
AcDbLine
 10
594.5052141416907
 20
-544.2259563501486
 30
0.0
 11
593.5052141416909
 21
-544.2259563501486
 31
0.0
  0
ARC
  5
21BCE
102
{ACAD_REACTORS
330
21C11
330
21C12
102
}
330
18
100
AcDbEntity
  8
A
100
AcDbCircle
 10
604.0314176241207
 20
-548.4336981782862
 30
0.0
 40
9.015903847971632
100
AcDbArc
 50
5.539633318506536
 51
27.82043885585176
  0
LINE
  5
21BCF
102
{ACAD_REACTORS
330
21C11
330
21C12
102
}
330
18
100
AcDbEntity
  8
A
100
AcDbLine
 10
612.0052141416907
 20
-542.7069189466963
 30
0.0
 11
612.0052141416907
 21
-544.2259563501486
 31
0.0
  0
LINE
  5
21BD0
102
{ACAD_REACTORS
330
21C11
330
21C12
102
}
330
18
100
AcDbEntity
  8
A
100
AcDbLine
 10
612.4320434099836
 20
-549.2347829916964
 30
0.0
 11
616.5052141416907
 21
-544.4633544202686
 31
0.0
  0
LINE
  5
21BD1
102
{ACAD_REACTORS
330
21C11
330
21C12
102
}
330
18
100
AcDbEntity
  8
A
100
AcDbLine
 10
601.5052141416909
 20
-532.2436096332437
 30
0.0
 11
612.0052141416907
 21
-532.2436096332442
 31
0.0
  0
LINE
  5
21BD2
102
{ACAD_REACTORS
330
21C11
330
21C12
102
}
330
18
100
AcDbEntity
  8
A
100
AcDbLine
 10
601.5052141416909
 20
-527.2347829916964
 30
0.0
 11
612.4320434099836
 21
-527.2347829916959
 31
0.0
  0
LINE
  5
21BD3
102
{ACAD_REACTORS
330
21C11
330
21C12
102
}
330
18
100
AcDbEntity
  8
0
100
AcDbLine
 10
594.5052141416907
 20
-530.2347831719278
 30
0.0
 11
601.5052141416909
 21
-530.2347821626206
 31
0.0
  0
LINE
  5
21BD4
102
{ACAD_REACTORS
330
21C11
330
21C12
102
}
330
18
100
AcDbEntity
  8
A
100
AcDbLine
 10
593.5052141416909
 20
-532.2436096332442
 30
0.0
 11
594.5052141416907
 21
-532.2436096332442
 31
0.0
  0
LINE
  5
21BD5
102
{ACAD_REACTORS
330
21C11
330
21C12
102
}
330
18
100
AcDbEntity
  8
A
100
AcDbLine
 10
593.5052141416909
 20
-527.2347829916964
 30
0.0
 11
594.5052141416907
 21
-527.2347829916964
 31
0.0
  0
ARC
  5
21BD6
102
{ACAD_REACTORS
330
21C11
330
21C12
102
}
330
18
100
AcDbEntity
  8
A
100
AcDbCircle
 10
604.0314176241207
 20
-528.0358678051061
 30
0.0
 40
9.015903847971632
100
AcDbArc
 50
332.1795611441481
 51
354.4603666814933
  0
LINE
  5
21BD7
102
{ACAD_REACTORS
330
21C11
330
21C12
102
}
330
18
100
AcDbEntity
  8
A
100
AcDbLine
 10
612.0052141416907
 20
-532.2436096332442
 30
0.0
 11
612.0052141416907
 21
-533.7626470366966
 31
0.0
  0
LINE
  5
21BD8
102
{ACAD_REACTORS
330
21C11
330
21C12
102
}
330
18
100
AcDbEntity
  8
A
100
AcDbLine
 10
612.4320434099836
 20
-527.2347829916964
 30
0.0
 11
616.5052141416907
 21
-532.0062115631243
 31
0.0
  0
LINE
  5
21BD9
102
{ACAD_REACTORS
330
21C11
330
21C12
102
}
330
18
100
AcDbEntity
  8
A
100
AcDbLine
 10
601.5052141416909
 20
-533.7626470366966
 30
0.0
 11
612.0052141416907
 21
-533.7626470366966
 31
0.0
  0
LINE
  5
21BDA
102
{ACAD_REACTORS
330
21C11
330
21C12
102
}
330
18
100
AcDbEntity
  8
A
100
AcDbLine
 10
593.5052141416909
 20
-533.7626470366966
 30
0.0
 11
594.5052141416907
 21
-533.7626470366966
 31
0.0
  0
LINE
  5
21BDB
102
{ACAD_REACTORS
330
21C11
330
21C12
102
}
330
18
100
AcDbEntity
  8
A
100
AcDbLine
 10
612.0052141416907
 20
-542.7069189466963
 30
0.0
 11
601.5052141416909
 21
-542.7069189466963
 31
0.0
  0
LINE
  5
21BDC
102
{ACAD_REACTORS
330
21C11
330
21C12
102
}
330
18
100
AcDbEntity
  8
A
100
AcDbLine
 10
594.5052141416907
 20
-542.7069189466963
 30
0.0
 11
593.5052141416909
 21
-542.7069189466963
 31
0.0
  0
ARC
  5
21BDD
102
{ACAD_REACTORS
330
21C11
330
21C12
102
}
330
18
100
AcDbEntity
  8
A
100
AcDbCircle
 10
602.50521414169
 20
-538.2347829916962
 30
0.0
 40
10.50000000000042
100
AcDbArc
 50
334.7912347032506
 51
25.20876529674923
  0
LINE
  5
21BDE
102
{ACAD_REACTORS
330
21C10
330
21C11
102
}
330
18
100
AcDbEntity
  8
0
100
AcDbLine
 10
608.5052141416909
 20
-700.5281834223474
 30
0.0
 11
612.5052141416907
 21
-697.1717848976382
 31
0.0
  0
LINE
  5
21BDF
102
{ACAD_REACTORS
330
21C10
330
21C11
102
}
330
18
100
AcDbEntity
  8
0
100
AcDbLine
 10
608.5052141416909
 20
-726.8885829916963
 30
0.0
 11
612.5052141416907
 21
-723.5321844669873
 31
0.0
  0
LINE
  5
21BE0
102
{ACAD_REACTORS
330
21C10
330
21C11
102
}
330
18
100
AcDbEntity
  8
0
100
AcDbLine
 10
595.5052141416907
 20
-724.2347817300633
 30
0.0
 11
600.5052141416909
 21
-724.2347804684295
 31
0.0
  0
LINE
  5
21BE1
102
{ACAD_REACTORS
330
21C10
330
21C11
102
}
330
18
100
AcDbEntity
  8
0
100
AcDbLine
 10
593.5052141416909
 20
-723.3216829916963
 30
0.0
 11
595.5052141416907
 21
-723.3216829916963
 31
0.0
  0
LINE
  5
21BE2
102
{ACAD_REACTORS
330
21C10
330
21C11
102
}
330
18
100
AcDbEntity
  8
0
100
AcDbLine
 10
593.5052141416909
 20
-721.8016829916963
 30
0.0
 11
595.5052141416907
 21
-721.8016829916963
 31
0.0
  0
LINE
  5
21BE3
102
{ACAD_REACTORS
330
21C10
330
21C11
102
}
330
18
100
AcDbEntity
  8
0
100
AcDbLine
 10
593.5052141416909
 20
-726.8885829916963
 30
0.0
 11
595.5052141416907
 21
-726.8885829916963
 31
0.0
  0
LINE
  5
21BE4
102
{ACAD_REACTORS
330
21C10
330
21C11
102
}
330
18
100
AcDbEntity
  8
0
100
AcDbLine
 10
595.5052141416907
 20
-709.5809829916963
 30
0.0
 11
595.5052141416907
 21
-726.8885829916963
 31
0.0
  0
ARC
  5
21BE5
102
{ACAD_REACTORS
330
21C10
330
21C11
102
}
330
18
100
AcDbEntity
  8
0
100
AcDbCircle
 10
600.5052141416909
 20
-718.2347829916963
 30
0.0
 40
8.0
100
AcDbArc
 50
333.5214655209776
 51
26.47853447902235
  0
LINE
  5
21BE6
102
{ACAD_REACTORS
330
21C10
330
21C11
102
}
330
18
100
AcDbEntity
  8
0
100
AcDbLine
 10
607.6660258547581
 20
-723.3216829916963
 30
0.0
 11
607.6660258547581
 21
-721.8016829916963
 31
0.0
  0
LINE
  5
21BE7
102
{ACAD_REACTORS
330
21C10
330
21C11
102
}
330
18
100
AcDbEntity
  8
0
100
AcDbLine
 10
600.5052141416909
 20
-723.3216829916963
 30
0.0
 11
607.6660258547581
 21
-723.3216829916963
 31
0.0
  0
LINE
  5
21BE8
102
{ACAD_REACTORS
330
21C10
330
21C11
102
}
330
18
100
AcDbEntity
  8
0
100
AcDbLine
 10
600.5052141416909
 20
-721.8016829916963
 30
0.0
 11
607.6660258547581
 21
-721.8016829916963
 31
0.0
  0
LINE
  5
21BE9
102
{ACAD_REACTORS
330
21C10
330
21C11
102
}
330
18
100
AcDbEntity
  8
0
100
AcDbLine
 10
600.5052141416909
 20
-726.8885829916963
 30
0.0
 11
608.5052141416909
 21
-726.8885829916963
 31
0.0
  0
LINE
  5
21BEA
102
{ACAD_REACTORS
330
21C10
330
21C11
102
}
330
18
100
AcDbEntity
  8
0
100
AcDbLine
 10
600.5052141416909
 20
-709.5809829916963
 30
0.0
 11
600.5052141416909
 21
-726.8885829916963
 31
0.0
  0
LINE
  5
21BEB
102
{ACAD_REACTORS
330
21C10
330
21C11
102
}
330
18
100
AcDbEntity
  8
0
100
AcDbLine
 10
608.5052141416909
 20
-709.5809829916963
 30
0.0
 11
608.5052141416909
 21
-726.8885829916963
 31
0.0
  0
ARC
  5
21BEC
102
{ACAD_REACTORS
330
21C10
330
21C11
102
}
330
18
100
AcDbEntity
  8
0
100
AcDbCircle
 10
600.5052141416909
 20
-726.8885829916963
 30
0.0
 40
8.0
100
AcDbArc
 50
0.0
 51
26.47853447902235
  0
LINE
  5
21BED
102
{ACAD_REACTORS
330
21C10
330
21C11
102
}
330
18
100
AcDbEntity
  8
0
100
AcDbLine
 10
608.5052141416909
 20
-709.5809829916963
 30
0.0
 11
612.5052141416907
 21
-712.9373815164056
 31
0.0
  0
LINE
  5
21BEE
102
{ACAD_REACTORS
330
21C10
330
21C11
102
}
330
18
100
AcDbEntity
  8
0
100
AcDbLine
 10
595.5052141416907
 20
-712.234781730061
 30
0.0
 11
600.5052141416909
 21
-712.234780468426
 31
0.0
  0
LINE
  5
21BEF
102
{ACAD_REACTORS
330
21C10
330
21C11
102
}
330
18
100
AcDbEntity
  8
0
100
AcDbLine
 10
593.5052141416909
 20
-709.5809829916961
 30
0.0
 11
595.5052141416907
 21
-709.5809829916963
 31
0.0
  0
LINE
  5
21BF0
102
{ACAD_REACTORS
330
21C10
330
21C11
102
}
330
18
100
AcDbEntity
  8
0
100
AcDbLine
 10
593.5052141416901
 20
-714.6678829916963
 30
0.0
 11
595.5052141416907
 21
-714.6678829916963
 31
0.0
  0
LINE
  5
21BF1
102
{ACAD_REACTORS
330
21C10
330
21C11
102
}
330
18
100
AcDbEntity
  8
0
100
AcDbLine
 10
593.5052141416901
 20
-713.1478829916963
 30
0.0
 11
595.5052141416907
 21
-713.1478829916963
 31
0.0
  0
LINE
  5
21BF2
102
{ACAD_REACTORS
330
21C10
330
21C11
102
}
330
18
100
AcDbEntity
  8
0
100
AcDbLine
 10
607.6660258547581
 20
-714.6678829916963
 30
0.0
 11
607.6660258547581
 21
-713.1478829916963
 31
0.0
  0
ARC
  5
21BF3
102
{ACAD_REACTORS
330
21C10
330
21C11
102
}
330
18
100
AcDbEntity
  8
0
100
AcDbCircle
 10
600.5052141416909
 20
-709.5809829916963
 30
0.0
 40
8.0
100
AcDbArc
 50
333.5214655209776
 51
0.0
  0
LINE
  5
21BF4
102
{ACAD_REACTORS
330
21C10
330
21C11
102
}
330
18
100
AcDbEntity
  8
0
100
AcDbLine
 10
600.5052141416909
 20
-709.5809829916963
 30
0.0
 11
608.5052141416909
 21
-709.5809829916963
 31
0.0
  0
LINE
  5
21BF5
102
{ACAD_REACTORS
330
21C10
330
21C11
102
}
330
18
100
AcDbEntity
  8
0
100
AcDbLine
 10
600.5052141416909
 20
-714.6678829916963
 30
0.0
 11
607.6660258547581
 21
-714.6678829916963
 31
0.0
  0
LINE
  5
21BF6
102
{ACAD_REACTORS
330
21C10
330
21C11
102
}
330
18
100
AcDbEntity
  8
0
100
AcDbLine
 10
600.5052141416909
 20
-713.1478829916963
 30
0.0
 11
607.6660258547581
 21
-713.1478829916963
 31
0.0
  0
LINE
  5
21BF7
102
{ACAD_REACTORS
330
21C10
330
21C11
102
}
330
18
100
AcDbEntity
  8
0
100
AcDbLine
 10
612.5052141416907
 20
-712.9373815164056
 30
0.0
 11
612.5052141416907
 21
-723.5321844669873
 31
0.0
  0
LINE
  5
21BF8
102
{ACAD_REACTORS
330
21C10
330
21C11
102
}
330
18
100
AcDbEntity
  8
0
100
AcDbLine
 10
595.5052141416907
 20
-697.8743821607146
 30
0.0
 11
600.5052141416909
 21
-697.8743808990808
 31
0.0
  0
LINE
  5
21BF9
102
{ACAD_REACTORS
330
21C10
330
21C11
102
}
330
18
100
AcDbEntity
  8
0
100
AcDbLine
 10
593.5052141416909
 20
-696.9612834223471
 30
0.0
 11
595.5052141416907
 21
-696.9612834223473
 31
0.0
  0
LINE
  5
21BFA
102
{ACAD_REACTORS
330
21C10
330
21C11
102
}
330
18
100
AcDbEntity
  8
0
100
AcDbLine
 10
593.5052141416909
 20
-700.5281834223474
 30
0.0
 11
595.5052141416907
 21
-700.5281834223474
 31
0.0
  0
LINE
  5
21BFB
102
{ACAD_REACTORS
330
21C10
330
21C11
102
}
330
18
100
AcDbEntity
  8
0
100
AcDbLine
 10
595.5052141416907
 20
-683.2205834223472
 30
0.0
 11
595.5052141416907
 21
-700.5281834223474
 31
0.0
  0
LINE
  5
21BFC
102
{ACAD_REACTORS
330
21C10
330
21C11
102
}
330
18
100
AcDbEntity
  8
0
100
AcDbLine
 10
607.6660258547581
 20
-696.9612834223473
 30
0.0
 11
607.6660258547581
 21
-695.4412834223473
 31
0.0
  0
LINE
  5
21BFD
102
{ACAD_REACTORS
330
21C10
330
21C11
102
}
330
18
100
AcDbEntity
  8
0
100
AcDbLine
 10
600.5052141416909
 20
-696.9612834223473
 30
0.0
 11
607.6660258547581
 21
-696.9612834223473
 31
0.0
  0
LINE
  5
21BFE
102
{ACAD_REACTORS
330
21C10
330
21C11
102
}
330
18
100
AcDbEntity
  8
0
100
AcDbLine
 10
600.5052141416909
 20
-700.5281834223474
 30
0.0
 11
608.5052141416909
 21
-700.5281834223474
 31
0.0
  0
LINE
  5
21BFF
102
{ACAD_REACTORS
330
21C10
330
21C11
102
}
330
18
100
AcDbEntity
  8
0
100
AcDbLine
 10
600.5052141416909
 20
-683.2205834223472
 30
0.0
 11
600.5052141416909
 21
-700.5281834223474
 31
0.0
  0
LINE
  5
21C00
102
{ACAD_REACTORS
330
21C10
330
21C11
102
}
330
18
100
AcDbEntity
  8
0
100
AcDbLine
 10
608.5052141416909
 20
-683.2205834223472
 30
0.0
 11
608.5052141416909
 21
-700.5281834223474
 31
0.0
  0
ARC
  5
21C01
102
{ACAD_REACTORS
330
21C10
330
21C11
102
}
330
18
100
AcDbEntity
  8
0
100
AcDbCircle
 10
600.5052141416909
 20
-700.5281834223474
 30
0.0
 40
8.0
100
AcDbArc
 50
0.0
 51
26.47853447902235
  0
LINE
  5
21C02
102
{ACAD_REACTORS
330
21C10
330
21C11
102
}
330
18
100
AcDbEntity
  8
0
100
AcDbLine
 10
612.5052141416907
 20
-686.5769819470565
 30
0.0
 11
612.5052141416907
 21
-697.1717848976382
 31
0.0
  0
LINE
  5
21C03
102
{ACAD_REACTORS
330
21C10
330
21C11
102
}
330
18
100
AcDbEntity
  8
0
100
AcDbLine
 10
593.5052141416909
 20
-695.4412834223473
 30
0.0
 11
595.5052141416907
 21
-695.4412834223473
 31
0.0
  0
LINE
  5
21C04
102
{ACAD_REACTORS
330
21C10
330
21C11
102
}
330
18
100
AcDbEntity
  8
0
100
AcDbLine
 10
600.5052141416909
 20
-695.4412834223473
 30
0.0
 11
607.6660258547581
 21
-695.4412834223473
 31
0.0
  0
LINE
  5
21C05
102
{ACAD_REACTORS
330
21C10
330
21C11
102
}
330
18
100
AcDbEntity
  8
0
100
AcDbLine
 10
595.5052141416907
 20
-685.874382160712
 30
0.0
 11
600.5052141416909
 21
-685.8743808990772
 31
0.0
  0
LINE
  5
21C06
102
{ACAD_REACTORS
330
21C10
330
21C11
102
}
330
18
100
AcDbEntity
  8
0
100
AcDbLine
 10
593.5052141416909
 20
-683.2205834223469
 30
0.0
 11
595.5052141416907
 21
-683.2205834223472
 31
0.0
  0
LINE
  5
21C07
102
{ACAD_REACTORS
330
21C10
330
21C11
102
}
330
18
100
AcDbEntity
  8
0
100
AcDbLine
 10
593.5052141416901
 20
-688.3074834223472
 30
0.0
 11
595.5052141416907
 21
-688.3074834223472
 31
0.0
  0
LINE
  5
21C08
102
{ACAD_REACTORS
330
21C10
330
21C11
102
}
330
18
100
AcDbEntity
  8
0
100
AcDbLine
 10
593.5052141416901
 20
-686.7874834223472
 30
0.0
 11
595.5052141416907
 21
-686.7874834223472
 31
0.0
  0
LINE
  5
21C09
102
{ACAD_REACTORS
330
21C10
330
21C11
102
}
330
18
100
AcDbEntity
  8
0
100
AcDbLine
 10
600.5052141416909
 20
-683.2205834223472
 30
0.0
 11
608.5052141416909
 21
-683.2205834223472
 31
0.0
  0
LINE
  5
21C0A
102
{ACAD_REACTORS
330
21C10
330
21C11
102
}
330
18
100
AcDbEntity
  8
0
100
AcDbLine
 10
600.5052141416909
 20
-688.3074834223472
 30
0.0
 11
607.6660258547581
 21
-688.3074834223472
 31
0.0
  0
LINE
  5
21C0B
102
{ACAD_REACTORS
330
21C10
330
21C11
102
}
330
18
100
AcDbEntity
  8
0
100
AcDbLine
 10
600.5052141416909
 20
-686.7874834223472
 30
0.0
 11
607.6660258547581
 21
-686.7874834223472
 31
0.0
  0
LINE
  5
21C0C
102
{ACAD_REACTORS
330
21C10
330
21C11
102
}
330
18
100
AcDbEntity
  8
0
100
AcDbLine
 10
608.5052141416909
 20
-683.2205834223472
 30
0.0
 11
612.5052141416907
 21
-686.5769819470565
 31
0.0
  0
LINE
  5
21C0D
102
{ACAD_REACTORS
330
21C10
330
21C11
102
}
330
18
100
AcDbEntity
  8
0
100
AcDbLine
 10
607.6660258547581
 20
-688.3074834223472
 30
0.0
 11
607.6660258547581
 21
-686.7874834223472
 31
0.0
  0
ARC
  5
21C0E
102
{ACAD_REACTORS
330
21C10
330
21C11
102
}
330
18
100
AcDbEntity
  8
0
100
AcDbCircle
 10
600.5052141416909
 20
-683.2205834223472
 30
0.0
 40
8.0
100
AcDbArc
 50
333.5214655209776
 51
0.0
  0
ARC
  5
21C0F
102
{ACAD_REACTORS
330
21C10
330
21C11
102
}
330
18
100
AcDbEntity
  8
0
100
AcDbCircle
 10
600.5052141416909
 20
-691.8743834223472
 30
0.0
 40
8.0
100
AcDbArc
 50
333.5214655209776
 51
26.47853447902235
  0
LINE
  5
2237A
330
18
100
AcDbEntity
  8
0
100
AcDbLine
 10
577.3052106187845
 20
-828.2528512984102
 30
0.0
 11
584.5052106187847
 21
-828.2528512984102
 31
0.0
  0
LINE
  5
2237B
330
18
100
AcDbEntity
  8
0
100
AcDbLine
 10
577.3052106187845
 20
-828.2528512984102
 30
0.0
 11
577.3052106187845
 21
-831.2347829916962
 31
0.0
  0
LINE
  5
2237C
330
18
100
AcDbEntity
  8
0
100
AcDbLine
 10
584.5052106187847
 20
-828.2528512984102
 30
0.0
 11
584.5052106187847
 21
-831.2347829916962
 31
0.0
  0
LINE
  5
224B2
330
18
100
AcDbEntity
  8
破線
100
AcDbLine
 10
403.5052106187841
 20
-538.2347829916962
 30
0.0
 11
405.505210618784
 21
-538.2347829916962
 31
0.0
  0
LINE
  5
224B3
330
18
100
AcDbEntity
  8
破線
100
AcDbLine
 10
403.5052106187841
 20
-718.2347829916963
 30
0.0
 11
405.505210618784
 21
-718.2347829916961
 31
0.0
  0
LINE
  5
224B4
330
18
100
AcDbEntity
  8
破線
100
AcDbLine
 10
405.505210618784
 20
-718.2347829916963
 30
0.0
 11
405.505210618784
 21
-628.2347829916957
 31
0.0
  0
LINE
  5
224B5
330
18
100
AcDbEntity
  8
破線
100
AcDbLine
 10
405.505210618784
 20
-538.2347829916962
 30
0.0
 11
405.505210618784
 21
-628.2347829916962
 31
0.0
  0
CIRCLE
  5
224E8
330
18
100
AcDbEntity
  8
0
100
AcDbCircle
 10
48.78762020496129
 20
-628.2347829916972
 30
0.0
 40
90.00000000000133
  0
VIEWPORT
  5
23
330
15
100
AcDbEntity
 67
     1
  8
0
100
AcDbViewport
 10
199.9873287267185
 20
143.9983041883564
 30
0.0
 40
443.6370769806275
 41
290.3538344358259
 68
     1
 69
     1
1001
ACAD
1000
MVIEW
1002
{
1070
    16
1010
0.0
1020
0.0
1030
0.0
1010
0.0
1020
0.0
1030
1.0
1040
0.0
1040
290.3538344358259
1040
199.9873287267185
1040
143.9983041883564
1040
50.0
1040
0.0
1040
0.0
1070
     0
1070
   100
1070
     1
1070
     0
1070
     0
1070
     0
1070
     0
1070
     0
1040
0.0
1040
0.0
1040
0.0
1040
10.0
1040
10.0
1040
10.0
1040
10.0
1070
     0
1002
{
1002
}
1002
}
  0
VIEWPORT
  5
2E
330
15
100
AcDbEntity
 67
     1
  8
M_VIEW
100
AcDbViewport
 10
200.0
 20
144.0
 30
0.0
 40
400.0
 41
288.0
 68
     2
 69
     2
1001
ACAD
1000
MVIEW
1002
{
1070
    16
1010
0.0
1020
0.0
1030
0.0
1010
0.0
1020
0.0
1030
1.0
1040
0.0
1040
1008.000003587502
1040
482.9341969841864
1040
-811.5486928974599
1040
50.0
1040
0.0
1040
0.0
1070
     0
1070
   100
1070
     1
1070
     0
1070
     0
1070
     0
1070
     0
1070
     0
1040
0.0
1040
0.0
1040
0.0
1040
10.0
1040
10.0
1040
10.0
1040
10.0
1070
     0
1002
{
1002
}
1002
}
  0
INSERT
  5
115F
330
15
100
AcDbEntity
 67
     1
  8
FRAME025
100
AcDbBlockReference
  2
機械A4横_LBP
 10
82.74908858651452
 20
152.030959079227
 30
0.0
  0
TEXT
  5
AA6A
330
15
100
AcDbEntity
 67
     1
  8
文字
  6
BYBLOCK
 62
     0
100
AcDbText
 10
32.81885892396519
 20
73.01882819621747
 30
0.0
 40
3.2
  1

 50
90.0
 41
0.625
  7
MSｺ_ｼｯｸ
100
AcDbText
  0
TEXT
  5
AA6C
330
15
100
AcDbEntity
 67
     1
  8
文字
  6
BYBLOCK
 62
     0
100
AcDbText
 10
37.25020936743055
 20
73.01882819621747
 30
0.0
 40
3.2
  1

 50
90.0
 41
0.625
  7
MSｺ_ｼｯｸ
100
AcDbText
  0
TEXT
  5
FCA5
330
15
100
AcDbEntity
 67
     1
  8
FRAME020
  6
CONTINUOUS
100
AcDbText
 10
126.6213117262079
 20
29.63926951973459
 30
0.0
 40
2.5
  1

 41
0.625
  7
MSｺ_ｼｯｸ
100
AcDbText
  0
TEXT
  5
12229
330
15
100
AcDbEntity
 67
     1
  8
0
100
AcDbText
 10
324.703280378293
 20
10.63168299257869
 30
0.0
 40
6.0
  1
ＳＥ－３９０７１
 41
1.1
100
AcDbText
  0
MTEXT
  5
22498
330
15
100
AcDbEntity
 67
     1
  8
DIMENSION
100
AcDbMText
 10
226.3393185870675
 20
28.01734881232903
 30
0.0
 40
6.0
 41
165.0356054167545
 71
     1
 72
     5
  1
{\C7;τDISCﾓｰﾀ D400-175-L NMR-FUIBA2D-472AZ}
1001
ACAD
1000
MTEXTBEGIN
1070
    73
1070
     1
1070
    44
1040
1.0
1070
    74
1070
     0
1000
MTEXTEND
1000
MTEXTBEGIN
1070
    73
1070
     1
1070
    44
1040
1.0
1070
    74
1070
     0
1000
MTEXTEND
  0
ENDSEC
  0
SECTION
  2
OBJECTS
  0
DICTIONARY
  5
C
330
0
100
AcDbDictionary
  3
ACAD_GROUP
350
D
  3
ACAD_LAYOUT
350
DB2
  3
ACAD_MLINESTYLE
350
1B
  3
ACAD_PLOTSETTINGS
350
DB3
  3
ACAD_PLOTSTYLENAME
350
FB5B
  3
ACADDIM
350
1B534
  3
ACDBHEADERROUNDTRIPXREC
350
224EA
  3
ACDBVARIABLEDICTIONARY
350
106A6
  3
ASE_INDEX_DICTIONARY
350
1A99F
  3
DWGPROPS
350
15EC9
1001
ACAD
1000
TREAT_AS_HARD
1070
     0
  0
DICTIONARY
  5
21F33
330
2
100
AcDbDictionary
280
     1
  3
ACAD_LAYERFILTERS
360
21F34
  3
ACAD_LAYERSTATES
360
21F6A
  0
DICTIONARY
  5
EFC6
330
18
100
AcDbDictionary
280
     1
  3
ACAD_LAYOUTSELFREF
360
2250C
  0
DICTIONARY
  5
EFC4
330
15
100
AcDbDictionary
280
     1
  3
ACAD_LAYOUTSELFREF
360
2250B
  0
DICTIONARY
  5
D
102
{ACAD_REACTORS
330
C
102
}
330
C
100
AcDbDictionary
  3
*A1
350
AC8A
  3
*A10
350
20D03
  3
*A100
350
196C2
  3
*A101
350
FCB8
  3
*A102
350
1EB80
  3
*A103
350
1D6E8
  3
*A104
350
18FA6
  3
*A105
350
1D670
  3
*A106
350
20CED
  3
*A107
350
1B744
  3
*A108
350
16068
  3
*A109
350
21C10
  3
*A11
350
20D0E
  3
*A110
350
1D67A
  3
*A111
350
17BFF
  3
*A112
350
1738A
  3
*A113
350
19786
  3
*A114
350
20CE2
  3
*A115
350
1738B
  3
*A116
350
1D6DE
  3
*A117
350
20CCC
  3
*A118
350
173BE
  3
*A119
350
FC91
  3
*A12
350
18F23
  3
*A120
350
1A695
  3
*A121
350
16069
  3
*A13
350
1D706
  3
*A14
350
20CD7
  3
*A15
350
1606A
  3
*A16
350
19F67
  3
*A17
350
17389
  3
*A18
350
16059
  3
*A19
350
1B74D
  3
*A2
350
1D6F2
  3
*A20
350
19F55
  3
*A21
350
19259
  3
*A22
350
1D6FC
  3
*A23
350
19794
  3
*A24
350
18FA7
  3
*A25
350
1D6B6
  3
*A26
350
ACA1
  3
*A27
350
18F21
  3
*A28
350
1D6CA
  3
*A29
350
1EB7D
  3
*A3
350
1606B
  3
*A30
350
1EB7F
  3
*A31
350
18F20
  3
*A32
350
1D68E
  3
*A33
350
18FA8
  3
*A34
350
FBFF
  3
*A35
350
19988
  3
*A36
350
19F87
  3
*A37
350
19AA4
  3
*A38
350
1A09A
  3
*A39
350
FC95
  3
*A4
350
1D6AC
  3
*A40
350
198F1
  3
*A41
350
106C6
  3
*A42
350
20A1F
  3
*A43
350
19256
  3
*A44
350
19881
  3
*A45
350
17901
  3
*A46
350
21BC3
  3
*A47
350
21BB7
  3
*A48
350
1D6A2
  3
*A49
350
1D6D4
  3
*A5
350
ACA2
  3
*A50
350
20781
  3
*A51
350
19A51
  3
*A52
350
21C11
  3
*A53
350
21BC4
  3
*A54
350
1B73B
  3
*A55
350
19861
  3
*A56
350
FB6B
  3
*A57
350
19729
  3
*A58
350
21C12
  3
*A59
350
1B732
  3
*A6
350
18F1F
  3
*A60
350
20D19
  3
*A61
350
1B756
  3
*A62
350
20CF8
  3
*A63
350
1EB7C
  3
*A64
350
106B3
  3
*A65
350
106C7
  3
*A66
350
ACB4
  3
*A67
350
1EB7E
  3
*A68
350
ACBD
  3
*A69
350
FC9A
  3
*A7
350
19A86
  3
*A70
350
1D710
  3
*A71
350
AC9A
  3
*A72
350
19A52
  3
*A73
350
ACAB
  3
*A74
350
19A5A
  3
*A75
350
19989
  3
*A76
350
1D6C0
  3
*A77
350
18F22
  3
*A78
350
169DA
  3
*A79
350
FC9B
  3
*A8
350
1D698
  3
*A80
350
19FAB
  3
*A81
350
106A5
  3
*A82
350
19787
  3
*A83
350
1B720
  3
*A84
350
173BD
  3
*A85
350
173BF
  3
*A86
350
1B729
  3
*A87
350
1998A
  3
*A88
350
16058
  3
*A89
350
1AA94
  3
*A9
350
20EA9
  3
*A90
350
FB6C
  3
*A91
350
19255
  3
*A92
350
1D684
  3
*A93
350
21BC1
  3
*A94
350
21BC2
  3
*A95
350
1A691
  3
*A96
350
19F99
  3
*A97
350
21BB8
  3
*A98
350
21BB2
  3
*A99
350
17B11
1001
ACAD
1000
TREAT_AS_HARD
1070
     0
  0
DICTIONARY
  5
DB2
102
{ACAD_REACTORS
330
C
102
}
330
C
100
AcDbDictionary
1001
ACAD
1000
TREAT_AS_HARD
1070
     0
  0
DICTIONARY
  5
1B
102
{ACAD_REACTORS
330
C
102
}
330
C
100
AcDbDictionary
  3
STANDARD
350
1C
1001
ACAD
1000
TREAT_AS_HARD
1070
     0
  0
DICTIONARY
  5
DB3
102
{ACAD_REACTORS
330
C
102
}
330
C
100
AcDbDictionary
1001
ACAD
1000
TREAT_AS_HARD
1070
     0
  0
ACDBDICTIONARYWDFLT
  5
FB5B
102
{ACAD_REACTORS
330
C
102
}
330
C
100
AcDbDictionary
281
     1
  3
Normal
350
FB5C
100
AcDbDictionaryWithDefault
340
FB5C
  0
XRECORD
  5
1B534
102
{ACAD_REACTORS
330
C
102
}
330
C
100
AcDbXrecord
 90
   990106
  3

 60
     0
 61
     0
 62
     4
 63
     4
 64
     1
 65
     0
 66
     0
 67
     3
 68
     1
 69
     0
 70
     0
 71
     0
 72
     0
 40
0.0
170
     2
340
1B53A
  0
DICTIONARY
  5
224EA
102
{ACAD_REACTORS
330
C
102
}
330
C
100
AcDbDictionary
  3
CEPSNTYPE
350
224F4
  3
DIMSTYLEDATA
350
224F8
  3
FINGERPRINTGUID
350
224F5
  3
HYPERLINKBASE
350
224ED
  3
INSUNITS
350
224F3
  3
LAYOUTDICT
350
224EF
  3
LWETCUNION
350
224F2
  3
PLOTSETDICT
350
224F0
  3
PLOTSTYLNAMDICT
350
224F1
  3
PSVPSCALE
350
224F7
  3
PUCSBASE
350
224FB
  3
PUCSORGBACK
350
22501
  3
PUCSORGBOTTOM
350
224FD
  3
PUCSORGFRONT
350
22500
  3
PUCSORGLEFT
350
224FE
  3
PUCSORGRIGHT
350
224FF
  3
PUCSORGTOP
350
224FC
  3
PUCSORTHOREF
350
224F9
  3
PUCSORTHOVIEW
350
224FA
  3
STYLESHEET
350
224EE
  3
TSTACKALIGN
350
224EB
  3
TSTACKSIZE
350
224EC
  3
UCSBASE
350
22504
  3
UCSORGBACK
350
2250A
  3
UCSORGBOTTOM
350
22506
  3
UCSORGFRONT
350
22509
  3
UCSORGLEFT
350
22507
  3
UCSORGRIGHT
350
22508
  3
UCSORGTOP
350
22505
  3
UCSORTHOREF
350
22502
  3
UCSORTHOVIEW
350
22503
  3
VERSIONGUID
350
224F6
  0
DICTIONARY
  5
106A6
102
{ACAD_REACTORS
330
C
102
}
330
C
100
AcDbDictionary
  3
SORTENTS
350
106A7
  0
DICTIONARY
  5
1A99F
102
{ACAD_REACTORS
330
C
102
}
330
C
100
AcDbDictionary
  3
ASEBLOCKHIERARCHYINDEXRECORD
350
1A9A1
1001
DCO15
1040
1464612067.17
  0
XRECORD
  5
15EC9
102
{ACAD_REACTORS
330
C
102
}
330
C
100
AcDbXrecord
  1
DWGPROPS COOKIE
  2

  3

  4

  6

  7

  8

  9

300
=
301
=
302
=
303
=
304
=
305
=
306
=
307
=
308
=
309
=
 40
12.65185717592592
 41
2451224.660162384
 42
2452395.660827315
  1

 90
        0
  0
DICTIONARY
  5
21F34
102
{ACAD_REACTORS
330
21F33
102
}
330
21F33
100
AcDbDictionary
280
     1
  3
0
360
21F35
  3
11
360
21F36
  3
150_
360
21F37
  3
160_
360
21F38
  3
170_
360
21F39
  3
171_
360
21F3A
  3
350_
360
21F3B
  3
4
360
21F3C
  3
5
360
21F3D
  3
7
360
21F3E
  3
KISEKI
360
21F3F
  0
DICTIONARY
  5
21F6A
102
{ACAD_REACTORS
330
21F33
102
}
330
21F33
100
AcDbDictionary
  0
XRECORD
  5
2250C
102
{ACAD_REACTORS
330
EFC6
102
}
330
EFC6
100
AcDbXrecord
340
18
  0
XRECORD
  5
2250B
102
{ACAD_REACTORS
330
EFC4
102
}
330
EFC4
100
AcDbXrecord
340
15
  0
GROUP
  5
AC8A
102
{ACAD_REACTORS
330
D
102
}
330
D
100
AcDbGroup
300

 70
     1
 71
     1
  0
GROUP
  5
20D03
102
{ACAD_REACTORS
330
D
102
}
330
D
100
AcDbGroup
300

 70
     1
 71
     1
340
20CFA
340
20CF9
340
20CFB
340
20CFC
340
20CFD
340
20CFE
340
20CFF
340
20D00
340
20D01
340
20D02
  0
GROUP
  5
196C2
102
{ACAD_REACTORS
330
D
102
}
330
D
100
AcDbGroup
300

 70
     1
 71
     1
  0
GROUP
  5
FCB8
102
{ACAD_REACTORS
330
D
102
}
330
D
100
AcDbGroup
300

 70
     1
 71
     1
  0
GROUP
  5
1EB80
102
{ACAD_REACTORS
330
D
102
}
330
D
100
AcDbGroup
300

 70
     1
 71
     1
  0
GROUP
  5
1D6E8
102
{ACAD_REACTORS
330
D
102
}
330
D
100
AcDbGroup
300

 70
     1
 71
     1
  0
GROUP
  5
18FA6
102
{ACAD_REACTORS
330
D
102
}
330
D
100
AcDbGroup
300

 70
     1
 71
     1
  0
GROUP
  5
1D670
102
{ACAD_REACTORS
330
D
102
}
330
D
100
AcDbGroup
300

 70
     1
 71
     1
  0
GROUP
  5
20CED
102
{ACAD_REACTORS
330
D
102
}
330
D
100
AcDbGroup
300

 70
     1
 71
     1
340
20CE4
340
20CE3
340
20CE5
340
20CE6
340
20CE7
340
20CE8
340
20CE9
340
20CEA
340
20CEB
340
20CEC
  0
GROUP
  5
1B744
102
{ACAD_REACTORS
330
D
102
}
330
D
100
AcDbGroup
300

 70
     1
 71
     1
340
1B73C
340
1B73D
340
1B73E
340
1B73F
340
1B740
340
1B741
340
1B742
340
1B743
  0
GROUP
  5
16068
102
{ACAD_REACTORS
330
D
102
}
330
D
100
AcDbGroup
300

 70
     1
 71
     1
  0
GROUP
  5
21C10
102
{ACAD_REACTORS
330
D
102
}
330
D
100
AcDbGroup
300

 70
     1
 71
     1
340
21BDF
340
21BE0
340
21BE1
340
21BE2
340
21BE3
340
21BE4
340
21BE5
340
21BE6
340
21BE7
340
21BE8
340
21BE9
340
21BEA
340
21BEB
340
21BEC
340
21BED
340
21BEE
340
21BEF
340
21BF0
340
21BF1
340
21BF2
340
21BF3
340
21BF4
340
21BF5
340
21BF6
340
21BF7
340
21BDE
340
21BF8
340
21BF9
340
21BFA
340
21BFB
340
21BFC
340
21BFD
340
21BFE
340
21BFF
340
21C00
340
21C01
340
21C02
340
21C03
340
21C04
340
21C05
340
21C06
340
21C07
340
21C08
340
21C09
340
21C0A
340
21C0B
340
21C0C
340
21C0D
340
21C0E
340
21C0F
  0
GROUP
  5
20D0E
102
{ACAD_REACTORS
330
D
102
}
330
D
100
AcDbGroup
300

 70
     1
 71
     1
340
20D05
340
20D04
340
20D06
340
20D07
340
20D08
340
20D09
340
20D0A
340
20D0B
340
20D0C
340
20D0D
  0
GROUP
  5
1D67A
102
{ACAD_REACTORS
330
D
102
}
330
D
100
AcDbGroup
300

 70
     1
 71
     1
  0
GROUP
  5
17BFF
102
{ACAD_REACTORS
330
D
102
}
330
D
100
AcDbGroup
300

 70
     1
 71
     1
  0
GROUP
  5
1738A
102
{ACAD_REACTORS
330
D
102
}
330
D
100
AcDbGroup
300

 70
     1
 71
     1
  0
GROUP
  5
19786
102
{ACAD_REACTORS
330
D
102
}
330
D
100
AcDbGroup
300

 70
     1
 71
     1
  0
GROUP
  5
20CE2
102
{ACAD_REACTORS
330
D
102
}
330
D
100
AcDbGroup
300

 70
     1
 71
     1
340
20CD9
340
20CD8
340
20CDA
340
20CDB
340
20CDC
340
20CDD
340
20CDE
340
20CDF
340
20CE0
340
20CE1
  0
GROUP
  5
1738B
102
{ACAD_REACTORS
330
D
102
}
330
D
100
AcDbGroup
300

 70
     1
 71
     1
  0
GROUP
  5
1D6DE
102
{ACAD_REACTORS
330
D
102
}
330
D
100
AcDbGroup
300

 70
     1
 71
     1
  0
GROUP
  5
20CCC
102
{ACAD_REACTORS
330
D
102
}
330
D
100
AcDbGroup
300

 70
     1
 71
     1
  0
GROUP
  5
173BE
102
{ACAD_REACTORS
330
D
102
}
330
D
100
AcDbGroup
300

 70
     1
 71
     1
  0
GROUP
  5
FC91
102
{ACAD_REACTORS
330
D
102
}
330
D
100
AcDbGroup
300

 70
     1
 71
     1
  0
GROUP
  5
18F23
102
{ACAD_REACTORS
330
D
102
}
330
D
100
AcDbGroup
300

 70
     1
 71
     1
  0
GROUP
  5
1A695
102
{ACAD_REACTORS
330
D
102
}
330
D
100
AcDbGroup
300

 70
     1
 71
     1
  0
GROUP
  5
16069
102
{ACAD_REACTORS
330
D
102
}
330
D
100
AcDbGroup
300

 70
     1
 71
     1
  0
GROUP
  5
1D706
102
{ACAD_REACTORS
330
D
102
}
330
D
100
AcDbGroup
300

 70
     1
 71
     1
  0
GROUP
  5
20CD7
102
{ACAD_REACTORS
330
D
102
}
330
D
100
AcDbGroup
300

 70
     1
 71
     1
340
20CCE
340
20CCD
340
20CCF
340
20CD0
340
20CD1
340
20CD2
340
20CD3
340
20CD4
340
20CD5
340
20CD6
  0
GROUP
  5
1606A
102
{ACAD_REACTORS
330
D
102
}
330
D
100
AcDbGroup
300

 70
     1
 71
     1
  0
GROUP
  5
19F67
102
{ACAD_REACTORS
330
D
102
}
330
D
100
AcDbGroup
300

 70
     1
 71
     1
  0
GROUP
  5
17389
102
{ACAD_REACTORS
330
D
102
}
330
D
100
AcDbGroup
300

 70
     1
 71
     1
  0
GROUP
  5
16059
102
{ACAD_REACTORS
330
D
102
}
330
D
100
AcDbGroup
300

 70
     1
 71
     1
  0
GROUP
  5
1B74D
102
{ACAD_REACTORS
330
D
102
}
330
D
100
AcDbGroup
300

 70
     1
 71
     1
340
1B745
340
1B746
340
1B747
340
1B748
340
1B749
340
1B74A
340
1B74B
340
1B74C
  0
GROUP
  5
1D6F2
102
{ACAD_REACTORS
330
D
102
}
330
D
100
AcDbGroup
300

 70
     1
 71
     1
  0
GROUP
  5
19F55
102
{ACAD_REACTORS
330
D
102
}
330
D
100
AcDbGroup
300

 70
     1
 71
     1
  0
GROUP
  5
19259
102
{ACAD_REACTORS
330
D
102
}
330
D
100
AcDbGroup
300

 70
     1
 71
     1
  0
GROUP
  5
1D6FC
102
{ACAD_REACTORS
330
D
102
}
330
D
100
AcDbGroup
300

 70
     1
 71
     1
  0
GROUP
  5
19794
102
{ACAD_REACTORS
330
D
102
}
330
D
100
AcDbGroup
300

 70
     1
 71
     1
  0
GROUP
  5
18FA7
102
{ACAD_REACTORS
330
D
102
}
330
D
100
AcDbGroup
300

 70
     1
 71
     1
  0
GROUP
  5
1D6B6
102
{ACAD_REACTORS
330
D
102
}
330
D
100
AcDbGroup
300

 70
     1
 71
     1
  0
GROUP
  5
ACA1
102
{ACAD_REACTORS
330
D
102
}
330
D
100
AcDbGroup
300

 70
     1
 71
     1
  0
GROUP
  5
18F21
102
{ACAD_REACTORS
330
D
102
}
330
D
100
AcDbGroup
300

 70
     1
 71
     1
  0
GROUP
  5
1D6CA
102
{ACAD_REACTORS
330
D
102
}
330
D
100
AcDbGroup
300

 70
     1
 71
     1
  0
GROUP
  5
1EB7D
102
{ACAD_REACTORS
330
D
102
}
330
D
100
AcDbGroup
300

 70
     1
 71
     1
  0
GROUP
  5
1606B
102
{ACAD_REACTORS
330
D
102
}
330
D
100
AcDbGroup
300

 70
     1
 71
     1
  0
GROUP
  5
1EB7F
102
{ACAD_REACTORS
330
D
102
}
330
D
100
AcDbGroup
300

 70
     1
 71
     1
  0
GROUP
  5
18F20
102
{ACAD_REACTORS
330
D
102
}
330
D
100
AcDbGroup
300

 70
     1
 71
     1
  0
GROUP
  5
1D68E
102
{ACAD_REACTORS
330
D
102
}
330
D
100
AcDbGroup
300

 70
     1
 71
     1
  0
GROUP
  5
18FA8
102
{ACAD_REACTORS
330
D
102
}
330
D
100
AcDbGroup
300

 70
     1
 71
     1
  0
GROUP
  5
FBFF
102
{ACAD_REACTORS
330
D
102
}
330
D
100
AcDbGroup
300

 70
     1
 71
     1
  0
GROUP
  5
19988
102
{ACAD_REACTORS
330
D
102
}
330
D
100
AcDbGroup
300

 70
     1
 71
     1
  0
GROUP
  5
19F87
102
{ACAD_REACTORS
330
D
102
}
330
D
100
AcDbGroup
300

 70
     1
 71
     1
  0
GROUP
  5
19AA4
102
{ACAD_REACTORS
330
D
102
}
330
D
100
AcDbGroup
300

 70
     1
 71
     1
  0
GROUP
  5
1A09A
102
{ACAD_REACTORS
330
D
102
}
330
D
100
AcDbGroup
300

 70
     1
 71
     1
  0
GROUP
  5
FC95
102
{ACAD_REACTORS
330
D
102
}
330
D
100
AcDbGroup
300

 70
     1
 71
     1
  0
GROUP
  5
1D6AC
102
{ACAD_REACTORS
330
D
102
}
330
D
100
AcDbGroup
300

 70
     1
 71
     1
  0
GROUP
  5
198F1
102
{ACAD_REACTORS
330
D
102
}
330
D
100
AcDbGroup
300

 70
     1
 71
     1
  0
GROUP
  5
106C6
102
{ACAD_REACTORS
330
D
102
}
330
D
100
AcDbGroup
300

 70
     1
 71
     1
  0
GROUP
  5
20A1F
102
{ACAD_REACTORS
330
D
102
}
330
D
100
AcDbGroup
300

 70
     1
 71
     1
340
2095A
340
208F1
340
208F0
340
208EF
340
208EE
340
208ED
340
208EB
340
208EA
340
208E9
340
208E8
340
208E7
340
20941
340
2091F
340
20919
340
208FE
340
20920
340
20908
340
208F3
340
208F2
340
2090D
340
2090C
340
20903
340
20902
340
20910
340
2090F
340
2090E
340
20906
340
20905
340
20904
340
20900
340
208FF
340
208FD
340
208FC
340
2093D
340
2093C
340
2093A
340
20938
340
20937
340
20922
340
20921
340
20914
340
20913
340
20912
340
20911
340
2090B
340
2090A
340
20909
340
20907
340
20901
340
208FB
340
208FA
340
208F9
340
208F8
340
208F7
340
208F6
340
208F5
340
208F4
340
20936
340
2091D
340
20918
340
20923
340
20942
340
20927
340
20940
340
2093F
340
2093E
340
2093B
340
20939
340
20931
340
20930
340
2092F
340
2092E
340
2092D
340
2092C
340
2092B
340
2092A
340
20929
340
20928
340
20926
340
20925
340
20924
340
2091E
340
20917
340
20916
340
20915
340
20951
340
20933
340
20950
340
20934
340
2091B
340
20965
340
20964
340
20963
340
20961
340
20960
340
2095F
340
20959
340
20958
340
20955
340
20953
340
20952
340
2094F
340
2094E
340
2094D
340
2094C
340
2094B
340
2094A
340
20949
340
20948
340
20947
340
20946
340
20945
340
20944
340
20943
340
20935
340
20932
340
2091C
340
2091A
340
208EC
340
20969
340
20968
340
20967
340
20966
340
20962
340
2095E
340
2095D
340
2095C
340
2095B
340
20957
340
20956
340
20954
  0
GROUP
  5
19256
102
{ACAD_REACTORS
330
D
102
}
330
D
100
AcDbGroup
300

 70
     1
 71
     1
  0
GROUP
  5
19881
102
{ACAD_REACTORS
330
D
102
}
330
D
100
AcDbGroup
300

 70
     1
 71
     1
  0
GROUP
  5
17901
102
{ACAD_REACTORS
330
D
102
}
330
D
100
AcDbGroup
300

 70
     1
 71
     1
  0
GROUP
  5
21BC3
102
{ACAD_REACTORS
330
D
102
}
330
D
100
AcDbGroup
300

 70
     1
 71
     1
  0
GROUP
  5
21BB7
102
{ACAD_REACTORS
330
D
102
}
330
D
100
AcDbGroup
300

 70
     1
 71
     1
340
21BB4
340
21BB5
340
21BB3
340
21BB6
  0
GROUP
  5
1D6A2
102
{ACAD_REACTORS
330
D
102
}
330
D
100
AcDbGroup
300

 70
     1
 71
     1
  0
GROUP
  5
1D6D4
102
{ACAD_REACTORS
330
D
102
}
330
D
100
AcDbGroup
300

 70
     1
 71
     1
  0
GROUP
  5
ACA2
102
{ACAD_REACTORS
330
D
102
}
330
D
100
AcDbGroup
300

 70
     1
 71
     1
  0
GROUP
  5
20781
102
{ACAD_REACTORS
330
D
102
}
330
D
100
AcDbGroup
300

 70
     1
 71
     1
340
20739
340
20712
340
20711
340
20710
340
2070F
340
206F4
340
206F3
340
206F2
340
206F1
340
206F0
340
206EF
340
20719
340
206EE
340
206FB
340
206FA
340
206F9
340
206FD
340
206FC
340
206F8
340
206F7
340
206F6
340
206F5
340
206ED
340
2070D
340
2070C
340
2070E
340
2070B
340
2070A
340
20709
340
20708
340
20707
340
20723
340
20722
340
20721
340
20720
340
2071F
340
2071E
340
2071D
340
2071C
340
2071B
340
2071A
340
20718
340
20717
340
20716
340
20715
340
20714
340
20713
340
20737
340
20736
340
20735
340
20734
340
20733
340
20732
340
20731
340
20730
340
2072F
340
2072E
340
2072C
340
20729
340
20728
340
2072B
340
20706
340
20703
340
20705
340
20704
340
20702
340
20701
340
20700
340
206FF
340
206FE
340
206EC
340
2073A
340
2072D
340
2072A
340
20727
340
20726
  0
GROUP
  5
19A51
102
{ACAD_REACTORS
330
D
102
}
330
D
100
AcDbGroup
300

 70
     1
 71
     1
  0
GROUP
  5
21C11
102
{ACAD_REACTORS
330
D
102
}
330
D
100
AcDbGroup
300

 70
     1
 71
     1
340
21BDE
340
21BDF
340
21BE0
340
21BE1
340
21BE2
340
21BE3
340
21BE4
340
21BE5
340
21BE6
340
21BE7
340
21BE8
340
21BE9
340
21BEA
340
21BEB
340
21BEC
340
21BED
340
21BEE
340
21BEF
340
21BF0
340
21BF1
340
21BF2
340
21BF3
340
21BF4
340
21BF5
340
21BF6
340
21BF7
340
21BF8
340
21BF9
340
21BFA
340
21BFB
340
21BFC
340
21BFD
340
21BFE
340
21BFF
340
21C00
340
21C01
340
21C02
340
21C03
340
21C04
340
21C05
340
21C06
340
21C07
340
21C08
340
21C09
340
21C0A
340
21C0B
340
21C0C
340
21C0D
340
21C0E
340
21C0F
340
21BC9
340
21BC6
340
21BC5
340
21BC7
340
21BC8
340
21BCA
340
21BCB
340
21BCC
340
21BCD
340
21BCE
340
21BCF
340
21BD0
340
21BD1
340
21BD2
340
21BD3
340
21BD4
340
21BD5
340
21BD6
340
21BD7
340
21BD8
340
21BD9
340
21BDA
340
21BDB
340
21BDC
340
21BDD
  0
GROUP
  5
21BC4
102
{ACAD_REACTORS
330
D
102
}
330
D
100
AcDbGroup
300

 70
     1
 71
     1
  0
GROUP
  5
1B73B
102
{ACAD_REACTORS
330
D
102
}
330
D
100
AcDbGroup
300

 70
     1
 71
     1
340
1B733
340
1B734
340
1B735
340
1B736
340
1B737
340
1B738
340
1B739
340
1B73A
  0
GROUP
  5
19861
102
{ACAD_REACTORS
330
D
102
}
330
D
100
AcDbGroup
300

 70
     1
 71
     1
  0
GROUP
  5
FB6B
102
{ACAD_REACTORS
330
D
102
}
330
D
100
AcDbGroup
300

 70
     1
 71
     1
  0
GROUP
  5
19729
102
{ACAD_REACTORS
330
D
102
}
330
D
100
AcDbGroup
300

 70
     1
 71
     1
  0
GROUP
  5
21C12
102
{ACAD_REACTORS
330
D
102
}
330
D
100
AcDbGroup
300

 70
     1
 71
     1
340
21BC6
340
21BC5
340
21BC7
340
21BC8
340
21BC9
340
21BCA
340
21BCB
340
21BCC
340
21BCD
340
21BCE
340
21BCF
340
21BD0
340
21BD1
340
21BD2
340
21BD3
340
21BD4
340
21BD5
340
21BD6
340
21BD7
340
21BD8
340
21BD9
340
21BDA
340
21BDB
340
21BDC
340
21BDD
  0
GROUP
  5
1B732
102
{ACAD_REACTORS
330
D
102
}
330
D
100
AcDbGroup
300

 70
     1
 71
     1
340
1B72A
340
1B72B
340
1B72C
340
1B72D
340
1B72E
340
1B72F
340
1B730
340
1B731
  0
GROUP
  5
18F1F
102
{ACAD_REACTORS
330
D
102
}
330
D
100
AcDbGroup
300

 70
     1
 71
     1
  0
GROUP
  5
20D19
102
{ACAD_REACTORS
330
D
102
}
330
D
100
AcDbGroup
300

 70
     1
 71
     1
340
20D10
340
20D0F
340
20D11
340
20D12
340
20D13
340
20D14
340
20D15
340
20D16
340
20D17
340
20D18
  0
GROUP
  5
1B756
102
{ACAD_REACTORS
330
D
102
}
330
D
100
AcDbGroup
300

 70
     1
 71
     1
340
1B74E
340
1B74F
340
1B750
340
1B751
340
1B752
340
1B753
340
1B754
340
1B755
  0
GROUP
  5
20CF8
102
{ACAD_REACTORS
330
D
102
}
330
D
100
AcDbGroup
300

 70
     1
 71
     1
  0
GROUP
  5
1EB7C
102
{ACAD_REACTORS
330
D
102
}
330
D
100
AcDbGroup
300

 70
     1
 71
     1
  0
GROUP
  5
106B3
102
{ACAD_REACTORS
330
D
102
}
330
D
100
AcDbGroup
300

 70
     1
 71
     1
  0
GROUP
  5
106C7
102
{ACAD_REACTORS
330
D
102
}
330
D
100
AcDbGroup
300

 70
     1
 71
     1
  0
GROUP
  5
ACB4
102
{ACAD_REACTORS
330
D
102
}
330
D
100
AcDbGroup
300

 70
     1
 71
     1
  0
GROUP
  5
1EB7E
102
{ACAD_REACTORS
330
D
102
}
330
D
100
AcDbGroup
300

 70
     1
 71
     1
  0
GROUP
  5
ACBD
102
{ACAD_REACTORS
330
D
102
}
330
D
100
AcDbGroup
300

 70
     1
 71
     1
  0
GROUP
  5
FC9A
102
{ACAD_REACTORS
330
D
102
}
330
D
100
AcDbGroup
300

 70
     1
 71
     1
  0
GROUP
  5
19A86
102
{ACAD_REACTORS
330
D
102
}
330
D
100
AcDbGroup
300

 70
     1
 71
     1
  0
GROUP
  5
1D710
102
{ACAD_REACTORS
330
D
102
}
330
D
100
AcDbGroup
300

 70
     1
 71
     1
  0
GROUP
  5
AC9A
102
{ACAD_REACTORS
330
D
102
}
330
D
100
AcDbGroup
300

 70
     1
 71
     1
  0
GROUP
  5
19A52
102
{ACAD_REACTORS
330
D
102
}
330
D
100
AcDbGroup
300

 70
     1
 71
     1
  0
GROUP
  5
ACAB
102
{ACAD_REACTORS
330
D
102
}
330
D
100
AcDbGroup
300

 70
     1
 71
     1
  0
GROUP
  5
19A5A
102
{ACAD_REACTORS
330
D
102
}
330
D
100
AcDbGroup
300

 70
     1
 71
     1
  0
GROUP
  5
19989
102
{ACAD_REACTORS
330
D
102
}
330
D
100
AcDbGroup
300

 70
     1
 71
     1
  0
GROUP
  5
1D6C0
102
{ACAD_REACTORS
330
D
102
}
330
D
100
AcDbGroup
300

 70
     1
 71
     1
  0
GROUP
  5
18F22
102
{ACAD_REACTORS
330
D
102
}
330
D
100
AcDbGroup
300

 70
     1
 71
     1
  0
GROUP
  5
169DA
102
{ACAD_REACTORS
330
D
102
}
330
D
100
AcDbGroup
300

 70
     1
 71
     1
  0
GROUP
  5
FC9B
102
{ACAD_REACTORS
330
D
102
}
330
D
100
AcDbGroup
300

 70
     1
 71
     1
  0
GROUP
  5
1D698
102
{ACAD_REACTORS
330
D
102
}
330
D
100
AcDbGroup
300

 70
     1
 71
     1
  0
GROUP
  5
19FAB
102
{ACAD_REACTORS
330
D
102
}
330
D
100
AcDbGroup
300

 70
     1
 71
     1
  0
GROUP
  5
106A5
102
{ACAD_REACTORS
330
D
102
}
330
D
100
AcDbGroup
300

 70
     1
 71
     1
  0
GROUP
  5
19787
102
{ACAD_REACTORS
330
D
102
}
330
D
100
AcDbGroup
300

 70
     1
 71
     1
  0
GROUP
  5
1B720
102
{ACAD_REACTORS
330
D
102
}
330
D
100
AcDbGroup
300

 70
     1
 71
     1
340
1AF89
340
1AF90
340
1AF8F
340
1AF8E
340
1AF8D
340
1AF8C
340
1AF8B
340
1AF8A
  0
GROUP
  5
173BD
102
{ACAD_REACTORS
330
D
102
}
330
D
100
AcDbGroup
300

 70
     1
 71
     1
  0
GROUP
  5
173BF
102
{ACAD_REACTORS
330
D
102
}
330
D
100
AcDbGroup
300

 70
     1
 71
     1
  0
GROUP
  5
1B729
102
{ACAD_REACTORS
330
D
102
}
330
D
100
AcDbGroup
300

 70
     1
 71
     1
340
1B721
340
1B722
340
1B723
340
1B724
340
1B725
340
1B726
340
1B727
340
1B728
  0
GROUP
  5
1998A
102
{ACAD_REACTORS
330
D
102
}
330
D
100
AcDbGroup
300

 70
     1
 71
     1
  0
GROUP
  5
16058
102
{ACAD_REACTORS
330
D
102
}
330
D
100
AcDbGroup
300

 70
     1
 71
     1
  0
GROUP
  5
1AA94
102
{ACAD_REACTORS
330
D
102
}
330
D
100
AcDbGroup
300

 70
     1
 71
     1
  0
GROUP
  5
20EA9
102
{ACAD_REACTORS
330
D
102
}
330
D
100
AcDbGroup
300

 70
     1
 71
     1
  0
GROUP
  5
FB6C
102
{ACAD_REACTORS
330
D
102
}
330
D
100
AcDbGroup
300

 70
     1
 71
     1
  0
GROUP
  5
19255
102
{ACAD_REACTORS
330
D
102
}
330
D
100
AcDbGroup
300

 70
     1
 71
     1
  0
GROUP
  5
1D684
102
{ACAD_REACTORS
330
D
102
}
330
D
100
AcDbGroup
300

 70
     1
 71
     1
  0
GROUP
  5
21BC1
102
{ACAD_REACTORS
330
D
102
}
330
D
100
AcDbGroup
300

 70
     1
 71
     1
340
21BBA
340
21BBB
340
21BBC
340
21BBD
340
21BBE
340
21BBF
340
21BB9
340
21BC0
  0
GROUP
  5
21BC2
102
{ACAD_REACTORS
330
D
102
}
330
D
100
AcDbGroup
300

 70
     1
 71
     1
  0
GROUP
  5
1A691
102
{ACAD_REACTORS
330
D
102
}
330
D
100
AcDbGroup
300

 70
     1
 71
     1
  0
GROUP
  5
19F99
102
{ACAD_REACTORS
330
D
102
}
330
D
100
AcDbGroup
300

 70
     1
 71
     1
  0
GROUP
  5
21BB8
102
{ACAD_REACTORS
330
D
102
}
330
D
100
AcDbGroup
300

 70
     1
 71
     1
  0
GROUP
  5
21BB2
102
{ACAD_REACTORS
330
D
102
}
330
D
100
AcDbGroup
300

 70
     1
 71
     1
  0
GROUP
  5
17B11
102
{ACAD_REACTORS
330
D
102
}
330
D
100
AcDbGroup
300

 70
     1
 71
     1
  0
MLINESTYLE
  5
1C
102
{ACAD_REACTORS
330
1B
102
}
330
1B
100
AcDbMlineStyle
  2
STANDARD
 70
     0
  3

 62
   256
 51
90.0
 52
90.0
 71
     2
 49
0.5
 62
   256
  6
BYLAYER
 49
-0.5
 62
   256
  6
BYLAYER
  0
ACDBPLACEHOLDER
  5
FB5C
102
{ACAD_REACTORS
330
FB5B
102
}
330
FB5B
100
AcDbPlaceHolder
280
     0
  0
XRECORD
  5
224F4
102
{ACAD_REACTORS
330
224EA
102
}
330
224EA
100
AcDbXrecord
 90
        0
  0
XRECORD
  5
224F8
102
{ACAD_REACTORS
330
224EA
102
}
330
224EA
100
AcDbXrecord
1000
DSTYLE
1002
{
1070
    79
 70
     2
1070
   179
 70
     2
1070
   341
340
1215D
1070
   342
340
1215D
1002
}
  0
XRECORD
  5
224F5
102
{ACAD_REACTORS
330
224EA
102
}
330
224EA
100
AcDbXrecord
  1
{D14EE3FF-941A-415A-9907-344E0A80D794}
  0
XRECORD
  5
224ED
102
{ACAD_REACTORS
330
224EA
102
}
330
224EA
100
AcDbXrecord
  1

  0
XRECORD
  5
224F3
102
{ACAD_REACTORS
330
224EA
102
}
330
224EA
100
AcDbXrecord
 90
        0
  0
XRECORD
  5
224EF
102
{ACAD_REACTORS
330
224EA
102
}
330
224EA
100
AcDbXrecord
340
DB2
  0
XRECORD
  5
224F2
102
{ACAD_REACTORS
330
224EA
102
}
330
224EA
100
AcDbXrecord
 90
    10269
  0
XRECORD
  5
224F0
102
{ACAD_REACTORS
330
224EA
102
}
330
224EA
100
AcDbXrecord
340
DB3
  0
XRECORD
  5
224F1
102
{ACAD_REACTORS
330
224EA
102
}
330
224EA
100
AcDbXrecord
340
FB5B
  0
XRECORD
  5
224F7
102
{ACAD_REACTORS
330
224EA
102
}
330
224EA
100
AcDbXrecord
 40
0.0
  0
XRECORD
  5
224FB
102
{ACAD_REACTORS
330
224EA
102
}
330
224EA
100
AcDbXrecord
340
0
  0
XRECORD
  5
22501
102
{ACAD_REACTORS
330
224EA
102
}
330
224EA
100
AcDbXrecord
 10
0.0
 20
0.0
 30
0.0
  0
XRECORD
  5
224FD
102
{ACAD_REACTORS
330
224EA
102
}
330
224EA
100
AcDbXrecord
 10
0.0
 20
0.0
 30
0.0
  0
XRECORD
  5
22500
102
{ACAD_REACTORS
330
224EA
102
}
330
224EA
100
AcDbXrecord
 10
0.0
 20
0.0
 30
0.0
  0
XRECORD
  5
224FE
102
{ACAD_REACTORS
330
224EA
102
}
330
224EA
100
AcDbXrecord
 10
0.0
 20
0.0
 30
0.0
  0
XRECORD
  5
224FF
102
{ACAD_REACTORS
330
224EA
102
}
330
224EA
100
AcDbXrecord
 10
0.0
 20
0.0
 30
0.0
  0
XRECORD
  5
224FC
102
{ACAD_REACTORS
330
224EA
102
}
330
224EA
100
AcDbXrecord
 10
0.0
 20
0.0
 30
0.0
  0
XRECORD
  5
224F9
102
{ACAD_REACTORS
330
224EA
102
}
330
224EA
100
AcDbXrecord
340
0
  0
XRECORD
  5
224FA
102
{ACAD_REACTORS
330
224EA
102
}
330
224EA
100
AcDbXrecord
 70
     0
  0
XRECORD
  5
224EE
102
{ACAD_REACTORS
330
224EA
102
}
330
224EA
100
AcDbXrecord
  1
MONOCHROME.CTB
  0
XRECORD
  5
224EB
102
{ACAD_REACTORS
330
224EA
102
}
330
224EA
100
AcDbXrecord
 90
        1
  0
XRECORD
  5
224EC
102
{ACAD_REACTORS
330
224EA
102
}
330
224EA
100
AcDbXrecord
 90
       70
  0
XRECORD
  5
22504
102
{ACAD_REACTORS
330
224EA
102
}
330
224EA
100
AcDbXrecord
340
0
  0
XRECORD
  5
2250A
102
{ACAD_REACTORS
330
224EA
102
}
330
224EA
100
AcDbXrecord
 10
0.0
 20
0.0
 30
0.0
  0
XRECORD
  5
22506
102
{ACAD_REACTORS
330
224EA
102
}
330
224EA
100
AcDbXrecord
 10
0.0
 20
0.0
 30
0.0
  0
XRECORD
  5
22509
102
{ACAD_REACTORS
330
224EA
102
}
330
224EA
100
AcDbXrecord
 10
0.0
 20
0.0
 30
0.0
  0
XRECORD
  5
22507
102
{ACAD_REACTORS
330
224EA
102
}
330
224EA
100
AcDbXrecord
 10
0.0
 20
0.0
 30
0.0
  0
XRECORD
  5
22508
102
{ACAD_REACTORS
330
224EA
102
}
330
224EA
100
AcDbXrecord
 10
0.0
 20
0.0
 30
0.0
  0
XRECORD
  5
22505
102
{ACAD_REACTORS
330
224EA
102
}
330
224EA
100
AcDbXrecord
 10
0.0
 20
0.0
 30
0.0
  0
XRECORD
  5
22502
102
{ACAD_REACTORS
330
224EA
102
}
330
224EA
100
AcDbXrecord
340
0
  0
XRECORD
  5
22503
102
{ACAD_REACTORS
330
224EA
102
}
330
224EA
100
AcDbXrecord
 70
     0
  0
XRECORD
  5
224F6
102
{ACAD_REACTORS
330
224EA
102
}
330
224EA
100
AcDbXrecord
  1
{701AE0EA-13AE-4F0A-B975-D6886490EAE8}
  0
DICTIONARYVAR
  5
106A7
102
{ACAD_REACTORS
330
106A6
102
}
330
106A6
100
DictionaryVariables
280
     0
  1
96
  0
XRECORD
  5
1A9A1
102
{ACAD_REACTORS
330
1A99F
102
}
330
1A99F
100
AcDbXrecord
330
187D7
330
0
330
0
330
0
330
0
330
0
330
0
330
0
330
0
330
0
330
0
330
115F
330
0
330
0
330
0
330
0
330
0
330
0
330
0
330
0
330
0
330
0
330
0
330
0
330
0
330
0
330
0
330
0
330
0
330
0
330
0
330
0
330
0
330
0
330
0
330
0
330
0
330
0
330
0
330
0
330
0
330
0
330
0
330
0
  0
XRECORD
  5
21F35
102
{ACAD_REACTORS
330
21F34
102
}
330
21F34
100
AcDbXrecord
  1
0
  1
*0
  1
*
  1
*
 70
     0
  1
*
  1
*
  0
XRECORD
  5
21F36
102
{ACAD_REACTORS
330
21F34
102
}
330
21F34
100
AcDbXrecord
  1
11
  1
*11
  1
*
  1
*
 70
     0
  1
*
  1
*
  0
XRECORD
  5
21F37
102
{ACAD_REACTORS
330
21F34
102
}
330
21F34
100
AcDbXrecord
  1
150_
  1
150_*
  1
*
  1
*
 70
     0
  1
*
  1
*
  0
XRECORD
  5
21F38
102
{ACAD_REACTORS
330
21F34
102
}
330
21F34
100
AcDbXrecord
  1
160_
  1
160_*
  1
*
  1
*
 70
     0
  1
*
  1
*
  0
XRECORD
  5
21F39
102
{ACAD_REACTORS
330
21F34
102
}
330
21F34
100
AcDbXrecord
  1
170_
  1
170_*
  1
*
  1
*
 70
     0
  1
*
  1
*
  0
XRECORD
  5
21F3A
102
{ACAD_REACTORS
330
21F34
102
}
330
21F34
100
AcDbXrecord
  1
171_
  1
171_*
  1
*
  1
*
 70
     0
  1
*
  1
*
  0
XRECORD
  5
21F3B
102
{ACAD_REACTORS
330
21F34
102
}
330
21F34
100
AcDbXrecord
  1
350_
  1
350_*
  1
*
  1
*
 70
     0
  1
*
  1
*
  0
XRECORD
  5
21F3C
102
{ACAD_REACTORS
330
21F34
102
}
330
21F34
100
AcDbXrecord
  1
4
  1
*4
  1
*
  1
*
 70
     0
  1
*
  1
*
  0
XRECORD
  5
21F3D
102
{ACAD_REACTORS
330
21F34
102
}
330
21F34
100
AcDbXrecord
  1
5
  1
*5
  1
*
  1
*
 70
     0
  1
*
  1
*
  0
XRECORD
  5
21F3E
102
{ACAD_REACTORS
330
21F34
102
}
330
21F34
100
AcDbXrecord
  1
7
  1
*7
  1
*
  1
*
 70
     0
  1
*
  1
*
  0
XRECORD
  5
21F3F
102
{ACAD_REACTORS
330
21F34
102
}
330
21F34
100
AcDbXrecord
  1
kiseki
  1
kiseki*
  1
*
  1
*
 70
     0
  1
*
  1
*
  0
ENDSEC
  0
EOF
