  0
SECTION
  2
HEADER
  9
$ACADVER
  1
AC1014
  9
$ACADMAINTVER
 70
     9
  9
$DWGCODEPAGE
  3
ANSI_932
  9
$INSBASE
 10
0.0
 20
0.0
 30
0.0
  9
$EXTMIN
 10
57.09969678226136
 20
11.08433050106728
 30
0.0
  9
$EXTMAX
 10
797.9243355993165
 20
354.8078024356528
 30
0.0
  9
$LIMMIN
 10
0.0
 20
0.0
  9
$LIMMAX
 10
420.0
 20
297.0
  9
$ORTHOMODE
 70
     0
  9
$REGENMODE
 70
     1
  9
$FILLMODE
 70
     1
  9
$QTEXTMODE
 70
     0
  9
$MIRRTEXT
 70
     0
  9
$DRAGMODE
 70
     2
  9
$LTSCALE
 40
20.0
  9
$OSMODE
 70
    37
  9
$ATTMODE
 70
     1
  9
$TEXTSIZE
 40
5.0
  9
$TRACEWID
 40
1.0
  9
$TEXTSTYLE
  7
ROMAN
  9
$CLAYER
  8
文字
  9
$CELTYPE
  6
BYLAYER
  9
$CECOLOR
 62
   256
  9
$CELTSCALE
 40
1.0
  9
$DELOBJ
 70
     1
  9
$DISPSILH
 70
     0
  9
$DIMSCALE
 40
2.0
  9
$DIMASZ
 40
2.0
  9
$DIMEXO
 40
0.0
  9
$DIMDLI
 40
5.0
  9
$DIMRND
 40
0.0005
  9
$DIMDLE
 40
0.0
  9
$DIMEXE
 40
1.0
  9
$DIMTP
 40
0.0
  9
$DIMTM
 40
0.000000001
  9
$DIMTXT
 40
3.2
  9
$DIMCEN
 40
0.0
  9
$DIMTSZ
 40
0.0
  9
$DIMTOL
 70
     0
  9
$DIMLIM
 70
     0
  9
$DIMTIH
 70
     0
  9
$DIMTOH
 70
     0
  9
$DIMSE1
 70
     0
  9
$DIMSE2
 70
     0
  9
$DIMTAD
 70
     1
  9
$DIMZIN
 70
     9
  9
$DIMBLK
  1
OPEN30
  9
$DIMASO
 70
     1
  9
$DIMSHO
 70
     1
  9
$DIMPOST
  1

  9
$DIMAPOST
  1

  9
$DIMALT
 70
     0
  9
$DIMALTD
 70
     4
  9
$DIMALTF
 40
0.0394
  9
$DIMLFAC
 40
1.0
  9
$DIMTOFL
 70
     1
  9
$DIMTVP
 40
0.0
  9
$DIMTIX
 70
     0
  9
$DIMSOXD
 70
     0
  9
$DIMSAH
 70
     0
  9
$DIMBLK1
  1

  9
$DIMBLK2
  1

  9
$DIMSTYLE
  2
STANDARD
  9
$DIMCLRD
 70
     4
  9
$DIMCLRE
 70
     4
  9
$DIMCLRT
 70
     2
  9
$DIMTFAC
 40
1.0
  9
$DIMGAP
 40
0.75
  9
$DIMJUST
 70
     0
  9
$DIMSD1
 70
     0
  9
$DIMSD2
 70
     0
  9
$DIMTOLJ
 70
     1
  9
$DIMTZIN
 70
     9
  9
$DIMALTZ
 70
     0
  9
$DIMALTTZ
 70
     0
  9
$DIMFIT
 70
     5
  9
$DIMUPT
 70
     0
  9
$DIMUNIT
 70
     2
  9
$DIMDEC
 70
     2
  9
$DIMTDEC
 70
     2
  9
$DIMALTU
 70
     8
  9
$DIMALTTD
 70
     4
  9
$DIMTXSTY
  7
STANDARD
  9
$DIMAUNIT
 70
     0
  9
$LUNITS
 70
     2
  9
$LUPREC
 70
     4
  9
$SKETCHINC
 40
1.0
  9
$FILLETRAD
 40
20.0
  9
$AUNITS
 70
     0
  9
$AUPREC
 70
     0
  9
$MENU
  1
.
  9
$ELEVATION
 40
0.0
  9
$PELEVATION
 40
0.0
  9
$THICKNESS
 40
0.0
  9
$LIMCHECK
 70
     0
  9
$BLIPMODE
 70
     0
  9
$CHAMFERA
 40
0.5
  9
$CHAMFERB
 40
0.5
  9
$CHAMFERC
 40
20.0
  9
$CHAMFERD
 40
0.0
  9
$SKPOLY
 70
     0
  9
$TDCREATE
 40
2451224.660162384
  9
$TDUPDATE
 40
2455573.643396991
  9
$TDINDWG
 40
14.8943428472
  9
$TDUSRTIMER
 40
14.8943419560
  9
$USRTIMER
 70
     1
  9
$ANGBASE
 50
0.0
  9
$ANGDIR
 70
     0
  9
$PDMODE
 70
     0
  9
$PDSIZE
 40
0.0
  9
$PLINEWID
 40
0.0
  9
$COORDS
 70
     0
  9
$SPLFRAME
 70
     0
  9
$SPLINETYPE
 70
     6
  9
$SPLINESEGS
 70
     8
  9
$ATTDIA
 70
     0
  9
$ATTREQ
 70
     1
  9
$HANDLING
 70
-16383
  9
$HANDSEED
  5
190B3
  9
$SURFTAB1
 70
     6
  9
$SURFTAB2
 70
     6
  9
$SURFTYPE
 70
     6
  9
$SURFU
 70
     6
  9
$SURFV
 70
     6
  9
$UCSNAME
  2

  9
$UCSORG
 10
0.0
 20
0.0
 30
0.0
  9
$UCSXDIR
 10
1.0
 20
0.0
 30
0.0
  9
$UCSYDIR
 10
0.0
 20
1.0
 30
0.0
  9
$PUCSNAME
  2

  9
$PUCSORG
 10
0.0
 20
0.0
 30
0.0
  9
$PUCSXDIR
 10
1.0
 20
0.0
 30
0.0
  9
$PUCSYDIR
 10
0.0
 20
1.0
 30
0.0
  9
$USERI1
 70
     0
  9
$USERI2
 70
     0
  9
$USERI3
 70
     0
  9
$USERI4
 70
     0
  9
$USERI5
 70
     0
  9
$USERR1
 40
0.0
  9
$USERR2
 40
0.0
  9
$USERR3
 40
0.0
  9
$USERR4
 40
0.0
  9
$USERR5
 40
0.0
  9
$WORLDVIEW
 70
     1
  9
$SHADEDGE
 70
     3
  9
$SHADEDIF
 70
    70
  9
$TILEMODE
 70
     0
  9
$MAXACTVP
 70
    48
  9
$PINSBASE
 10
0.0
 20
0.0
 30
0.0
  9
$PLIMCHECK
 70
     0
  9
$PEXTMIN
 10
0.0
 20
0.0
 30
0.0
  9
$PEXTMAX
 10
400.0
 20
288.0
 30
0.0
  9
$PLIMMIN
 10
-7.806278633347687
 20
-4.295324456259891
  9
$PLIMMAX
 10
412.1403766400898
 20
292.630670416787
  9
$UNITMODE
 70
     0
  9
$VISRETAIN
 70
     1
  9
$PLINEGEN
 70
     0
  9
$PSLTSCALE
 70
     0
  9
$TREEDEPTH
 70
  3020
  9
$PICKSTYLE
 70
     0
  9
$CMLSTYLE
  2
STANDARD
  9
$CMLJUST
 70
     0
  9
$CMLSCALE
 40
20.0
  9
$PROXYGRAPHICS
 70
     1
  9
$MEASUREMENT
 70
     0
  0
ENDSEC
  0
SECTION
  2
CLASSES
  0
CLASS
  1
HATCH
  2
AcDbHatch
  3
AutoCAD 2000
 90
        0
280
     0
281
     1
  0
CLASS
  1
LWPOLYLINE
  2
AcDbPolyline
  3
AutoCAD 2000
 90
        0
280
     0
281
     1
  0
CLASS
  1
ACDBDICTIONARYWDFLT
  2
AcDbDictionaryWithDefault
  3
AutoCAD 2000
 90
        0
280
     0
281
     0
  0
CLASS
  1
ACDBPLACEHOLDER
  2
AcDbPlaceHolder
  3
AutoCAD 2000
 90
        0
280
     0
281
     0
  0
CLASS
  1
LAYOUT
  2
AcDbLayout
  3
AutoCAD 2000
 90
        0
280
     0
281
     0
  0
CLASS
  1
LONG_TRANSACTION
  2
AcDbLongTransaction
  3
AutoCAD 2000
 90
        0
280
     0
281
     0
  0
CLASS
  1
LWPOLYLINE
  2
AcDbPolyline
  3
AutoCAD 2000
 90
        0
280
     0
281
     1
  0
CLASS
  1
HATCH
  2
AcDbHatch
  3
AutoCAD 2000
 90
        0
280
     0
281
     1
  0
CLASS
  1
XRECORD
  2
AcDbXrecord
  3
AutoCAD 2000
 90
        0
280
     0
281
     0
  0
CLASS
  1
DICTIONARYVAR
  2
AcDbDictionaryVar
  3
AutoCAD 2000
 90
        0
280
     0
281
     0
  0
CLASS
  1
LONG_TRANSACTION
  2
AcDbLongTransaction
  3
AutoCAD 2000
 90
        0
280
     0
281
     0
  0
CLASS
  1
LWPOLYLINE
  2
AcDbPolyline
  3
AutoCAD 2000
 90
        0
280
     0
281
     1
  0
CLASS
  1
HATCH
  2
AcDbHatch
  3
AutoCAD 2000
 90
        0
280
     0
281
     1
  0
CLASS
  1
XRECORD
  2
AcDbXrecord
  3
AutoCAD 2000
 90
        0
280
     0
281
     0
  0
ENDSEC
  0
SECTION
  2
TABLES
  0
TABLE
  2
VPORT
  5
8
330
0
100
AcDbSymbolTable
 70
     2
  0
VPORT
  5
19049
330
8
100
AcDbSymbolTableRecord
100
AcDbViewportTableRecord
  2
*ACTIVE
 70
     0
 10
0.0
 20
0.0
 11
1.0
 21
1.0
 12
427.5111090075284
 22
182.937915952654
 13
0.0
 23
0.0
 14
10.0
 24
10.0
 15
10.0
 25
10.0
 16
0.0
 26
0.0
 36
1.0
 17
0.0
 27
0.0
 37
0.0
 40
487.2885321621288
 41
1.527918781725888
 42
50.0
 43
0.0
 44
0.0
 50
0.0
 51
0.0
 71
     0
 72
   100
 73
     1
 74
     0
 75
     0
 76
     0
 77
     0
 78
     0
  0
ENDTAB
  0
TABLE
  2
LTYPE
  5
5
330
0
100
AcDbSymbolTable
 70
     7
  0
LTYPE
  5
12
330
5
100
AcDbSymbolTableRecord
100
AcDbLinetypeTableRecord
  2
BYBLOCK
 70
     0
  3

 72
    65
 73
     0
 40
0.0
  0
LTYPE
  5
13
330
5
100
AcDbSymbolTableRecord
100
AcDbLinetypeTableRecord
  2
BYLAYER
 70
     0
  3

 72
    65
 73
     0
 40
0.0
  0
LTYPE
  5
14
330
5
100
AcDbSymbolTableRecord
100
AcDbLinetypeTableRecord
  2
CONTINUOUS
 70
     0
  3
Solid line
 72
    65
 73
     0
 40
0.0
  0
LTYPE
  5
126C
330
5
100
AcDbSymbolTableRecord
100
AcDbLinetypeTableRecord
  2
CENTER
 70
     0
  3
____ _ ____ _ ____ _ ____ _ ____ _ ____ _ ____
 72
    65
 73
     4
 40
2.0
 49
1.25
 74
     0
 49
-0.25
 74
     0
 49
0.25
 74
     0
 49
-0.25
 74
     0
  0
LTYPE
  5
126E
330
5
100
AcDbSymbolTableRecord
100
AcDbLinetypeTableRecord
  2
DASHDOT
 70
     0
  3
__ . __ . __ . __ . __ . __ . __ . __ . __ . __
 72
    65
 73
     4
 40
1.0
 49
0.5
 74
     0
 49
-0.25
 74
     0
 49
0.0
 74
     0
 49
-0.25
 74
     0
  0
LTYPE
  5
122DB
330
5
100
AcDbSymbolTableRecord
100
AcDbLinetypeTableRecord
  2
CENTER2
 70
     0
  3
Center (.5x) ___ _ ___ _ ___ _ ___ _ ___ _ ___
 72
    65
 73
     4
 40
1.125
 49
0.75
 74
     0
 49
-0.125
 74
     0
 49
0.125
 74
     0
 49
-0.125
 74
     0
  0
LTYPE
  5
122DC
330
5
100
AcDbSymbolTableRecord
100
AcDbLinetypeTableRecord
  2
PHANTOM2
 70
     0
  3
Phantom (.5x) ___ _ _ ___ _ _ ___ _ _ ___ _ _
 72
    65
 73
     6
 40
1.25
 49
0.625
 74
     0
 49
-0.125
 74
     0
 49
0.125
 74
     0
 49
-0.125
 74
     0
 49
0.125
 74
     0
 49
-0.125
 74
     0
  0
LTYPE
  5
152E7
330
5
100
AcDbSymbolTableRecord
100
AcDbLinetypeTableRecord
  2
HIDDEN2
 70
     0
  3
Hidden (.5x) _ _ _ _ _ _ _ _ _ _ _ _ _ _ _ _ _
 72
    65
 73
     2
 40
0.1875
 49
0.125
 74
     0
 49
-0.0625
 74
     0
  0
LTYPE
  5
182B6
330
5
100
AcDbSymbolTableRecord
100
AcDbLinetypeTableRecord
  2
PHANTOM
 70
     0
  3
Phantom ______  __  __  ______  __  __  ______
 72
    65
 73
     6
 40
2.5
 49
1.25
 74
     0
 49
-0.25
 74
     0
 49
0.25
 74
     0
 49
-0.25
 74
     0
 49
0.25
 74
     0
 49
-0.25
 74
     0
  0
ENDTAB
  0
TABLE
  2
LAYER
  5
2
102
{ACAD_XDICTIONARY
360
18F24
102
}
330
0
100
AcDbSymbolTable
 70
    17
  0
LAYER
  5
E
330
2
100
AcDbSymbolTableRecord
100
AcDbLayerTableRecord
  2
0
 70
     2
 62
     7
  6
CONTINUOUS
  0
LAYER
  5
2C
330
2
100
AcDbSymbolTableRecord
100
AcDbLayerTableRecord
  2
M_VIEW
 70
     4
 62
    -1
  6
CONTINUOUS
  0
LAYER
  5
30
330
2
100
AcDbSymbolTableRecord
100
AcDbLayerTableRecord
  2
FRAME025
 70
     0
 62
     7
  6
CONTINUOUS
  0
LAYER
  5
12B
330
2
100
AcDbSymbolTableRecord
100
AcDbLayerTableRecord
  2
DEFPOINTS
 70
     4
 62
    -7
  6
CONTINUOUS
  0
LAYER
  5
651
330
2
100
AcDbSymbolTableRecord
100
AcDbLayerTableRecord
  2
FRAME020
 70
     0
 62
     7
  6
CONTINUOUS
  0
LAYER
  5
1271
330
2
100
AcDbSymbolTableRecord
100
AcDbLayerTableRecord
  2
A
 70
     0
 62
     7
  6
CONTINUOUS
  0
LAYER
  5
A9BB
330
2
100
AcDbSymbolTableRecord
100
AcDbLayerTableRecord
  2
文字
 70
     0
 62
     7
  6
CONTINUOUS
  0
LAYER
  5
122DD
330
2
100
AcDbSymbolTableRecord
100
AcDbLayerTableRecord
  2
細線
 70
     0
 62
     7
  6
CONTINUOUS
  0
LAYER
  5
122DF
330
2
100
AcDbSymbolTableRecord
100
AcDbLayerTableRecord
  2
CENTER
 70
     0
 62
     7
  6
CENTER
  0
LAYER
  5
122E1
330
2
100
AcDbSymbolTableRecord
100
AcDbLayerTableRecord
  2
中心線
 70
     0
 62
     7
  6
CENTER2
  0
LAYER
  5
152E8
330
2
100
AcDbSymbolTableRecord
100
AcDbLayerTableRecord
  2
破線
 70
     0
 62
     7
  6
HIDDEN2
  0
LAYER
  5
16E40
330
2
100
AcDbSymbolTableRecord
100
AcDbLayerTableRecord
  2
仮想線
 70
     0
 62
     7
  6
PHANTOM2
  0
LAYER
  5
17A24
330
2
100
AcDbSymbolTableRecord
100
AcDbLayerTableRecord
  2
ｷｬｯﾌ_ﾎ_ﾙﾄ
 70
     0
 62
     7
  6
CONTINUOUS
  0
LAYER
  5
182B7
330
2
100
AcDbSymbolTableRecord
100
AcDbLayerTableRecord
  2
２点鎖線
 70
     0
 62
     7
  6
PHANTOM
  0
ENDTAB
  0
TABLE
  2
STYLE
  5
3
330
0
100
AcDbSymbolTable
 70
     6
  0
STYLE
  5
F
330
3
100
AcDbSymbolTableRecord
100
AcDbTextStyleTableRecord
  2
STANDARD
 70
     0
 40
0.0
 41
1.0
 50
0.0
 71
     0
 42
2.5
  3
isocp.shx
  4
bigfont.shx
  0
STYLE
  5
35
330
3
100
AcDbSymbolTableRecord
100
AcDbTextStyleTableRecord
  2
MSｺ_ｼｯｸ
 70
     0
 40
0.0
 41
1.0
 50
0.0
 71
     0
 42
5.0
  3
MS Gothic.ttf
  4

1001
ACAD
1000
MS Gothic
1071
    32817
  0
STYLE
  5
1275
330
3
100
AcDbSymbolTableRecord
100
AcDbTextStyleTableRecord
  2
BIGFONT
 70
     0
 40
2.0
 41
1.0
 50
0.0
 71
     0
 42
2.0
  3
txt.shx
  4
bigfont.shx
  0
STYLE
  5
1277
330
3
100
AcDbSymbolTableRecord
100
AcDbTextStyleTableRecord
  2
ROMAN
 70
     0
 40
0.0
 41
1.0
 50
0.0
 71
     0
 42
5.0
  3
romans
  4
bigfont
  0
ENDTAB
  0
TABLE
  2
VIEW
  5
6
330
0
100
AcDbSymbolTable
 70
     0
  0
ENDTAB
  0
TABLE
  2
UCS
  5
7
330
0
100
AcDbSymbolTable
 70
     0
  0
ENDTAB
  0
TABLE
  2
APPID
  5
9
330
0
100
AcDbSymbolTable
 70
     3
  0
APPID
  5
10
330
9
100
AcDbSymbolTableRecord
100
AcDbRegAppTableRecord
  2
ACAD
 70
     0
  0
APPID
  5
F013
330
9
100
AcDbSymbolTableRecord
100
AcDbRegAppTableRecord
  2
CONTENTBLOCKDESCRIPTION
 70
     0
  0
APPID
  5
F014
330
9
100
AcDbSymbolTableRecord
100
AcDbRegAppTableRecord
  2
CONTENTBLOCKICON
 70
     0
  0
ENDTAB
  0
TABLE
  2
DIMSTYLE
  5
A
330
0
100
AcDbSymbolTable
 70
     3
  0
DIMSTYLE
105
1D
330
A
100
AcDbSymbolTableRecord
100
AcDbDimStyleTableRecord
  2
STANDARD
 70
     0
  3

  4

  5

  6

  7

 40
1.0
 41
0.18
 42
0.0625
 43
0.38
 44
0.18
 45
0.0
 46
0.0
 47
0.0
 48
0.0
140
0.18
141
0.09
142
0.0
143
25.4
144
1.0
145
0.0
146
1.0
147
0.09
 71
     0
 72
     0
 73
     1
 74
     1
 75
     0
 76
     0
 77
     0
 78
     0
170
     0
171
     2
172
     0
173
     0
174
     0
175
     0
176
     0
177
     0
178
     0
270
     2
271
     4
272
     4
273
     2
274
     2
340
F
275
     0
280
     0
281
     0
282
     0
283
     1
284
     0
285
     0
286
     0
287
     3
288
     0
  0
ENDTAB
  0
TABLE
  2
BLOCK_RECORD
  5
1
330
0
100
AcDbSymbolTable
 70
    34
  0
BLOCK_RECORD
  5
18
102
{ACAD_XDICTIONARY
360
EFC6
102
}
330
1
100
AcDbSymbolTableRecord
100
AcDbBlockTableRecord
  2
*MODEL_SPACE
  0
BLOCK_RECORD
  5
15
102
{ACAD_XDICTIONARY
360
EFC4
102
}
330
1
100
AcDbSymbolTableRecord
100
AcDbBlockTableRecord
  2
*PAPER_SPACE
  0
BLOCK_RECORD
  5
115C
330
1
100
AcDbSymbolTableRecord
100
AcDbBlockTableRecord
  2
機械A4横_LBP
  0
BLOCK_RECORD
  5
1215D
330
1
100
AcDbSymbolTableRecord
100
AcDbBlockTableRecord
  2
_OPEN30
  0
ENDTAB
  0
ENDSEC
  0
SECTION
  2
BLOCKS
  0
BLOCK
  5
19
330
18
100
AcDbEntity
  8
0
100
AcDbBlockBegin
  2
*MODEL_SPACE
 70
     0
 10
0.0
 20
0.0
 30
0.0
  3
*MODEL_SPACE
  1

  0
ENDBLK
  5
1A
330
18
100
AcDbEntity
  8
0
100
AcDbBlockEnd
  0
BLOCK
  5
16
330
15
100
AcDbEntity
 67
     1
  8
0
100
AcDbBlockBegin
  2
*PAPER_SPACE
 70
     0
 10
0.0
 20
0.0
 30
0.0
  3
*PAPER_SPACE
  1

  0
ENDBLK
  5
17
330
15
100
AcDbEntity
 67
     1
  8
0
100
AcDbBlockEnd
  0
BLOCK
  5
115D
330
115C
100
AcDbEntity
  8
0
100
AcDbBlockBegin
  2
機械A4横_LBP
 70
     0
 10
0.0
 20
0.0
 30
0.0
  3
機械A4横_LBP
  1

  0
ENDBLK
  5
115E
330
115C
100
AcDbEntity
  8
0
100
AcDbBlockEnd
  0
BLOCK
  5
12161
330
1215D
100
AcDbEntity
  8
0
100
AcDbBlockBegin
  2
_OPEN30
 70
     0
 10
0.0
 20
0.0
 30
0.0
  3
_OPEN30
  1

  0
LINE
  5
1215E
330
1215D
100
AcDbEntity
  8
0
  6
BYBLOCK
 62
     0
100
AcDbLine
 10
-1.0
 20
0.26794919
 30
0.0
 11
0.0
 21
0.0
 31
0.0
  0
LINE
  5
1215F
330
1215D
100
AcDbEntity
  8
0
  6
BYBLOCK
 62
     0
100
AcDbLine
 10
0.0
 20
0.0
 30
0.0
 11
-1.0
 21
-0.26794919
 31
0.0
  0
LINE
  5
12160
330
1215D
100
AcDbEntity
  8
0
  6
BYBLOCK
 62
     0
100
AcDbLine
 10
0.0
 20
0.0
 30
0.0
 11
-1.0
 21
0.0
 31
0.0
  0
ENDBLK
  5
12162
330
1215D
100
AcDbEntity
  8
0
100
AcDbBlockEnd
  0
ENDSEC
  0
SECTION
  2
ENTITIES
  0
INSERT
  5
1160
330
18
100
AcDbEntity
  8
FRAME025
100
AcDbBlockReference
  2
機械A4横_LBP
 10
108.0005962917454
 20
104.43790435724
 30
0.0
  0
MTEXT
  5
1405
330
18
100
AcDbEntity
  8
0
  6
DASHDOT
100
AcDbMText
 10
205.682726410024
 20
420.5785054452221
 30
0.0
 40
1.0
 41
2.0
 71
     1
 72
     5
  1

  7
BIGFONT
1001
ACAD
1000
MTEXTBEGIN
1070
    73
1070
     1
1070
    44
1040
1.0
1070
    74
1070
     0
1000
MTEXTEND
1000
MTEXTBEGIN
1070
    73
1070
     1
1070
    44
1040
1.0
1070
    74
1070
     0
1000
MTEXTEND
  0
MTEXT
  5
1406
330
18
100
AcDbEntity
  8
0
  6
CENTER
100
AcDbMText
 10
443.3606673541956
 20
313.7890106174461
 30
0.0
 40
2.0
 41
15.6417
 71
     1
 72
     5
  1

  7
BIGFONT
1001
ACAD
1000
MTEXTBEGIN
1070
    73
1070
     1
1070
    44
1040
1.0
1070
    74
1070
     0
1000
MTEXTEND
1000
MTEXTBEGIN
1070
    73
1070
     1
1070
    44
1040
1.0
1070
    74
1070
     0
1000
MTEXTEND
  0
MTEXT
  5
1407
330
18
100
AcDbEntity
  8
0
100
AcDbMText
 10
117.7723901704327
 20
212.8564838730205
 30
0.0
 40
2.0
 41
0.0
 71
     1
 72
     5
  1

1001
ACAD
1000
MTEXTBEGIN
1070
    73
1070
     1
1070
    44
1040
1.0
1070
    74
1070
     0
1000
MTEXTEND
1000
MTEXTBEGIN
1070
    73
1070
     1
1070
    44
1040
1.0
1070
    74
1070
     0
1000
MTEXTEND
  0
MTEXT
  5
1408
330
18
100
AcDbEntity
  8
0
100
AcDbMText
 10
162.1718819235825
 20
244.48796746601
 30
0.0
 40
2.0
 41
10.1453
 71
     1
 72
     5
  1

 11
-0.0000000000000002
 21
-1.0
 31
0.0
1001
ACAD
1000
MTEXTBEGIN
1070
    73
1070
     1
1070
    44
1040
1.0
1070
    74
1070
     0
1000
MTEXTEND
1000
MTEXTBEGIN
1070
    73
1070
     1
1070
    44
1040
1.0
1070
    74
1070
     0
1000
MTEXTEND
  0
MTEXT
  5
142F
330
18
100
AcDbEntity
  8
0
  6
BYBLOCK
100
AcDbMText
 10
197.9513799082503
 20
319.2674780082993
 30
0.0
 40
2.0
 41
0.0
 71
     7
 72
     5
  1

 11
0.0000000000000001
 21
1.0
 31
0.0
1001
ACAD
1000
MTEXTBEGIN
1070
    73
1070
     1
1070
    44
1040
1.0
1070
    74
1070
     0
1000
MTEXTEND
1000
MTEXTBEGIN
1070
    73
1070
     1
1070
    44
1040
1.0
1070
    74
1070
     0
1000
MTEXTEND
  0
MTEXT
  5
1430
330
18
100
AcDbEntity
  8
0
  6
BYBLOCK
100
AcDbMText
 10
162.4859915450975
 20
330.0607863667166
 30
0.0
 40
2.0
 41
0.0
 71
     4
 72
     5
  1

 11
-0.0000000000000002
 21
-1.0
 31
0.0
1001
ACAD
1000
MTEXTBEGIN
1070
    73
1070
     1
1070
    44
1040
1.0
1070
    74
1070
     0
1000
MTEXTEND
1000
MTEXTBEGIN
1070
    73
1070
     1
1070
    44
1040
1.0
1070
    74
1070
     0
1000
MTEXTEND
  0
MTEXT
  5
1532
330
18
100
AcDbEntity
  8
0
  6
DASHDOT
100
AcDbMText
 10
205.682813414974
 20
420.5785054452221
 30
0.0
 40
1.0
 41
2.0
 71
     1
 72
     5
  1

  7
BIGFONT
1001
ACAD
1000
MTEXTBEGIN
1070
    73
1070
     1
1070
    44
1040
1.0
1070
    74
1070
     0
1000
MTEXTEND
1000
MTEXTBEGIN
1070
    73
1070
     1
1070
    44
1040
1.0
1070
    74
1070
     0
1000
MTEXTEND
  0
MTEXT
  5
1533
330
18
100
AcDbEntity
  8
0
  6
CENTER
100
AcDbMText
 10
443.360754359146
 20
313.7890106174461
 30
0.0
 40
2.0
 41
15.6417
 71
     1
 72
     5
  1

  7
BIGFONT
1001
ACAD
1000
MTEXTBEGIN
1070
    73
1070
     1
1070
    44
1040
1.0
1070
    74
1070
     0
1000
MTEXTEND
1000
MTEXTBEGIN
1070
    73
1070
     1
1070
    44
1040
1.0
1070
    74
1070
     0
1000
MTEXTEND
  0
MTEXT
  5
1534
330
18
100
AcDbEntity
  8
0
100
AcDbMText
 10
117.7724771753829
 20
212.8564838730205
 30
0.0
 40
2.0
 41
0.0
 71
     1
 72
     5
  1

1001
ACAD
1000
MTEXTBEGIN
1070
    73
1070
     1
1070
    44
1040
1.0
1070
    74
1070
     0
1000
MTEXTEND
1000
MTEXTBEGIN
1070
    73
1070
     1
1070
    44
1040
1.0
1070
    74
1070
     0
1000
MTEXTEND
  0
MTEXT
  5
1535
330
18
100
AcDbEntity
  8
0
100
AcDbMText
 10
162.1719689285329
 20
244.48796746601
 30
0.0
 40
2.0
 41
10.1453
 71
     1
 72
     5
  1

 11
-0.0000000000000002
 21
-1.0
 31
0.0
1001
ACAD
1000
MTEXTBEGIN
1070
    73
1070
     1
1070
    44
1040
1.0
1070
    74
1070
     0
1000
MTEXTEND
1000
MTEXTBEGIN
1070
    73
1070
     1
1070
    44
1040
1.0
1070
    74
1070
     0
1000
MTEXTEND
  0
MTEXT
  5
155C
330
18
100
AcDbEntity
  8
0
  6
BYBLOCK
100
AcDbMText
 10
197.9514669132005
 20
319.2674780082993
 30
0.0
 40
2.0
 41
0.0
 71
     7
 72
     5
  1

 11
0.0000000000000001
 21
1.0
 31
0.0
1001
ACAD
1000
MTEXTBEGIN
1070
    73
1070
     1
1070
    44
1040
1.0
1070
    74
1070
     0
1000
MTEXTEND
1000
MTEXTBEGIN
1070
    73
1070
     1
1070
    44
1040
1.0
1070
    74
1070
     0
1000
MTEXTEND
  0
MTEXT
  5
155D
330
18
100
AcDbEntity
  8
0
  6
BYBLOCK
100
AcDbMText
 10
162.4860785500478
 20
330.0607863667166
 30
0.0
 40
2.0
 41
0.0
 71
     4
 72
     5
  1

 11
-0.0000000000000002
 21
-1.0
 31
0.0
1001
ACAD
1000
MTEXTBEGIN
1070
    73
1070
     1
1070
    44
1040
1.0
1070
    74
1070
     0
1000
MTEXTEND
1000
MTEXTBEGIN
1070
    73
1070
     1
1070
    44
1040
1.0
1070
    74
1070
     0
1000
MTEXTEND
  0
TEXT
  5
2279
330
18
100
AcDbEntity
  8
A
100
AcDbText
 10
4.181189626796196
 20
312.0637567728283
 30
0.0
 40
3.524999999999999
  1
�    
100
AcDbText
  0
TEXT
  5
2283
330
18
100
AcDbEntity
  8
A
100
AcDbText
 10
-143.7439103235753
 20
-117.903263345534
 30
0.0
 40
2.5
  1

 41
0.5
  7
MSｺ_ｼｯｸ
100
AcDbText
  0
TEXT
  5
2293
330
18
100
AcDbEntity
  8
A
100
AcDbText
 10
-135.9189103235753
 20
-117.903263345534
 30
0.0
 40
2.5
  1

  7
MSｺ_ｼｯｸ
100
AcDbText
  0
LINE
  5
13B02
330
18
100
AcDbEntity
  8
破線
100
AcDbLine
 10
361.8032641809368
 20
165.4460664683583
 30
0.0
 11
476.303264180937
 21
165.4460664683583
 31
0.0
  0
LINE
  5
13B03
330
18
100
AcDbEntity
  8
破線
100
AcDbLine
 10
361.8032641809368
 20
200.4460664683583
 30
0.0
 11
476.303264180937
 21
200.4460664683586
 31
0.0
  0
LINE
  5
13B07
330
18
100
AcDbEntity
  8
0
100
AcDbLine
 10
366.5032641809373
 20
271.8460664683576
 30
0.0
 11
444.0032641809371
 21
271.8460664683579
 31
0.0
  0
LINE
  5
13B09
330
18
100
AcDbEntity
  8
0
100
AcDbLine
 10
366.5032641809363
 20
94.04606646835722
 30
0.0
 11
444.0032641809367
 21
94.04606646835793
 31
0.0
  0
LINE
  5
13BAD
330
18
100
AcDbEntity
  8
0
100
AcDbLine
 10
363.8032641809362
 20
128.9460664683582
 30
0.0
 11
363.8032641809403
 21
182.9460664683578
 31
0.0
  0
LINE
  5
13BAF
330
18
100
AcDbEntity
  8
0
100
AcDbLine
 10
365.6032641809366
 20
94.04606646835743
 30
0.0
 11
365.6032641809368
 21
182.9460664683578
 31
0.0
  0
LINE
  5
13BB5
330
18
100
AcDbEntity
  8
0
100
AcDbLine
 10
365.1032641809369
 20
94.04606646835722
 30
0.0
 11
365.6032641809366
 21
94.04606646835722
 31
0.0
  0
LINE
  5
13BB6
330
18
100
AcDbEntity
  8
0
100
AcDbLine
 10
363.8032641809368
 20
128.9460664683582
 30
0.0
 11
365.1032641809369
 21
128.9460664683585
 31
0.0
  0
LINE
  5
13BC2
330
18
100
AcDbEntity
  8
0
100
AcDbLine
 10
361.3032641809368
 20
134.9503159005416
 30
0.0
 11
363.8032641809368
 21
134.9503159005416
 31
0.0
  0
LINE
  5
13BCC
330
18
100
AcDbEntity
  8
0
100
AcDbLine
 10
365.6032641809368
 20
182.9460664683578
 30
0.0
 11
365.6032641809368
 21
271.8460664683579
 31
0.0
  0
LINE
  5
13BCD
330
18
100
AcDbEntity
  8
0
100
AcDbLine
 10
365.1032641809369
 20
182.9460664683575
 30
0.0
 11
365.1032641809369
 21
271.8460664683577
 31
0.0
  0
LINE
  5
13BCF
330
18
100
AcDbEntity
  8
0
100
AcDbLine
 10
363.8032641809368
 20
236.9460664683582
 30
0.0
 11
363.8032641809368
 21
182.9460664683578
 31
0.0
  0
LINE
  5
13BDA
330
18
100
AcDbEntity
  8
0
100
AcDbLine
 10
363.8032641809368
 20
236.9460664683582
 30
0.0
 11
365.1032641809369
 21
236.9460664683582
 31
0.0
  0
LINE
  5
13BDD
330
18
100
AcDbEntity
  8
0
100
AcDbLine
 10
361.3032641809368
 20
230.9518264491305
 30
0.0
 11
363.8032641809368
 21
230.9518264491305
 31
0.0
  0
LINE
  5
13BE1
330
18
100
AcDbEntity
  8
0
100
AcDbLine
 10
365.1032641809369
 20
271.8460664683577
 30
0.0
 11
365.6032641809368
 21
271.8460664683578
 31
0.0
  0
LWPOLYLINE
  5
13BE7
330
18
100
AcDbEntity
  8
0
100
AcDbPolyline
 90
       12
 70
   129
 43
0.0
 10
693.4243355993165
 20
145.973930513356
 42
0.0418357922730061
 10
694.3013522531088
 20
144.4548931099042
 10
702.0473189455245
 20
139.9827571549042
 42
0.041835792273005
 10
703.8013522531091
 20
139.9827571549041
 10
711.547318945524
 20
144.4548931099036
 42
0.0418357922730106
 10
712.4243355993162
 20
145.973930513356
 10
712.4243355993167
 20
154.9182024233554
 42
0.0418357922730243
 10
711.547318945524
 20
156.4372398268084
 10
703.8013522531091
 20
160.9093757818079
 42
0.041835792273011
 10
702.0473189455242
 20
160.9093757818079
 10
694.3013522531091
 20
156.4372398268084
 42
0.0418357922730047
 10
693.4243355993169
 20
154.918202423356
  0
CIRCLE
  5
13BE8
330
18
100
AcDbEntity
  8
0
100
AcDbCircle
 10
702.9243355993165
 20
150.446066468356
 30
0.0
 40
9.5
  0
CIRCLE
  5
13BEA
330
18
100
AcDbEntity
  8
中心線
100
AcDbCircle
 10
702.9243355993165
 20
182.9460664683583
 30
0.0
 40
78.00000000000046
  0
LINE
  5
13BEB
330
18
100
AcDbEntity
  8
中心線
100
AcDbLine
 10
702.9243355993165
 20
87.94606646835836
 30
0.0
 11
702.9243355993165
 21
182.9460664683587
 31
0.0
  0
LINE
  5
13C1B
330
18
100
AcDbEntity
  8
0
100
AcDbLine
 10
476.303264180937
 20
271.3460666111113
 30
0.0
 11
476.303264180937
 21
94.54606632560514
 31
0.0
  0
LINE
  5
13C1F
330
18
100
AcDbEntity
  8
0
100
AcDbLine
 10
488.303264180937
 20
154.918202423358
 30
0.0
 11
494.3032641809367
 21
154.918202423358
 31
0.0
  0
LINE
  5
13C20
330
18
100
AcDbEntity
  8
0
100
AcDbLine
 10
488.303264180937
 20
156.4372398268105
 30
0.0
 11
494.3032641809367
 21
156.4372398268105
 31
0.0
  0
LINE
  5
13C21
330
18
100
AcDbEntity
  8
0
100
AcDbLine
 10
488.303264180937
 20
160.9460664683583
 30
0.0
 11
494.3032641809367
 21
160.9460664683583
 31
0.0
  0
LINE
  5
13C22
330
18
100
AcDbEntity
  8
0
100
AcDbLine
 10
488.303264180937
 20
139.9460664683582
 30
0.0
 11
494.3032641809366
 21
139.9460664683582
 31
0.0
  0
LINE
  5
13C23
330
18
100
AcDbEntity
  8
0
100
AcDbLine
 10
494.3032641809367
 20
144.4548931099063
 30
0.0
 11
488.303264180937
 21
144.4548931099063
 31
0.0
  0
LINE
  5
13C24
330
18
100
AcDbEntity
  8
0
100
AcDbLine
 10
494.3032641809367
 20
145.9739305133586
 30
0.0
 11
488.303264180937
 21
145.9739305133586
 31
0.0
  0
LINE
  5
13C26
330
18
100
AcDbEntity
  8
0
100
AcDbLine
 10
485.3032641809368
 20
159.9460664683583
 30
0.0
 11
488.303264180937
 21
159.9460664683583
 31
0.0
  0
LINE
  5
13C27
330
18
100
AcDbEntity
  8
0
100
AcDbLine
 10
485.3032641809368
 20
140.9460664683583
 30
0.0
 11
488.303264180937
 21
140.9460664683583
 31
0.0
  0
LINE
  5
13C28
330
18
100
AcDbEntity
  8
0
100
AcDbLine
 10
483.303264180937
 20
157.8460664683588
 30
0.0
 11
485.3032641809368
 21
157.8460664683588
 31
0.0
  0
LINE
  5
13C29
330
18
100
AcDbEntity
  8
0
100
AcDbLine
 10
480.3032641809373
 20
160.9460664683583
 30
0.0
 11
483.303264180937
 21
160.9460664683583
 31
0.0
  0
LINE
  5
13C2A
330
18
100
AcDbEntity
  8
0
100
AcDbLine
 10
479.303264180937
 20
159.4460664683583
 30
0.0
 11
480.3032641809373
 21
159.4460664683583
 31
0.0
  0
LINE
  5
13C2B
330
18
100
AcDbEntity
  8
0
100
AcDbLine
 10
480.3032641809373
 20
154.918202423358
 30
0.0
 11
483.303264180937
 21
154.918202423358
 31
0.0
  0
LINE
  5
13C2C
330
18
100
AcDbEntity
  8
0
100
AcDbLine
 10
480.3032641809373
 20
156.4372398268105
 30
0.0
 11
483.303264180937
 21
156.4372398268105
 31
0.0
  0
LINE
  5
13C2D
330
18
100
AcDbEntity
  8
0
100
AcDbLine
 10
480.3032641809373
 20
139.9460664683582
 30
0.0
 11
483.303264180937
 21
139.9460664683582
 31
0.0
  0
LINE
  5
13C2E
330
18
100
AcDbEntity
  8
0
100
AcDbLine
 10
483.303264180937
 20
144.4548931099063
 30
0.0
 11
480.3032641809373
 21
144.4548931099063
 31
0.0
  0
LINE
  5
13C2F
330
18
100
AcDbEntity
  8
0
100
AcDbLine
 10
483.303264180937
 20
143.0460664683586
 30
0.0
 11
485.3032641809368
 21
143.0460664683586
 31
0.0
  0
LINE
  5
13C30
330
18
100
AcDbEntity
  8
0
100
AcDbLine
 10
479.303264180937
 20
141.4460664683583
 30
0.0
 11
480.3032641809377
 21
141.4460664683583
 31
0.0
  0
LINE
  5
13C31
330
18
100
AcDbEntity
  8
0
100
AcDbLine
 10
483.303264180937
 20
145.9739305133586
 30
0.0
 11
480.3032641809373
 21
145.9739305133586
 31
0.0
  0
LINE
  5
13C32
330
18
100
AcDbEntity
  8
0
100
AcDbLine
 10
483.303264180937
 20
160.9460664683583
 30
0.0
 11
483.303264180937
 21
139.9460664683582
 31
0.0
  0
LINE
  5
13C33
330
18
100
AcDbEntity
  8
0
100
AcDbLine
 10
485.3032641809368
 20
140.9460664683583
 30
0.0
 11
485.3032641809368
 21
159.9460664683583
 31
0.0
  0
LINE
  5
13C34
330
18
100
AcDbEntity
  8
0
100
AcDbLine
 10
480.3032641809373
 20
139.9460664683582
 30
0.0
 11
480.3032641809373
 21
160.9460664683583
 31
0.0
  0
LINE
  5
13C35
330
18
100
AcDbEntity
  8
0
100
AcDbLine
 10
488.303264180937
 20
160.9460664683583
 30
0.0
 11
488.303264180937
 21
139.9460664683582
 31
0.0
  0
LINE
  5
13C38
330
18
100
AcDbEntity
  8
0
100
AcDbLine
 10
494.3032641809367
 20
156.4372398268105
 30
0.0
 11
494.3032641809367
 21
154.918202423358
 31
0.0
  0
LINE
  5
13C39
330
18
100
AcDbEntity
  8
0
100
AcDbLine
 10
494.3032641809366
 20
160.9460664683583
 30
0.0
 11
498.8032641809367
 21
155.6746378969305
 31
0.0
  0
ARC
  5
13C3A
330
18
100
AcDbEntity
  8
0
100
AcDbCircle
 10
486.3294676633671
 20
160.6449816549482
 30
0.0
 40
9.015903847971632
100
AcDbArc
 50
332.1795611441608
 51
354.4603666814936
  0
LINE
  5
13C3B
330
18
100
AcDbEntity
  8
0
100
AcDbLine
 10
494.3032641809367
 20
145.9739305133586
 30
0.0
 11
494.3032641809367
 21
144.4548931099063
 31
0.0
  0
LINE
  5
13C3C
330
18
100
AcDbEntity
  8
0
100
AcDbLine
 10
494.3032641809366
 20
139.9460664683582
 30
0.0
 11
498.8032641809367
 21
145.217495039786
 31
0.0
  0
ARC
  5
13C3D
330
18
100
AcDbEntity
  8
0
100
AcDbCircle
 10
486.3294676633671
 20
140.2471512817683
 30
0.0
 40
9.015903847971632
100
AcDbArc
 50
5.539633318506221
 51
27.82043885583909
  0
LINE
  5
13C3E
330
18
100
AcDbEntity
  8
0
100
AcDbLine
 10
495.3032641809368
 20
159.7746378969295
 30
0.0
 11
495.303264180937
 21
141.1174950397869
 31
0.0
  0
LINE
  5
13C3F
330
18
100
AcDbEntity
  8
0
100
AcDbLine
 10
498.8032641809367
 20
155.6746378969305
 30
0.0
 11
498.8032641809367
 21
145.217495039786
 31
0.0
  0
ARC
  5
13C40
330
18
100
AcDbEntity
  8
0
100
AcDbCircle
 10
484.8032641809362
 20
150.446066468358
 30
0.0
 40
10.50000000000042
100
AcDbArc
 50
334.7912347032378
 51
25.20876529676207
  0
LINE
  5
13C62
330
18
100
AcDbEntity
  8
0
100
AcDbLine
 10
488.303264180937
 20
219.918202423358
 30
0.0
 11
494.3032641809367
 21
219.918202423358
 31
0.0
  0
LINE
  5
13C63
330
18
100
AcDbEntity
  8
0
100
AcDbLine
 10
488.303264180937
 20
221.4372398268106
 30
0.0
 11
494.3032641809367
 21
221.4372398268106
 31
0.0
  0
LINE
  5
13C64
330
18
100
AcDbEntity
  8
0
100
AcDbLine
 10
488.303264180937
 20
225.9460664683583
 30
0.0
 11
494.3032641809367
 21
225.9460664683583
 31
0.0
  0
LINE
  5
13C65
330
18
100
AcDbEntity
  8
0
100
AcDbLine
 10
488.303264180937
 20
204.9460664683583
 30
0.0
 11
494.3032641809366
 21
204.9460664683583
 31
0.0
  0
LINE
  5
13C66
330
18
100
AcDbEntity
  8
0
100
AcDbLine
 10
494.3032641809367
 20
210.9739305133586
 30
0.0
 11
488.303264180937
 21
210.9739305133586
 31
0.0
  0
LINE
  5
13C67
330
18
100
AcDbEntity
  8
0
100
AcDbLine
 10
494.3032641809367
 20
209.4548931099063
 30
0.0
 11
488.303264180937
 21
209.4548931099063
 31
0.0
  0
LINE
  5
13C69
330
18
100
AcDbEntity
  8
0
100
AcDbLine
 10
485.3032641809368
 20
224.9460664683583
 30
0.0
 11
488.303264180937
 21
224.9460664683583
 31
0.0
  0
LINE
  5
13C6A
330
18
100
AcDbEntity
  8
0
100
AcDbLine
 10
485.3032641809368
 20
205.9460664683583
 30
0.0
 11
488.303264180937
 21
205.9460664683583
 31
0.0
  0
LINE
  5
13C6B
330
18
100
AcDbEntity
  8
0
100
AcDbLine
 10
480.3032641809373
 20
219.918202423358
 30
0.0
 11
483.303264180937
 21
219.918202423358
 31
0.0
  0
LINE
  5
13C6C
330
18
100
AcDbEntity
  8
0
100
AcDbLine
 10
480.3032641809373
 20
221.4372398268106
 30
0.0
 11
483.303264180937
 21
221.4372398268106
 31
0.0
  0
LINE
  5
13C6D
330
18
100
AcDbEntity
  8
0
100
AcDbLine
 10
483.303264180937
 20
222.846066468358
 30
0.0
 11
485.3032641809368
 21
222.846066468358
 31
0.0
  0
LINE
  5
13C6E
330
18
100
AcDbEntity
  8
0
100
AcDbLine
 10
480.3032641809373
 20
225.9460664683583
 30
0.0
 11
483.303264180937
 21
225.9460664683583
 31
0.0
  0
LINE
  5
13C6F
330
18
100
AcDbEntity
  8
0
100
AcDbLine
 10
479.303264180937
 20
224.4460664683582
 30
0.0
 11
480.3032641809373
 21
224.4460664683582
 31
0.0
  0
LINE
  5
13C70
330
18
100
AcDbEntity
  8
0
100
AcDbLine
 10
483.303264180937
 20
209.4548931099063
 30
0.0
 11
480.3032641809373
 21
209.4548931099063
 31
0.0
  0
LINE
  5
13C71
330
18
100
AcDbEntity
  8
0
100
AcDbLine
 10
483.303264180937
 20
208.0460664683578
 30
0.0
 11
485.3032641809368
 21
208.0460664683578
 31
0.0
  0
LINE
  5
13C72
330
18
100
AcDbEntity
  8
0
100
AcDbLine
 10
483.303264180937
 20
210.9739305133586
 30
0.0
 11
480.3032641809373
 21
210.9739305133586
 31
0.0
  0
LINE
  5
13C73
330
18
100
AcDbEntity
  8
0
100
AcDbLine
 10
480.3032641809373
 20
204.9460664683583
 30
0.0
 11
483.303264180937
 21
204.9460664683583
 31
0.0
  0
LINE
  5
13C74
330
18
100
AcDbEntity
  8
0
100
AcDbLine
 10
479.303264180937
 20
206.4460664683583
 30
0.0
 11
480.3032641809377
 21
206.4460664683583
 31
0.0
  0
LINE
  5
13C75
330
18
100
AcDbEntity
  8
0
100
AcDbLine
 10
483.303264180937
 20
225.9460664683583
 30
0.0
 11
483.303264180937
 21
204.9460664683583
 31
0.0
  0
LINE
  5
13C76
330
18
100
AcDbEntity
  8
0
100
AcDbLine
 10
485.3032641809368
 20
224.9460664683583
 30
0.0
 11
485.3032641809368
 21
205.9460664683583
 31
0.0
  0
LINE
  5
13C77
330
18
100
AcDbEntity
  8
0
100
AcDbLine
 10
480.3032641809373
 20
204.9460664683583
 30
0.0
 11
480.3032641809373
 21
225.9460664683583
 31
0.0
  0
LINE
  5
13C78
330
18
100
AcDbEntity
  8
0
100
AcDbLine
 10
488.303264180937
 20
225.9460664683583
 30
0.0
 11
488.303264180937
 21
204.9460664683583
 31
0.0
  0
LINE
  5
13C7B
330
18
100
AcDbEntity
  8
0
100
AcDbLine
 10
494.3032641809366
 20
225.9460664683583
 30
0.0
 11
498.8032641809367
 21
220.6746378969305
 31
0.0
  0
LINE
  5
13C7C
330
18
100
AcDbEntity
  8
0
100
AcDbLine
 10
494.3032641809367
 20
221.4372398268106
 30
0.0
 11
494.3032641809367
 21
219.918202423358
 31
0.0
  0
ARC
  5
13C7D
330
18
100
AcDbEntity
  8
0
100
AcDbCircle
 10
486.3294676633671
 20
225.6449816549482
 30
0.0
 40
9.015903847971632
100
AcDbArc
 50
332.1795611441608
 51
354.4603666814936
  0
LINE
  5
13C7E
330
18
100
AcDbEntity
  8
0
100
AcDbLine
 10
494.3032641809367
 20
210.9739305133586
 30
0.0
 11
494.3032641809367
 21
209.4548931099063
 31
0.0
  0
LINE
  5
13C7F
330
18
100
AcDbEntity
  8
0
100
AcDbLine
 10
494.3032641809366
 20
204.9460664683583
 30
0.0
 11
498.8032641809367
 21
210.2174950397861
 31
0.0
  0
ARC
  5
13C80
330
18
100
AcDbEntity
  8
0
100
AcDbCircle
 10
486.3294676633671
 20
205.2471512817684
 30
0.0
 40
9.015903847971632
100
AcDbArc
 50
5.539633318506221
 51
27.82043885583909
  0
LINE
  5
13C81
330
18
100
AcDbEntity
  8
0
100
AcDbLine
 10
495.3032641809368
 20
224.7746378969295
 30
0.0
 11
495.303264180937
 21
206.1174950397869
 31
0.0
  0
LINE
  5
13C82
330
18
100
AcDbEntity
  8
0
100
AcDbLine
 10
498.8032641809367
 20
220.6746378969305
 30
0.0
 11
498.8032641809367
 21
210.2174950397861
 31
0.0
  0
ARC
  5
13C83
330
18
100
AcDbEntity
  8
0
100
AcDbCircle
 10
484.8032641809362
 20
215.4460664683579
 30
0.0
 40
10.50000000000042
100
AcDbArc
 50
334.7912347032378
 51
25.20876529676207
  0
CIRCLE
  5
13CE8
330
18
100
AcDbEntity
  8
細線
100
AcDbCircle
 10
741.9243355993167
 20
115.3960849731717
 30
0.0
 40
3.0
  0
LINE
  5
13CE9
330
18
100
AcDbEntity
  8
CENTER
100
AcDbLine
 10
739.4065021123337
 20
119.7571004976248
 30
0.0
 11
744.4513922792157
 21
111.0190944099804
 31
0.0
  0
CIRCLE
  5
13CEA
330
18
100
AcDbEntity
  8
0
100
AcDbCircle
 10
741.9243355993167
 20
115.3960849731717
 30
0.0
 40
2.399999999999999
  0
CIRCLE
  5
13CED
330
18
100
AcDbEntity
  8
細線
100
AcDbCircle
 10
735.4524273503492
 20
104.4163062048991
 30
0.0
 40
3.5
  0
LWPOLYLINE
  5
13CEE
330
18
100
AcDbEntity
  8
細線
100
AcDbPolyline
 90
        6
 70
     1
 43
0.0
 10
737.1696602215538
 20
104.1902282084647
 10
736.1152544978032
 20
102.8160999160053
 10
734.3980216265992
 20
103.0421779124385
 10
733.7351944791446
 20
104.6423842013323
 10
734.7896002028947
 20
106.016512493792
 10
736.5068330740994
 20
105.790434497359
  0
LINE
  5
13D13
330
18
100
AcDbEntity
  8
CENTER
100
AcDbLine
 10
666.4421690862996
 20
119.7571004976248
 30
0.0
 11
661.3972789194173
 21
111.0190944099804
 31
0.0
  0
CIRCLE
  5
13D14
330
18
100
AcDbEntity
  8
0
100
AcDbCircle
 10
663.9243355993165
 20
115.3960849731717
 30
0.0
 40
2.399999999999999
  0
CIRCLE
  5
13D15
330
18
100
AcDbEntity
  8
細線
100
AcDbCircle
 10
663.9243355993165
 20
115.3960849731717
 30
0.0
 40
3.0
  0
CIRCLE
  5
13D18
330
18
100
AcDbEntity
  8
細線
100
AcDbCircle
 10
670.3962438482838
 20
104.4163062048999
 30
0.0
 40
3.5
  0
LWPOLYLINE
  5
13D19
330
18
100
AcDbEntity
  8
細線
100
AcDbPolyline
 90
        6
 70
     1
 43
0.0
 10
671.4506495720334
 20
103.0421779124385
 10
669.7334167008293
 20
102.8160999160057
 10
668.679010977079
 20
104.1902282084655
 10
669.3418381245337
 20
105.7904344973599
 10
671.0590709957378
 20
106.0165124937924
 10
672.1134767194882
 20
104.6423842013324
  0
LINE
  5
13D1E
330
18
100
AcDbEntity
  8
中心線
100
AcDbLine
 10
607.9243355993168
 20
182.9460664683583
 30
0.0
 11
797.9243355993165
 21
182.9460664683583
 31
0.0
  0
CIRCLE
  5
13D1F
330
18
100
AcDbEntity
  8
細線
100
AcDbCircle
 10
781.4540958627747
 20
150.4179747173258
 30
0.0
 40
3.5
  0
LWPOLYLINE
  5
13D20
330
18
100
AcDbEntity
  8
細線
100
AcDbPolyline
 90
        6
 70
     1
 43
0.0
 10
782.828224155236
 20
151.4723804410749
 10
783.0543021516687
 20
149.7551475698708
 10
781.6801738592086
 20
148.7007418461204
 10
780.0799675703148
 20
149.3635689935753
 10
779.853889573882
 20
151.0808018647793
 10
781.2280178663415
 20
152.1352075885296
  0
CIRCLE
  5
13D26
330
18
100
AcDbEntity
  8
0
100
AcDbCircle
 10
780.9243355993171
 20
182.9460664683583
 30
0.0
 40
2.399999999999999
  0
CIRCLE
  5
13D27
330
18
100
AcDbEntity
  8
細線
100
AcDbCircle
 10
780.9243355993171
 20
182.9460664683583
 30
0.0
 40
3.0
  0
CIRCLE
  5
13D28
330
18
100
AcDbEntity
  8
細線
100
AcDbCircle
 10
781.4540958627755
 20
215.4741582193905
 30
0.0
 40
3.5
  0
LWPOLYLINE
  5
13D2A
330
18
100
AcDbEntity
  8
細線
100
AcDbPolyline
 90
        6
 70
     1
 43
0.0
 10
781.6801738592102
 20
217.1913910905948
 10
783.0543021516696
 20
216.1369853668444
 10
782.8282241552365
 20
214.4197524956406
 10
781.2280178663427
 20
213.7569253481859
 10
779.8538895738829
 20
214.8113310719362
 10
780.079967570316
 20
216.5285639431401
  0
LINE
  5
13D2F
330
18
100
AcDbEntity
  8
CENTER
100
AcDbLine
 10
739.4065021123337
 20
246.1350324390916
 30
0.0
 11
744.4513922792157
 21
254.8730385267363
 31
0.0
  0
CIRCLE
  5
13D30
330
18
100
AcDbEntity
  8
細線
100
AcDbCircle
 10
741.9243355993167
 20
250.4960479635449
 30
0.0
 40
3.0
  0
CIRCLE
  5
13D31
330
18
100
AcDbEntity
  8
0
100
AcDbCircle
 10
741.9243355993167
 20
250.4960479635449
 30
0.0
 40
2.399999999999999
  0
CIRCLE
  5
13D33
330
18
100
AcDbEntity
  8
0
100
AcDbCircle
 10
702.9243355993165
 20
150.446066468356
 30
0.0
 40
4.5
  0
CIRCLE
  5
13D34
330
18
100
AcDbEntity
  8
0
100
AcDbCircle
 10
702.9243355993165
 20
150.446066468356
 30
0.0
 40
5.2
  0
CIRCLE
  5
13D35
330
18
100
AcDbEntity
  8
0
100
AcDbCircle
 10
702.9243355993165
 20
150.446066468356
 30
0.0
 40
2.5
  0
HATCH
  5
13D36
330
18
100
AcDbEntity
  8
0
100
AcDbHatch
 10
0.0
 20
0.0
 30
0.0
210
0.0
220
0.0
230
1.0
  2
SOLID
 70
     1
 71
     0
 91
        2
 92
        7
 72
     1
 73
     1
 93
        3
 10
705.4243355993166
 20
150.446066468356
 42
0.0
 10
702.9243355993165
 20
150.446066468356
 42
0.0
 10
702.9243355993165
 20
147.946066468356
 42
0.4142135623730919
 97
        0
 92
        7
 72
     1
 73
     1
 93
        3
 10
702.9243355993165
 20
150.4460664683558
 42
0.0
 10
702.9243355993165
 20
152.946066468356
 42
0.4142135623730951
 10
700.4243355993167
 20
150.446066468356
 42
0.0
 97
        0
 75
     0
 76
     1
 47
0.0576142688807724
 98
        2
 10
703.7538041199527
 20
149.0641004074445
 10
702.0829901802125
 20
150.7932591169979
  0
CIRCLE
  5
13D38
330
18
100
AcDbEntity
  8
細線
100
AcDbCircle
 10
624.3945753358574
 20
150.4179747173251
 30
0.0
 40
3.5
  0
LWPOLYLINE
  5
13D39
330
18
100
AcDbEntity
  8
細線
100
AcDbPolyline
 90
        6
 70
     1
 43
0.0
 10
624.1684973394232
 20
148.7007418461204
 10
622.7943690469637
 20
149.755147569871
 10
623.0204470433967
 20
151.4723804410753
 10
624.6206533322906
 20
152.1352075885301
 10
625.9947816247501
 20
151.0808018647799
 10
625.7687036283172
 20
149.3635689935754
  0
CIRCLE
  5
13D3D
330
18
100
AcDbEntity
  8
0
100
AcDbCircle
 10
624.9243355993162
 20
182.9460664683583
 30
0.0
 40
2.399999999999999
  0
CIRCLE
  5
13D3E
330
18
100
AcDbEntity
  8
細線
100
AcDbCircle
 10
624.9243355993162
 20
182.9460664683583
 30
0.0
 40
3.0
  0
LWPOLYLINE
  5
13D3F
330
18
100
AcDbEntity
  8
0
100
AcDbPolyline
 90
       12
 70
   129
 43
0.0
 10
693.4243355993165
 20
219.9182024233563
 42
-0.0418357922730061
 10
694.3013522531088
 20
221.4372398268082
 10
702.0473189455245
 20
225.9093757818082
 42
-0.041835792273005
 10
703.8013522531091
 20
225.9093757818082
 10
711.547318945524
 20
221.4372398268086
 42
-0.0418357922730106
 10
712.4243355993162
 20
219.918202423356
 10
712.4243355993167
 20
210.973930513357
 42
-0.0418357922730243
 10
711.547318945524
 20
209.454893109904
 10
703.8013522531091
 20
204.9827571549043
 42
-0.041835792273011
 10
702.0473189455242
 20
204.9827571549043
 10
694.3013522531091
 20
209.454893109904
 42
-0.0418357922730047
 10
693.4243355993169
 20
210.9739305133563
  0
CIRCLE
  5
13D41
330
18
100
AcDbEntity
  8
0
100
AcDbCircle
 10
702.9243355993165
 20
215.446066468356
 30
0.0
 40
9.5
  0
CIRCLE
  5
13D42
330
18
100
AcDbEntity
  8
0
100
AcDbCircle
 10
702.9243355993165
 20
215.446066468356
 30
0.0
 40
4.5
  0
CIRCLE
  5
13D43
330
18
100
AcDbEntity
  8
0
100
AcDbCircle
 10
702.9243355993165
 20
215.446066468356
 30
0.0
 40
5.2
  0
HATCH
  5
13D45
330
18
100
AcDbEntity
  8
0
100
AcDbHatch
 10
0.0
 20
0.0
 30
0.0
210
0.0
220
0.0
230
1.0
  2
SOLID
 70
     1
 71
     0
 91
        2
 92
        7
 72
     1
 73
     1
 93
        3
 10
705.4243355993166
 20
215.446066468356
 42
0.0
 10
702.9243355993165
 20
215.446066468356
 42
0.0
 10
702.9243355993165
 20
217.9460664683559
 42
-0.4142135623730919
 97
        0
 92
        7
 72
     1
 73
     1
 93
        3
 10
702.9243355993165
 20
215.4460664683565
 42
0.0
 10
702.9243355993165
 20
212.946066468356
 42
-0.4142135623730951
 10
700.4243355993167
 20
215.446066468356
 42
0.0
 97
        0
 75
     0
 76
     1
 47
0.0576142688807724
 98
        2
 10
703.7538041199527
 20
216.8280325292679
 10
702.0829901802125
 20
215.0988738197145
  0
CIRCLE
  5
13D46
330
18
100
AcDbEntity
  8
0
100
AcDbCircle
 10
702.9243355993165
 20
215.446066468356
 30
0.0
 40
2.5
  0
CIRCLE
  5
13D47
330
18
100
AcDbEntity
  8
細線
100
AcDbCircle
 10
624.394575335858
 20
215.4741582193909
 30
0.0
 40
3.5
  0
LWPOLYLINE
  5
13D4A
330
18
100
AcDbEntity
  8
細線
100
AcDbPolyline
 90
        6
 70
     1
 43
0.0
 10
623.0204470433967
 20
214.4197524956416
 10
622.7943690469642
 20
216.1369853668456
 10
624.1684973394243
 20
217.1913910905959
 10
625.7687036283182
 20
216.5285639431413
 10
625.9947816247509
 20
214.8113310719371
 10
624.6206533322906
 20
213.756925348187
  0
LINE
  5
13D4B
330
18
100
AcDbEntity
  8
CENTER
100
AcDbLine
 10
666.4421690862996
 20
246.1350324390916
 30
0.0
 11
661.3972789194177
 21
254.8730385267363
 31
0.0
  0
CIRCLE
  5
13D4C
330
18
100
AcDbEntity
  8
0
100
AcDbCircle
 10
663.9243355993166
 20
250.4960479635449
 30
0.0
 40
2.399999999999999
  0
CIRCLE
  5
13D4D
330
18
100
AcDbEntity
  8
細線
100
AcDbCircle
 10
663.9243355993166
 20
250.4960479635449
 30
0.0
 40
3.0
  0
CIRCLE
  5
13D4E
330
18
100
AcDbEntity
  8
細線
100
AcDbCircle
 10
735.4524273503487
 20
261.4758267318175
 30
0.0
 40
3.5
  0
LWPOLYLINE
  5
13D4F
330
18
100
AcDbEntity
  8
細線
100
AcDbPolyline
 90
        6
 70
     1
 43
0.0
 10
734.3980216265999
 20
262.8499550242784
 10
736.1152544978042
 20
263.0760330207108
 10
737.1696602215543
 20
261.701904728251
 10
736.5068330740996
 20
260.1016984393568
 10
734.7896002028956
 20
259.875620442924
 10
733.7351944791452
 20
261.2497487353844
  0
LWPOLYLINE
  5
13D52
330
18
100
AcDbEntity
  8
細線
100
AcDbPolyline
 90
        6
 70
     1
 43
0.0
 10
668.6790109770794
 20
261.7019047282519
 10
669.73341670083
 20
263.0760330207113
 10
671.4506495720342
 20
262.8499550242782
 10
672.113476719489
 20
261.2497487353844
 10
671.0590709957386
 20
259.8756204429245
 10
669.3418381245342
 20
260.1016984393576
  0
CIRCLE
  5
13D53
330
18
100
AcDbEntity
  8
細線
100
AcDbCircle
 10
670.3962438482845
 20
261.4758267318175
 30
0.0
 40
3.5
  0
LINE
  5
13E95
330
18
100
AcDbEntity
  8
0
100
AcDbLine
 10
360.8032641809368
 20
230.4518264491305
 30
0.0
 11
360.8032641809368
 21
182.9460664683578
 31
0.0
  0
LINE
  5
13E96
330
18
100
AcDbEntity
  8
0
100
AcDbLine
 10
360.8032641809368
 20
135.4503159005413
 30
0.0
 11
360.8032641809368
 21
182.9460664683583
 31
0.0
  0
LINE
  5
1400B
330
18
100
AcDbEntity
  8
0
100
AcDbLine
 10
479.3032641809371
 20
237.4460664683583
 30
0.0
 11
479.3032641809368
 21
128.4460664683582
 31
0.0
  0
LINE
  5
1400C
330
18
100
AcDbEntity
  8
0
100
AcDbLine
 10
476.303264180937
 20
237.9460664683583
 30
0.0
 11
478.8032641809371
 21
237.9460664683583
 31
0.0
  0
LINE
  5
1400D
330
18
100
AcDbEntity
  8
0
100
AcDbLine
 10
476.3032641809369
 20
127.9460664683582
 30
0.0
 11
478.8032641809368
 21
127.9460664683582
 31
0.0
  0
LINE
  5
14CDB
330
18
100
AcDbEntity
  8
0
100
AcDbLine
 10
479.3032641809368
 20
128.4460664683582
 30
0.0
 11
478.8032641809368
 21
127.9460664683582
 31
0.0
  0
LINE
  5
14CDC
330
18
100
AcDbEntity
  8
0
100
AcDbLine
 10
478.8032641809371
 20
237.9460664683583
 30
0.0
 11
479.3032641809371
 21
237.4460664683583
 31
0.0
  0
LINE
  5
14CDD
330
18
100
AcDbEntity
  8
0
100
AcDbLine
 10
361.3032641809368
 20
230.9518264491305
 30
0.0
 11
360.8032641809368
 21
230.4518264491305
 31
0.0
  0
LINE
  5
14CDE
330
18
100
AcDbEntity
  8
0
100
AcDbLine
 10
360.8032641809368
 20
135.4503159005413
 30
0.0
 11
361.3032641809368
 21
134.9503159005416
 31
0.0
  0
TEXT
  5
15B3B
330
18
100
AcDbEntity
  8
A
100
AcDbText
 10
367.6978829036067
 20
1128.21472599652
 30
0.0
 40
2.5
  1

  7
MSｺ_ｼｯｸ
100
AcDbText
  0
TEXT
  5
15B3C
330
18
100
AcDbEntity
  8
A
100
AcDbText
 10
359.8728829036068
 20
1128.21472599652
 30
0.0
 40
2.5
  1

 41
0.5
  7
MSｺ_ｼｯｸ
100
AcDbText
  0
TEXT
  5
15B3D
330
18
100
AcDbEntity
  8
A
100
AcDbText
 10
507.7979828539783
 20
1558.181746114883
 30
0.0
 40
3.524999999999999
  1
�    
100
AcDbText
  0
MTEXT
  5
15B3E
330
18
100
AcDbEntity
  8
0
  6
BYBLOCK
100
AcDbMText
 10
666.1028717772299
 20
1576.178775708772
 30
0.0
 40
2.0
 41
0.0
 71
     4
 72
     5
  1

 11
-0.0000000000000002
 21
-1.0
 31
0.0
1001
ACAD
1000
MTEXTBEGIN
1070
    73
1070
     1
1070
    44
1040
1.0
1070
    74
1070
     0
1000
MTEXTEND
1000
MTEXTBEGIN
1070
    73
1070
     1
1070
    44
1040
1.0
1070
    74
1070
     0
1000
MTEXTEND
  0
MTEXT
  5
15B3F
330
18
100
AcDbEntity
  8
0
  6
BYBLOCK
100
AcDbMText
 10
701.5682601403827
 20
1565.385467350353
 30
0.0
 40
2.0
 41
0.0
 71
     7
 72
     5
  1

 11
0.0000000000000001
 21
1.0
 31
0.0
1001
ACAD
1000
MTEXTBEGIN
1070
    73
1070
     1
1070
    44
1040
1.0
1070
    74
1070
     0
1000
MTEXTEND
1000
MTEXTBEGIN
1070
    73
1070
     1
1070
    44
1040
1.0
1070
    74
1070
     0
1000
MTEXTEND
  0
MTEXT
  5
15B40
330
18
100
AcDbEntity
  8
0
100
AcDbMText
 10
665.7887621557151
 20
1490.605956808065
 30
0.0
 40
2.0
 41
10.1453
 71
     1
 72
     5
  1

 11
-0.0000000000000002
 21
-1.0
 31
0.0
1001
ACAD
1000
MTEXTBEGIN
1070
    73
1070
     1
1070
    44
1040
1.0
1070
    74
1070
     0
1000
MTEXTEND
1000
MTEXTBEGIN
1070
    73
1070
     1
1070
    44
1040
1.0
1070
    74
1070
     0
1000
MTEXTEND
  0
MTEXT
  5
15B41
330
18
100
AcDbEntity
  8
0
100
AcDbMText
 10
621.3892704025651
 20
1458.974473215076
 30
0.0
 40
2.0
 41
0.0
 71
     1
 72
     5
  1

1001
ACAD
1000
MTEXTBEGIN
1070
    73
1070
     1
1070
    44
1040
1.0
1070
    74
1070
     0
1000
MTEXTEND
1000
MTEXTBEGIN
1070
    73
1070
     1
1070
    44
1040
1.0
1070
    74
1070
     0
1000
MTEXTEND
  0
MTEXT
  5
15B42
330
18
100
AcDbEntity
  8
0
  6
CENTER
100
AcDbMText
 10
946.9775475863279
 20
1559.906999959501
 30
0.0
 40
2.0
 41
15.6417
 71
     1
 72
     5
  1

  7
BIGFONT
1001
ACAD
1000
MTEXTBEGIN
1070
    73
1070
     1
1070
    44
1040
1.0
1070
    74
1070
     0
1000
MTEXTEND
1000
MTEXTBEGIN
1070
    73
1070
     1
1070
    44
1040
1.0
1070
    74
1070
     0
1000
MTEXTEND
  0
MTEXT
  5
15B43
330
18
100
AcDbEntity
  8
0
  6
DASHDOT
100
AcDbMText
 10
709.299606642156
 20
1666.696494787275
 30
0.0
 40
1.0
 41
2.0
 71
     1
 72
     5
  1

  7
BIGFONT
1001
ACAD
1000
MTEXTBEGIN
1070
    73
1070
     1
1070
    44
1040
1.0
1070
    74
1070
     0
1000
MTEXTEND
1000
MTEXTBEGIN
1070
    73
1070
     1
1070
    44
1040
1.0
1070
    74
1070
     0
1000
MTEXTEND
  0
MTEXT
  5
15B44
330
18
100
AcDbEntity
  8
0
  6
BYBLOCK
100
AcDbMText
 10
666.1027847722796
 20
1576.178775708772
 30
0.0
 40
2.0
 41
0.0
 71
     4
 72
     5
  1

 11
-0.0000000000000002
 21
-1.0
 31
0.0
1001
ACAD
1000
MTEXTBEGIN
1070
    73
1070
     1
1070
    44
1040
1.0
1070
    74
1070
     0
1000
MTEXTEND
1000
MTEXTBEGIN
1070
    73
1070
     1
1070
    44
1040
1.0
1070
    74
1070
     0
1000
MTEXTEND
  0
MTEXT
  5
15B45
330
18
100
AcDbEntity
  8
0
  6
BYBLOCK
100
AcDbMText
 10
701.5681731354324
 20
1565.385467350353
 30
0.0
 40
2.0
 41
0.0
 71
     7
 72
     5
  1

 11
0.0000000000000001
 21
1.0
 31
0.0
1001
ACAD
1000
MTEXTBEGIN
1070
    73
1070
     1
1070
    44
1040
1.0
1070
    74
1070
     0
1000
MTEXTEND
1000
MTEXTBEGIN
1070
    73
1070
     1
1070
    44
1040
1.0
1070
    74
1070
     0
1000
MTEXTEND
  0
MTEXT
  5
15B46
330
18
100
AcDbEntity
  8
0
100
AcDbMText
 10
665.7886751507643
 20
1490.605956808065
 30
0.0
 40
2.0
 41
10.1453
 71
     1
 72
     5
  1

 11
-0.0000000000000002
 21
-1.0
 31
0.0
1001
ACAD
1000
MTEXTBEGIN
1070
    73
1070
     1
1070
    44
1040
1.0
1070
    74
1070
     0
1000
MTEXTEND
1000
MTEXTBEGIN
1070
    73
1070
     1
1070
    44
1040
1.0
1070
    74
1070
     0
1000
MTEXTEND
  0
MTEXT
  5
15B47
330
18
100
AcDbEntity
  8
0
100
AcDbMText
 10
621.3891833976147
 20
1458.974473215076
 30
0.0
 40
2.0
 41
0.0
 71
     1
 72
     5
  1

1001
ACAD
1000
MTEXTBEGIN
1070
    73
1070
     1
1070
    44
1040
1.0
1070
    74
1070
     0
1000
MTEXTEND
1000
MTEXTBEGIN
1070
    73
1070
     1
1070
    44
1040
1.0
1070
    74
1070
     0
1000
MTEXTEND
  0
MTEXT
  5
15B48
330
18
100
AcDbEntity
  8
0
  6
CENTER
100
AcDbMText
 10
946.9774605813777
 20
1559.906999959501
 30
0.0
 40
2.0
 41
15.6417
 71
     1
 72
     5
  1

  7
BIGFONT
1001
ACAD
1000
MTEXTBEGIN
1070
    73
1070
     1
1070
    44
1040
1.0
1070
    74
1070
     0
1000
MTEXTEND
1000
MTEXTBEGIN
1070
    73
1070
     1
1070
    44
1040
1.0
1070
    74
1070
     0
1000
MTEXTEND
  0
MTEXT
  5
15B49
330
18
100
AcDbEntity
  8
0
  6
DASHDOT
100
AcDbMText
 10
709.299519637206
 20
1666.696494787275
 30
0.0
 40
1.0
 41
2.0
 71
     1
 72
     5
  1

  7
BIGFONT
1001
ACAD
1000
MTEXTBEGIN
1070
    73
1070
     1
1070
    44
1040
1.0
1070
    74
1070
     0
1000
MTEXTEND
1000
MTEXTBEGIN
1070
    73
1070
     1
1070
    44
1040
1.0
1070
    74
1070
     0
1000
MTEXTEND
  0
INSERT
  5
15B4A
330
18
100
AcDbEntity
  8
FRAME025
100
AcDbBlockReference
  2
機械A4横_LBP
 10
611.6173895189279
 20
1350.555893699294
 30
0.0
  0
LINE
  5
163FD
330
18
100
AcDbEntity
  8
0
100
AcDbLine
 10
555.6760447320819
 20
235.4460664683583
 30
0.0
 11
555.6760447320819
 21
309.2077573341738
 31
0.0
  0
LINE
  5
163FF
330
18
100
AcDbEntity
  8
0
100
AcDbLine
 10
548.1760447356816
 20
235.4460664683583
 30
0.0
 11
548.1760447356816
 21
309.2077573341738
 31
0.0
  0
LINE
  5
1642F
330
18
100
AcDbEntity
  8
0
100
AcDbLine
 10
531.926044733882
 20
211.6960664701581
 30
0.0
 11
498.8032641809367
 21
211.6960664701581
 31
0.0
  0
LINE
  5
16430
330
18
100
AcDbEntity
  8
0
100
AcDbLine
 10
531.926044733882
 20
219.1960664665584
 30
0.0
 11
498.8032641809367
 21
219.1960664665584
 31
0.0
  0
LINE
  5
16431
330
18
100
AcDbEntity
  8
中心線
100
AcDbLine
 10
504.1306223622806
 20
215.4460664683583
 30
0.0
 11
469.6246578268938
 21
215.4460664683583
 31
0.0
  0
ARC
  5
16455
330
18
100
AcDbEntity
  8
0
100
AcDbCircle
 10
531.926044733882
 20
235.4460664683583
 30
0.0
 40
16.25000000180011
100
AcDbArc
 50
270.0
 51
0.0
  0
ARC
  5
16456
330
18
100
AcDbEntity
  8
0
100
AcDbCircle
 10
531.926044733882
 20
235.4460664683583
 30
0.0
 40
23.7499999982003
100
AcDbArc
 50
270.0
 51
0.0
  0
LINE
  5
16460
330
18
100
AcDbEntity
  8
0
100
AcDbLine
 10
498.8032641809373
 20
148.3460664683576
 30
0.0
 11
520.9972705548857
 21
148.3460664683579
 31
0.0
  0
LINE
  5
16461
330
18
100
AcDbEntity
  8
0
100
AcDbLine
 10
498.8032641809367
 20
152.5460664683575
 30
0.0
 11
520.9972705548856
 21
152.5460664683579
 31
0.0
  0
LINE
  5
16462
330
18
100
AcDbEntity
  8
中心線
100
AcDbLine
 10
505.0193467859585
 20
150.4460664683583
 30
0.0
 11
469.6246578268941
 21
150.446066468358
 31
0.0
  0
ARC
  5
1648E
330
18
100
AcDbEntity
  8
0
100
AcDbCircle
 10
520.9972705548862
 20
130.4460664683585
 30
0.0
 40
17.89999999999969
100
AcDbArc
 50
0.0
 51
90.00000000000005
  0
ARC
  5
1648F
330
18
100
AcDbEntity
  8
0
100
AcDbCircle
 10
520.9972705548862
 20
130.4460664683585
 30
0.0
 40
22.09999999999948
100
AcDbArc
 50
0.0
 51
90.00000000000005
  0
LINE
  5
1649C
330
18
100
AcDbEntity
  8
0
100
AcDbLine
 10
554.8839307503392
 20
57.18437560254249
 30
0.0
 11
554.8839307503392
 21
70.94606646835808
 31
0.0
  0
LINE
  5
1649D
330
18
100
AcDbEntity
  8
0
100
AcDbLine
 10
549.0039307503398
 20
57.18437560254249
 30
0.0
 11
549.0039307503398
 21
70.94606646835808
 31
0.0
  0
LINE
  5
1649E
330
18
100
AcDbEntity
  8
0
100
AcDbLine
 10
549.0039307503398
 20
70.94606646835808
 30
0.0
 11
554.8839307503392
 21
70.94606646835808
 31
0.0
  0
LINE
  5
1649F
330
18
100
AcDbEntity
  8
0
100
AcDbLine
 10
554.8839307503392
 20
57.18437560254249
 30
0.0
 11
549.0039307503398
 21
57.18437560254249
 31
0.0
  0
LINE
  5
1680D
330
18
100
AcDbEntity
  8
0
100
AcDbLine
 10
366.1032634653417
 20
94.04606561001051
 30
0.0
 11
444.0032641809371
 21
94.04606561001026
 31
0.0
  0
LINE
  5
1680E
330
18
100
AcDbEntity
  8
0
100
AcDbLine
 10
365.6032634653417
 20
94.54606561001051
 30
0.0
 11
366.1032634653417
 21
94.04606561001051
 31
0.0
  0
LINE
  5
1680F
330
18
100
AcDbEntity
  8
0
100
AcDbLine
 10
476.3032641809369
 20
94.54606632560508
 30
0.0
 11
475.8032634653416
 21
94.04606561001013
 31
0.0
  0
LINE
  5
16812
330
18
100
AcDbEntity
  8
0
100
AcDbLine
 10
463.803264180947
 20
94.04606561001015
 30
0.0
 11
475.8032634653416
 21
94.04606561001013
 31
0.0
  0
LINE
  5
16813
330
18
100
AcDbEntity
  8
0
100
AcDbLine
 10
365.1032641809369
 20
94.04606646835722
 30
0.0
 11
365.6032641809366
 21
94.04606599149778
 31
0.0
  0
LINE
  5
16815
330
18
100
AcDbEntity
  8
0
100
AcDbLine
 10
450.303264180937
 20
94.04606646835764
 30
0.0
 11
475.8032643236902
 21
94.04606646835835
 31
0.0
  0
LINE
  5
16816
330
18
100
AcDbEntity
  8
0
100
AcDbLine
 10
366.5032641809363
 20
271.8460664683594
 30
0.0
 11
444.0032641809371
 21
271.8460664683588
 31
0.0
  0
LINE
  5
16817
330
18
100
AcDbEntity
  8
0
100
AcDbLine
 10
366.1032634653417
 20
271.846067326706
 30
0.0
 11
443.6032641809369
 21
271.8460673267064
 31
0.0
  0
LINE
  5
16819
330
18
100
AcDbEntity
  8
0
100
AcDbLine
 10
365.6032641809368
 20
271.3460664683594
 30
0.0
 11
366.1032641809366
 21
271.8460664683594
 31
0.0
  0
LINE
  5
1681A
330
18
100
AcDbEntity
  8
0
100
AcDbLine
 10
463.8032633225992
 20
271.8460664683586
 30
0.0
 11
475.8032643236902
 21
271.846066468358
 31
0.0
  0
LINE
  5
1681B
330
18
100
AcDbEntity
  8
0
100
AcDbLine
 10
463.803264180947
 20
271.8460673267065
 30
0.0
 11
475.8032634653416
 21
271.8460673267065
 31
0.0
  0
LINE
  5
1681E
330
18
100
AcDbEntity
  8
0
100
AcDbLine
 10
476.3032641809369
 20
271.3460666111116
 30
0.0
 11
475.8032634653416
 21
271.8460673267065
 31
0.0
  0
LINE
  5
1681F
330
18
100
AcDbEntity
  8
0
100
AcDbLine
 10
450.3032641809371
 20
271.8460664683577
 30
0.0
 11
475.8032643236902
 21
271.846066468358
 31
0.0
  0
LINE
  5
16E60
330
18
100
AcDbEntity
  8
中心線
100
AcDbLine
 10
347.6360081105608
 20
182.9460664683583
 30
0.0
 11
479.303264180937
 21
182.9460664683583
 31
0.0
  0
ARC
  5
17702
330
18
100
AcDbEntity
  8
0
100
AcDbCircle
 10
160.5575552403886
 20
182.9221438043553
 30
0.0
 40
48.0
100
AcDbArc
 50
72.07683310818146
 51
107.9231668918185
  0
LWPOLYLINE
  5
17703
330
18
100
AcDbEntity
  8
0
100
AcDbPolyline
 90
        4
 70
   128
 43
0.0
 10
149.3390092042524
 20
196.3532355259953
 10
147.7094726355256
 20
199.1756756558205
 42
-0.9999999999999962
 10
152.9056250582314
 20
202.175675655821
 10
154.5351616269591
 20
199.3532355259949
  0
LWPOLYLINE
  5
17704
330
18
100
AcDbEntity
  8
0
100
AcDbPolyline
 90
        4
 70
   128
 43
0.0
 10
154.5351616269574
 20
166.4910520827168
 10
152.9056250582316
 20
163.6686119528913
 42
-0.9999999999999962
 10
147.709472635525
 20
166.6686119528903
 10
149.3390092042511
 20
169.4910520827173
  0
CIRCLE
  5
17706
330
18
100
AcDbEntity
  8
0
100
AcDbCircle
 10
160.5575552403886
 20
182.9221438043553
 30
0.0
 40
17.5
  0
LINE
  5
17708
330
18
100
AcDbEntity
  8
中心線
100
AcDbLine
 10
65.55755524038864
 20
182.9221438043553
 30
0.0
 11
255.5575552403886
 21
182.9221438043553
 31
0.0
  0
LINE
  5
1770B
330
18
100
AcDbEntity
  8
中心線
100
AcDbLine
 10
141.5593575936274
 20
215.8279873807813
 30
0.0
 11
136.5593575936274
 21
224.4882414186256
 31
0.0
  0
ARC
  5
1770C
330
18
100
AcDbEntity
  8
0
100
AcDbCircle
 10
160.5575552403886
 20
182.9221438043553
 30
0.0
 40
48.0
100
AcDbArc
 50
117.0768331081804
 51
152.9231668918199
  0
ARC
  5
17719
330
18
100
AcDbEntity
  8
0
100
AcDbCircle
 10
160.5575552403886
 20
182.9221438043553
 30
0.0
 40
48.0
100
AcDbArc
 50
207.0768331081803
 51
242.9231668918196
  0
CIRCLE
  5
1775C
330
18
100
AcDbEntity
  8
細線
100
AcDbCircle
 10
141.8060670545003
 20
137.6520467113022
 30
0.0
 40
3.5
  0
CIRCLE
  5
1775D
330
18
100
AcDbEntity
  8
0
100
AcDbCircle
 10
141.8060670545003
 20
137.6520467113022
 30
0.0
 40
4.0
  0
CIRCLE
  5
1775E
330
18
100
AcDbEntity
  8
細線
100
AcDbCircle
 10
139.0593575936267
 20
145.6861732090079
 30
0.0
 40
3.0
  0
CIRCLE
  5
1775F
330
18
100
AcDbEntity
  8
0
100
AcDbCircle
 10
139.0593575936267
 20
145.6861732090079
 30
0.0
 40
2.399999999999999
  0
LINE
  5
17760
330
18
100
AcDbEntity
  8
中心線
100
AcDbLine
 10
141.5593575936279
 20
150.0163002279294
 30
0.0
 11
136.5593575936279
 21
141.3560461900853
 31
0.0
  0
LWPOLYLINE
  5
17762
330
18
100
AcDbEntity
  8
細線
100
AcDbPolyline
 90
        6
 70
     1
 43
0.0
 10
140.7516613307508
 20
139.026175003763
 10
142.4688942019549
 20
139.2522530001959
 10
143.523299925705
 20
137.8781247077362
 10
142.8604727782509
 20
136.2779184188422
 10
141.1432399070465
 20
136.0518404224087
 10
140.0888341832964
 20
137.425968714869
  0
ARC
  5
1777A
330
18
100
AcDbEntity
  8
0
100
AcDbCircle
 10
160.5575552403886
 20
182.9221438043553
 30
0.0
 40
48.0
100
AcDbArc
 50
162.0768331081813
 51
197.9231668918254
  0
CIRCLE
  5
1777D
330
18
100
AcDbEntity
  8
0
100
AcDbCircle
 10
115.2874581473358
 20
164.1706556184651
 30
0.0
 40
4.0
  0
CIRCLE
  5
1777E
330
18
100
AcDbEntity
  8
細線
100
AcDbCircle
 10
115.2874581473358
 20
164.1706556184651
 30
0.0
 40
3.5
  0
LWPOLYLINE
  5
1777F
330
18
100
AcDbEntity
  8
細線
100
AcDbPolyline
 90
        6
 70
     1
 43
0.0
 10
115.5135361437702
 20
165.8878884896699
 10
116.88766443623
 20
164.8334827659193
 10
116.661586439797
 20
163.1162498947153
 10
115.0613801509033
 20
162.4534227472604
 10
113.6872518584432
 20
163.5078284710106
 10
113.913329854876
 20
165.2250613422151
  0
SOLID
  5
17780
330
18
100
AcDbEntity
  8
0
  6
BYBLOCK
 62
     0
100
AcDbTrace
 10
111.0575552403886
 20
185.2315448843555
 30
0.0
 11
107.0575552403886
 21
182.9221438043557
 31
0.0
 12
111.0575552403886
 22
180.6127427243555
 32
0.0
 13
111.0575552403886
 23
180.6127427243555
 33
0.0
  0
SOLID
  5
17781
330
18
100
AcDbEntity
  8
0
  6
BYBLOCK
 62
     0
100
AcDbTrace
 10
102.0575552403886
 20
185.2315448843555
 30
0.0
 11
106.0575552403886
 21
182.9221438043557
 31
0.0
 12
102.0575552403886
 22
180.6127427243555
 32
0.0
 13
102.0575552403886
 23
180.6127427243555
 33
0.0
  0
CIRCLE
  5
17782
330
18
100
AcDbEntity
  8
細線
100
AcDbCircle
 10
117.5611599468662
 20
182.922143804356
 30
0.0
 40
3.0
  0
CIRCLE
  5
17783
330
18
100
AcDbEntity
  8
0
100
AcDbCircle
 10
117.5611599468662
 20
182.922143804356
 30
0.0
 40
2.399999999999999
  0
LINE
  5
17784
330
18
100
AcDbEntity
  8
中心線
100
AcDbLine
 10
121.5575552403886
 20
182.9221438043553
 30
0.0
 11
111.5575552403886
 21
182.9221438043553
 31
0.0
  0
LWPOLYLINE
  5
17785
330
18
100
AcDbEntity
  8
細線
100
AcDbPolyline
 90
        6
 70
     1
 43
0.0
 10
149.5858582796665
 20
166.418610374752
 10
151.029233951294
 20
166.4186135286979
 10
151.7509245185054
 20
165.1686151068379
 10
151.0292394140893
 20
163.9186135310301
 10
149.5858637424615
 20
163.9186103770844
 10
148.8641731752503
 20
165.1686087989448
  0
CIRCLE
  5
17786
330
18
100
AcDbEntity
  8
細線
100
AcDbCircle
 10
150.307548846878
 20
165.168611952891
 30
0.0
 40
2.74999999744107
  0
LWPOLYLINE
  5
17787
330
18
100
AcDbEntity
  8
細線
100
AcDbPolyline
 90
        6
 70
     1
 43
0.0
 10
140.779227557785
 20
181.6721422285475
 10
141.5009181249959
 20
182.9221406504085
 10
140.7792330205808
 20
184.1721422262151
 10
139.3358573489525
 20
184.1721453801619
 10
138.6141667817414
 20
182.9221469583008
 10
139.3358518861573
 20
181.672145382494
  0
LWPOLYLINE
  5
17788
330
18
100
AcDbEntity
  8
0
100
AcDbPolyline
 90
        4
 70
   128
 43
0.0
 10
143.3166155908218
 20
185.9221438043545
 10
140.0575424533691
 20
185.922143804355
 42
0.9999999999999962
 10
140.0575424533683
 20
179.9221438043554
 10
143.3166155908219
 20
179.9221438043545
  0
CIRCLE
  5
17789
330
18
100
AcDbEntity
  8
細線
100
AcDbCircle
 10
140.0575424533689
 20
182.9221438043548
 30
0.0
 40
2.74999999744107
  0
CIRCLE
  5
1778C
330
18
100
AcDbEntity
  8
0
100
AcDbCircle
 10
115.287458147335
 20
201.6736319902441
 30
0.0
 40
4.0
  0
CIRCLE
  5
1778D
330
18
100
AcDbEntity
  8
細線
100
AcDbCircle
 10
115.287458147335
 20
201.6736319902441
 30
0.0
 40
3.5
  0
LWPOLYLINE
  5
1778E
330
18
100
AcDbEntity
  8
細線
100
AcDbPolyline
 90
        6
 70
     1
 43
0.0
 10
116.6615864397962
 20
202.7280377139935
 10
116.8876644362285
 20
201.010804842789
 10
115.5135361437692
 20
199.956399119039
 10
113.9133298548752
 20
200.6192262664933
 10
113.6872518584421
 20
202.3364591376978
 10
115.0613801509021
 20
203.390864861448
  0
LWPOLYLINE
  5
1778F
330
18
100
AcDbEntity
  8
細線
100
AcDbPolyline
 90
        6
 70
     1
 43
0.0
 10
151.7509245185068
 20
200.6756788097669
 10
151.0292394140902
 20
199.4256772339599
 10
149.5858637424633
 20
199.4256740800135
 10
148.8641731752513
 20
200.6756725018745
 10
149.585858279668
 20
201.9256740776817
 10
151.0292339512949
 20
201.9256772316281
  0
CIRCLE
  5
17790
330
18
100
AcDbEntity
  8
細線
100
AcDbCircle
 10
150.3075488468791
 20
200.6756756558206
 30
0.0
 40
2.74999999744107
  0
CIRCLE
  5
17791
330
18
100
AcDbEntity
  8
細線
100
AcDbCircle
 10
139.0593575936281
 20
220.158114399704
 30
0.0
 40
3.0
  0
CIRCLE
  5
17792
330
18
100
AcDbEntity
  8
0
100
AcDbCircle
 10
139.0593575936281
 20
220.158114399704
 30
0.0
 40
2.399999999999999
  0
CIRCLE
  5
177C6
330
18
100
AcDbEntity
  8
細線
100
AcDbCircle
 10
141.806067054498
 20
228.1922408974084
 30
0.0
 40
3.5
  0
CIRCLE
  5
177C7
330
18
100
AcDbEntity
  8
0
100
AcDbCircle
 10
141.806067054498
 20
228.1922408974084
 30
0.0
 40
4.0
  0
LWPOLYLINE
  5
177C8
330
18
100
AcDbEntity
  8
細線
100
AcDbPolyline
 90
        6
 70
     1
 43
0.0
 10
143.5232999257029
 20
227.9661629009738
 10
142.4688942019523
 20
226.5920346085144
 10
140.7516613307484
 20
226.8181126049471
 10
140.0888341832932
 20
228.418318893841
 10
141.1432399070434
 20
229.792447186301
 10
142.8604727782482
 20
229.5663691898679
  0
LINE
  5
177CC
330
18
100
AcDbEntity
  8
中心線
100
AcDbLine
 10
179.5557528871504
 20
215.8279873807811
 30
0.0
 11
184.5557528871504
 21
224.4882414186256
 31
0.0
  0
ARC
  5
177CD
330
18
100
AcDbEntity
  8
0
100
AcDbCircle
 10
160.5575552403886
 20
182.9221438043553
 30
0.0
 40
48.0
100
AcDbArc
 50
27.07683310818042
 51
62.92316689181957
  0
ARC
  5
177CF
330
18
100
AcDbEntity
  8
0
100
AcDbCircle
 10
160.5575552403886
 20
182.9221438043553
 30
0.0
 40
48.0
100
AcDbArc
 50
297.0768331081803
 51
332.9231668918195
  0
CIRCLE
  5
177E4
330
18
100
AcDbEntity
  8
細線
100
AcDbCircle
 10
179.3090434262791
 20
137.6520467113031
 30
0.0
 40
3.5
  0
CIRCLE
  5
177E5
330
18
100
AcDbEntity
  8
0
100
AcDbCircle
 10
179.3090434262791
 20
137.6520467113031
 30
0.0
 40
4.0
  0
CIRCLE
  5
177E6
330
18
100
AcDbEntity
  8
細線
100
AcDbCircle
 10
182.0557528871488
 20
145.686173209007
 30
0.0
 40
3.0
  0
CIRCLE
  5
177E7
330
18
100
AcDbEntity
  8
0
100
AcDbCircle
 10
182.0557528871488
 20
145.686173209007
 30
0.0
 40
2.399999999999999
  0
LINE
  5
177E8
330
18
100
AcDbEntity
  8
中心線
100
AcDbLine
 10
179.5557528871505
 20
150.0163002279298
 30
0.0
 11
184.5557528871505
 21
141.3560461900855
 31
0.0
  0
LINE
  5
177E9
330
18
100
AcDbEntity
  8
中心線
100
AcDbLine
 10
160.5575552403885
 20
142.478244379923
 30
0.0
 11
160.5575552403884
 21
137.0385816221644
 31
0.0
  0
LWPOLYLINE
  5
177ED
330
18
100
AcDbEntity
  8
細線
100
AcDbPolyline
 90
        6
 70
     1
 43
0.0
 10
177.5918105550742
 20
137.8781247077373
 10
178.6462162788245
 20
139.2522530001969
 10
180.3634491500289
 20
139.0261750037639
 10
181.0262762974838
 20
137.4259687148702
 10
179.9718705737336
 20
136.0518404224102
 10
178.2546377025289
 20
136.2779184188432
  0
ARC
  5
17807
330
18
100
AcDbEntity
  8
0
100
AcDbCircle
 10
160.5575552403886
 20
182.9221438043553
 30
0.0
 40
48.0
100
AcDbArc
 50
342.0768331081811
 51
17.92316689182548
  0
LWPOLYLINE
  5
17808
330
18
100
AcDbEntity
  8
0
100
AcDbPolyline
 90
        4
 70
   128
 43
0.0
 10
177.7984948899554
 20
185.9221438043545
 10
181.0575680274079
 20
185.922143804355
 42
-0.9999999999999962
 10
181.0575680274089
 20
179.9221438043554
 10
177.7984948899549
 20
179.9221438043545
  0
CIRCLE
  5
17809
330
18
100
AcDbEntity
  8
細線
100
AcDbCircle
 10
181.0575680274081
 20
182.9221438043548
 30
0.0
 40
2.74999999744107
  0
LWPOLYLINE
  5
1780A
330
18
100
AcDbEntity
  8
0
100
AcDbPolyline
 90
        4
 70
   128
 43
0.0
 10
171.7761012765245
 20
169.4910520827159
 10
173.4056378452513
 20
166.6686119528906
 42
-0.9999999999999962
 10
168.2094854225458
 20
163.6686119528901
 10
166.5799488538175
 20
166.4910520827161
  0
CIRCLE
  5
1780B
330
18
100
AcDbEntity
  8
細線
100
AcDbCircle
 10
170.8075616338975
 20
165.1686119528904
 30
0.0
 40
2.74999999744107
  0
LWPOLYLINE
  5
1780F
330
18
100
AcDbEntity
  8
細線
100
AcDbPolyline
 90
        6
 70
     1
 43
0.0
 10
169.3641859622703
 20
165.1686087989441
 10
170.0858710666868
 20
166.4186103747509
 10
171.5292467383136
 20
166.4186135286976
 10
172.2509373055255
 20
165.1686151068368
 10
171.529252201109
 20
163.9186135310294
 10
170.0858765294818
 20
163.9186103770831
  0
LWPOLYLINE
  5
17810
330
18
100
AcDbEntity
  8
細線
100
AcDbPolyline
 90
        6
 70
     1
 43
0.0
 10
180.3358829229921
 20
181.6721422285475
 10
179.6141923557809
 20
182.9221406504085
 10
180.3358774601964
 20
184.1721422262151
 10
181.7792531318245
 20
184.1721453801619
 10
182.5009436990358
 20
182.9221469583008
 10
181.7792585946198
 20
181.672145382494
  0
CIRCLE
  5
17813
330
18
100
AcDbEntity
  8
0
100
AcDbCircle
 10
205.8276523334419
 20
164.1706556184673
 30
0.0
 40
4.0
  0
LWPOLYLINE
  5
17814
330
18
100
AcDbEntity
  8
細線
100
AcDbPolyline
 90
        6
 70
     1
 43
0.0
 10
204.4535240409806
 20
163.1162498947178
 10
204.2274460445481
 20
164.8334827659221
 10
205.6015743370078
 20
165.8878884896719
 10
207.2017806259015
 20
165.2250613422179
 10
207.4278586223349
 20
163.5078284710135
 10
206.0537303298749
 20
162.4534227472634
  0
CIRCLE
  5
17815
330
18
100
AcDbEntity
  8
細線
100
AcDbCircle
 10
205.8276523334419
 20
164.1706556184673
 30
0.0
 40
3.5
  0
CIRCLE
  5
17816
330
18
100
AcDbEntity
  8
細線
100
AcDbCircle
 10
203.5539505339108
 20
182.9221438043544
 30
0.0
 40
3.0
  0
CIRCLE
  5
17817
330
18
100
AcDbEntity
  8
0
100
AcDbCircle
 10
203.5539505339108
 20
182.9221438043544
 30
0.0
 40
2.399999999999999
  0
CIRCLE
  5
17818
330
18
100
AcDbEntity
  8
細線
100
AcDbCircle
 10
182.0557528871504
 20
220.1581143997033
 30
0.0
 40
3.0
  0
CIRCLE
  5
17819
330
18
100
AcDbEntity
  8
0
100
AcDbCircle
 10
182.0557528871504
 20
220.1581143997033
 30
0.0
 40
2.399999999999999
  0
CIRCLE
  5
1781A
330
18
100
AcDbEntity
  8
細線
100
AcDbCircle
 10
170.8075616338986
 20
200.6756756558202
 30
0.0
 40
2.74999999744107
  0
LWPOLYLINE
  5
1781B
330
18
100
AcDbEntity
  8
0
100
AcDbPolyline
 90
        4
 70
   128
 43
0.0
 10
166.5799488538191
 20
199.3532355259943
 10
168.2094854225448
 20
202.1756756558199
 42
-0.9999999999999962
 10
173.4056378452517
 20
199.1756756558214
 10
171.7761012765256
 20
196.3532355259942
  0
LWPOLYLINE
  5
1781C
330
18
100
AcDbEntity
  8
細線
100
AcDbPolyline
 90
        6
 70
     1
 43
0.0
 10
171.5292522011101
 20
199.4256772339595
 10
170.0858765294823
 20
199.4256740800135
 10
169.3641859622711
 20
200.6756725018734
 10
170.0858710666872
 20
201.9256740776812
 10
171.5292467383149
 20
201.925677231627
 10
172.2509373055262
 20
200.6756788097665
  0
CIRCLE
  5
17822
330
18
100
AcDbEntity
  8
0
100
AcDbCircle
 10
205.827652333441
 20
201.6736319902459
 30
0.0
 40
4.0
  0
LWPOLYLINE
  5
17823
330
18
100
AcDbEntity
  8
細線
100
AcDbPolyline
 90
        6
 70
     1
 43
0.0
 10
205.6015743370067
 20
199.9563991190413
 10
204.2274460445471
 20
201.0108048427917
 10
204.4535240409801
 20
202.7280377139958
 10
206.0537303298738
 20
203.3908648614505
 10
207.4278586223336
 20
202.3364591377005
 10
207.2017806259006
 20
200.6192262664959
  0
CIRCLE
  5
17824
330
18
100
AcDbEntity
  8
細線
100
AcDbCircle
 10
205.827652333441
 20
201.6736319902459
 30
0.0
 40
3.5
  0
CIRCLE
  5
17837
330
18
100
AcDbEntity
  8
細線
100
AcDbCircle
 10
179.3090434262769
 20
228.1922408974089
 30
0.0
 40
3.5
  0
CIRCLE
  5
17838
330
18
100
AcDbEntity
  8
0
100
AcDbCircle
 10
179.3090434262769
 20
228.1922408974089
 30
0.0
 40
4.0
  0
LWPOLYLINE
  5
1783B
330
18
100
AcDbEntity
  8
細線
100
AcDbPolyline
 90
        6
 70
     1
 43
0.0
 10
180.3634491500264
 20
226.8181126049479
 10
178.6462162788218
 20
226.5920346085154
 10
177.5918105550719
 20
227.966162900975
 10
178.254637702526
 20
229.5663691898691
 10
179.9718705737307
 20
229.7924471863022
 10
181.0262762974808
 20
228.418318893842
  0
LINE
  5
17866
330
18
100
AcDbEntity
  8
中心線
100
AcDbLine
 10
160.5575552403886
 20
87.92214380435519
 30
0.0
 11
160.5575552403886
 21
277.9221438043555
 31
0.0
  0
LINE
  5
17A8E
330
18
100
AcDbEntity
  8
中心線
100
AcDbLine
 10
361.0402701344633
 20
267.4460664683583
 30
0.0
 11
372.8691370717616
 21
267.4460664683583
 31
0.0
  0
LINE
  5
17A91
330
18
100
AcDbEntity
  8
中心線
100
AcDbLine
 10
361.0402701344633
 20
98.44606646835837
 30
0.0
 11
372.8691370717613
 21
98.44606646835837
 31
0.0
  0
LINE
  5
17A92
330
18
100
AcDbEntity
  8
ｷｬｯﾌ_ﾎ_ﾙﾄ
100
AcDbLine
 10
364.3032641809373
 20
269.896066468358
 30
0.0
 11
364.3032641809373
 21
264.9960664683585
 31
0.0
  0
LINE
  5
17A93
330
18
100
AcDbEntity
  8
ｷｬｯﾌ_ﾎ_ﾙﾄ
100
AcDbLine
 10
364.6032641809375
 20
270.9460664683583
 30
0.0
 11
364.6032641809375
 21
263.9460664683582
 31
0.0
  0
LINE
  5
17A94
330
18
100
AcDbEntity
  8
ｷｬｯﾌ_ﾎ_ﾙﾄ
100
AcDbLine
 10
365.1032641809369
 20
270.9460664683583
 30
0.0
 11
365.1032641809369
 21
263.9460664683582
 31
0.0
  0
LINE
  5
17A95
330
18
100
AcDbEntity
  8
ｷｬｯﾌ_ﾎ_ﾙﾄ
100
AcDbLine
 10
364.6032641809375
 20
263.9460664683582
 30
0.0
 11
365.1032641809369
 21
263.9460664683582
 31
0.0
  0
LINE
  5
17A96
330
18
100
AcDbEntity
  8
ｷｬｯﾌ_ﾎ_ﾙﾄ
100
AcDbLine
 10
364.6032641809375
 20
263.9460664683582
 30
0.0
 11
364.3032641809373
 21
264.9960664683585
 31
0.0
  0
LINE
  5
17A97
330
18
100
AcDbEntity
  8
ｷｬｯﾌ_ﾎ_ﾙﾄ
100
AcDbLine
 10
364.6032641809375
 20
270.9460664683583
 30
0.0
 11
365.1032641809369
 21
270.9460664683583
 31
0.0
  0
LINE
  5
17A98
330
18
100
AcDbEntity
  8
ｷｬｯﾌ_ﾎ_ﾙﾄ
100
AcDbLine
 10
364.6032641809375
 20
270.9460664683583
 30
0.0
 11
364.3032641809373
 21
269.896066468358
 31
0.0
  0
LINE
  5
17A99
330
18
100
AcDbEntity
  8
ｷｬｯﾌ_ﾎ_ﾙﾄ
100
AcDbLine
 10
364.3032641809372
 20
100.896066468358
 30
0.0
 11
364.3032641809372
 21
95.99606646835855
 31
0.0
  0
LINE
  5
17A9A
330
18
100
AcDbEntity
  8
ｷｬｯﾌ_ﾎ_ﾙﾄ
100
AcDbLine
 10
364.6032641809373
 20
101.9460664683582
 30
0.0
 11
364.6032641809373
 21
94.94606646835837
 31
0.0
  0
LINE
  5
17A9B
330
18
100
AcDbEntity
  8
ｷｬｯﾌ_ﾎ_ﾙﾄ
100
AcDbLine
 10
365.1032641809369
 20
101.9460664683582
 30
0.0
 11
365.1032641809369
 21
94.94606646835837
 31
0.0
  0
LINE
  5
17A9C
330
18
100
AcDbEntity
  8
ｷｬｯﾌ_ﾎ_ﾙﾄ
100
AcDbLine
 10
364.6032641809373
 20
94.94606646835837
 30
0.0
 11
365.1032641809369
 21
94.94606646835837
 31
0.0
  0
LINE
  5
17A9D
330
18
100
AcDbEntity
  8
ｷｬｯﾌ_ﾎ_ﾙﾄ
100
AcDbLine
 10
364.6032641809373
 20
94.94606646835837
 30
0.0
 11
364.3032641809372
 21
95.99606646835855
 31
0.0
  0
LINE
  5
17A9E
330
18
100
AcDbEntity
  8
ｷｬｯﾌ_ﾎ_ﾙﾄ
100
AcDbLine
 10
364.6032641809373
 20
101.9460664683582
 30
0.0
 11
365.1032641809369
 21
101.9460664683582
 31
0.0
  0
LINE
  5
17A9F
330
18
100
AcDbEntity
  8
ｷｬｯﾌ_ﾎ_ﾙﾄ
100
AcDbLine
 10
364.6032641809373
 20
101.9460664683582
 30
0.0
 11
364.3032641809372
 21
100.896066468358
 31
0.0
  0
LINE
  5
17B81
330
18
100
AcDbEntity
  8
0
100
AcDbLine
 10
365.1032641809369
 20
182.9460664683583
 30
0.0
 11
365.1032641809369
 21
94.04606646835722
 31
0.0
  0
LWPOLYLINE
  5
17EDA
330
18
100
AcDbEntity
  8
0
100
AcDbPolyline
 90
       12
 70
   129
 43
0.0
 10
739.896471554313
 20
192.4460664683644
 42
-0.0418357922730061
 10
741.4155089577652
 20
191.5690498145721
 10
745.887644912765
 20
183.8230831221564
 42
-0.041835792273005
 10
745.887644912765
 20
182.0690498145719
 10
741.4155089577652
 20
174.3230831221571
 42
-0.0418357922730106
 10
739.8964715543127
 20
173.4460664683646
 10
730.9521996443138
 20
173.4460664683644
 42
-0.0418357922730243
 10
729.4331622408606
 20
174.3230831221571
 10
724.961026285861
 20
182.0690498145719
 42
-0.041835792273011
 10
724.961026285861
 20
183.8230831221569
 10
729.4331622408606
 20
191.5690498145719
 42
-0.0418357922730047
 10
730.952199644313
 20
192.4460664683642
  0
CIRCLE
  5
17EDB
330
18
100
AcDbEntity
  8
0
100
AcDbCircle
 10
735.4243355993129
 20
182.9460664683644
 30
0.0
 40
9.5
  0
CIRCLE
  5
17EDC
330
18
100
AcDbEntity
  8
0
100
AcDbCircle
 10
735.4243355993129
 20
182.9460664683644
 30
0.0
 40
4.5
  0
CIRCLE
  5
17EDD
330
18
100
AcDbEntity
  8
0
100
AcDbCircle
 10
735.4243355993129
 20
182.9460664683644
 30
0.0
 40
5.2
  0
HATCH
  5
17EDE
330
18
100
AcDbEntity
  8
0
100
AcDbHatch
 10
0.0
 20
0.0
 30
0.0
210
0.0
220
0.0
230
1.0
  2
SOLID
 70
     1
 71
     0
 91
        2
 92
        7
 72
     1
 73
     1
 93
        3
 10
735.4243355993129
 20
180.4460664683644
 42
0.0
 10
735.4243355993129
 20
182.9460664683644
 42
0.0
 10
737.9243355993129
 20
182.9460664683644
 42
-0.4142135623730919
 97
        0
 92
        7
 72
     1
 73
     1
 93
        3
 10
735.4243355993132
 20
182.9460664683644
 42
0.0
 10
732.9243355993129
 20
182.9460664683644
 42
-0.4142135623730951
 10
735.4243355993129
 20
185.4460664683644
 42
0.0
 97
        0
 75
     0
 76
     1
 47
0.0576142688807724
 98
        2
 10
736.8063016602246
 20
182.1165979477284
 10
735.0771429506712
 20
183.7874118874685
  0
CIRCLE
  5
17EDF
330
18
100
AcDbEntity
  8
0
100
AcDbCircle
 10
735.4243355993129
 20
182.9460664683644
 30
0.0
 40
2.5
  0
ARC
  5
17F24
330
18
100
AcDbEntity
  8
0
100
AcDbCircle
 10
484.8294676633681
 20
193.1449816549485
 30
0.0
 40
9.015903847971632
100
AcDbArc
 50
332.179561144159
 51
354.4603666814928
  0
LINE
  5
17F25
330
18
100
AcDbEntity
  8
0
100
AcDbLine
 10
492.803264180937
 20
193.4460664683585
 30
0.0
 11
497.3032641809375
 21
188.1746378969307
 31
0.0
  0
LINE
  5
17F26
330
18
100
AcDbEntity
  8
0
100
AcDbLine
 10
493.8032641809368
 20
192.2746378969297
 30
0.0
 11
493.8032641809375
 21
173.6174950397873
 31
0.0
  0
LINE
  5
17F27
330
18
100
AcDbEntity
  8
0
100
AcDbLine
 10
483.8032641809375
 20
192.4460664683585
 30
0.0
 11
483.8032641809375
 21
173.4460664683585
 31
0.0
  0
LINE
  5
17F28
330
18
100
AcDbEntity
  8
0
100
AcDbLine
 10
486.8032641809373
 20
193.4460664683585
 30
0.0
 11
486.8032641809373
 21
172.4460664683585
 31
0.0
  0
LINE
  5
17F29
330
18
100
AcDbEntity
  8
0
100
AcDbLine
 10
481.8032641809375
 20
193.4460664683585
 30
0.0
 11
481.8032641809375
 21
172.4460664683585
 31
0.0
  0
LINE
  5
17F2A
330
18
100
AcDbEntity
  8
0
100
AcDbLine
 10
486.8032641809373
 20
172.4460664683585
 30
0.0
 11
492.803264180937
 21
172.4460664683585
 31
0.0
  0
LINE
  5
17F2B
330
18
100
AcDbEntity
  8
0
100
AcDbLine
 10
492.8032641809375
 20
176.9548931099064
 30
0.0
 11
486.8032641809373
 21
176.9548931099064
 31
0.0
  0
LINE
  5
17F2C
330
18
100
AcDbEntity
  8
0
100
AcDbLine
 10
492.8032641809375
 20
178.4739305133591
 30
0.0
 11
486.8032641809373
 21
178.4739305133591
 31
0.0
  0
LINE
  5
17F2D
330
18
100
AcDbEntity
  8
0
100
AcDbLine
 10
486.8032641809373
 20
188.9372398268107
 30
0.0
 11
492.8032641809375
 21
188.9372398268107
 31
0.0
  0
LINE
  5
17F2E
330
18
100
AcDbEntity
  8
0
100
AcDbLine
 10
486.8032641809373
 20
187.4182024233584
 30
0.0
 11
492.8032641809375
 21
187.4182024233584
 31
0.0
  0
LINE
  5
17F30
330
18
100
AcDbEntity
  8
0
100
AcDbLine
 10
481.8032641809375
 20
175.5460664683578
 30
0.0
 11
483.8032641809375
 21
175.5460664683578
 31
0.0
  0
LINE
  5
17F31
330
18
100
AcDbEntity
  8
0
100
AcDbLine
 10
481.8032641809375
 20
176.9548931099064
 30
0.0
 11
479.303264180937
 21
176.9548931099064
 31
0.0
  0
LINE
  5
17F32
330
18
100
AcDbEntity
  8
0
100
AcDbLine
 10
479.303264180937
 20
172.4460664683585
 30
0.0
 11
481.8032641809375
 21
172.4460664683585
 31
0.0
  0
LINE
  5
17F33
330
18
100
AcDbEntity
  8
0
100
AcDbLine
 10
483.8032641809375
 20
173.4460664683585
 30
0.0
 11
486.8032641809373
 21
173.4460664683585
 31
0.0
  0
LINE
  5
17F34
330
18
100
AcDbEntity
  8
0
100
AcDbLine
 10
481.8032641809375
 20
190.346066468358
 30
0.0
 11
483.8032641809375
 21
190.346066468358
 31
0.0
  0
LINE
  5
17F35
330
18
100
AcDbEntity
  8
0
100
AcDbLine
 10
479.303264180937
 20
188.9372398268107
 30
0.0
 11
481.8032641809375
 21
188.9372398268107
 31
0.0
  0
LINE
  5
17F36
330
18
100
AcDbEntity
  8
0
100
AcDbLine
 10
481.8032641809375
 20
178.4739305133591
 30
0.0
 11
479.303264180937
 21
178.4739305133591
 31
0.0
  0
LINE
  5
17F37
330
18
100
AcDbEntity
  8
0
100
AcDbLine
 10
479.303264180937
 20
187.4182024233584
 30
0.0
 11
481.8032641809375
 21
187.4182024233584
 31
0.0
  0
LINE
  5
17F3A
330
18
100
AcDbEntity
  8
0
100
AcDbLine
 10
492.8032641809375
 20
178.4739305133591
 30
0.0
 11
492.8032641809375
 21
176.9548931099064
 31
0.0
  0
LINE
  5
17F3B
330
18
100
AcDbEntity
  8
0
100
AcDbLine
 10
497.3032641809375
 20
188.1746378969307
 30
0.0
 11
497.3032641809375
 21
177.7174950397863
 31
0.0
  0
ARC
  5
17F3C
330
18
100
AcDbEntity
  8
0
100
AcDbCircle
 10
484.8294676633681
 20
172.7471512817684
 30
0.0
 40
9.015903847971632
100
AcDbArc
 50
5.539633318507071
 51
27.82043885584092
  0
LINE
  5
17F3D
330
18
100
AcDbEntity
  8
0
100
AcDbLine
 10
492.803264180937
 20
172.4460664683585
 30
0.0
 11
497.3032641809375
 21
177.7174950397863
 31
0.0
  0
ARC
  5
17F3E
330
18
100
AcDbEntity
  8
0
100
AcDbCircle
 10
483.3032641809372
 20
182.9460664683585
 30
0.0
 40
10.50000000000042
100
AcDbArc
 50
334.7912347032395
 51
25.20876529676042
  0
LINE
  5
17F3F
330
18
100
AcDbEntity
  8
0
100
AcDbLine
 10
492.8032641809375
 20
188.9372398268107
 30
0.0
 11
492.8032641809375
 21
187.4182024233584
 31
0.0
  0
LINE
  5
17F40
330
18
100
AcDbEntity
  8
0
100
AcDbLine
 10
486.8032641809373
 20
193.4460664683585
 30
0.0
 11
492.8032641809375
 21
193.4460664683585
 31
0.0
  0
LINE
  5
17F41
330
18
100
AcDbEntity
  8
0
100
AcDbLine
 10
479.303264180937
 20
193.4460664683585
 30
0.0
 11
481.8032641809375
 21
193.4460664683585
 31
0.0
  0
LINE
  5
17F42
330
18
100
AcDbEntity
  8
0
100
AcDbLine
 10
483.8032641809375
 20
192.4460664683585
 30
0.0
 11
486.8032641809373
 21
192.4460664683585
 31
0.0
  0
LINE
  5
17F61
330
18
100
AcDbEntity
  8
0
100
AcDbLine
 10
479.303264180937
 20
193.4460664683585
 30
0.0
 11
479.303264180937
 21
172.4460664683585
 31
0.0
  0
ARC
  5
17FA7
330
18
100
AcDbEntity
  8
0
100
AcDbCircle
 10
542.908158717424
 20
162.9460664683588
 30
0.0
 40
17.9
100
AcDbArc
 50
0.0
 51
90.00000000000033
  0
ARC
  5
17FA8
330
18
100
AcDbEntity
  8
0
100
AcDbCircle
 10
542.908158717424
 20
162.9460664683588
 30
0.0
 40
22.1
100
AcDbArc
 50
0.0
 51
90.00000000000033
  0
ARC
  5
18171
330
18
100
AcDbEntity
  8
細線
100
AcDbCircle
 10
159.6222478043014
 20
97.38214380435607
 30
0.0
 40
0.5
100
AcDbArc
 50
342.3463876628241
 51
77.65361233717648
  0
ARC
  5
18172
330
18
100
AcDbEntity
  8
細線
100
AcDbCircle
 10
159.6222478043014
 20
98.46214380435608
 30
0.0
 40
0.5
100
AcDbArc
 50
282.3463876628246
 51
17.65361233717612
  0
CIRCLE
  5
18173
330
18
100
AcDbEntity
  8
細線
100
AcDbCircle
 10
160.5575552403886
 20
97.92214380435609
 30
0.0
 40
0.8299999999999998
  0
CIRCLE
  5
18174
330
18
100
AcDbEntity
  8
細線
100
AcDbCircle
 10
160.5575552403886
 20
97.92214380435609
 30
0.0
 40
3.5
  0
ARC
  5
18175
330
18
100
AcDbEntity
  8
細線
100
AcDbCircle
 10
161.4928626764758
 20
98.46214380435608
 30
0.0
 40
0.5
100
AcDbArc
 50
162.3463876628241
 51
257.6536123371764
  0
ARC
  5
18176
330
18
100
AcDbEntity
  8
細線
100
AcDbCircle
 10
161.4928626764758
 20
97.38214380435607
 30
0.0
 40
0.5
100
AcDbArc
 50
102.3463876628247
 51
197.6536123371761
  0
ARC
  5
18177
330
18
100
AcDbEntity
  8
細線
100
AcDbCircle
 10
160.5575552403886
 20
96.84214380435609
 30
0.0
 40
0.5
100
AcDbArc
 50
42.3463876628246
 51
137.6536123371757
  0
ARC
  5
18178
330
18
100
AcDbEntity
  8
細線
100
AcDbCircle
 10
160.5575552403886
 20
99.00214380435608
 30
0.0
 40
0.5
100
AcDbArc
 50
222.3463876628245
 51
317.6536123371756
  0
ARC
  5
181D2
330
18
100
AcDbEntity
  8
細線
100
AcDbCircle
 10
219.8979563175634
 20
123.5817427271808
 30
0.0
 40
0.5
100
AcDbArc
 50
267.3463876628246
 51
2.653612337175799
  0
ARC
  5
181D3
330
18
100
AcDbEntity
  8
細線
100
AcDbCircle
 10
220.9411562099556
 20
123.8612672958913
 30
0.0
 40
0.5
100
AcDbArc
 50
207.346387662824
 51
302.6536123371763
  0
CIRCLE
  5
181D4
330
18
100
AcDbEntity
  8
細線
100
AcDbCircle
 10
220.6616316412448
 20
122.8180674034992
 30
0.0
 40
0.8299999999999998
  0
ARC
  5
181D5
330
18
100
AcDbEntity
  8
細線
100
AcDbCircle
 10
219.6184317488524
 20
122.5385428347885
 30
0.0
 40
0.5
100
AcDbArc
 50
327.3463876628246
 51
62.65361233717611
  0
CIRCLE
  5
181D6
330
18
100
AcDbEntity
  8
細線
100
AcDbCircle
 10
220.6616316412448
 20
122.8180674034992
 30
0.0
 40
3.5
  0
ARC
  5
181D7
330
18
100
AcDbEntity
  8
細線
100
AcDbCircle
 10
221.4253069649263
 20
122.0543920798176
 30
0.0
 40
0.5
100
AcDbArc
 50
87.34638766282463
 51
182.6536123371758
  0
ARC
  5
181D8
330
18
100
AcDbEntity
  8
細線
100
AcDbCircle
 10
221.704831533637
 20
123.09759197221
 30
0.0
 40
0.5
100
AcDbArc
 50
147.3463876628247
 51
242.6536123371759
  0
ARC
  5
181D9
330
18
100
AcDbEntity
  8
細線
100
AcDbCircle
 10
220.3821070725342
 20
121.7748675111071
 30
0.0
 40
0.5
100
AcDbArc
 50
27.34638766282417
 51
122.6536123371765
  0
ARC
  5
181DA
330
18
100
AcDbEntity
  8
細線
100
AcDbCircle
 10
244.4775552403881
 20
182.9221438043553
 30
0.0
 40
0.5
100
AcDbArc
 50
312.3463876628246
 51
47.65361233717579
  0
ARC
  5
181DB
330
18
100
AcDbEntity
  8
細線
100
AcDbCircle
 10
245.0175552403881
 20
183.8574512404425
 30
0.0
 40
0.5
100
AcDbArc
 50
252.3463876628241
 51
347.6536123371761
  0
CIRCLE
  5
181DC
330
18
100
AcDbEntity
  8
細線
100
AcDbCircle
 10
245.557555240388
 20
182.9221438043553
 30
0.0
 40
0.8299999999999998
  0
ARC
  5
181DD
330
18
100
AcDbEntity
  8
細線
100
AcDbCircle
 10
245.0175552403881
 20
181.9868363682683
 30
0.0
 40
0.5
100
AcDbArc
 50
12.3463876628247
 51
107.653612337176
  0
CIRCLE
  5
181DE
330
18
100
AcDbEntity
  8
細線
100
AcDbCircle
 10
245.557555240388
 20
182.9221438043553
 30
0.0
 40
3.5
  0
ARC
  5
181DF
330
18
100
AcDbEntity
  8
細線
100
AcDbCircle
 10
246.6375552403881
 20
182.9221438043553
 30
0.0
 40
0.5
100
AcDbArc
 50
132.3463876628244
 51
227.6536123371756
  0
ARC
  5
181E0
330
18
100
AcDbEntity
  8
細線
100
AcDbCircle
 10
246.0975552403881
 20
183.8574512404425
 30
0.0
 40
0.5
100
AcDbArc
 50
192.3463876628245
 51
287.6536123371761
  0
ARC
  5
181E1
330
18
100
AcDbEntity
  8
細線
100
AcDbCircle
 10
246.0975552403881
 20
181.9868363682683
 30
0.0
 40
0.5
100
AcDbArc
 50
72.3463876628242
 51
167.6536123371764
  0
ARC
  5
181E2
330
18
100
AcDbEntity
  8
細線
100
AcDbCircle
 10
219.8979563175635
 20
242.2625448815302
 30
0.0
 40
0.5
100
AcDbArc
 50
357.3463876628244
 51
92.65361233717579
  0
ARC
  5
181E3
330
18
100
AcDbEntity
  8
細線
100
AcDbCircle
 10
219.6184317488528
 20
243.3057447739225
 30
0.0
 40
0.5
100
AcDbArc
 50
297.3463876628241
 51
32.65361233717641
  0
CIRCLE
  5
181E4
330
18
100
AcDbEntity
  8
細線
100
AcDbCircle
 10
220.6616316412449
 20
243.0262202052116
 30
0.0
 40
0.8299999999999998
  0
ARC
  5
181E5
330
18
100
AcDbEntity
  8
細線
100
AcDbCircle
 10
220.9411562099558
 20
241.9830203128195
 30
0.0
 40
0.5
100
AcDbArc
 50
57.3463876628247
 51
152.6536123371759
  0
CIRCLE
  5
181E6
330
18
100
AcDbEntity
  8
細線
100
AcDbCircle
 10
220.6616316412449
 20
243.0262202052116
 30
0.0
 40
3.5
  0
ARC
  5
181E7
330
18
100
AcDbEntity
  8
細線
100
AcDbCircle
 10
221.4253069649264
 20
243.7898955288932
 30
0.0
 40
0.5
100
AcDbArc
 50
177.3463876628245
 51
272.6536123371756
  0
ARC
  5
181E8
330
18
100
AcDbEntity
  8
細線
100
AcDbCircle
 10
220.3821070725342
 20
244.0694200976039
 30
0.0
 40
0.5
100
AcDbArc
 50
237.3463876628246
 51
332.6536123371761
  0
ARC
  5
181E9
330
18
100
AcDbEntity
  8
細線
100
AcDbCircle
 10
221.704831533637
 20
242.746695636501
 30
0.0
 40
0.5
100
AcDbArc
 50
117.3463876628241
 51
212.6536123371764
  0
ARC
  5
181EA
102
{ACAD_REACTORS
330
18963
102
}
330
18
100
AcDbEntity
  8
細線
100
AcDbCircle
 10
160.5575552403888
 20
266.8421438043551
 30
0.0
 40
0.5
100
AcDbArc
 50
42.3463876628246
 51
137.6536123371757
  0
ARC
  5
181EB
102
{ACAD_REACTORS
330
18963
102
}
330
18
100
AcDbEntity
  8
細線
100
AcDbCircle
 10
159.6222478043014
 20
267.382143804355
 30
0.0
 40
0.5
100
AcDbArc
 50
342.3463876628241
 51
77.6536123371765
  0
CIRCLE
  5
181EC
102
{ACAD_REACTORS
330
18963
102
}
330
18
100
AcDbEntity
  8
細線
100
AcDbCircle
 10
160.5575552403888
 20
267.922143804355
 30
0.0
 40
0.8299999999999998
  0
ARC
  5
181ED
102
{ACAD_REACTORS
330
18963
102
}
330
18
100
AcDbEntity
  8
細線
100
AcDbCircle
 10
161.492862676476
 20
267.382143804355
 30
0.0
 40
0.5
100
AcDbArc
 50
102.3463876628247
 51
197.6536123371761
  0
CIRCLE
  5
181EE
102
{ACAD_REACTORS
330
18963
102
}
330
18
100
AcDbEntity
  8
細線
100
AcDbCircle
 10
160.5575552403888
 20
267.922143804355
 30
0.0
 40
3.5
  0
ARC
  5
181EF
102
{ACAD_REACTORS
330
18963
102
}
330
18
100
AcDbEntity
  8
細線
100
AcDbCircle
 10
160.5575552403888
 20
269.002143804355
 30
0.0
 40
0.5
100
AcDbArc
 50
222.3463876628245
 51
317.6536123371756
  0
ARC
  5
181F0
102
{ACAD_REACTORS
330
18963
102
}
330
18
100
AcDbEntity
  8
細線
100
AcDbCircle
 10
159.6222478043014
 20
268.4621438043551
 30
0.0
 40
0.5
100
AcDbArc
 50
282.3463876628246
 51
17.65361233717614
  0
ARC
  5
181F1
102
{ACAD_REACTORS
330
18963
102
}
330
18
100
AcDbEntity
  8
細線
100
AcDbCircle
 10
161.492862676476
 20
268.4621438043551
 30
0.0
 40
0.5
100
AcDbArc
 50
162.3463876628241
 51
257.6536123371764
  0
ARC
  5
181F2
330
18
100
AcDbEntity
  8
細線
100
AcDbCircle
 10
101.2171541632139
 20
242.2625448815304
 30
0.0
 40
0.5
100
AcDbArc
 50
87.34638766282456
 51
182.6536123371754
  0
ARC
  5
181F3
330
18
100
AcDbEntity
  8
細線
100
AcDbCircle
 10
100.1739542708218
 20
241.9830203128196
 30
0.0
 40
0.5
100
AcDbArc
 50
27.34638766282415
 51
122.6536123371763
  0
CIRCLE
  5
181F4
330
18
100
AcDbEntity
  8
細線
100
AcDbCircle
 10
100.4534788395325
 20
243.0262202052118
 30
0.0
 40
0.8299999999999998
  0
ARC
  5
181F5
330
18
100
AcDbEntity
  8
細線
100
AcDbCircle
 10
101.4966787319248
 20
243.3057447739225
 30
0.0
 40
0.5
100
AcDbArc
 50
147.3463876628247
 51
242.6536123371759
  0
CIRCLE
  5
181F6
330
18
100
AcDbEntity
  8
細線
100
AcDbCircle
 10
100.4534788395325
 20
243.0262202052118
 30
0.0
 40
3.5
  0
ARC
  5
181F7
330
18
100
AcDbEntity
  8
細線
100
AcDbCircle
 10
99.68980351585111
 20
243.7898955288932
 30
0.0
 40
0.5
100
AcDbArc
 50
267.3463876628246
 51
2.653612337175812
  0
ARC
  5
181F8
330
18
100
AcDbEntity
  8
細線
100
AcDbCircle
 10
99.41027894714045
 20
242.746695636501
 30
0.0
 40
0.5
100
AcDbArc
 50
327.3463876628246
 51
62.65361233717611
  0
ARC
  5
181F9
330
18
100
AcDbEntity
  8
細線
100
AcDbCircle
 10
100.7330034082432
 20
244.0694200976039
 30
0.0
 40
0.5
100
AcDbArc
 50
207.346387662824
 51
302.6536123371763
  0
ARC
  5
181FA
330
18
100
AcDbEntity
  8
細線
100
AcDbCircle
 10
76.63755524038916
 20
182.9221438043558
 30
0.0
 40
0.5
100
AcDbArc
 50
132.3463876628244
 51
227.6536123371756
  0
ARC
  5
181FB
330
18
100
AcDbEntity
  8
細線
100
AcDbCircle
 10
76.09755524038916
 20
181.9868363682686
 30
0.0
 40
0.5
100
AcDbArc
 50
72.34638766282412
 51
167.6536123371764
  0
CIRCLE
  5
181FC
330
18
100
AcDbEntity
  8
細線
100
AcDbCircle
 10
75.55755524038919
 20
182.9221438043558
 30
0.0
 40
0.8299999999999998
  0
ARC
  5
181FD
330
18
100
AcDbEntity
  8
細線
100
AcDbCircle
 10
76.09755524038916
 20
183.8574512404429
 30
0.0
 40
0.5
100
AcDbArc
 50
192.3463876628245
 51
287.653612337176
  0
CIRCLE
  5
181FE
330
18
100
AcDbEntity
  8
細線
100
AcDbCircle
 10
75.55755524038919
 20
182.9221438043558
 30
0.0
 40
3.5
  0
ARC
  5
181FF
330
18
100
AcDbEntity
  8
細線
100
AcDbCircle
 10
74.47755524038915
 20
182.9221438043558
 30
0.0
 40
0.5
100
AcDbArc
 50
312.3463876628245
 51
47.65361233717578
  0
ARC
  5
18200
330
18
100
AcDbEntity
  8
細線
100
AcDbCircle
 10
75.01755524038917
 20
181.9868363682686
 30
0.0
 40
0.5
100
AcDbArc
 50
12.34638766282464
 51
107.653612337176
  0
ARC
  5
18201
330
18
100
AcDbEntity
  8
細線
100
AcDbCircle
 10
75.01755524038917
 20
183.8574512404429
 30
0.0
 40
0.5
100
AcDbArc
 50
252.3463876628241
 51
347.6536123371761
  0
ARC
  5
18202
330
18
100
AcDbEntity
  8
細線
100
AcDbCircle
 10
101.2171541632138
 20
123.5817427271808
 30
0.0
 40
0.5
100
AcDbArc
 50
177.3463876628245
 51
272.6536123371756
  0
ARC
  5
18203
330
18
100
AcDbEntity
  8
細線
100
AcDbCircle
 10
101.4966787319244
 20
122.5385428347887
 30
0.0
 40
0.5
100
AcDbArc
 50
117.3463876628241
 51
212.6536123371764
  0
CIRCLE
  5
18204
330
18
100
AcDbEntity
  8
細線
100
AcDbCircle
 10
100.4534788395323
 20
122.8180674034995
 30
0.0
 40
0.8299999999999998
  0
ARC
  5
18205
330
18
100
AcDbEntity
  8
細線
100
AcDbCircle
 10
100.1739542708216
 20
123.8612672958917
 30
0.0
 40
0.5
100
AcDbArc
 50
237.3463876628246
 51
332.653612337176
  0
CIRCLE
  5
18206
330
18
100
AcDbEntity
  8
細線
100
AcDbCircle
 10
100.4534788395323
 20
122.8180674034995
 30
0.0
 40
3.5
  0
ARC
  5
18207
330
18
100
AcDbEntity
  8
細線
100
AcDbCircle
 10
99.68980351585088
 20
122.054392079818
 30
0.0
 40
0.5
100
AcDbArc
 50
357.3463876628244
 51
92.65361233717577
  0
ARC
  5
18208
330
18
100
AcDbEntity
  8
細線
100
AcDbCircle
 10
100.733003408243
 20
121.7748675111071
 30
0.0
 40
0.5
100
AcDbArc
 50
57.34638766282464
 51
152.6536123371759
  0
ARC
  5
18209
330
18
100
AcDbEntity
  8
細線
100
AcDbCircle
 10
99.41027894714016
 20
123.0975919722101
 30
0.0
 40
0.5
100
AcDbArc
 50
297.3463876628238
 51
32.65361233717641
  0
CIRCLE
  5
1821E
330
18
100
AcDbEntity
  8
0
100
AcDbCircle
 10
160.5575552403886
 20
182.9221438043557
 30
0.0
 40
88.9
  0
LINE
  5
18279
330
18
100
AcDbEntity
  8
中心線
100
AcDbLine
 10
702.9243355993179
 20
182.9460664683588
 30
0.0
 11
702.9243355993165
 21
277.9460664683583
 31
0.0
  0
LINE
  5
1828F
330
18
100
AcDbEntity
  8
0
100
AcDbLine
 10
497.3032641809375
 20
185.0460664683568
 30
0.0
 11
542.9081587174237
 21
185.0460664683584
 31
0.0
  0
LINE
  5
18290
330
18
100
AcDbEntity
  8
中心線
100
AcDbLine
 10
504.5199928435624
 20
182.9460664683585
 30
0.0
 11
468.1246578268948
 21
182.9460664683582
 31
0.0
  0
LINE
  5
18291
330
18
100
AcDbEntity
  8
0
100
AcDbLine
 10
497.3032641809375
 20
180.8460664683581
 30
0.0
 11
542.9081587174237
 21
180.8460664683584
 31
0.0
  0
LINE
  5
182CB
330
18
100
AcDbEntity
  8
２点鎖線
 48
0.5
100
AcDbLine
 10
329.8032641809363
 20
172.9460664682783
 30
0.0
 11
329.8032641809363
 21
192.9460664682783
 31
0.0
  0
LINE
  5
182CC
330
18
100
AcDbEntity
  8
CENTER
100
AcDbLine
 10
349.8032641809366
 20
207.0645198046331
 30
0.0
 11
349.8032641809366
 21
158.9821033811382
 31
0.0
  0
LINE
  5
182CD
330
18
100
AcDbEntity
  8
CENTER
 48
0.5
100
AcDbLine
 10
372.9732605394628
 20
198.9257758349994
 30
0.0
 11
372.9732605394628
 21
166.1320041617583
 31
0.0
  0
LINE
  5
182CE
330
18
100
AcDbEntity
  8
２点鎖線
 48
0.5
100
AcDbLine
 10
379.9732605394635
 20
199.9460664682787
 30
0.0
 11
379.9732605394635
 21
165.9460664682784
 31
0.0
  0
CIRCLE
  5
182CF
330
18
100
AcDbEntity
  8
２点鎖線
 48
0.5
100
AcDbCircle
 10
349.8032641809369
 20
182.9460664683583
 30
0.0
 40
10.0
  0
LINE
  5
182D0
330
18
100
AcDbEntity
  8
２点鎖線
 48
0.5
100
AcDbLine
 10
376.9732605394635
 20
162.9460664682785
 30
0.0
 11
339.8032641809363
 21
162.9460664682785
 31
0.0
  0
LINE
  5
182D1
330
18
100
AcDbEntity
  8
２点鎖線
 48
0.5
100
AcDbLine
 10
329.8032641809363
 20
172.9460664682783
 30
0.0
 11
339.8032641809363
 21
162.9460664682785
 31
0.0
  0
LINE
  5
182D2
330
18
100
AcDbEntity
  8
中心線
 48
0.5
100
AcDbLine
 10
366.8927753383631
 20
172.9699891323616
 30
0.0
 11
378.9208885374236
 21
172.9699891323616
 31
0.0
  0
CIRCLE
  5
182D3
330
18
100
AcDbEntity
  8
２点鎖線
 48
0.5
100
AcDbCircle
 10
372.9732605394631
 20
172.9699891323616
 30
0.0
 40
4.25
  0
LINE
  5
182D4
330
18
100
AcDbEntity
  8
２点鎖線
 48
0.5
100
AcDbLine
 10
379.9732605394635
 20
165.9460664682784
 30
0.0
 11
376.9732605394635
 21
162.9460664682785
 31
0.0
  0
LINE
  5
182D5
330
18
100
AcDbEntity
  8
２点鎖線
 48
0.5
100
AcDbLine
 10
339.8032641809363
 20
202.9460664682785
 30
0.0
 11
376.9732605394635
 21
202.9460664682785
 31
0.0
  0
LINE
  5
182D6
330
18
100
AcDbEntity
  8
２点鎖線
 48
0.5
100
AcDbLine
 10
339.8032641809363
 20
202.9460664682785
 30
0.0
 11
329.8032641809363
 21
192.9460664682783
 31
0.0
  0
LINE
  5
182D7
330
18
100
AcDbEntity
  8
中心線
 48
0.5
100
AcDbLine
 10
366.8927753383631
 20
192.9699891323616
 30
0.0
 11
378.9208885374236
 21
192.9699891323616
 31
0.0
  0
CIRCLE
  5
182D8
330
18
100
AcDbEntity
  8
２点鎖線
 48
0.5
100
AcDbCircle
 10
372.9732605394631
 20
192.9699891323616
 30
0.0
 40
4.25
  0
LINE
  5
182D9
330
18
100
AcDbEntity
  8
２点鎖線
 48
0.5
100
AcDbLine
 10
379.9732605394635
 20
199.9460664682787
 30
0.0
 11
376.9732605394635
 21
202.9460664682785
 31
0.0
  0
LINE
  5
18306
330
18
100
AcDbEntity
  8
仮想線
 48
0.5
100
AcDbLine
 10
254.9575499746413
 20
172.8427541890745
 30
0.0
 11
254.9575499746401
 21
177.8427541890748
 31
0.0
  0
LINE
  5
18307
330
18
100
AcDbEntity
  8
仮想線
  6
BYBLOCK
 48
0.5
100
AcDbLine
 10
249.4575447088914
 20
202.9221438043554
 30
0.0
 11
249.4575657718856
 21
162.9221438043556
 31
0.0
  0
LINE
  5
18308
330
18
100
AcDbEntity
  8
仮想線
 48
0.5
100
AcDbLine
 10
253.9575447088923
 20
202.9221438043558
 30
0.0
 11
253.9575657718859
 21
162.9221438043549
 31
0.0
  0
LINE
  5
18309
330
18
100
AcDbEntity
  8
中心線
 48
0.5
100
AcDbLine
 10
238.9245506563439
 20
172.8427541890749
 30
0.0
 11
264.0154136985159
 21
172.8427541890749
 31
0.0
  0
LINE
  5
1830A
330
18
100
AcDbEntity
  8
仮想線
  6
BYBLOCK
 48
0.5
100
AcDbLine
 10
253.9575657718859
 20
162.9221438043549
 30
0.0
 11
249.4575657718856
 21
162.9221438043556
 31
0.0
  0
LINE
  5
1830B
330
18
100
AcDbEntity
  8
仮想線
 48
0.5
100
AcDbLine
 10
256.2575499746403
 20
177.0133645737945
 30
0.0
 11
260.9575499746408
 21
177.0133645737945
 31
0.0
  0
LINE
  5
1830C
330
18
100
AcDbEntity
  8
仮想線
 48
0.5
100
AcDbLine
 10
256.2575499746403
 20
168.5133645737943
 30
0.0
 11
260.9575499746404
 21
168.5133645737943
 31
0.0
  0
LINE
  5
1830D
330
18
100
AcDbEntity
  8
仮想線
 48
0.5
100
AcDbLine
 10
254.9575499746409
 20
177.4427541890748
 30
0.0
 11
256.2575499746403
 21
177.4427541890748
 31
0.0
  0
LINE
  5
1830E
330
18
100
AcDbEntity
  8
仮想線
 48
0.5
100
AcDbLine
 10
253.9575499746403
 20
167.8427541890751
 30
0.0
 11
254.9575499746401
 21
167.8427541890749
 31
0.0
  0
LINE
  5
1830F
330
18
100
AcDbEntity
  8
仮想線
 48
0.5
100
AcDbLine
 10
254.9575499746409
 20
168.2427541890749
 30
0.0
 11
256.2575499746403
 21
168.2427541890749
 31
0.0
  0
LINE
  5
18310
330
18
100
AcDbEntity
  8
仮想線
 48
0.5
100
AcDbLine
 10
254.9575499746401
 20
167.8427541890749
 30
0.0
 11
254.9575499746413
 21
172.8427541890745
 31
0.0
  0
LINE
  5
18311
330
18
100
AcDbEntity
  8
仮想線
 48
0.5
100
AcDbLine
 10
256.2575499746403
 20
168.2427541890749
 30
0.0
 11
256.2575499746403
 21
177.4427541890748
 31
0.0
  0
LINE
  5
18312
330
18
100
AcDbEntity
  8
仮想線
 48
0.5
100
AcDbLine
 10
260.9575499746408
 20
177.0133645737945
 30
0.0
 11
261.2575499746406
 21
176.7133645737943
 31
0.0
  0
LINE
  5
18313
330
18
100
AcDbEntity
  8
仮想線
 48
0.5
100
AcDbLine
 10
261.2575499746406
 20
168.8133645737947
 30
0.0
 11
260.9575499746404
 21
168.5133645737943
 31
0.0
  0
LINE
  5
18314
330
18
100
AcDbEntity
  8
仮想線
 48
0.5
100
AcDbLine
 10
261.2575499746406
 20
168.8133645737947
 30
0.0
 11
261.2575499746406
 21
176.7133645737943
 31
0.0
  0
LINE
  5
18315
330
18
100
AcDbEntity
  8
中心線
 48
0.5
100
AcDbLine
 10
238.9245506563439
 20
192.8427541890745
 30
0.0
 11
264.0154136985159
 21
192.8427541890745
 31
0.0
  0
LINE
  5
1831E
330
18
100
AcDbEntity
  8
仮想線
 48
0.5
100
AcDbLine
 10
256.2575499746403
 20
197.4427541890746
 30
0.0
 11
256.2575499746403
 21
188.2427541890748
 31
0.0
  0
LINE
  5
1831F
330
18
100
AcDbEntity
  8
仮想線
 48
0.5
100
AcDbLine
 10
254.9575499746413
 20
192.8427541890745
 30
0.0
 11
254.9575499746401
 21
187.8427541890745
 31
0.0
  0
LINE
  5
18320
330
18
100
AcDbEntity
  8
仮想線
 48
0.5
100
AcDbLine
 10
261.2575499746406
 20
196.872143804355
 30
0.0
 11
261.2575499746406
 21
188.9721438043553
 31
0.0
  0
LINE
  5
18321
330
18
100
AcDbEntity
  8
仮想線
 48
0.5
100
AcDbLine
 10
256.2575499746403
 20
188.6721438043552
 30
0.0
 11
260.9575499746408
 21
188.6721438043552
 31
0.0
  0
LINE
  5
18322
330
18
100
AcDbEntity
  8
仮想線
 48
0.5
100
AcDbLine
 10
253.9575499746403
 20
177.8427541890748
 30
0.0
 11
254.9575499746401
 21
177.8427541890748
 31
0.0
  0
LINE
  5
18323
330
18
100
AcDbEntity
  8
仮想線
 48
0.5
100
AcDbLine
 10
253.9575499746403
 20
187.8427541890745
 30
0.0
 11
254.9575499746401
 21
187.8427541890745
 31
0.0
  0
LINE
  5
18324
330
18
100
AcDbEntity
  8
仮想線
 48
0.5
100
AcDbLine
 10
254.9575499746409
 20
188.2427541890748
 30
0.0
 11
256.2575499746403
 21
188.2427541890748
 31
0.0
  0
LINE
  5
18325
330
18
100
AcDbEntity
  8
仮想線
 48
0.5
100
AcDbLine
 10
260.9575499746408
 20
188.6721438043552
 30
0.0
 11
261.2575499746406
 21
188.9721438043553
 31
0.0
  0
LINE
  5
18326
330
18
100
AcDbEntity
  8
仮想線
 48
0.5
100
AcDbLine
 10
256.2575499746403
 20
197.172143804355
 30
0.0
 11
260.9575499746404
 21
197.172143804355
 31
0.0
  0
LINE
  5
18327
330
18
100
AcDbEntity
  8
仮想線
 48
0.5
100
AcDbLine
 10
253.9575499746403
 20
197.8427541890745
 30
0.0
 11
254.9575499746401
 21
197.8427541890745
 31
0.0
  0
LINE
  5
18328
330
18
100
AcDbEntity
  8
仮想線
 48
0.5
100
AcDbLine
 10
254.9575499746409
 20
197.4427541890746
 30
0.0
 11
256.2575499746403
 21
197.4427541890746
 31
0.0
  0
LINE
  5
18329
330
18
100
AcDbEntity
  8
仮想線
 48
0.5
100
AcDbLine
 10
254.9575499746401
 20
197.8427541890745
 30
0.0
 11
254.9575499746413
 21
192.8427541890745
 31
0.0
  0
LINE
  5
1832A
330
18
100
AcDbEntity
  8
仮想線
 48
0.5
100
AcDbLine
 10
261.2575499746406
 20
196.872143804355
 30
0.0
 11
260.9575499746404
 21
197.172143804355
 31
0.0
  0
LINE
  5
1832B
330
18
100
AcDbEntity
  8
仮想線
 48
0.5
100
AcDbLine
 10
249.4575447088914
 20
202.9221438043554
 30
0.0
 11
253.9575447088923
 21
202.9221438043558
 31
0.0
  0
LINE
  5
1832C
330
18
100
AcDbEntity
  8
仮想線
  6
BYBLOCK
 48
0.5
100
AcDbLine
 10
71.65756577188577
 20
202.9221438043554
 30
0.0
 11
71.65754470889152
 21
162.9221438043556
 31
0.0
  0
LINE
  5
1832D
330
18
100
AcDbEntity
  8
仮想線
 48
0.5
100
AcDbLine
 10
67.15756577188496
 20
202.9221438043558
 30
0.0
 11
67.15754470889105
 21
162.9221438043549
 31
0.0
  0
LINE
  5
1832E
330
18
100
AcDbEntity
  8
仮想線
 48
0.5
100
AcDbLine
 10
64.85756050613665
 20
177.0133645737945
 30
0.0
 11
60.15756050613638
 21
177.0133645737945
 31
0.0
  0
LINE
  5
1832F
330
18
100
AcDbEntity
  8
仮想線
 48
0.5
100
AcDbLine
 10
64.85756050613665
 20
168.5133645737943
 30
0.0
 11
60.15756050613681
 21
168.5133645737943
 31
0.0
  0
LINE
  5
18330
330
18
100
AcDbEntity
  8
中心線
 48
0.5
100
AcDbLine
 10
82.19055982443341
 20
172.8427541890749
 30
0.0
 11
57.09969678226136
 21
172.842754189075
 31
0.0
  0
LINE
  5
18331
330
18
100
AcDbEntity
  8
仮想線
 48
0.5
100
AcDbLine
 10
66.15756050613683
 20
167.8427541890749
 30
0.0
 11
66.15756050613592
 21
172.8427541890745
 31
0.0
  0
LINE
  5
18332
330
18
100
AcDbEntity
  8
仮想線
 48
0.5
100
AcDbLine
 10
64.85756050613665
 20
168.2427541890749
 30
0.0
 11
64.85756050613665
 21
177.4427541890748
 31
0.0
  0
LINE
  5
18333
330
18
100
AcDbEntity
  8
仮想線
 48
0.5
100
AcDbLine
 10
67.15756050613683
 20
167.8427541890751
 30
0.0
 11
66.15756050613683
 21
167.8427541890749
 31
0.0
  0
LINE
  5
18334
330
18
100
AcDbEntity
  8
仮想線
 48
0.5
100
AcDbLine
 10
66.15756050613637
 20
168.2427541890749
 30
0.0
 11
64.85756050613665
 21
168.2427541890749
 31
0.0
  0
LINE
  5
18335
330
18
100
AcDbEntity
  8
仮想線
  6
BYBLOCK
 48
0.5
100
AcDbLine
 10
67.15754470889105
 20
162.9221438043549
 30
0.0
 11
71.65754470889152
 21
162.9221438043556
 31
0.0
  0
LINE
  5
18336
330
18
100
AcDbEntity
  8
仮想線
 48
0.5
100
AcDbLine
 10
66.15756050613582
 20
172.8427541890745
 30
0.0
 11
66.15756050613683
 21
177.8427541890748
 31
0.0
  0
LINE
  5
18337
330
18
100
AcDbEntity
  8
仮想線
 48
0.5
100
AcDbLine
 10
66.15756050613637
 20
177.4427541890748
 30
0.0
 11
64.85756050613665
 21
177.4427541890748
 31
0.0
  0
LINE
  5
18338
330
18
100
AcDbEntity
  8
仮想線
 48
0.5
100
AcDbLine
 10
67.15756050613683
 20
177.8427541890748
 30
0.0
 11
66.15756050613683
 21
177.8427541890748
 31
0.0
  0
LINE
  5
18339
330
18
100
AcDbEntity
  8
仮想線
 48
0.5
100
AcDbLine
 10
59.85756050613663
 20
168.8133645737947
 30
0.0
 11
59.85756050613663
 21
176.7133645737944
 31
0.0
  0
LINE
  5
1833A
330
18
100
AcDbEntity
  8
仮想線
 48
0.5
100
AcDbLine
 10
59.85756050613663
 20
168.8133645737947
 30
0.0
 11
60.15756050613681
 21
168.5133645737943
 31
0.0
  0
LINE
  5
1833B
330
18
100
AcDbEntity
  8
仮想線
 48
0.5
100
AcDbLine
 10
60.15756050613638
 20
177.0133645737945
 30
0.0
 11
59.85756050613663
 21
176.7133645737944
 31
0.0
  0
LINE
  5
1833C
330
18
100
AcDbEntity
  8
仮想線
 48
0.5
100
AcDbLine
 10
64.85756050613668
 20
197.172143804355
 30
0.0
 11
60.15756050613685
 21
197.1721438043552
 31
0.0
  0
LINE
  5
1833D
330
18
100
AcDbEntity
  8
仮想線
 48
0.5
100
AcDbLine
 10
64.85756050613668
 20
188.6721438043552
 30
0.0
 11
60.1575605061364
 21
188.6721438043552
 31
0.0
  0
LINE
  5
1833E
330
18
100
AcDbEntity
  8
中心線
 48
0.5
100
AcDbLine
 10
82.19055982443341
 20
192.8427541890745
 30
0.0
 11
57.09969678226139
 21
192.8427541890748
 31
0.0
  0
LINE
  5
1833F
330
18
100
AcDbEntity
  8
仮想線
 48
0.5
100
AcDbLine
 10
66.15756050613686
 20
197.8427541890745
 30
0.0
 11
66.15756050613582
 21
192.8427541890745
 31
0.0
  0
LINE
  5
18340
330
18
100
AcDbEntity
  8
仮想線
 48
0.5
100
AcDbLine
 10
64.85756050613668
 20
197.4427541890746
 30
0.0
 11
64.85756050613668
 21
188.2427541890748
 31
0.0
  0
LINE
  5
18341
330
18
100
AcDbEntity
  8
仮想線
 48
0.5
100
AcDbLine
 10
67.15756050613686
 20
187.8427541890745
 30
0.0
 11
66.15756050613686
 21
187.8427541890745
 31
0.0
  0
LINE
  5
18342
330
18
100
AcDbEntity
  8
仮想線
 48
0.5
100
AcDbLine
 10
66.15756050613639
 20
188.2427541890748
 30
0.0
 11
64.85756050613668
 21
188.2427541890748
 31
0.0
  0
LINE
  5
18343
330
18
100
AcDbEntity
  8
仮想線
 48
0.5
100
AcDbLine
 10
66.15756050613582
 20
192.8427541890745
 30
0.0
 11
66.15756050613686
 21
187.8427541890745
 31
0.0
  0
LINE
  5
18344
330
18
100
AcDbEntity
  8
仮想線
 48
0.5
100
AcDbLine
 10
71.65756577188566
 20
202.9221438043554
 30
0.0
 11
67.15756577188496
 21
202.9221438043558
 31
0.0
  0
LINE
  5
18345
330
18
100
AcDbEntity
  8
仮想線
 48
0.5
100
AcDbLine
 10
67.15756050613686
 20
197.8427541890745
 30
0.0
 11
66.15756050613686
 21
197.8427541890745
 31
0.0
  0
LINE
  5
18346
330
18
100
AcDbEntity
  8
仮想線
 48
0.5
100
AcDbLine
 10
66.15756050613639
 20
197.4427541890746
 30
0.0
 11
64.85756050613668
 21
197.4427541890746
 31
0.0
  0
LINE
  5
18347
330
18
100
AcDbEntity
  8
仮想線
 48
0.5
100
AcDbLine
 10
59.85756050613669
 20
196.872143804355
 30
0.0
 11
59.85756050613669
 21
188.9721438043554
 31
0.0
  0
LINE
  5
18348
330
18
100
AcDbEntity
  8
仮想線
 48
0.5
100
AcDbLine
 10
60.1575605061364
 20
188.6721438043552
 30
0.0
 11
59.85756050613669
 21
188.9721438043554
 31
0.0
  0
LINE
  5
18349
330
18
100
AcDbEntity
  8
仮想線
 48
0.5
100
AcDbLine
 10
59.85756050613669
 20
196.872143804355
 30
0.0
 11
60.15756050613685
 21
197.1721438043552
 31
0.0
  0
CIRCLE
  5
1834E
330
18
100
AcDbEntity
  8
細線
100
AcDbCircle
 10
171.6858412131084
 20
224.4534724557027
 30
0.0
 40
1.6
  0
CIRCLE
  5
1834F
330
18
100
AcDbEntity
  8
細線
100
AcDbCircle
 10
171.6858412131084
 20
224.4534724557027
 30
0.0
 40
2.0
  0
CIRCLE
  5
18350
330
18
100
AcDbEntity
  8
細線
100
AcDbCircle
 10
149.4292692676683
 20
224.4534724557025
 30
0.0
 40
2.0
  0
CIRCLE
  5
18351
330
18
100
AcDbEntity
  8
細線
100
AcDbCircle
 10
149.4292692676683
 20
224.4534724557025
 30
0.0
 40
1.6
  0
CIRCLE
  5
18353
330
18
100
AcDbEntity
  8
細線
100
AcDbCircle
 10
130.1545125617614
 20
213.3251864829824
 30
0.0
 40
2.0
  0
CIRCLE
  5
18354
330
18
100
AcDbEntity
  8
細線
100
AcDbCircle
 10
130.1545125617614
 20
213.3251864829824
 30
0.0
 40
1.6
  0
CIRCLE
  5
18356
330
18
100
AcDbEntity
  8
細線
100
AcDbCircle
 10
119.0262265890416
 20
194.0504297770753
 30
0.0
 40
2.0
  0
CIRCLE
  5
18357
330
18
100
AcDbEntity
  8
細線
100
AcDbCircle
 10
119.0262265890416
 20
194.0504297770753
 30
0.0
 40
1.6
  0
CIRCLE
  5
18359
330
18
100
AcDbEntity
  8
細線
100
AcDbCircle
 10
119.0262265890417
 20
171.7938578316353
 30
0.0
 40
2.0
  0
CIRCLE
  5
1835A
330
18
100
AcDbEntity
  8
細線
100
AcDbCircle
 10
119.0262265890417
 20
171.7938578316353
 30
0.0
 40
1.6
  0
CIRCLE
  5
1835C
330
18
100
AcDbEntity
  8
細線
100
AcDbCircle
 10
130.1545125617618
 20
152.5191011257283
 30
0.0
 40
2.0
  0
CIRCLE
  5
1835D
330
18
100
AcDbEntity
  8
細線
100
AcDbCircle
 10
130.1545125617618
 20
152.5191011257283
 30
0.0
 40
1.6
  0
CIRCLE
  5
18365
330
18
100
AcDbEntity
  8
細線
100
AcDbCircle
 10
190.960597919016
 20
152.5191011257287
 30
0.0
 40
2.0
  0
CIRCLE
  5
18366
330
18
100
AcDbEntity
  8
細線
100
AcDbCircle
 10
190.960597919016
 20
152.5191011257287
 30
0.0
 40
1.6
  0
CIRCLE
  5
18368
330
18
100
AcDbEntity
  8
細線
100
AcDbCircle
 10
202.0888838917358
 20
171.7938578316358
 30
0.0
 40
2.0
  0
CIRCLE
  5
18369
330
18
100
AcDbEntity
  8
細線
100
AcDbCircle
 10
202.0888838917358
 20
171.7938578316358
 30
0.0
 40
1.6
  0
CIRCLE
  5
1836B
330
18
100
AcDbEntity
  8
細線
100
AcDbCircle
 10
202.0888838917357
 20
194.0504297770759
 30
0.0
 40
2.0
  0
CIRCLE
  5
1836C
330
18
100
AcDbEntity
  8
細線
100
AcDbCircle
 10
202.0888838917357
 20
194.0504297770759
 30
0.0
 40
1.6
  0
CIRCLE
  5
1836E
330
18
100
AcDbEntity
  8
細線
100
AcDbCircle
 10
190.9605979190152
 20
213.3251864829829
 30
0.0
 40
2.0
  0
CIRCLE
  5
1836F
330
18
100
AcDbEntity
  8
細線
100
AcDbCircle
 10
190.9605979190152
 20
213.3251864829829
 30
0.0
 40
1.6
  0
LINE
  5
18380
330
18
100
AcDbEntity
  8
0
100
AcDbLine
 10
450.3032641809372
 20
271.8460673267064
 30
0.0
 11
450.303264180937
 21
94.04606561001022
 31
0.0
  0
LINE
  5
18381
330
18
100
AcDbEntity
  8
0
100
AcDbLine
 10
444.0032641809371
 20
271.8460673267064
 30
0.0
 11
444.0032641809367
 21
94.04606561001022
 31
0.0
  0
LINE
  5
18387
330
18
100
AcDbEntity
  8
0
100
AcDbLine
 10
444.0032641809371
 20
270.9460664683583
 30
0.0
 11
450.3032641809372
 21
270.9460664683583
 31
0.0
  0
LINE
  5
18388
330
18
100
AcDbEntity
  8
0
100
AcDbLine
 10
444.0032641809367
 20
94.94606646835832
 30
0.0
 11
450.3032641809371
 21
94.94606646835832
 31
0.0
  0
ARC
  5
186FF
330
18
100
AcDbEntity
  8
中心線
100
AcDbCircle
 10
702.9243355993165
 20
182.946066468356
 30
0.0
 40
32.5
100
AcDbArc
 50
240.9190710138668
 51
293.6743988442863
  0
ARC
  5
18710
330
18
100
AcDbEntity
  8
中心線
100
AcDbCircle
 10
702.9243355993165
 20
182.946066468356
 30
0.0
 40
32.5
100
AcDbArc
 50
336.2200147353092
 51
23.69639549865293
  0
ARC
  5
18711
330
18
100
AcDbEntity
  8
中心線
100
AcDbCircle
 10
702.9243355993165
 20
182.946066468356
 30
0.0
 40
32.5
100
AcDbArc
 50
61.31917984662063
 51
113.7188429293193
  0
LINE
  5
187CB
330
18
100
AcDbEntity
  8
0
100
AcDbLine
 10
548.1760447356816
 20
309.2077573341738
 30
0.0
 11
555.6760447320819
 21
309.2077573341738
 31
0.0
  0
CIRCLE
  5
18971
102
{ACAD_REACTORS
330
1897A
102
}
330
18
100
AcDbEntity
  8
細線
100
AcDbCircle
 10
716.7761514040071
 20
221.0036176101845
 30
0.0
 40
3.5
  0
ARC
  5
18972
102
{ACAD_REACTORS
330
1897A
102
}
330
18
100
AcDbEntity
  8
細線
100
AcDbCircle
 10
717.7114588400943
 20
220.4636176101845
 30
0.0
 40
0.5
100
AcDbArc
 50
102.3463876628267
 51
197.6536123371752
  0
CIRCLE
  5
18973
102
{ACAD_REACTORS
330
1897A
102
}
330
18
100
AcDbEntity
  8
細線
100
AcDbCircle
 10
716.7761514040071
 20
221.0036176101845
 30
0.0
 40
0.8299999999999998
  0
ARC
  5
18974
102
{ACAD_REACTORS
330
1897A
102
}
330
18
100
AcDbEntity
  8
細線
100
AcDbCircle
 10
715.8408439679199
 20
220.4636176101845
 30
0.0
 40
0.5
100
AcDbArc
 50
342.3463876628246
 51
77.65361233717316
  0
ARC
  5
18975
102
{ACAD_REACTORS
330
1897A
102
}
330
18
100
AcDbEntity
  8
細線
100
AcDbCircle
 10
716.7761514040071
 20
219.9236176101845
 30
0.0
 40
0.5
100
AcDbArc
 50
42.3463876628242
 51
137.6536123371757
  0
ARC
  5
18976
102
{ACAD_REACTORS
330
1897A
102
}
330
18
100
AcDbEntity
  8
細線
100
AcDbCircle
 10
717.7114588400943
 20
221.5436176101845
 30
0.0
 40
0.5
100
AcDbArc
 50
162.3463876628247
 51
257.653612337173
  0
ARC
  5
18977
102
{ACAD_REACTORS
330
1897A
102
}
330
18
100
AcDbEntity
  8
細線
100
AcDbCircle
 10
715.8408439679199
 20
221.5436176101845
 30
0.0
 40
0.5
100
AcDbArc
 50
282.3463876628268
 51
17.65361233717832
  0
ARC
  5
18978
102
{ACAD_REACTORS
330
1897A
102
}
330
18
100
AcDbEntity
  8
細線
100
AcDbCircle
 10
716.7761514040071
 20
222.0836176101845
 30
0.0
 40
0.5
100
AcDbArc
 50
222.3463876628239
 51
317.6536123371756
  0
CIRCLE
  5
1897B
102
{ACAD_REACTORS
330
18983
102
}
330
18
100
AcDbEntity
  8
細線
100
AcDbCircle
 10
663.0396216023227
 20
175.9133152728469
 30
0.0
 40
3.5
  0
ARC
  5
1897C
102
{ACAD_REACTORS
330
18983
102
}
330
18
100
AcDbEntity
  8
細線
100
AcDbCircle
 10
663.0396216023227
 20
176.9933152728473
 30
0.0
 40
0.5
100
AcDbArc
 50
222.3463876628239
 51
317.6536123371756
  0
ARC
  5
1897D
102
{ACAD_REACTORS
330
18983
102
}
330
18
100
AcDbEntity
  8
細線
100
AcDbCircle
 10
662.1043141662357
 20
176.4533152728473
 30
0.0
 40
0.5
100
AcDbArc
 50
282.3463876628268
 51
17.65361233717832
  0
ARC
  5
1897E
102
{ACAD_REACTORS
330
18983
102
}
330
18
100
AcDbEntity
  8
細線
100
AcDbCircle
 10
663.97492903841
 20
176.4533152728473
 30
0.0
 40
0.5
100
AcDbArc
 50
162.3463876628247
 51
257.653612337173
  0
ARC
  5
1897F
102
{ACAD_REACTORS
330
18983
102
}
330
18
100
AcDbEntity
  8
細線
100
AcDbCircle
 10
663.0396216023227
 20
174.8333152728473
 30
0.0
 40
0.5
100
AcDbArc
 50
42.3463876628242
 51
137.6536123371757
  0
ARC
  5
18980
102
{ACAD_REACTORS
330
18983
102
}
330
18
100
AcDbEntity
  8
細線
100
AcDbCircle
 10
662.1043141662357
 20
175.3733152728473
 30
0.0
 40
0.5
100
AcDbArc
 50
342.3463876628246
 51
77.65361233717316
  0
CIRCLE
  5
18981
102
{ACAD_REACTORS
330
18983
102
}
330
18
100
AcDbEntity
  8
細線
100
AcDbCircle
 10
663.0396216023227
 20
175.9133152728469
 30
0.0
 40
0.8299999999999998
  0
ARC
  5
18982
102
{ACAD_REACTORS
330
18983
102
}
330
18
100
AcDbEntity
  8
細線
100
AcDbCircle
 10
663.9749290384102
 20
175.3733152728471
 30
0.0
 40
0.5
100
AcDbArc
 50
102.3463876628267
 51
197.6536123371752
  0
CIRCLE
  5
18984
102
{ACAD_REACTORS
330
1898C
102
}
330
18
100
AcDbEntity
  8
細線
100
AcDbCircle
 10
728.9572337916263
 20
151.9212665220394
 30
0.0
 40
3.5
  0
ARC
  5
18985
102
{ACAD_REACTORS
330
1898C
102
}
330
18
100
AcDbEntity
  8
細線
100
AcDbCircle
 10
729.8925412277132
 20
151.3812665220394
 30
0.0
 40
0.5
100
AcDbArc
 50
102.3463876628267
 51
197.6536123371752
  0
CIRCLE
  5
18986
102
{ACAD_REACTORS
330
1898C
102
}
330
18
100
AcDbEntity
  8
細線
100
AcDbCircle
 10
728.9572337916263
 20
151.9212665220394
 30
0.0
 40
0.8299999999999998
  0
ARC
  5
18987
102
{ACAD_REACTORS
330
1898C
102
}
330
18
100
AcDbEntity
  8
細線
100
AcDbCircle
 10
728.0219263555391
 20
151.3812665220394
 30
0.0
 40
0.5
100
AcDbArc
 50
342.3463876628246
 51
77.65361233717316
  0
ARC
  5
18988
102
{ACAD_REACTORS
330
1898C
102
}
330
18
100
AcDbEntity
  8
細線
100
AcDbCircle
 10
728.9572337916263
 20
150.8412665220394
 30
0.0
 40
0.5
100
AcDbArc
 50
42.3463876628242
 51
137.6536123371757
  0
ARC
  5
18989
102
{ACAD_REACTORS
330
1898C
102
}
330
18
100
AcDbEntity
  8
細線
100
AcDbCircle
 10
729.8925412277132
 20
152.4612665220394
 30
0.0
 40
0.5
100
AcDbArc
 50
162.3463876628247
 51
257.653612337173
  0
ARC
  5
1898A
102
{ACAD_REACTORS
330
1898C
102
}
330
18
100
AcDbEntity
  8
細線
100
AcDbCircle
 10
728.0219263555391
 20
152.4612665220394
 30
0.0
 40
0.5
100
AcDbArc
 50
282.3463876628268
 51
17.65361233717832
  0
ARC
  5
1898B
102
{ACAD_REACTORS
330
1898C
102
}
330
18
100
AcDbEntity
  8
細線
100
AcDbCircle
 10
728.9572337916263
 20
153.0012665220394
 30
0.0
 40
0.5
100
AcDbArc
 50
222.3463876628239
 51
317.6536123371756
  0
LINE
  5
189C6
330
18
100
AcDbEntity
  8
0
100
AcDbLine
 10
557.9260447338813
 20
331.1077573341793
 30
0.0
 11
557.9260447338802
 21
332.2077573341787
 31
0.0
  0
LINE
  5
189C7
330
18
100
AcDbEntity
  8
0
100
AcDbLine
 10
545.9260447338804
 20
331.1077573341683
 30
0.0
 11
545.9260447338794
 21
332.2077573341676
 31
0.0
  0
LINE
  5
189C8
330
18
100
AcDbEntity
  8
0
100
AcDbLine
 10
549.5726181157364
 20
309.2134342536808
 30
0.0
 11
552.32604056675
 21
331.1043414962834
 31
0.0
  0
LINE
  5
189C9
330
18
100
AcDbEntity
  8
0
100
AcDbLine
 10
551.9726109720841
 20
309.2075785315826
 30
0.0
 11
554.7260334230976
 21
331.0984857741853
 31
0.0
  0
LINE
  5
189CA
330
18
100
AcDbEntity
  8
0
100
AcDbLine
 10
551.5726121626928
 20
309.2085544852656
 30
0.0
 11
554.3260346137063
 21
331.0994617278684
 31
0.0
  0
LINE
  5
189CB
330
18
100
AcDbEntity
  8
0
100
AcDbLine
 10
549.5485723357344
 20
309.2026987631677
 30
0.0
 11
546.7951498847208
 21
331.0936060057703
 31
0.0
  0
LINE
  5
189CC
330
18
100
AcDbEntity
  8
0
100
AcDbLine
 10
553.9726050190401
 20
309.2026987631677
 30
0.0
 11
556.7260274700537
 21
331.0936060057703
 31
0.0
  0
LINE
  5
189CE
330
18
100
AcDbEntity
  8
0
100
AcDbLine
 10
551.9485651920819
 20
309.2085544852656
 30
0.0
 11
551.7605886773874
 21
310.7030496163893
 31
0.0
  0
LINE
  5
189CF
330
18
100
AcDbEntity
  8
0
100
AcDbLine
 10
557.9260447338813
 20
331.1077573341794
 30
0.0
 11
545.9260447338804
 21
331.1077573341683
 31
0.0
  0
LINE
  5
189D0
330
18
100
AcDbEntity
  8
0
100
AcDbLine
 10
550.5602239849721
 20
317.0653308878978
 30
0.0
 11
548.7951439316772
 21
331.0984857741853
 31
0.0
  0
LINE
  5
189D1
330
18
100
AcDbEntity
  8
0
100
AcDbLine
 10
550.7602847670416
 20
318.6559012057752
 30
0.0
 11
549.1951427410683
 21
331.0994617278684
 31
0.0
  0
LINE
  5
189D2
330
18
100
AcDbEntity
  8
0
100
AcDbLine
 10
551.7605886773874
 20
326.6087527951607
 30
0.0
 11
551.1951367880246
 21
331.1043414962834
 31
0.0
  0
LINE
  5
189D3
330
18
100
AcDbEntity
  8
0
100
AcDbLine
 10
552.9609533698024
 20
317.0653308878978
 30
0.0
 11
552.7608925877331
 21
318.6559012057752
 31
0.0
  0
LINE
  5
189D4
330
18
100
AcDbEntity
  8
0
100
AcDbLine
 10
545.7603365011914
 20
351.0392310070723
 30
0.0
 11
546.7317650726208
 21
350.0678024356445
 31
0.0
  0
LINE
  5
189D5
330
18
100
AcDbEntity
  8
0
100
AcDbLine
 10
552.0010507869021
 20
354.8078024356497
 30
0.0
 11
552.0010507869108
 21
345.3078024356493
 31
0.0
  0
LINE
  5
189D6
330
18
100
AcDbEntity
  8
0
100
AcDbLine
 10
551.3510507869024
 20
354.8078024356492
 30
0.0
 11
551.3510507869112
 21
345.3078024356486
 31
0.0
  0
LINE
  5
189D7
330
18
100
AcDbEntity
  8
0
100
AcDbLine
 10
547.9010507869021
 20
354.8078024356458
 30
0.0
 11
547.9010507869109
 21
345.3078024356456
 31
0.0
  0
LINE
  5
189D8
330
18
100
AcDbEntity
  8
0
100
AcDbLine
 10
555.4510507869024
 20
354.8078024356528
 30
0.0
 11
555.4510507869106
 21
345.3078024356524
 31
0.0
  0
LINE
  5
189D9
330
18
100
AcDbEntity
  8
0
100
AcDbLine
 10
543.5260507869067
 20
350.0678024356417
 30
0.0
 11
544.4974793583342
 21
351.0392310070713
 31
0.0
  0
LINE
  5
189DA
330
18
100
AcDbEntity
  8
0
100
AcDbLine
 10
556.926050786911
 20
345.3078024356536
 30
0.0
 11
546.9260507869107
 21
345.3078024356447
 31
0.0
  0
LINE
  5
189DB
330
18
100
AcDbEntity
  8
0
100
AcDbLine
 10
545.4612928065436
 20
343.293860121939
 30
0.0
 11
544.4974793583461
 21
337.827802435642
 31
0.0
  0
LINE
  5
189DC
330
18
100
AcDbEntity
  8
0
100
AcDbLine
 10
546.9260507869228
 20
332.2077573341686
 30
0.0
 11
546.9260507869107
 21
345.3078024356447
 31
0.0
  0
LINE
  5
189DD
330
18
100
AcDbEntity
  8
0
100
AcDbLine
 10
543.1083365011939
 20
348.1929452927841
 30
0.0
 11
543.1083365012033
 21
337.8278024356416
 31
0.0
  0
LINE
  5
189DE
330
18
100
AcDbEntity
  8
0
100
AcDbLine
 10
543.5260507869067
 20
350.0678024356417
 30
0.0
 11
543.5260507869164
 21
338.7992310070701
 31
0.0
  0
LINE
  5
189DF
330
18
100
AcDbEntity
  8
0
100
AcDbLine
 10
544.4974793583461
 20
337.827802435642
 30
0.0
 11
543.1083365012033
 21
337.8278024356411
 31
0.0
  0
LINE
  5
189E0
330
18
100
AcDbEntity
  8
0
100
AcDbLine
 10
543.5260507869164
 20
338.7992310070701
 30
0.0
 11
543.1083365012024
 21
338.7992310070698
 31
0.0
  0
LINE
  5
189E1
330
18
100
AcDbEntity
  8
0
100
AcDbLine
 10
546.9260507869228
 20
332.2077573341686
 30
0.0
 11
545.9260447338794
 21
332.2077573341676
 31
0.0
  0
LINE
  5
189E2
330
18
100
AcDbEntity
  8
0
100
AcDbLine
 10
546.9260507869107
 20
345.3078024356447
 30
0.0
 11
543.1083365011966
 21
345.3078024356411
 31
0.0
  0
LINE
  5
189E3
330
18
100
AcDbEntity
  8
0
100
AcDbLine
 10
544.4974793583363
 20
348.6106595784996
 30
0.0
 11
543.5260507869078
 21
348.6106595784988
 31
0.0
  0
LINE
  5
189E4
330
18
100
AcDbEntity
  8
0
100
AcDbLine
 10
543.5260507869078
 20
348.6106595784988
 30
0.0
 11
543.1083365011939
 21
348.1929452927841
 31
0.0
  0
LINE
  5
189E5
330
18
100
AcDbEntity
  8
0
100
AcDbLine
 10
545.6631936440507
 20
348.7078024356441
 30
0.0
 11
545.6631936440536
 21
345.3078024356433
 31
0.0
  0
LINE
  5
189E6
330
18
100
AcDbEntity
  8
0
100
AcDbLine
 10
544.4974793583363
 20
348.6106595784996
 30
0.0
 11
544.4974793583394
 21
345.3078024356423
 31
0.0
  0
LINE
  5
189E7
330
18
100
AcDbEntity
  8
0
100
AcDbLine
 10
546.7317650726208
 20
350.0678024356445
 30
0.0
 11
546.7317650726222
 21
348.6106595785021
 31
0.0
  0
LINE
  5
189E8
330
18
100
AcDbEntity
  8
0
100
AcDbLine
 10
546.7317650726222
 20
348.6106595785016
 30
0.0
 11
545.6631936440507
 21
348.7078024356441
 31
0.0
  0
ARC
  5
189E9
330
18
100
AcDbEntity
  8
0
100
AcDbCircle
 10
545.939628000864
 20
343.2095167213585
 30
0.0
 40
0.4857142857142857
100
AcDbArc
 50
90.00000000003906
 51
170.0000000000479
  0
ARC
  5
189EA
330
18
100
AcDbEntity
  8
0
100
AcDbCircle
 10
546.4403365011986
 20
343.2095167213585
 30
0.0
 40
0.4857142857142857
100
AcDbArc
 50
0.0000000000521102
 51
90.00000000003906
  0
LINE
  5
189EB
330
18
100
AcDbEntity
  8
0
100
AcDbLine
 10
546.4403365011983
 20
343.6952310070725
 30
0.0
 11
545.939628000864
 21
343.6952310070725
 31
0.0
  0
LINE
  5
189EC
330
18
100
AcDbEntity
  8
0
100
AcDbLine
 10
556.9260507869228
 20
332.2077573341776
 30
0.0
 11
556.926050786911
 21
345.3078024356536
 31
0.0
  0
LINE
  5
189ED
330
18
100
AcDbEntity
  8
0
100
AcDbLine
 10
557.9260447338802
 20
332.2077573341796
 30
0.0
 11
556.9260507869228
 21
332.2077573341791
 31
0.0
  0
LINE
  5
189EE
330
18
100
AcDbEntity
  8
0
100
AcDbLine
 10
555.4510507869024
 20
354.8078024356528
 30
0.0
 11
552.0010507869021
 21
354.8078024356497
 31
0.0
  0
LINE
  5
189EF
330
18
100
AcDbEntity
  8
0
100
AcDbLine
 10
551.3510507869024
 20
354.8078024356492
 30
0.0
 11
547.9010507869021
 21
354.8078024356458
 31
0.0
  0
LINE
  5
189F0
330
18
100
AcDbEntity
  8
0
100
AcDbLine
 10
545.7603365011914
 20
351.0392310070723
 30
0.0
 11
544.4974793583342
 21
351.0392310070713
 31
0.0
  0
LINE
  5
18A65
330
18
100
AcDbEntity
  8
0
100
AcDbLine
 10
545.1439368033825
 20
20.58433050106776
 30
0.0
 11
541.3262225176681
 21
20.58433050106776
 31
0.0
  0
LINE
  5
18A66
330
18
100
AcDbEntity
  8
0
100
AcDbLine
 10
543.6791788230133
 20
22.59827281477207
 30
0.0
 11
542.7153653748107
 21
28.06433050106823
 31
0.0
  0
LINE
  5
18A67
330
18
100
AcDbEntity
  8
0
100
AcDbLine
 10
543.9782225176681
 20
14.85290192963901
 30
0.0
 11
542.7153653748107
 21
14.85290192963901
 31
0.0
  0
LINE
  5
18A68
330
18
100
AcDbEntity
  8
0
100
AcDbLine
 10
541.3262225176681
 20
17.69918764392485
 30
0.0
 11
541.3262225176681
 21
28.06433050106733
 31
0.0
  0
LINE
  5
18A69
330
18
100
AcDbEntity
  8
0
100
AcDbLine
 10
541.7439368033823
 20
17.28147335821057
 30
0.0
 11
541.3262225176681
 21
17.69918764392485
 31
0.0
  0
LINE
  5
18A6A
330
18
100
AcDbEntity
  8
0
100
AcDbLine
 10
541.7439368033823
 20
15.82433050106755
 30
0.0
 11
541.743936803382
 21
27.09290192963925
 31
0.0
  0
LINE
  5
18A6B
330
18
100
AcDbEntity
  8
0
100
AcDbLine
 10
542.7153653748107
 20
17.28147335821057
 30
0.0
 11
542.7153653748107
 21
20.58433050106776
 31
0.0
  0
LINE
  5
18A6C
330
18
100
AcDbEntity
  8
0
100
AcDbLine
 10
542.7153653748107
 20
17.28147335821057
 30
0.0
 11
541.7439368033823
 21
17.28147335821057
 31
0.0
  0
LINE
  5
18A6D
330
18
100
AcDbEntity
  8
0
100
AcDbLine
 10
541.7439368033823
 20
15.82433050106755
 30
0.0
 11
542.7153653748107
 21
14.85290192963901
 31
0.0
  0
LINE
  5
18A6E
330
18
100
AcDbEntity
  8
0
100
AcDbLine
 10
541.743936803382
 20
27.09290192963925
 30
0.0
 11
541.3262225176681
 21
27.09290192963925
 31
0.0
  0
LINE
  5
18A6F
330
18
100
AcDbEntity
  8
0
100
AcDbLine
 10
542.7153653748107
 20
28.06433050106823
 30
0.0
 11
541.3262225176681
 21
28.06433050106778
 31
0.0
  0
LINE
  5
18A70
330
18
100
AcDbEntity
  8
0
100
AcDbLine
 10
558.743936803382
 20
33.6843756025425
 30
0.0
 11
558.743936803382
 21
20.58433050106776
 31
0.0
  0
LINE
  5
18A71
330
18
100
AcDbEntity
  8
0
100
AcDbLine
 10
545.1439368033825
 20
33.68437560254387
 30
0.0
 11
545.1439368033825
 21
20.58433050106776
 31
0.0
  0
LINE
  5
18A72
330
18
100
AcDbEntity
  8
0
100
AcDbLine
 10
546.1189368033823
 20
11.08433050106728
 30
0.0
 11
546.1189368033823
 21
20.58433050106776
 31
0.0
  0
LINE
  5
18A73
330
18
100
AcDbEntity
  8
0
100
AcDbLine
 10
554.3189368033821
 20
11.08433050106728
 30
0.0
 11
554.3189368033821
 21
20.58433050106776
 31
0.0
  0
LINE
  5
18A74
330
18
100
AcDbEntity
  8
0
100
AcDbLine
 10
553.6689368033826
 20
11.08433050106728
 30
0.0
 11
553.6689368033822
 21
20.58433050106776
 31
0.0
  0
LINE
  5
18A75
330
18
100
AcDbEntity
  8
0
100
AcDbLine
 10
550.2189368033823
 20
11.08433050106728
 30
0.0
 11
550.2189368033823
 21
20.58433050106776
 31
0.0
  0
LINE
  5
18A76
330
18
100
AcDbEntity
  8
0
100
AcDbLine
 10
549.5689368033827
 20
11.08433050106728
 30
0.0
 11
549.5689368033827
 21
20.58433050106776
 31
0.0
  0
LINE
  5
18A77
330
18
100
AcDbEntity
  8
0
100
AcDbLine
 10
557.7689368033825
 20
11.08433050106728
 30
0.0
 11
557.7689368033825
 21
20.58433050106776
 31
0.0
  0
LINE
  5
18A78
330
18
100
AcDbEntity
  8
0
100
AcDbLine
 10
543.8810796605253
 20
17.18433050106722
 30
0.0
 11
543.8810796605253
 21
20.58433050106776
 31
0.0
  0
LINE
  5
18A79
330
18
100
AcDbEntity
  8
0
100
AcDbLine
 10
553.6689368033826
 20
11.08433050106728
 30
0.0
 11
550.2189368033823
 21
11.08433050106728
 31
0.0
  0
LINE
  5
18A7A
330
18
100
AcDbEntity
  8
0
100
AcDbLine
 10
549.5689368033827
 20
11.08433050106728
 30
0.0
 11
546.1189368033823
 21
11.08433050106728
 31
0.0
  0
LINE
  5
18A7B
330
18
100
AcDbEntity
  8
0
100
AcDbLine
 10
544.9496510890967
 20
15.82433050106755
 30
0.0
 11
544.9496510890967
 21
17.28147335821012
 31
0.0
  0
LINE
  5
18A7C
330
18
100
AcDbEntity
  8
0
100
AcDbLine
 10
544.9496510890967
 20
17.28147335821057
 30
0.0
 11
543.8810796605253
 21
17.18433050106722
 31
0.0
  0
LINE
  5
18A7D
330
18
100
AcDbEntity
  8
0
100
AcDbLine
 10
543.9782225176681
 20
14.85290192963901
 30
0.0
 11
544.9496510890967
 21
15.82433050106755
 31
0.0
  0
LINE
  5
18A7E
330
18
100
AcDbEntity
  8
0
100
AcDbLine
 10
557.7689368033825
 20
11.08433050106776
 30
0.0
 11
554.3189368033818
 21
11.08433050106728
 31
0.0
  0
LINE
  5
18A7F
330
18
100
AcDbEntity
  8
0
100
AcDbLine
 10
558.743936803382
 20
20.58433050106776
 30
0.0
 11
545.1439368033825
 21
20.58433050106776
 31
0.0
  0
ARC
  5
18A80
330
18
100
AcDbEntity
  8
0
100
AcDbCircle
 10
544.6582225176682
 20
22.68261621535351
 30
0.0
 40
0.4857142857142857
100
AcDbArc
 50
270.000000000013
 51
0.0
  0
ARC
  5
18A81
330
18
100
AcDbEntity
  8
0
100
AcDbCircle
 10
544.1575140173336
 20
22.68261621535307
 30
0.0
 40
0.4857142857142857
100
AcDbArc
 50
190.0000000000048
 51
270.000000000013
  0
LINE
  5
18A82
330
18
100
AcDbEntity
  8
0
100
AcDbLine
 10
544.6582225176682
 20
22.19690192963951
 30
0.0
 11
544.1575140173339
 21
22.19690192963907
 31
0.0
  0
LINE
  5
18A83
330
18
100
AcDbEntity
  8
0
100
AcDbLine
 10
551.9439307503394
 20
34.78437560254286
 30
0.0
 11
551.9439307503394
 21
57.18437560254249
 31
0.0
  0
LINE
  5
18A84
330
18
100
AcDbEntity
  8
0
100
AcDbLine
 10
553.2351407960012
 20
57.18437560254249
 30
0.0
 11
557.019615681846
 21
34.78437560254286
 31
0.0
  0
LINE
  5
18A85
330
18
100
AcDbEntity
  8
0
100
AcDbLine
 10
550.6527207046771
 20
57.18437560254249
 30
0.0
 11
546.8682458188327
 21
34.78437560254286
 31
0.0
  0
LINE
  5
18A86
330
18
100
AcDbEntity
  8
0
100
AcDbLine
 10
559.7439307503392
 20
33.68437560254295
 30
0.0
 11
558.743936803382
 21
33.6843756025425
 31
0.0
  0
LINE
  5
18A87
330
18
100
AcDbEntity
  8
0
100
AcDbLine
 10
559.7439307503392
 20
34.78437560254241
 30
0.0
 11
544.1439307503392
 21
34.78437560254332
 31
0.0
  0
LINE
  5
18A88
330
18
100
AcDbEntity
  8
0
100
AcDbLine
 10
544.1439307503392
 20
34.78437560254332
 30
0.0
 11
544.1439307503392
 21
33.68437560254387
 31
0.0
  0
LINE
  5
18A89
330
18
100
AcDbEntity
  8
0
100
AcDbLine
 10
545.1439368033825
 20
33.68437560254387
 30
0.0
 11
544.1439307503392
 21
33.68437560254387
 31
0.0
  0
LINE
  5
18A8A
330
18
100
AcDbEntity
  8
0
100
AcDbLine
 10
559.7439307503392
 20
34.78437560254332
 30
0.0
 11
559.7439307503392
 21
33.68437560254387
 31
0.0
  0
LINE
  5
18A8B
330
18
100
AcDbEntity
  8
0
100
AcDbLine
 10
548.0570185090813
 20
81.47835109898409
 30
0.0
 11
540.6484107632283
 21
92.28901077803454
 31
0.0
  0
ARC
  5
18A8C
330
18
100
AcDbEntity
  8
0
100
AcDbCircle
 10
552.8972705548885
 20
98.28243213105999
 30
0.0
 40
10.0
100
AcDbArc
 50
180.0
 51
214.3605280011029
  0
ARC
  5
18A8D
330
18
100
AcDbEntity
  8
0
100
AcDbCircle
 10
548.8972705548858
 20
97.94200221068122
 30
0.0
 40
10.0
100
AcDbArc
 50
180.0
 51
214.4230669294494
  0
LINE
  5
18A8E
330
18
100
AcDbEntity
  8
0
100
AcDbLine
 10
555.763924483905
 20
81.47506339428076
 30
0.0
 11
563.2637139580292
 21
92.44664471277786
 31
0.0
  0
LINE
  5
18A8F
330
18
100
AcDbEntity
  8
0
100
AcDbLine
 10
551.5553120963835
 20
81.47639535230831
 30
0.0
 11
559.0610053384637
 21
92.44531275474987
 31
0.0
  0
LINE
  5
18A90
330
18
100
AcDbEntity
  8
0
100
AcDbLine
 10
551.9146910850646
 20
82.00159646510014
 30
0.0
 11
544.6422453804117
 21
92.63844777878231
 31
0.0
  0
ARC
  5
18A91
330
18
100
AcDbEntity
  8
0
100
AcDbCircle
 10
564.0194797245102
 20
75.8318544074265
 30
0.0
 40
10.0
100
AcDbArc
 50
145.6448534167718
 51
180.0
  0
ARC
  5
18A92
330
18
100
AcDbEntity
  8
0
100
AcDbCircle
 10
539.808158717424
 20
75.82535966633739
 30
0.0
 40
10.0
100
AcDbArc
 50
0.0
 51
34.42306692944937
  0
ARC
  5
18A93
330
18
100
AcDbEntity
  8
0
100
AcDbCircle
 10
559.808158717424
 20
75.82922591536138
 30
0.0
 40
10.0
100
AcDbArc
 50
145.6173623158422
 51
180.0
  0
LINE
  5
18A94
330
18
100
AcDbEntity
  8
0
100
AcDbLine
 10
549.8081587174238
 20
70.94606646835808
 30
0.0
 11
549.8081587174239
 21
75.82922591536152
 31
0.0
  0
LINE
  5
18A95
330
18
100
AcDbEntity
  8
0
100
AcDbLine
 10
549.8081587174238
 20
70.94606646835808
 30
0.0
 11
549.8081587174239
 21
75.82535966633717
 31
0.0
  0
LINE
  5
18A96
330
18
100
AcDbEntity
  8
0
100
AcDbLine
 10
554.0194797245105
 20
70.94606646835808
 30
0.0
 11
554.0194797245105
 21
75.83185440742664
 31
0.0
  0
ARC
  5
18A97
330
18
100
AcDbEntity
  8
0
100
AcDbCircle
 10
550.8081587174237
 20
98.09248219169665
 30
0.0
 40
10.0
100
AcDbArc
 50
325.6173623158423
 51
0.0
  0
ARC
  5
18A98
330
18
100
AcDbEntity
  8
0
100
AcDbCircle
 10
555.008158717424
 20
98.08985369963208
 30
0.0
 40
10.0
100
AcDbArc
 50
325.644853416772
 51
0.0
  0
LINE
  5
18A99
330
18
100
AcDbEntity
  8
0
100
AcDbLine
 10
565.008158717424
 20
98.08985369963208
 30
0.0
 11
565.008158717424
 21
162.9460664683588
 31
0.0
  0
LINE
  5
18A9A
330
18
100
AcDbEntity
  8
0
100
AcDbLine
 10
538.8972705548858
 20
97.94200221068122
 30
0.0
 11
538.8972705548858
 21
130.4460664683585
 31
0.0
  0
LINE
  5
18A9B
330
18
100
AcDbEntity
  8
0
100
AcDbLine
 10
543.0972705548856
 20
130.4460664683585
 30
0.0
 11
542.8972705548885
 21
98.28243213105999
 31
0.0
  0
LINE
  5
18A9C
330
18
100
AcDbEntity
  8
0
100
AcDbLine
 10
560.8081587174234
 20
98.09248219169665
 30
0.0
 11
560.808158717424
 21
162.9460664683588
 31
0.0
  0
ARC
  5
18F5F
330
18
100
AcDbEntity
  8
0
100
AcDbCircle
 10
624.394575335858
 20
215.4741582193909
 30
0.0
 40
4.0
100
AcDbArc
 50
248.8482604149663
 51
66.15173958503091
  0
LINE
  5
18F61
330
18
100
AcDbEntity
  8
0
100
AcDbLine
 10
626.0123106267315
 20
219.1336391227513
 30
0.0
 11
622.4053597752317
 21
220.6276870842557
 31
0.0
  0
LINE
  5
18F62
330
18
100
AcDbEntity
  8
0
100
AcDbLine
 10
622.9508431678107
 20
211.742602862661
 30
0.0
 11
619.3438923163109
 21
213.2366508241654
 31
0.0
  0
LINE
  5
18F64
330
18
100
AcDbEntity
  8
0
100
AcDbLine
 10
622.9508431678095
 20
154.1495300740589
 30
0.0
 11
619.3438923163097
 21
152.6554821125545
 31
0.0
  0
ARC
  5
18F65
330
18
100
AcDbEntity
  8
0
100
AcDbCircle
 10
624.3945753358567
 20
150.4179747173284
 30
0.0
 40
4.0
100
AcDbArc
 50
293.8482604149663
 51
111.1517395850309
  0
LINE
  5
18F66
330
18
100
AcDbEntity
  8
0
100
AcDbLine
 10
626.0123106267301
 20
146.7584938139684
 30
0.0
 11
622.4053597752304
 21
145.264445852464
 31
0.0
  0
LINE
  5
18F67
330
18
100
AcDbEntity
  8
0
100
AcDbLine
 10
666.7367629449203
 20
106.0340414957767
 30
0.0
 11
665.2427149834159
 21
102.4270906442769
 31
0.0
  0
ARC
  5
18F68
330
18
100
AcDbEntity
  8
0
100
AcDbCircle
 10
670.3962438482805
 20
104.4163062049028
 30
0.0
 40
4.0
100
AcDbArc
 50
338.8482604149663
 51
156.1517395850309
  0
LINE
  5
18F69
330
18
100
AcDbEntity
  8
0
100
AcDbLine
 10
674.1277992050105
 20
102.9725740368559
 30
0.0
 11
672.6337512435061
 21
99.36562318535621
 31
0.0
  0
LINE
  5
18F6A
330
18
100
AcDbEntity
  8
0
100
AcDbLine
 10
731.7208719936128
 20
102.9725740368546
 30
0.0
 11
733.2149199551172
 21
99.3656231853548
 31
0.0
  0
ARC
  5
18F6B
330
18
100
AcDbEntity
  8
0
100
AcDbCircle
 10
735.452427350343
 20
104.4163062049016
 30
0.0
 40
4.0
100
AcDbArc
 50
23.84826041496635
 51
201.1517395850308
  0
LINE
  5
18F6C
330
18
100
AcDbEntity
  8
0
100
AcDbLine
 10
739.1119082537032
 20
106.0340414957749
 30
0.0
 11
740.6059562152075
 21
102.4270906442752
 31
0.0
  0
LINE
  5
18F6D
330
18
100
AcDbEntity
  8
0
100
AcDbLine
 10
779.8363605718947
 20
146.7584938139653
 30
0.0
 11
783.4433114233946
 21
145.2644458524609
 31
0.0
  0
ARC
  5
18F6E
330
18
100
AcDbEntity
  8
0
100
AcDbCircle
 10
781.4540958627684
 20
150.4179747173255
 30
0.0
 40
4.0
100
AcDbArc
 50
68.84826041496626
 51
246.1517395850309
  0
LINE
  5
18F6F
330
18
100
AcDbEntity
  8
0
100
AcDbLine
 10
782.8978280308157
 20
154.1495300740556
 30
0.0
 11
786.5047788823154
 21
152.6554821125509
 31
0.0
  0
LINE
  5
18F70
330
18
100
AcDbEntity
  8
0
100
AcDbLine
 10
782.8978280308168
 20
211.7426028626578
 30
0.0
 11
786.5047788823167
 21
213.2366508241619
 31
0.0
  0
ARC
  5
18F71
330
18
100
AcDbEntity
  8
0
100
AcDbCircle
 10
781.4540958627698
 20
215.4741582193878
 30
0.0
 40
4.0
100
AcDbArc
 50
113.8482604149662
 51
291.1517395850308
  0
LINE
  5
18F72
330
18
100
AcDbEntity
  8
0
100
AcDbLine
 10
779.8363605718962
 20
219.1336391227481
 30
0.0
 11
783.4433114233961
 21
220.6276870842525
 31
0.0
  0
LINE
  5
18F73
330
18
100
AcDbEntity
  8
0
100
AcDbLine
 10
739.1119082537064
 20
259.8580914409399
 30
0.0
 11
740.6059562152107
 21
263.4650422924398
 31
0.0
  0
ARC
  5
18F74
330
18
100
AcDbEntity
  8
0
100
AcDbCircle
 10
735.452427350346
 20
261.4758267318135
 30
0.0
 40
4.0
100
AcDbArc
 50
158.8482604149659
 51
336.1517395850308
  0
LINE
  5
18F75
330
18
100
AcDbEntity
  8
0
100
AcDbLine
 10
731.7208719936161
 20
262.9195588998609
 30
0.0
 11
733.2149199551205
 21
266.5265097513606
 31
0.0
  0
LINE
  5
18F76
330
18
100
AcDbEntity
  8
0
100
AcDbLine
 10
674.1277992050137
 20
262.919558899862
 30
0.0
 11
672.6337512435095
 21
266.5265097513619
 31
0.0
  0
ARC
  5
18F77
330
18
100
AcDbEntity
  8
0
100
AcDbCircle
 10
670.3962438482838
 20
261.4758267318149
 30
0.0
 40
4.0
100
AcDbArc
 50
203.8482604149663
 51
21.15173958503084
  0
LINE
  5
18F78
330
18
100
AcDbEntity
  8
0
100
AcDbLine
 10
666.7367629449235
 20
259.8580914409414
 30
0.0
 11
665.2427149834193
 21
263.4650422924413
 31
0.0
  0
ARC
  5
18F9A
330
18
100
AcDbEntity
  8
中心線
100
AcDbCircle
 10
160.5575552403886
 20
182.9221438043553
 30
0.0
 40
43.0
100
AcDbArc
 50
277.6687245584233
 51
257.1724396666506
  0
ARC
  5
18F9B
330
18
100
AcDbEntity
  8
0
100
AcDbCircle
 10
160.5575552403885
 20
182.9221438043553
 30
0.0
 40
48.0
100
AcDbArc
 50
252.076833108181
 51
287.9231668918203
  0
LINE
  5
18FBD
330
18
100
AcDbEntity
  8
0
100
AcDbLine
 10
471.3032641809379
 20
105.0481205639806
 30
0.0
 11
471.3032641809379
 21
96.67317064175328
 31
0.0
  0
LINE
  5
18FBE
330
18
100
AcDbEntity
  8
0
100
AcDbLine
 10
464.1032641809379
 20
105.0481205639806
 30
0.0
 11
464.1032641809379
 21
96.67317064175328
 31
0.0
  0
LINE
  5
18FBF
330
18
100
AcDbEntity
  8
0
100
AcDbLine
 10
464.1032641809379
 20
95.44194121222963
 30
0.0
 11
471.3032641809381
 21
95.44194121222963
 31
0.0
  0
LINE
  5
18FC0
330
18
100
AcDbEntity
  8
0
100
AcDbLine
 10
464.1032641809379
 20
96.67317064175328
 30
0.0
 11
471.3032641809381
 21
96.67317064175328
 31
0.0
  0
LINE
  5
18FC1
330
18
100
AcDbEntity
  8
0
100
AcDbLine
 10
464.1032641809379
 20
95.44194121222963
 30
0.0
 11
464.1032641809379
 21
94.04606090353174
 31
0.0
  0
LINE
  5
18FC2
330
18
100
AcDbEntity
  8
0
100
AcDbLine
 10
471.3032641809381
 20
95.44194121222963
 30
0.0
 11
471.3032641809381
 21
94.04606090353183
 31
0.0
  0
LINE
  5
18FC3
330
18
100
AcDbEntity
  8
0
100
AcDbLine
 10
464.1032641809379
 20
105.0481205639806
 30
0.0
 11
471.3032641809379
 21
105.0481205639806
 31
0.0
  0
CIRCLE
  5
19043
330
18
100
AcDbEntity
  8
0
100
AcDbCircle
 10
160.5575552403886
 20
182.9221438043553
 30
0.0
 40
53.99999999999977
  0
CIRCLE
  5
19044
330
18
100
AcDbEntity
  8
0
100
AcDbCircle
 10
702.9243355993179
 20
182.9460664683547
 30
0.0
 40
88.90000000000298
  0
CIRCLE
  5
19045
330
18
100
AcDbEntity
  8
0
100
AcDbCircle
 10
702.9243355993179
 20
182.9460664683547
 30
0.0
 40
55.0000000000029
  0
CIRCLE
  5
19046
330
18
100
AcDbEntity
  8
0
100
AcDbCircle
 10
702.9243355993179
 20
182.9460664683547
 30
0.0
 40
45.00000000000002
  0
CIRCLE
  5
19047
330
18
100
AcDbEntity
  8
0
100
AcDbCircle
 10
702.9243355993179
 20
182.9460664683547
 30
0.0
 40
17.49999999999932
  0
CIRCLE
  5
19048
330
18
100
AcDbEntity
  8
0
100
AcDbCircle
 10
702.9243355993179
 20
182.9460664683547
 30
0.0
 40
19.4000000000005
  0
VIEWPORT
  5
23
330
15
100
AcDbEntity
 67
     1
  8
0
100
AcDbViewport
 10
200.004391345885
 20
144.0090980821106
 30
0.0
 40
443.4155262838284
 41
290.2088328169907
 68
     1
 69
     1
1001
ACAD
1000
MVIEW
1002
{
1070
    16
1010
0.0
1020
0.0
1030
0.0
1010
0.0
1020
0.0
1030
1.0
1040
0.0
1040
290.2088328169907
1040
200.004391345885
1040
144.0090980821106
1040
50.0
1040
0.0
1040
0.0
1070
     0
1070
   100
1070
     1
1070
     0
1070
     0
1070
     0
1070
     0
1070
     0
1040
0.0
1040
0.0
1040
0.0
1040
10.0
1040
10.0
1040
10.0
1040
10.0
1070
     0
1002
{
1002
}
1002
}
  0
VIEWPORT
  5
2E
330
15
100
AcDbEntity
 67
     1
  8
M_VIEW
100
AcDbViewport
 10
200.0
 20
144.0
 30
0.0
 40
400.0
 41
288.0
 68
     2
 69
     2
1001
ACAD
1000
MVIEW
1002
{
1070
    16
1010
0.0
1020
0.0
1030
0.0
1010
0.0
1020
0.0
1030
1.0
1040
0.0
1040
576.0000012717007
1040
418.6868305505558
1040
95.39175420580809
1040
50.0
1040
0.0
1040
0.0
1070
     0
1070
   100
1070
     1
1070
     0
1070
     0
1070
     0
1070
     0
1070
     0
1040
0.0
1040
0.0
1040
0.0
1040
10.0
1040
10.0
1040
10.0
1040
10.0
1070
     0
1002
{
1002
}
1002
}
  0
INSERT
  5
115F
330
15
100
AcDbEntity
 67
     1
  8
FRAME025
100
AcDbBlockReference
  2
機械A4横_LBP
 10
82.74908858651452
 20
152.030959079227
 30
0.0
  0
TEXT
  5
AA6A
330
15
100
AcDbEntity
 67
     1
  8
文字
  6
BYBLOCK
 62
     0
100
AcDbText
 10
32.81885892396519
 20
73.01882819621747
 30
0.0
 40
3.2
  1

 50
90.0
 41
0.625
  7
MSｺ_ｼｯｸ
100
AcDbText
  0
TEXT
  5
AA6C
330
15
100
AcDbEntity
 67
     1
  8
文字
  6
BYBLOCK
 62
     0
100
AcDbText
 10
37.25020936743055
 20
73.01882819621747
 30
0.0
 40
3.2
  1

 50
90.0
 41
0.625
  7
MSｺ_ｼｯｸ
100
AcDbText
  0
TEXT
  5
FCA5
330
15
100
AcDbEntity
 67
     1
  8
FRAME020
  6
CONTINUOUS
100
AcDbText
 10
126.6213117262079
 20
29.63926951973459
 30
0.0
 40
2.5
  1

 41
0.625
  7
MSｺ_ｼｯｸ
100
AcDbText
  0
TEXT
  5
12229
330
15
100
AcDbEntity
 67
     1
  8
0
100
AcDbText
 10
323.726464138032
 20
10.63168299257869
 30
0.0
 40
6.0
  1
ＳＥ－４２１２１
 41
1.1
100
AcDbText
  0
MTEXT
  5
1901E
330
15
100
AcDbEntity
 67
     1
  8
文字
100
AcDbMText
 10
224.383854375083
 20
27.38177755468949
 30
0.0
 40
6.0
 41
161.4653396096684
 71
     1
 72
     5
  1
{\C7;τDISCﾓｰﾀ D170-100-LP NMR-FSFBA2C-701AP}
1001
ACAD
1000
MTEXTBEGIN
1070
    73
1070
     1
1070
    44
1040
1.0
1070
    74
1070
     0
1000
MTEXTEND
  0
ENDSEC
  0
SECTION
  2
OBJECTS
  0
DICTIONARY
  5
C
330
0
100
AcDbDictionary
  3
ACAD_GROUP
350
D
  3
ACAD_LAYOUT
350
DB2
  3
ACAD_MLINESTYLE
350
1B
  3
ACAD_PLOTSETTINGS
350
DB3
  3
ACAD_PLOTSTYLENAME
350
FB5B
  3
ACADDIM
350
18644
  3
ACDBHEADERROUNDTRIPXREC
350
19090
  3
ACDBVARIABLEDICTIONARY
350
106A6
1001
ACAD
1000
TREAT_AS_HARD
1070
     0
  0
DICTIONARY
  5
18F24
330
2
100
AcDbDictionary
280
     1
  3
ACAD_LAYERFILTERS
360
18F25
  3
ACAD_LAYERSTATES
360
18F3D
  0
DICTIONARY
  5
EFC6
330
18
100
AcDbDictionary
280
     1
  3
ACAD_LAYOUTSELFREF
360
190B2
  0
DICTIONARY
  5
EFC4
330
15
100
AcDbDictionary
280
     1
  3
ACAD_LAYOUTSELFREF
360
190B1
  0
DICTIONARY
  5
D
102
{ACAD_REACTORS
330
C
102
}
330
C
100
AcDbDictionary
  3
*A1
350
AC8A
  3
*A10
350
ACAB
  3
*A11
350
16500
  3
*A12
350
16ECD
  3
*A13
350
ACB4
  3
*A14
350
16955
  3
*A15
350
ACA2
  3
*A16
350
18983
  3
*A17
350
16E70
  3
*A18
350
16CE0
  3
*A19
350
14436
  3
*A2
350
1739E
  3
*A20
350
FC9A
  3
*A21
350
AC9A
  3
*A22
350
1738C
  3
*A23
350
FB6B
  3
*A24
350
106C7
  3
*A25
350
14F04
  3
*A26
350
FB6C
  3
*A27
350
15D50
  3
*A28
350
FC91
  3
*A29
350
1663D
  3
*A3
350
FC95
  3
*A30
350
ACA1
  3
*A31
350
FCB8
  3
*A32
350
16CE1
  3
*A33
350
178A8
  3
*A34
350
106A5
  3
*A35
350
1668A
  3
*A36
350
FC9B
  3
*A37
350
16DAA
  3
*A38
350
106C6
  3
*A39
350
1474A
  3
*A4
350
18963
  3
*A40
350
1897A
  3
*A41
350
1898C
  3
*A42
350
1738D
  3
*A43
350
15D52
  3
*A44
350
15D4F
  3
*A45
350
174FD
  3
*A46
350
16E71
  3
*A47
350
106B3
  3
*A48
350
1629D
  3
*A49
350
ACBD
  3
*A5
350
FBFF
  3
*A50
350
1749C
  3
*A51
350
15D51
  3
*A52
350
178A4
  3
*A53
350
16501
  3
*A54
350
1629E
  3
*A55
350
16616
  3
*A56
350
16CE2
  3
*A57
350
166BD
  3
*A6
350
1668B
  3
*A7
350
166C0
  3
*A8
350
167DB
  3
*A9
350
14437
1001
ACAD
1000
TREAT_AS_HARD
1070
     0
  0
DICTIONARY
  5
DB2
102
{ACAD_REACTORS
330
C
102
}
330
C
100
AcDbDictionary
1001
ACAD
1000
TREAT_AS_HARD
1070
     0
  0
DICTIONARY
  5
1B
102
{ACAD_REACTORS
330
C
102
}
330
C
100
AcDbDictionary
  3
STANDARD
350
1C
1001
ACAD
1000
TREAT_AS_HARD
1070
     0
  0
DICTIONARY
  5
DB3
102
{ACAD_REACTORS
330
C
102
}
330
C
100
AcDbDictionary
1001
ACAD
1000
TREAT_AS_HARD
1070
     0
  0
ACDBDICTIONARYWDFLT
  5
FB5B
102
{ACAD_REACTORS
330
C
102
}
330
C
100
AcDbDictionary
281
     1
  3
Normal
350
FB5C
100
AcDbDictionaryWithDefault
340
FB5C
  0
XRECORD
  5
18644
102
{ACAD_REACTORS
330
C
102
}
330
C
100
AcDbXrecord
 90
   990106
  3

 60
     0
 61
     0
 62
     4
 63
     4
 64
     1
 65
     0
 66
     0
 67
     3
 68
     1
 69
     0
 70
     0
 71
     0
 72
     0
 40
0.0
170
     0
340
0
  0
DICTIONARY
  5
19090
102
{ACAD_REACTORS
330
C
102
}
330
C
100
AcDbDictionary
  3
CEPSNTYPE
350
1909A
  3
DIMSTYLEDATA
350
1909E
  3
FINGERPRINTGUID
350
1909B
  3
HYPERLINKBASE
350
19093
  3
INSUNITS
350
19099
  3
LAYOUTDICT
350
19095
  3
LWETCUNION
350
19098
  3
PLOTSETDICT
350
19096
  3
PLOTSTYLNAMDICT
350
19097
  3
PSVPSCALE
350
1909D
  3
PUCSBASE
350
190A1
  3
PUCSORGBACK
350
190A7
  3
PUCSORGBOTTOM
350
190A3
  3
PUCSORGFRONT
350
190A6
  3
PUCSORGLEFT
350
190A4
  3
PUCSORGRIGHT
350
190A5
  3
PUCSORGTOP
350
190A2
  3
PUCSORTHOREF
350
1909F
  3
PUCSORTHOVIEW
350
190A0
  3
STYLESHEET
350
19094
  3
TSTACKALIGN
350
19091
  3
TSTACKSIZE
350
19092
  3
UCSBASE
350
190AA
  3
UCSORGBACK
350
190B0
  3
UCSORGBOTTOM
350
190AC
  3
UCSORGFRONT
350
190AF
  3
UCSORGLEFT
350
190AD
  3
UCSORGRIGHT
350
190AE
  3
UCSORGTOP
350
190AB
  3
UCSORTHOREF
350
190A8
  3
UCSORTHOVIEW
350
190A9
  3
VERSIONGUID
350
1909C
  0
DICTIONARY
  5
106A6
102
{ACAD_REACTORS
330
C
102
}
330
C
100
AcDbDictionary
  3
SORTENTS
350
106A7
  0
DICTIONARY
  5
18F25
102
{ACAD_REACTORS
330
18F24
102
}
330
18F24
100
AcDbDictionary
280
     1
  3
0
360
18F26
  3
11
360
18F27
  3
150_
360
18F28
  3
160_
360
18F29
  3
170_
360
18F2A
  3
171_
360
18F2B
  3
350_
360
18F2C
  3
4
360
18F2D
  3
5
360
18F2E
  3
7
360
18F2F
  3
KISEKI
360
18F30
  0
DICTIONARY
  5
18F3D
102
{ACAD_REACTORS
330
18F24
102
}
330
18F24
100
AcDbDictionary
  0
XRECORD
  5
190B2
102
{ACAD_REACTORS
330
EFC6
102
}
330
EFC6
100
AcDbXrecord
340
18
  0
XRECORD
  5
190B1
102
{ACAD_REACTORS
330
EFC4
102
}
330
EFC4
100
AcDbXrecord
340
15
  0
GROUP
  5
AC8A
102
{ACAD_REACTORS
330
D
102
}
330
D
100
AcDbGroup
300

 70
     1
 71
     1
  0
GROUP
  5
ACAB
102
{ACAD_REACTORS
330
D
102
}
330
D
100
AcDbGroup
300

 70
     1
 71
     1
  0
GROUP
  5
16500
102
{ACAD_REACTORS
330
D
102
}
330
D
100
AcDbGroup
300

 70
     1
 71
     1
  0
GROUP
  5
16ECD
102
{ACAD_REACTORS
330
D
102
}
330
D
100
AcDbGroup
300

 70
     1
 71
     1
  0
GROUP
  5
ACB4
102
{ACAD_REACTORS
330
D
102
}
330
D
100
AcDbGroup
300

 70
     1
 71
     1
  0
GROUP
  5
16955
102
{ACAD_REACTORS
330
D
102
}
330
D
100
AcDbGroup
300

 70
     1
 71
     1
  0
GROUP
  5
ACA2
102
{ACAD_REACTORS
330
D
102
}
330
D
100
AcDbGroup
300

 70
     1
 71
     1
  0
GROUP
  5
18983
102
{ACAD_REACTORS
330
D
102
}
330
D
100
AcDbGroup
300

 70
     1
 71
     1
340
1897B
340
1897C
340
1897D
340
1897E
340
1897F
340
18980
340
18981
340
18982
  0
GROUP
  5
16E70
102
{ACAD_REACTORS
330
D
102
}
330
D
100
AcDbGroup
300

 70
     1
 71
     1
  0
GROUP
  5
16CE0
102
{ACAD_REACTORS
330
D
102
}
330
D
100
AcDbGroup
300

 70
     1
 71
     1
  0
GROUP
  5
14436
102
{ACAD_REACTORS
330
D
102
}
330
D
100
AcDbGroup
300

 70
     1
 71
     1
  0
GROUP
  5
1739E
102
{ACAD_REACTORS
330
D
102
}
330
D
100
AcDbGroup
300

 70
     1
 71
     1
  0
GROUP
  5
FC9A
102
{ACAD_REACTORS
330
D
102
}
330
D
100
AcDbGroup
300

 70
     1
 71
     1
  0
GROUP
  5
AC9A
102
{ACAD_REACTORS
330
D
102
}
330
D
100
AcDbGroup
300

 70
     1
 71
     1
  0
GROUP
  5
1738C
102
{ACAD_REACTORS
330
D
102
}
330
D
100
AcDbGroup
300

 70
     1
 71
     1
  0
GROUP
  5
FB6B
102
{ACAD_REACTORS
330
D
102
}
330
D
100
AcDbGroup
300

 70
     1
 71
     1
  0
GROUP
  5
106C7
102
{ACAD_REACTORS
330
D
102
}
330
D
100
AcDbGroup
300

 70
     1
 71
     1
  0
GROUP
  5
14F04
102
{ACAD_REACTORS
330
D
102
}
330
D
100
AcDbGroup
300

 70
     1
 71
     1
  0
GROUP
  5
FB6C
102
{ACAD_REACTORS
330
D
102
}
330
D
100
AcDbGroup
300

 70
     1
 71
     1
  0
GROUP
  5
15D50
102
{ACAD_REACTORS
330
D
102
}
330
D
100
AcDbGroup
300

 70
     1
 71
     1
  0
GROUP
  5
FC91
102
{ACAD_REACTORS
330
D
102
}
330
D
100
AcDbGroup
300

 70
     1
 71
     1
  0
GROUP
  5
1663D
102
{ACAD_REACTORS
330
D
102
}
330
D
100
AcDbGroup
300

 70
     1
 71
     1
  0
GROUP
  5
FC95
102
{ACAD_REACTORS
330
D
102
}
330
D
100
AcDbGroup
300

 70
     1
 71
     1
  0
GROUP
  5
ACA1
102
{ACAD_REACTORS
330
D
102
}
330
D
100
AcDbGroup
300

 70
     1
 71
     1
  0
GROUP
  5
FCB8
102
{ACAD_REACTORS
330
D
102
}
330
D
100
AcDbGroup
300

 70
     1
 71
     1
  0
GROUP
  5
16CE1
102
{ACAD_REACTORS
330
D
102
}
330
D
100
AcDbGroup
300

 70
     1
 71
     1
  0
GROUP
  5
178A8
102
{ACAD_REACTORS
330
D
102
}
330
D
100
AcDbGroup
300

 70
     1
 71
     1
  0
GROUP
  5
106A5
102
{ACAD_REACTORS
330
D
102
}
330
D
100
AcDbGroup
300

 70
     1
 71
     1
  0
GROUP
  5
1668A
102
{ACAD_REACTORS
330
D
102
}
330
D
100
AcDbGroup
300

 70
     1
 71
     1
  0
GROUP
  5
FC9B
102
{ACAD_REACTORS
330
D
102
}
330
D
100
AcDbGroup
300

 70
     1
 71
     1
  0
GROUP
  5
16DAA
102
{ACAD_REACTORS
330
D
102
}
330
D
100
AcDbGroup
300

 70
     1
 71
     1
  0
GROUP
  5
106C6
102
{ACAD_REACTORS
330
D
102
}
330
D
100
AcDbGroup
300

 70
     1
 71
     1
  0
GROUP
  5
1474A
102
{ACAD_REACTORS
330
D
102
}
330
D
100
AcDbGroup
300

 70
     1
 71
     1
  0
GROUP
  5
18963
102
{ACAD_REACTORS
330
D
102
}
330
D
100
AcDbGroup
300

 70
     1
 71
     1
340
181EE
340
181ED
340
181EC
340
181EB
340
181EA
340
181F1
340
181F0
340
181EF
  0
GROUP
  5
1897A
102
{ACAD_REACTORS
330
D
102
}
330
D
100
AcDbGroup
300

 70
     1
 71
     1
340
18971
340
18978
340
18977
340
18976
340
18975
340
18974
340
18973
340
18972
  0
GROUP
  5
1898C
102
{ACAD_REACTORS
330
D
102
}
330
D
100
AcDbGroup
300

 70
     1
 71
     1
340
18984
340
1898B
340
1898A
340
18989
340
18988
340
18987
340
18986
340
18985
  0
GROUP
  5
1738D
102
{ACAD_REACTORS
330
D
102
}
330
D
100
AcDbGroup
300

 70
     1
 71
     1
  0
GROUP
  5
15D52
102
{ACAD_REACTORS
330
D
102
}
330
D
100
AcDbGroup
300

 70
     1
 71
     1
  0
GROUP
  5
15D4F
102
{ACAD_REACTORS
330
D
102
}
330
D
100
AcDbGroup
300

 70
     1
 71
     1
  0
GROUP
  5
174FD
102
{ACAD_REACTORS
330
D
102
}
330
D
100
AcDbGroup
300

 70
     1
 71
     1
  0
GROUP
  5
16E71
102
{ACAD_REACTORS
330
D
102
}
330
D
100
AcDbGroup
300

 70
     1
 71
     1
  0
GROUP
  5
106B3
102
{ACAD_REACTORS
330
D
102
}
330
D
100
AcDbGroup
300

 70
     1
 71
     1
  0
GROUP
  5
1629D
102
{ACAD_REACTORS
330
D
102
}
330
D
100
AcDbGroup
300

 70
     1
 71
     1
  0
GROUP
  5
ACBD
102
{ACAD_REACTORS
330
D
102
}
330
D
100
AcDbGroup
300

 70
     1
 71
     1
  0
GROUP
  5
FBFF
102
{ACAD_REACTORS
330
D
102
}
330
D
100
AcDbGroup
300

 70
     1
 71
     1
  0
GROUP
  5
1749C
102
{ACAD_REACTORS
330
D
102
}
330
D
100
AcDbGroup
300

 70
     1
 71
     1
  0
GROUP
  5
15D51
102
{ACAD_REACTORS
330
D
102
}
330
D
100
AcDbGroup
300

 70
     1
 71
     1
  0
GROUP
  5
178A4
102
{ACAD_REACTORS
330
D
102
}
330
D
100
AcDbGroup
300

 70
     1
 71
     1
  0
GROUP
  5
16501
102
{ACAD_REACTORS
330
D
102
}
330
D
100
AcDbGroup
300

 70
     1
 71
     1
  0
GROUP
  5
1629E
102
{ACAD_REACTORS
330
D
102
}
330
D
100
AcDbGroup
300

 70
     1
 71
     1
  0
GROUP
  5
16616
102
{ACAD_REACTORS
330
D
102
}
330
D
100
AcDbGroup
300

 70
     1
 71
     1
  0
GROUP
  5
16CE2
102
{ACAD_REACTORS
330
D
102
}
330
D
100
AcDbGroup
300

 70
     1
 71
     1
  0
GROUP
  5
166BD
102
{ACAD_REACTORS
330
D
102
}
330
D
100
AcDbGroup
300

 70
     1
 71
     1
  0
GROUP
  5
1668B
102
{ACAD_REACTORS
330
D
102
}
330
D
100
AcDbGroup
300

 70
     1
 71
     1
  0
GROUP
  5
166C0
102
{ACAD_REACTORS
330
D
102
}
330
D
100
AcDbGroup
300

 70
     1
 71
     1
  0
GROUP
  5
167DB
102
{ACAD_REACTORS
330
D
102
}
330
D
100
AcDbGroup
300

 70
     1
 71
     1
  0
GROUP
  5
14437
102
{ACAD_REACTORS
330
D
102
}
330
D
100
AcDbGroup
300

 70
     1
 71
     1
  0
MLINESTYLE
  5
1C
102
{ACAD_REACTORS
330
1B
102
}
330
1B
100
AcDbMlineStyle
  2
STANDARD
 70
     0
  3

 62
   256
 51
90.0
 52
90.0
 71
     2
 49
0.5
 62
   256
  6
BYLAYER
 49
-0.5
 62
   256
  6
BYLAYER
  0
ACDBPLACEHOLDER
  5
FB5C
102
{ACAD_REACTORS
330
FB5B
102
}
330
FB5B
100
AcDbPlaceHolder
280
     0
  0
XRECORD
  5
1909A
102
{ACAD_REACTORS
330
19090
102
}
330
19090
100
AcDbXrecord
 90
        0
  0
XRECORD
  5
1909E
102
{ACAD_REACTORS
330
19090
102
}
330
19090
100
AcDbXrecord
1000
DSTYLE
1002
{
1070
    79
 70
     2
1070
   179
 70
     2
1070
   279
 70
     2
1070
   341
340
1215D
1070
   342
340
1215D
1002
}
  0
XRECORD
  5
1909B
102
{ACAD_REACTORS
330
19090
102
}
330
19090
100
AcDbXrecord
  1
{D14EE3FF-941A-415A-9907-344E0A80D794}
  0
XRECORD
  5
19093
102
{ACAD_REACTORS
330
19090
102
}
330
19090
100
AcDbXrecord
  1

  0
XRECORD
  5
19099
102
{ACAD_REACTORS
330
19090
102
}
330
19090
100
AcDbXrecord
 90
        0
  0
XRECORD
  5
19095
102
{ACAD_REACTORS
330
19090
102
}
330
19090
100
AcDbXrecord
340
DB2
  0
XRECORD
  5
19098
102
{ACAD_REACTORS
330
19090
102
}
330
19090
100
AcDbXrecord
 90
    10269
  0
XRECORD
  5
19096
102
{ACAD_REACTORS
330
19090
102
}
330
19090
100
AcDbXrecord
340
DB3
  0
XRECORD
  5
19097
102
{ACAD_REACTORS
330
19090
102
}
330
19090
100
AcDbXrecord
340
FB5B
  0
XRECORD
  5
1909D
102
{ACAD_REACTORS
330
19090
102
}
330
19090
100
AcDbXrecord
 40
0.0
  0
XRECORD
  5
190A1
102
{ACAD_REACTORS
330
19090
102
}
330
19090
100
AcDbXrecord
340
0
  0
XRECORD
  5
190A7
102
{ACAD_REACTORS
330
19090
102
}
330
19090
100
AcDbXrecord
 10
0.0
 20
0.0
 30
0.0
  0
XRECORD
  5
190A3
102
{ACAD_REACTORS
330
19090
102
}
330
19090
100
AcDbXrecord
 10
0.0
 20
0.0
 30
0.0
  0
XRECORD
  5
190A6
102
{ACAD_REACTORS
330
19090
102
}
330
19090
100
AcDbXrecord
 10
0.0
 20
0.0
 30
0.0
  0
XRECORD
  5
190A4
102
{ACAD_REACTORS
330
19090
102
}
330
19090
100
AcDbXrecord
 10
0.0
 20
0.0
 30
0.0
  0
XRECORD
  5
190A5
102
{ACAD_REACTORS
330
19090
102
}
330
19090
100
AcDbXrecord
 10
0.0
 20
0.0
 30
0.0
  0
XRECORD
  5
190A2
102
{ACAD_REACTORS
330
19090
102
}
330
19090
100
AcDbXrecord
 10
0.0
 20
0.0
 30
0.0
  0
XRECORD
  5
1909F
102
{ACAD_REACTORS
330
19090
102
}
330
19090
100
AcDbXrecord
340
0
  0
XRECORD
  5
190A0
102
{ACAD_REACTORS
330
19090
102
}
330
19090
100
AcDbXrecord
 70
     0
  0
XRECORD
  5
19094
102
{ACAD_REACTORS
330
19090
102
}
330
19090
100
AcDbXrecord
  1

  0
XRECORD
  5
19091
102
{ACAD_REACTORS
330
19090
102
}
330
19090
100
AcDbXrecord
 90
        1
  0
XRECORD
  5
19092
102
{ACAD_REACTORS
330
19090
102
}
330
19090
100
AcDbXrecord
 90
       70
  0
XRECORD
  5
190AA
102
{ACAD_REACTORS
330
19090
102
}
330
19090
100
AcDbXrecord
340
0
  0
XRECORD
  5
190B0
102
{ACAD_REACTORS
330
19090
102
}
330
19090
100
AcDbXrecord
 10
0.0
 20
0.0
 30
0.0
  0
XRECORD
  5
190AC
102
{ACAD_REACTORS
330
19090
102
}
330
19090
100
AcDbXrecord
 10
0.0
 20
0.0
 30
0.0
  0
XRECORD
  5
190AF
102
{ACAD_REACTORS
330
19090
102
}
330
19090
100
AcDbXrecord
 10
0.0
 20
0.0
 30
0.0
  0
XRECORD
  5
190AD
102
{ACAD_REACTORS
330
19090
102
}
330
19090
100
AcDbXrecord
 10
0.0
 20
0.0
 30
0.0
  0
XRECORD
  5
190AE
102
{ACAD_REACTORS
330
19090
102
}
330
19090
100
AcDbXrecord
 10
0.0
 20
0.0
 30
0.0
  0
XRECORD
  5
190AB
102
{ACAD_REACTORS
330
19090
102
}
330
19090
100
AcDbXrecord
 10
0.0
 20
0.0
 30
0.0
  0
XRECORD
  5
190A8
102
{ACAD_REACTORS
330
19090
102
}
330
19090
100
AcDbXrecord
340
0
  0
XRECORD
  5
190A9
102
{ACAD_REACTORS
330
19090
102
}
330
19090
100
AcDbXrecord
 70
     0
  0
XRECORD
  5
1909C
102
{ACAD_REACTORS
330
19090
102
}
330
19090
100
AcDbXrecord
  1
{66CCEC4D-5683-4CCE-95DB-4901B86BF03D}
  0
DICTIONARYVAR
  5
106A7
102
{ACAD_REACTORS
330
106A6
102
}
330
106A6
100
DictionaryVariables
280
     0
  1
96
  0
XRECORD
  5
18F26
102
{ACAD_REACTORS
330
18F25
102
}
330
18F25
100
AcDbXrecord
  1
0
  1
*0
  1
*
  1
*
 70
     0
  1
*
  1
*
  0
XRECORD
  5
18F27
102
{ACAD_REACTORS
330
18F25
102
}
330
18F25
100
AcDbXrecord
  1
11
  1
*11
  1
*
  1
*
 70
     0
  1
*
  1
*
  0
XRECORD
  5
18F28
102
{ACAD_REACTORS
330
18F25
102
}
330
18F25
100
AcDbXrecord
  1
150_
  1
150_*
  1
*
  1
*
 70
     0
  1
*
  1
*
  0
XRECORD
  5
18F29
102
{ACAD_REACTORS
330
18F25
102
}
330
18F25
100
AcDbXrecord
  1
160_
  1
160_*
  1
*
  1
*
 70
     0
  1
*
  1
*
  0
XRECORD
  5
18F2A
102
{ACAD_REACTORS
330
18F25
102
}
330
18F25
100
AcDbXrecord
  1
170_
  1
170_*
  1
*
  1
*
 70
     0
  1
*
  1
*
  0
XRECORD
  5
18F2B
102
{ACAD_REACTORS
330
18F25
102
}
330
18F25
100
AcDbXrecord
  1
171_
  1
171_*
  1
*
  1
*
 70
     0
  1
*
  1
*
  0
XRECORD
  5
18F2C
102
{ACAD_REACTORS
330
18F25
102
}
330
18F25
100
AcDbXrecord
  1
350_
  1
350_*
  1
*
  1
*
 70
     0
  1
*
  1
*
  0
XRECORD
  5
18F2D
102
{ACAD_REACTORS
330
18F25
102
}
330
18F25
100
AcDbXrecord
  1
4
  1
*4
  1
*
  1
*
 70
     0
  1
*
  1
*
  0
XRECORD
  5
18F2E
102
{ACAD_REACTORS
330
18F25
102
}
330
18F25
100
AcDbXrecord
  1
5
  1
*5
  1
*
  1
*
 70
     0
  1
*
  1
*
  0
XRECORD
  5
18F2F
102
{ACAD_REACTORS
330
18F25
102
}
330
18F25
100
AcDbXrecord
  1
7
  1
*7
  1
*
  1
*
 70
     0
  1
*
  1
*
  0
XRECORD
  5
18F30
102
{ACAD_REACTORS
330
18F25
102
}
330
18F25
100
AcDbXrecord
  1
kiseki
  1
kiseki*
  1
*
  1
*
 70
     0
  1
*
  1
*
  0
ENDSEC
  0
EOF
