  0
SECTION
  2
HEADER
  9
$ACADVER
  1
AC1015
  9
$ACADMAINTVER
 70
     6
  9
$DWGCODEPAGE
  3
ANSI_932
  9
$INSBASE
 10
0.0
 20
0.0
 30
0.0
  9
$EXTMIN
 10
734.1868372145614
 20
1989.834908985701
 30
0.0
  9
$EXTMAX
 10
1343.892728987195
 20
2429.483741834292
 30
137.5
  9
$LIMMIN
 10
0.0
 20
0.0
  9
$LIMMAX
 10
420.0
 20
297.0
  9
$ORTHOMODE
 70
     1
  9
$REGENMODE
 70
     1
  9
$FILLMODE
 70
     1
  9
$QTEXTMODE
 70
     0
  9
$MIRRTEXT
 70
     0
  9
$LTSCALE
 40
1.0
  9
$ATTMODE
 70
     1
  9
$TEXTSIZE
 40
3.0
  9
$TRACEWID
 40
1.0
  9
$TEXTSTYLE
  7
MSｺﾞｼｯｸ-S
  9
$CLAYER
  8
0
  9
$CELTYPE
  6
ByLayer
  9
$CECOLOR
 62
   256
  9
$CELTSCALE
 40
0.1
  9
$DISPSILH
 70
     0
  9
$DIMSCALE
 40
1.0
  9
$DIMASZ
 40
2.5
  9
$DIMEXO
 40
2.0
  9
$DIMDLI
 40
0.38
  9
$DIMRND
 40
0.0
  9
$DIMDLE
 40
0.0
  9
$DIMEXE
 40
1.0
  9
$DIMTP
 40
0.0
  9
$DIMTM
 40
0.0
  9
$DIMTXT
 40
5.0
  9
$DIMCEN
 40
0.0
  9
$DIMTSZ
 40
0.0
  9
$DIMTOL
 70
     0
  9
$DIMLIM
 70
     0
  9
$DIMTIH
 70
     0
  9
$DIMTOH
 70
     0
  9
$DIMSE1
 70
     0
  9
$DIMSE2
 70
     0
  9
$DIMTAD
 70
     3
  9
$DIMZIN
 70
     8
  9
$DIMBLK
  1
Open30
  9
$DIMASO
 70
     1
  9
$DIMSHO
 70
     1
  9
$DIMPOST
  1

  9
$DIMAPOST
  1

  9
$DIMALT
 70
     0
  9
$DIMALTD
 70
     2
  9
$DIMALTF
 40
25.4
  9
$DIMLFAC
 40
1.0
  9
$DIMTOFL
 70
     1
  9
$DIMTVP
 40
0.0
  9
$DIMTIX
 70
     0
  9
$DIMSOXD
 70
     0
  9
$DIMSAH
 70
     0
  9
$DIMBLK1
  1

  9
$DIMBLK2
  1

  9
$DIMSTYLE
  2
まこ
  9
$DIMCLRD
 70
     4
  9
$DIMCLRE
 70
     4
  9
$DIMCLRT
 70
    40
  9
$DIMTFAC
 40
1.0
  9
$DIMGAP
 40
0.5
  9
$DIMJUST
 70
     0
  9
$DIMSD1
 70
     0
  9
$DIMSD2
 70
     0
  9
$DIMTOLJ
 70
     1
  9
$DIMTZIN
 70
     0
  9
$DIMALTZ
 70
     0
  9
$DIMALTTZ
 70
     0
  9
$DIMUPT
 70
     0
  9
$DIMDEC
 70
     8
  9
$DIMTDEC
 70
     8
  9
$DIMALTU
 70
     2
  9
$DIMALTTD
 70
     2
  9
$DIMTXSTY
  7
まこ
  9
$DIMAUNIT
 70
     0
  9
$DIMADEC
 70
     8
  9
$DIMALTRND
 40
0.0
  9
$DIMAZIN
 70
     0
  9
$DIMDSEP
 70
    46
  9
$DIMATFIT
 70
     0
  9
$DIMFRAC
 70
     0
  9
$DIMLDRBLK
  1
Open30
  9
$DIMLUNIT
 70
     2
  9
$DIMLWD
 70
    13
  9
$DIMLWE
 70
    13
  9
$DIMTMOVE
 70
     0
  9
$LUNITS
 70
     2
  9
$LUPREC
 70
     4
  9
$SKETCHINC
 40
1.0
  9
$FILLETRAD
 40
0.3
  9
$AUNITS
 70
     0
  9
$AUPREC
 70
     0
  9
$MENU
  1
.
  9
$ELEVATION
 40
0.0
  9
$PELEVATION
 40
0.0
  9
$THICKNESS
 40
0.0
  9
$LIMCHECK
 70
     0
  9
$CHAMFERA
 40
1.0
  9
$CHAMFERB
 40
1.0
  9
$CHAMFERC
 40
20.0
  9
$CHAMFERD
 40
0.0
  9
$SKPOLY
 70
     0
  9
$TDCREATE
 40
2452312.443623218
  9
$TDUCREATE
 40
2452312.068623218
  9
$TDUPDATE
 40
2457695.474964178
  9
$TDUUPDATE
 40
2457695.099964178
  9
$TDINDWG
 40
13.6910386458
  9
$TDUSRTIMER
 40
2457695.099155498
  9
$USRTIMER
 70
     1
  9
$ANGBASE
 50
0.0
  9
$ANGDIR
 70
     0
  9
$PDMODE
 70
     0
  9
$PDSIZE
 40
0.0
  9
$PLINEWID
 40
0.0
  9
$SPLFRAME
 70
     0
  9
$SPLINETYPE
 70
     6
  9
$SPLINESEGS
 70
     8
  9
$HANDSEED
  5
2DDA0
  9
$SURFTAB1
 70
     6
  9
$SURFTAB2
 70
     6
  9
$SURFTYPE
 70
     6
  9
$SURFU
 70
     6
  9
$SURFV
 70
     6
  9
$UCSBASE
  2

  9
$UCSNAME
  2

  9
$UCSORG
 10
0.0
 20
0.0
 30
0.0
  9
$UCSXDIR
 10
1.0
 20
0.0
 30
0.0
  9
$UCSYDIR
 10
0.0
 20
1.0
 30
0.0
  9
$UCSORTHOREF
  2

  9
$UCSORTHOVIEW
 70
     0
  9
$UCSORGTOP
 10
0.0
 20
0.0
 30
0.0
  9
$UCSORGBOTTOM
 10
0.0
 20
0.0
 30
0.0
  9
$UCSORGLEFT
 10
0.0
 20
0.0
 30
0.0
  9
$UCSORGRIGHT
 10
0.0
 20
0.0
 30
0.0
  9
$UCSORGFRONT
 10
0.0
 20
0.0
 30
0.0
  9
$UCSORGBACK
 10
0.0
 20
0.0
 30
0.0
  9
$PUCSBASE
  2

  9
$PUCSNAME
  2

  9
$PUCSORG
 10
0.0
 20
0.0
 30
0.0
  9
$PUCSXDIR
 10
1.0
 20
0.0
 30
0.0
  9
$PUCSYDIR
 10
0.0
 20
1.0
 30
0.0
  9
$PUCSORTHOREF
  2

  9
$PUCSORTHOVIEW
 70
     0
  9
$PUCSORGTOP
 10
0.0
 20
0.0
 30
0.0
  9
$PUCSORGBOTTOM
 10
0.0
 20
0.0
 30
0.0
  9
$PUCSORGLEFT
 10
0.0
 20
0.0
 30
0.0
  9
$PUCSORGRIGHT
 10
0.0
 20
0.0
 30
0.0
  9
$PUCSORGFRONT
 10
0.0
 20
0.0
 30
0.0
  9
$PUCSORGBACK
 10
0.0
 20
0.0
 30
0.0
  9
$USERI1
 70
     0
  9
$USERI2
 70
     0
  9
$USERI3
 70
     0
  9
$USERI4
 70
     0
  9
$USERI5
 70
     0
  9
$USERR1
 40
0.0
  9
$USERR2
 40
0.0
  9
$USERR3
 40
0.0
  9
$USERR4
 40
0.0
  9
$USERR5
 40
0.0
  9
$WORLDVIEW
 70
     1
  9
$SHADEDGE
 70
     3
  9
$SHADEDIF
 70
    70
  9
$TILEMODE
 70
     1
  9
$MAXACTVP
 70
    64
  9
$PINSBASE
 10
0.0
 20
0.0
 30
0.0
  9
$PLIMCHECK
 70
     0
  9
$PEXTMIN
 10
1.000000000000000E+20
 20
1.000000000000000E+20
 30
1.000000000000000E+20
  9
$PEXTMAX
 10
-1.000000000000000E+20
 20
-1.000000000000000E+20
 30
-1.000000000000000E+20
  9
$PLIMMIN
 10
-0.25
 20
-0.7499999999999999
  9
$PLIMMAX
 10
10.75
 20
7.75
  9
$UNITMODE
 70
     0
  9
$VISRETAIN
 70
     1
  9
$PLINEGEN
 70
     0
  9
$PSLTSCALE
 70
     1
  9
$TREEDEPTH
 70
  3020
  9
$CMLSTYLE
  2
Standard
  9
$CMLJUST
 70
     0
  9
$CMLSCALE
 40
20.0
  9
$PROXYGRAPHICS
 70
     1
  9
$MEASUREMENT
 70
     0
  9
$CELWEIGHT
370
    -1
  9
$ENDCAPS
280
     0
  9
$JOINSTYLE
280
     0
  9
$LWDISPLAY
290
     0
  9
$INSUNITS
 70
     4
  9
$HYPERLINKBASE
  1

  9
$STYLESHEET
  1
monochrome.ctb
  9
$XEDIT
290
     1
  9
$CEPSNTYPE
380
     0
  9
$PSTYLEMODE
290
     1
  9
$FINGERPRINTGUID
  2
{317A188D-5D9A-4B88-8B34-F77A538D2CB2}
  9
$VERSIONGUID
  2
{5D2532E6-C160-418F-AFA2-06980DB88B69}
  9
$EXTNAMES
290
     1
  9
$PSVPSCALE
 40
0.0
  9
$OLESTARTUP
290
     0
  0
ENDSEC
  0
SECTION
  2
CLASSES
  0
CLASS
  1
ACDBDICTIONARYWDFLT
  2
AcDbDictionaryWithDefault
  3
ObjectDBX Classes
 90
        0
280
     0
281
     0
  0
CLASS
  1
ACDBPLACEHOLDER
  2
AcDbPlaceHolder
  3
ObjectDBX Classes
 90
        0
280
     0
281
     0
  0
CLASS
  1
LAYOUT
  2
AcDbLayout
  3
ObjectDBX Classes
 90
        0
280
     0
281
     0
  0
CLASS
  1
DICTIONARYVAR
  2
AcDbDictionaryVar
  3
ObjectDBX Classes
 90
        0
280
     0
281
     0
  0
CLASS
  1
VISUALSTYLE
  2
AcDbVisualStyle
  3
ObjectDBX Classes
 90
     4095
280
     0
281
     0
  0
CLASS
  1
SCALE
  2
AcDbScale
  3
ObjectDBX Classes
 90
     1153
280
     0
281
     0
  0
CLASS
  1
MATERIAL
  2
AcDbMaterial
  3
ObjectDBX Classes
 90
     1153
280
     0
281
     0
  0
CLASS
  1
TABLESTYLE
  2
AcDbTableStyle
  3
ObjectDBX Classes
 90
     4095
280
     0
281
     0
  0
CLASS
  1
MLEADERSTYLE
  2
AcDbMLeaderStyle
  3
ACDB_MLEADERSTYLE_CLASS
 90
     4095
280
     0
281
     0
  0
CLASS
  1
SUN
  2
AcDbSun
  3
SCENEOE
 90
     1153
280
     0
281
     0
  0
CLASS
  1
RASTERVARIABLES
  2
AcDbRasterVariables
  3
ISM
 90
        0
280
     0
281
     0
  0
ENDSEC
  0
SECTION
  2
TABLES
  0
TABLE
  2
VPORT
  5
8
330
0
100
AcDbSymbolTable
 70
     1
  0
VPORT
  5
2D402
330
8
100
AcDbSymbolTableRecord
100
AcDbViewportTableRecord
  2
*Active
 70
     0
 10
0.0
 20
0.0
 11
1.0
 21
1.0
 12
1039.039783100878
 22
2209.659325409997
 13
0.0
 23
0.0
 14
10.0
 24
10.0
 15
10.0
 25
10.0
 16
0.0
 26
0.0
 36
1.0
 17
0.0
 27
0.0
 37
0.0
 40
448.4418095055627
 41
2.006479481641469
 42
50.0
 43
0.0
 44
0.0
 50
0.0
 51
0.0
 71
    16
 72
 10000
 73
     1
 74
     2
 75
     0
 76
     0
 77
     0
 78
     0
281
     0
 65
     1
110
0.0
120
0.0
130
0.0
111
1.0
121
0.0
131
0.0
112
0.0
122
1.0
132
0.0
 79
     0
146
0.0
  0
ENDTAB
  0
TABLE
  2
LTYPE
  5
5
330
0
100
AcDbSymbolTable
 70
     5
  0
LTYPE
  5
14
330
5
100
AcDbSymbolTableRecord
100
AcDbLinetypeTableRecord
  2
ByBlock
 70
     0
  3

 72
    65
 73
     0
 40
0.0
  0
LTYPE
  5
15
330
5
100
AcDbSymbolTableRecord
100
AcDbLinetypeTableRecord
  2
ByLayer
 70
     0
  3

 72
    65
 73
     0
 40
0.0
  0
LTYPE
  5
16
330
5
100
AcDbSymbolTableRecord
100
AcDbLinetypeTableRecord
  2
Continuous
 70
     0
  3
Solid line
 72
    65
 73
     0
 40
0.0
  0
LTYPE
  5
6B0
330
5
100
AcDbSymbolTableRecord
100
AcDbLinetypeTableRecord
  2
CENTER2
 70
     0
  3
Center (.5x) ___ _ ___ _ ___ _ ___ _ ___ _ ___
 72
    65
 73
     4
 40
28.575
 49
19.05
 74
     0
 49
-3.175
 74
     0
 49
3.175
 74
     0
 49
-3.175
 74
     0
  0
LTYPE
  5
6B1
330
5
100
AcDbSymbolTableRecord
100
AcDbLinetypeTableRecord
  2
HIDDEN
 70
     0
  3
Hidden __ __ __ __ __ __ __ __ __ __ __ __ __ _
 72
    65
 73
     2
 40
9.524999999999999
 49
6.35
 74
     0
 49
-3.175
 74
     0
  0
LTYPE
  5
2C08B
330
5
100
AcDbSymbolTableRecord
100
AcDbLinetypeTableRecord
  2
PHANTOM
 70
     0
  3
Phantom ______  __  __  ______  __  __  ______
 72
    65
 73
     6
 40
2.5
 49
1.25
 74
     0
 49
-0.25
 74
     0
 49
0.25
 74
     0
 49
-0.25
 74
     0
 49
0.25
 74
     0
 49
-0.25
 74
     0
  0
ENDTAB
  0
TABLE
  2
LAYER
  5
2
102
{ACAD_XDICTIONARY
360
2C179
102
}
330
0
100
AcDbSymbolTable
 70
    24
  0
LAYER
  5
10
330
2
100
AcDbSymbolTableRecord
100
AcDbLayerTableRecord
  2
0
 70
     0
 62
     7
  6
Continuous
370
    -3
390
F
  0
LAYER
  5
12A
330
2
100
AcDbSymbolTableRecord
100
AcDbLayerTableRecord
  2
dimension
 70
     0
 62
     4
  6
Continuous
370
    13
390
F
  0
LAYER
  5
6B3
330
2
100
AcDbSymbolTableRecord
100
AcDbLayerTableRecord
  2
中心線
 70
     0
 62
    13
  6
CENTER2
370
    13
390
F
  0
LAYER
  5
20520
330
2
100
AcDbSymbolTableRecord
100
AcDbLayerTableRecord
  2
細線
 70
     0
 62
     7
  6
Continuous
370
    13
390
F
  0
LAYER
  5
20606
330
2
100
AcDbSymbolTableRecord
100
AcDbLayerTableRecord
  2
実線
 70
     0
 62
     3
  6
Continuous
370
    40
390
F
  0
LAYER
  5
225B5
330
2
100
AcDbSymbolTableRecord
100
AcDbLayerTableRecord
  2
破線
 70
     0
 62
     8
  6
HIDDEN
370
    13
390
F
  0
LAYER
  5
2330F
330
2
100
AcDbSymbolTableRecord
100
AcDbLayerTableRecord
  2
ﾓｰﾀ
 70
     0
 62
    30
  6
Continuous
370
    40
390
F
  0
LAYER
  5
2746E
330
2
100
AcDbSymbolTableRecord
100
AcDbLayerTableRecord
  2
Text
 70
     0
 62
    40
  6
Continuous
370
    30
390
F
  0
LAYER
  5
27471
330
2
100
AcDbSymbolTableRecord
100
AcDbLayerTableRecord
  2
寸法
 70
     0
 62
     7
  6
Continuous
370
    13
390
F
  0
LAYER
  5
2C08E
330
2
100
AcDbSymbolTableRecord
100
AcDbLayerTableRecord
  2
二点鎖線
 70
     0
 62
     5
  6
PHANTOM
370
    13
390
F
  0
ENDTAB
  0
TABLE
  2
STYLE
  5
3
330
0
100
AcDbSymbolTable
 70
     8
  0
STYLE
  5
11
330
3
100
AcDbSymbolTableRecord
100
AcDbTextStyleTableRecord
  2
Standard
 70
     0
 40
0.0
 41
1.0
 50
0.0
 71
     0
 42
2.5
  3
simplex.shx
  4
bigfont.shx
  0
STYLE
  5
133
330
3
100
AcDbSymbolTableRecord
100
AcDbTextStyleTableRecord
  2
MSｺﾞｼｯｸ-0
 70
     0
 40
0.0
 41
1.0
 50
0.0
 71
     0
 42
4.0
  3
simplex.shx
  4
bigfont.shx
  0
STYLE
  5
4E1
330
3
100
AcDbSymbolTableRecord
100
AcDbTextStyleTableRecord
  2
MSｺﾞｼｯｸ-S
 70
     0
 40
0.0
 41
1.0
 50
0.0
 71
     0
 42
3.0
  3
simplex.shx
  4
bigfont.shx
  0
STYLE
  5
20521
330
3
100
AcDbSymbolTableRecord
100
AcDbTextStyleTableRecord
  2
まこ
 70
     0
 40
0.0
 41
1.0
 50
0.0
 71
     0
 42
2.5
  3
simplex.shx
  4
bigfont.shx
  0
STYLE
  5
2CF1E
330
3
100
AcDbSymbolTableRecord
100
AcDbTextStyleTableRecord
  2
TIMESNR
 70
     0
 40
0.0
 41
1.0
 50
0.0
 71
     0
 42
2.0
  3
TIMES.TTF
  4

1001
ACAD
1000
Times New Roman
1071
       18
  0
STYLE
  5
2CF1F
330
3
100
AcDbSymbolTableRecord
100
AcDbTextStyleTableRecord
  2
MSｺﾞｼｯｸN
 70
     0
 40
0.0
 41
1.0
 50
0.0
 71
     0
 42
5.0
  3
MS Gothic.ttf
  4

1001
ACAD
1000
MS Gothic
1071
    32817
  0
ENDTAB
  0
TABLE
  2
VIEW
  5
6
330
0
100
AcDbSymbolTable
 70
     0
  0
ENDTAB
  0
TABLE
  2
UCS
  5
7
330
0
100
AcDbSymbolTable
 70
     0
  0
ENDTAB
  0
TABLE
  2
APPID
  5
9
330
0
100
AcDbSymbolTable
 70
     3
  0
APPID
  5
12
330
9
100
AcDbSymbolTableRecord
100
AcDbRegAppTableRecord
  2
ACAD
 70
     0
  0
APPID
  5
2D6BC
330
9
100
AcDbSymbolTableRecord
100
AcDbRegAppTableRecord
  2
PE_CLOUD
 70
     0
  0
APPID
  5
2D795
330
9
100
AcDbSymbolTableRecord
100
AcDbRegAppTableRecord
  2
PLOTTRANSPARENCY
 70
     0
  0
ENDTAB
  0
TABLE
  2
DIMSTYLE
  5
A
330
0
100
AcDbSymbolTable
 70
     2
100
AcDbDimStyleTable
  0
DIMSTYLE
105
135
330
A
100
AcDbSymbolTableRecord
100
AcDbDimStyleTableRecord
  2
STANDARD
 70
     0
 41
3.0
 42
1.0
 73
     0
 74
     0
 77
     3
 78
     8
140
3.0
141
0.0
147
0.8
176
   256
177
   256
271
     2
178
    40
271
     2
272
     2
340
133
341
123
342
123
  0
DIMSTYLE
105
20607
330
A
100
AcDbSymbolTableRecord
100
AcDbDimStyleTableRecord
  2
まこ
 70
     0
 41
2.5
 42
2.0
 44
1.0
 73
     0
 74
     0
 77
     3
 78
     8
140
5.0
141
0.0
147
0.5
176
     4
177
     4
271
     3
178
    40
271
     3
272
     3
340
20521
341
495
342
495
371
    13
372
    13
  0
ENDTAB
  0
TABLE
  2
BLOCK_RECORD
  5
1
330
0
100
AcDbSymbolTable
 70
     2
  0
BLOCK_RECORD
  5
1F
330
1
100
AcDbSymbolTableRecord
100
AcDbBlockTableRecord
  2
*Model_Space
340
22
  0
BLOCK_RECORD
  5
2DD65
330
1
100
AcDbSymbolTableRecord
100
AcDbBlockTableRecord
  2
*Paper_Space
340
2DD66
  0
BLOCK_RECORD
  5
123
330
1
100
AcDbSymbolTableRecord
100
AcDbBlockTableRecord
  2
_OPEN
340
0
  0
BLOCK_RECORD
  5
495
330
1
100
AcDbSymbolTableRecord
100
AcDbBlockTableRecord
  2
_Open30
340
0
  0
ENDTAB
  0
ENDSEC
  0
SECTION
  2
BLOCKS
  0
BLOCK
  5
20
330
1F
100
AcDbEntity
  8
0
100
AcDbBlockBegin
  2
*Model_Space
 70
     0
 10
0.0
 20
0.0
 30
0.0
  3
*Model_Space
  1
*Model_Space
  0
ENDBLK
  5
21
330
1F
100
AcDbEntity
  8
0
100
AcDbBlockEnd
  0
BLOCK
  5
2DD67
330
2DD65
100
AcDbEntity
 67
     1
  8
0
100
AcDbBlockBegin
  2
*Paper_Space
 70
     0
 10
0.0
 20
0.0
 30
0.0
  3
*Paper_Space
  1
*Paper_Space
  0
ENDBLK
  5
2DD68
330
2DD65
100
AcDbEntity
 67
     1
  8
0
100
AcDbBlockEnd
  0
BLOCK
  5
127
330
123
100
AcDbEntity
  8
0
100
AcDbBlockBegin
  2
_OPEN
 70
     0
 10
0.0
 20
0.0
 30
0.0
  3
_OPEN
  1
_OPEN
  0
LINE
  5
124
330
123
100
AcDbEntity
  8
0
  6
ByBlock
 62
     0
100
AcDbLine
 10
-1.0
 20
0.1666666666666667
 30
0.0
 11
0.0
 21
0.0
 31
0.0
  0
LINE
  5
125
330
123
100
AcDbEntity
  8
0
  6
ByBlock
 62
     0
100
AcDbLine
 10
0.0
 20
0.0
 30
0.0
 11
-1.0
 21
-0.1666666666666667
 31
0.0
  0
LINE
  5
126
330
123
100
AcDbEntity
  8
0
  6
ByBlock
 62
     0
100
AcDbLine
 10
0.0
 20
0.0
 30
0.0
 11
-1.0
 21
0.0
 31
0.0
  0
ENDBLK
  5
128
330
123
100
AcDbEntity
  8
0
100
AcDbBlockEnd
  0
BLOCK
  5
499
330
495
100
AcDbEntity
  8
0
100
AcDbBlockBegin
  2
_Open30
 70
     0
 10
0.0
 20
0.0
 30
0.0
  3
_Open30
  1
_Open30
  0
LINE
  5
496
330
495
100
AcDbEntity
  8
dimension
 62
     0
370
    -2
100
AcDbLine
 10
-1.0
 20
0.26794919
 30
0.0
 11
0.0
 21
0.0
 31
0.0
  0
LINE
  5
497
330
495
100
AcDbEntity
  8
dimension
 62
     0
370
    -2
100
AcDbLine
 10
0.0
 20
0.0
 30
0.0
 11
-1.0
 21
-0.26794919
 31
0.0
  0
LINE
  5
498
330
495
100
AcDbEntity
  8
dimension
 62
     0
370
    -2
100
AcDbLine
 10
0.0
 20
0.0
 30
0.0
 11
-1.0
 21
0.0
 31
0.0
  0
ENDBLK
  5
49A
330
495
100
AcDbEntity
  8
0
100
AcDbBlockEnd
  0
ENDSEC
  0
SECTION
  2
ENTITIES
  0
MTEXT
  5
1E1CF
330
1F
100
AcDbEntity
  8
0
100
AcDbMText
 10
909.4269509669731
 20
447.0555623760709
 30
0.0
 40
2.5
 41
0.625
 71
     1
 72
     1
  1

 73
     1
 44
1.0
  0
MTEXT
  5
2753B
330
1F
100
AcDbEntity
  8
Text
 62
     7
100
AcDbMText
 10
-396.17738502562
 20
1556.408851306678
 30
0.0
 40
3.0
 41
1.0
 71
     9
 72
     1
  1

  7
まこ
 73
     1
 44
1.0
  0
MTEXT
  5
27578
330
1F
100
AcDbEntity
  8
dimension
 62
     7
100
AcDbMText
 10
-313.5767856379211
 20
1517.204398976271
 30
0.0
 40
3.0
 41
1.0
 71
     7
 72
     1
  1

  7
まこ
 73
     1
 44
1.0
  0
ARC
  5
2A946
102
{ACAD_REACTORS
330
2C6E2
102
}
330
1F
100
AcDbEntity
  8
破線
 48
0.5
100
AcDbCircle
 10
936.6007842096546
 20
2408.299799342586
 30
0.0
 40
223.0
100
AcDbArc
 50
212.5000000000104
 51
327.4999999999895
  0
ARC
  5
2A947
102
{ACAD_REACTORS
330
2C6E2
102
}
330
1F
100
AcDbEntity
  8
実線
 48
10.0
100
AcDbCircle
 10
936.6007842096546
 20
2408.299799342586
 30
0.0
 40
201.0
100
AcDbArc
 50
212.5000000000104
 51
327.4999999999895
  0
ARC
  5
2A948
102
{ACAD_REACTORS
330
2C6E2
102
}
330
1F
100
AcDbEntity
  8
中心線
 48
0.5
100
AcDbCircle
 10
936.6007842096546
 20
2408.299799342586
 30
0.0
 40
230.0
100
AcDbArc
 50
215.8627567525723
 51
323.9405730303027
  0
ARC
  5
2A949
102
{ACAD_REACTORS
330
2C6E2
102
}
330
1F
100
AcDbEntity
  8
実線
 48
10.0
100
AcDbCircle
 10
936.6007842096546
 20
2408.299799342586
 30
0.0
 40
240.0
100
AcDbArc
 50
212.5000000000104
 51
327.4999999999895
  0
ARC
  5
2A94A
102
{ACAD_REACTORS
330
2C6E2
102
}
330
1F
100
AcDbEntity
  8
実線
 48
10.0
100
AcDbCircle
 10
936.600784209653
 20
2408.299799342587
 30
0.0
 40
143.9999999999999
100
AcDbArc
 50
212.897890555838
 51
327.1021094441611
  0
LINE
  5
2A952
102
{ACAD_REACTORS
330
2C6E2
102
}
330
1F
100
AcDbEntity
  8
実線
 48
50.0
100
AcDbLine
 10
734.1868372145614
 20
2279.34789333935
 30
0.0
 11
767.0791036012639
 21
2300.302578064875
 31
0.0
  0
CIRCLE
  5
2A95A
102
{ACAD_REACTORS
330
2C6E2
102
}
330
1F
100
AcDbEntity
  8
実線
 48
10.0
100
AcDbCircle
 10
873.2041923717456
 20
2187.209609276772
 30
0.0
 40
5.5
  0
CIRCLE
  5
2A95F
102
{ACAD_REACTORS
330
2C6E2
102
}
330
1F
100
AcDbEntity
  8
実線
 48
10.0
100
AcDbCircle
 10
801.4101761823936
 20
2222.225890636342
 30
0.0
 40
4.75
  0
LINE
  5
2A960
102
{ACAD_REACTORS
330
2C6E2
102
}
330
1F
100
AcDbEntity
  8
中心線
 48
0.5
100
AcDbLine
 10
804.1209681513533
 20
2196.287775303481
 30
0.0
 11
823.3060362205674
 21
2226.990302176646
 31
0.0
  0
LINE
  5
2A961
102
{ACAD_REACTORS
330
2C6E2
102
}
330
1F
100
AcDbEntity
  8
中心線
 48
0.5
100
AcDbLine
 10
789.6544711365473
 20
2206.045550748848
 30
0.0
 11
810.7907185920849
 21
2235.137099613254
 31
0.0
  0
CIRCLE
  5
2A967
102
{ACAD_REACTORS
330
2C6E2
102
}
330
1F
100
AcDbEntity
  8
実線
 48
0.1
100
AcDbCircle
 10
765.677474349855
 20
2254.399759880049
 30
0.0
 40
3.3
  0
LINE
  5
2A968
102
{ACAD_REACTORS
330
2C6E2
102
}
330
1F
100
AcDbEntity
  8
中心線
 48
0.5
100
AcDbLine
 10
750.8145778403064
 20
2241.017147752873
 30
0.0
 11
777.7192122334304
 21
2265.242189370796
 31
0.0
  0
LINE
  5
2A969
102
{ACAD_REACTORS
330
2C6E2
102
}
330
1F
100
AcDbEntity
  8
中心線
 48
0.5
100
AcDbLine
 10
762.936191594918
 20
2228.46484925792
 30
0.0
 11
787.9155036103484
 21
2254.33168406753
 31
0.0
  0
CIRCLE
  5
2A96A
102
{ACAD_REACTORS
330
2C6E2
102
}
330
1F
100
AcDbEntity
  8
実線
 48
10.0
100
AcDbCircle
 10
765.677474349855
 20
2254.399759880049
 30
0.0
 40
5.5
  0
CIRCLE
  5
2A96C
102
{ACAD_REACTORS
330
2C6E2
102
}
330
1F
100
AcDbEntity
  8
実線
 48
10.0
100
AcDbCircle
 10
755.3583108801163
 20
2266.697660017674
 30
0.0
 40
4.75
  0
LINE
  5
2A96D
102
{ACAD_REACTORS
330
2C6E2
102
}
330
1F
100
AcDbEntity
  8
中心線
 48
0.5
100
AcDbLine
 10
739.5980958079886
 20
2254.384430511166
 30
0.0
 11
767.9342784884775
 21
2276.5230827495
 31
0.0
  0
CIRCLE
  5
2A96E
102
{ACAD_REACTORS
330
2C6E2
102
}
330
1F
100
AcDbEntity
  8
実線
 48
10.0
100
AcDbCircle
 10
755.3582990366353
 20
2266.697659189496
 30
0.0
 40
4.25
  0
CIRCLE
  5
2A96F
102
{ACAD_REACTORS
330
2C6E2
102
}
330
1F
100
AcDbEntity
  8
実線
 48
10.0
100
AcDbCircle
 10
776.8293590040935
 20
2242.851645264688
 30
0.0
 40
4.75
  0
CIRCLE
  5
2A970
102
{ACAD_REACTORS
330
2C6E2
102
}
330
1F
100
AcDbEntity
  8
実線
 48
10.0
100
AcDbCircle
 10
776.8293471606125
 20
2242.85164443651
 30
0.0
 40
4.25
  0
CIRCLE
  5
2A981
102
{ACAD_REACTORS
330
2C6E2
102
}
330
1F
100
AcDbEntity
  8
実線
 48
0.1
100
AcDbCircle
 10
814.7193534360185
 20
2213.248737226608
 30
0.0
 40
3.3
  0
LINE
  5
2A983
102
{ACAD_REACTORS
330
2C6E2
102
}
330
1F
100
AcDbEntity
  8
中心線
 48
0.5
100
AcDbLine
 10
819.2328935131904
 20
2187.562901127854
 30
0.0
 11
836.1146833942387
 21
2219.312930139557
 31
0.0
  0
CIRCLE
  5
2A984
102
{ACAD_REACTORS
330
2C6E2
102
}
330
1F
100
AcDbEntity
  8
実線
 48
10.0
100
AcDbCircle
 10
828.6223247689063
 20
2205.22185298503
 30
0.0
 40
4.75
  0
CIRCLE
  5
2A985
102
{ACAD_REACTORS
330
2C6E2
102
}
330
1F
100
AcDbEntity
  8
実線
 48
10.0
100
AcDbCircle
 10
814.7193534360181
 20
2213.248737226608
 30
0.0
 40
5.5
  0
CIRCLE
  5
2A986
102
{ACAD_REACTORS
330
2C6E2
102
}
330
1F
100
AcDbEntity
  8
実線
 48
0.1
100
AcDbCircle
 10
873.2041923717466
 20
2187.209609276772
 30
0.0
 40
3.3
  0
LINE
  5
2A987
102
{ACAD_REACTORS
330
2C6E2
102
}
330
1F
100
AcDbEntity
  8
中心線
 48
0.5
100
AcDbLine
 10
867.6914452554051
 20
2167.984375358007
 30
0.0
 11
877.6705530000904
 21
2202.785659843465
 31
0.0
  0
LINE
  5
2A988
102
{ACAD_REACTORS
330
2C6E2
102
}
330
1F
100
AcDbEntity
  8
中心線
 48
0.5
100
AcDbLine
 10
851.0957483782436
 20
2173.37664414611
 30
0.0
 11
863.3944958475195
 21
2207.167175105519
 31
0.0
  0
CIRCLE
  5
2A98A
102
{ACAD_REACTORS
330
2C6E2
102
}
330
1F
100
AcDbEntity
  8
実線
 48
10.0
100
AcDbCircle
 10
857.9361512447563
 20
2192.170496561825
 30
0.0
 40
4.75
  0
LINE
  5
2A9A3
102
{ACAD_REACTORS
330
2C6E2
102
}
330
1F
100
AcDbEntity
  8
中心線
 48
0.5
100
AcDbLine
 10
954.0399026456867
 20
2158.908786777631
 30
0.0
 11
951.5315204007575
 21
2194.780324106623
 31
0.0
  0
CIRCLE
  5
2A9A4
102
{ACAD_REACTORS
330
2C6E2
102
}
330
1F
100
AcDbEntity
  8
実線
 48
10.0
100
AcDbCircle
 10
952.6447850142854
 20
2178.860068611004
 30
0.0
 40
4.75
  0
CIRCLE
  5
2A9BA
102
{ACAD_REACTORS
330
2C6E2
102
}
330
1F
100
AcDbEntity
  8
実線
 48
10.0
100
AcDbCircle
 10
888.7810953215726
 20
2183.32585117381
 30
0.0
 40
4.75
  0
LINE
  5
2A9BB
102
{ACAD_REACTORS
330
2C6E2
102
}
330
1F
100
AcDbEntity
  8
中心線
 48
0.5
100
AcDbLine
 10
884.6228615052182
 20
2163.762899159135
 30
0.0
 11
892.0991854328504
 21
2198.936237817286
 31
0.0
  0
CIRCLE
  5
2A9C2
102
{ACAD_REACTORS
330
2C6E2
102
}
330
1F
100
AcDbEntity
  8
実線
 48
0.1
100
AcDbCircle
 10
936.6007842096558
 20
2178.299799342586
 30
0.0
 40
3.3
  0
CIRCLE
  5
2A9C4
102
{ACAD_REACTORS
330
2C6E2
102
}
330
1F
100
AcDbEntity
  8
実線
 48
10.0
100
AcDbCircle
 10
920.5567952485067
 20
2178.860067782826
 30
0.0
 40
4.75
  0
LINE
  5
2A9C6
102
{ACAD_REACTORS
330
2C6E2
102
}
330
1F
100
AcDbEntity
  8
中心線
 48
0.5
100
AcDbLine
 10
919.1616657736245
 20
2158.908786777631
 30
0.0
 11
921.6700480185536
 21
2194.780324106622
 31
0.0
  0
CIRCLE
  5
2A9C7
102
{ACAD_REACTORS
330
2C6E2
102
}
330
1F
100
AcDbEntity
  8
実線
 48
10.0
100
AcDbCircle
 10
936.6007842096546
 20
2178.299799342586
 30
0.0
 40
5.5
  0
CIRCLE
  5
2A9DE
102
{ACAD_REACTORS
330
2C6E2
102
}
330
1F
100
AcDbEntity
  8
実線
 48
10.0
100
AcDbCircle
 10
984.4204730977376
 20
2183.32585117381
 30
0.0
 40
4.75
  0
LINE
  5
2A9DF
102
{ACAD_REACTORS
330
2C6E2
102
}
330
1F
100
AcDbEntity
  8
中心線
 48
0.5
100
AcDbLine
 10
988.5787069140929
 20
2163.762899159135
 30
0.0
 11
981.1023829864607
 21
2198.936237817288
 31
0.0
  0
CIRCLE
  5
2A9E9
102
{ACAD_REACTORS
330
2C6E2
102
}
330
1F
100
AcDbEntity
  8
実線
 48
0.1
100
AcDbCircle
 10
999.9973760475664
 20
2187.209609276772
 30
0.0
 40
3.3
  0
LINE
  5
2A9EA
102
{ACAD_REACTORS
330
2C6E2
102
}
330
1F
100
AcDbEntity
  8
中心線
 48
0.5
100
AcDbLine
 10
1022.105820041068
 20
2173.376644146108
 30
0.0
 11
1009.807072571791
 21
2207.167175105521
 31
0.0
  0
CIRCLE
  5
2A9EB
102
{ACAD_REACTORS
330
2C6E2
102
}
330
1F
100
AcDbEntity
  8
実線
 48
10.0
100
AcDbCircle
 10
1015.265417174555
 20
2192.170496561826
 30
0.0
 40
4.75
  0
LINE
  5
2A9EC
102
{ACAD_REACTORS
330
2C6E2
102
}
330
1F
100
AcDbEntity
  8
中心線
 48
0.5
100
AcDbLine
 10
1005.510123163905
 20
2167.984375358008
 30
0.0
 11
995.5310154192198
 21
2202.785659843465
 31
0.0
  0
CIRCLE
  5
2A9ED
102
{ACAD_REACTORS
330
2C6E2
102
}
330
1F
100
AcDbEntity
  8
実線
 48
10.0
100
AcDbCircle
 10
999.9973760475655
 20
2187.209609276772
 30
0.0
 40
5.5
  0
LINE
  5
2A9FB
102
{ACAD_REACTORS
330
2C6E2
102
}
330
1F
100
AcDbEntity
  8
実線
 48
0.1
100
AcDbLine
 10
767.6185012112664
 20
2299.460523193524
 30
0.0
 11
815.6926440987702
 21
2330.087129940967
 31
0.0
  0
LINE
  5
2AA01
102
{ACAD_REACTORS
330
2C6E1
102
}
330
1F
100
AcDbEntity
  8
ﾓｰﾀ
 48
50.0
100
AcDbLine
 10
1129.09763294929
 20
2309.379562660139
 30
0.0
 11
1118.351640782353
 21
2292.511733743881
 31
0.0
  0
LINE
  5
2AA02
102
{ACAD_REACTORS
330
2C6E1
102
}
330
1F
100
AcDbEntity
  8
ﾓｰﾀ
 48
50.0
100
AcDbLine
 10
1135.001373069982
 20
2305.618465401711
 30
0.0
 11
1124.255380903045
 21
2288.750636485453
 31
0.0
  0
LINE
  5
2AA03
102
{ACAD_REACTORS
330
2C6E2
102
}
330
1F
100
AcDbEntity
  8
実線
 48
50.0
100
AcDbLine
 10
1139.014731204747
 20
2279.347893339349
 30
0.0
 11
1106.122464818045
 21
2300.302578064875
 31
0.0
  0
LINE
  5
2AA0B
102
{ACAD_REACTORS
330
2C6E2
102
}
330
1F
100
AcDbEntity
  8
中心線
 48
0.5
100
AcDbLine
 10
1122.386990579004
 20
2241.017147752873
 30
0.0
 11
1095.276677369904
 21
2265.427383408527
 31
0.0
  0
CIRCLE
  5
2AA0C
102
{ACAD_REACTORS
330
2C6E2
102
}
330
1F
100
AcDbEntity
  8
実線
 48
10.0
100
AcDbCircle
 10
1096.372209415217
 20
2242.851645264689
 30
0.0
 40
4.75
  0
LINE
  5
2AA0E
102
{ACAD_REACTORS
330
2C6E2
102
}
330
1F
100
AcDbEntity
  8
中心線
 48
0.5
100
AcDbLine
 10
1110.265376824396
 20
2228.464849257918
 30
0.0
 11
1085.286064808961
 21
2254.331684067534
 31
0.0
  0
LINE
  5
2AA10
102
{ACAD_REACTORS
330
2C6E2
102
}
330
1F
100
AcDbEntity
  8
中心線
 48
0.5
100
AcDbLine
 10
1083.547097282766
 20
2206.045550748846
 30
0.0
 11
1062.410849827225
 21
2235.137099613257
 31
0.0
  0
LINE
  5
2AA11
102
{ACAD_REACTORS
330
2C6E2
102
}
330
1F
100
AcDbEntity
  8
中心線
 48
0.5
100
AcDbLine
 10
1069.080600267957
 20
2196.287775303481
 30
0.0
 11
1049.895532198743
 21
2226.990302176646
 31
0.0
  0
CIRCLE
  5
2AA12
102
{ACAD_REACTORS
330
2C6E2
102
}
330
1F
100
AcDbEntity
  8
実線
 48
10.0
100
AcDbCircle
 10
1071.791392236918
 20
2222.225890636344
 30
0.0
 40
4.75
  0
CIRCLE
  5
2AA13
102
{ACAD_REACTORS
330
2C6E2
102
}
330
1F
100
AcDbEntity
  8
実線
 48
0.1
100
AcDbCircle
 10
1058.482214983294
 20
2213.248737226608
 30
0.0
 40
3.3
  0
CIRCLE
  5
2AA14
102
{ACAD_REACTORS
330
2C6E2
102
}
330
1F
100
AcDbEntity
  8
実線
 48
10.0
100
AcDbCircle
 10
1058.482214983292
 20
2213.248737226609
 30
0.0
 40
5.5
  0
CIRCLE
  5
2AA15
102
{ACAD_REACTORS
330
2C6E2
102
}
330
1F
100
AcDbEntity
  8
実線
 48
10.0
100
AcDbCircle
 10
1044.579243650405
 20
2205.22185298503
 30
0.0
 40
4.75
  0
LINE
  5
2AA17
102
{ACAD_REACTORS
330
2C6E2
102
}
330
1F
100
AcDbEntity
  8
中心線
 48
0.5
100
AcDbLine
 10
1053.968674906122
 20
2187.562901127852
 30
0.0
 11
1037.086885025071
 21
2219.312930139559
 31
0.0
  0
CIRCLE
  5
2AA31
102
{ACAD_REACTORS
330
2C6E2
102
}
330
1F
100
AcDbEntity
  8
実線
 48
0.1
100
AcDbCircle
 10
1107.524094069457
 20
2254.399759880049
 30
0.0
 40
3.3
  0
LINE
  5
2AA32
102
{ACAD_REACTORS
330
2C6E2
102
}
330
1F
100
AcDbEntity
  8
中心線
 48
0.5
100
AcDbLine
 10
1133.603472611326
 20
2254.384430511164
 30
0.0
 11
1105.267289930831
 21
2276.523082749504
 31
0.0
  0
CIRCLE
  5
2AA33
102
{ACAD_REACTORS
330
2C6E2
102
}
330
1F
100
AcDbEntity
  8
実線
 48
10.0
100
AcDbCircle
 10
1117.843257539194
 20
2266.697660017676
 30
0.0
 40
4.75
  0
CIRCLE
  5
2AA34
102
{ACAD_REACTORS
330
2C6E2
102
}
330
1F
100
AcDbEntity
  8
実線
 48
10.0
100
AcDbCircle
 10
1107.524094069456
 20
2254.39975988005
 30
0.0
 40
5.5
  0
LINE
  5
2AA38
102
{ACAD_REACTORS
330
2C6E1
102
}
330
1F
100
AcDbEntity
  8
ﾓｰﾀ
100
AcDbLine
 10
1171.333166950113
 20
2378.62563741911
 30
0.0
 11
1178.371816052461
 21
2389.674103397457
 31
0.0
  0
LINE
  5
2AA39
102
{ACAD_REACTORS
330
2C6E1
102
}
330
1F
100
AcDbEntity
  8
ﾓｰﾀ
100
AcDbLine
 10
1164.717543505366
 20
2355.562929732708
 30
0.0
 11
1178.801732335067
 21
2372.546120837657
 31
0.0
  0
LINE
  5
2AA3A
102
{ACAD_REACTORS
330
2C6E1
102
}
330
1F
100
AcDbEntity
  8
ﾓｰﾀ
100
AcDbLine
 10
1163.033387532145
 20
2356.641641305771
 30
0.0
 11
1177.117576361845
 21
2373.624832410723
 31
0.0
  0
LINE
  5
2AA3B
102
{ACAD_REACTORS
330
2C6E1
102
}
330
1F
100
AcDbEntity
  8
ﾓｰﾀ
100
AcDbLine
 10
1167.087502053655
 20
2365.261658221622
 30
0.0
 11
1172.453394852428
 21
2376.597400918973
 31
0.0
  0
LINE
  5
2AA3C
102
{ACAD_REACTORS
330
2C6E1
102
}
330
1F
100
AcDbEntity
  8
ﾓｰﾀ
100
AcDbLine
 10
1166.064159692573
 20
2364.027677401414
 30
0.0
 11
1172.11551489872
 21
2376.811497011612
 31
0.0
  0
LINE
  5
2AA3D
102
{ACAD_REACTORS
330
2C6E1
102
}
330
1F
100
AcDbEntity
  8
ﾓｰﾀ
100
AcDbLine
 10
1161.012400364278
 20
2357.936095193448
 30
0.0
 11
1175.096589193981
 21
2374.919286298401
 31
0.0
  0
LINE
  5
2AA3E
102
{ACAD_REACTORS
330
2C6E1
102
}
330
1F
100
AcDbEntity
  8
ﾓｰﾀ
100
AcDbLine
 10
1162.6965563375
 20
2356.857383620384
 30
0.0
 11
1176.780745167201
 21
2373.840574725336
 31
0.0
  0
LINE
  5
2AA3F
102
{ACAD_REACTORS
330
2C6E1
102
}
330
1F
100
AcDbEntity
  8
ﾓｰﾀ
100
AcDbLine
 10
1169.898751040203
 20
2378.235203184763
 30
0.0
 11
1180.019448389958
 21
2371.787607884601
 31
0.0
  0
LINE
  5
2AA40
102
{ACAD_REACTORS
330
2C6E2
102
}
330
1F
100
AcDbEntity
  8
実線
 48
0.1
100
AcDbLine
 10
1105.583067208044
 20
2299.460523193523
 30
0.0
 11
1057.508924320535
 21
2330.087129940965
 31
0.0
  0
LINE
  5
2AA46
102
{ACAD_REACTORS
330
2C6E1
102
}
330
1F
100
AcDbEntity
  8
ﾓｰﾀ
100
AcDbLine
 10
1160.986352184269
 20
2357.939960760762
 30
0.0
 11
1170.426115130182
 21
2377.881977474798
 31
0.0
  0
LINE
  5
2AA47
102
{ACAD_REACTORS
330
2C6E1
102
}
330
1F
100
AcDbEntity
  8
ﾓｰﾀ
 48
50.0
100
AcDbLine
 10
1138.884629784973
 20
2325.672649934756
 30
0.0
 11
1128.675937226384
 21
2309.648212464313
 31
0.0
  0
LINE
  5
2AA48
102
{ACAD_REACTORS
330
2C6E1
102
}
330
1F
100
AcDbEntity
  8
ﾓｰﾀ
 48
50.0
100
AcDbLine
 10
1135.423068792888
 20
2305.349815597538
 30
0.0
 11
1128.675937226385
 21
2309.648212464313
 31
0.0
  0
LINE
  5
2AA49
102
{ACAD_REACTORS
330
2C6E1
102
}
330
1F
100
AcDbEntity
  8
ﾓｰﾀ
100
AcDbLine
 10
1160.743708420046
 20
2358.123371394468
 30
0.0
 11
1164.960665643544
 21
2355.436873356281
 31
0.0
  0
LINE
  5
2AA4A
102
{ACAD_REACTORS
330
2C6E1
102
}
330
1F
100
AcDbEntity
  8
ﾓｰﾀ
100
AcDbLine
 10
1159.900316971451
 20
2358.66067100459
 30
0.0
 11
1166.647448537951
 21
2354.362274137812
 31
0.0
  0
LINE
  5
2AA4B
102
{ACAD_REACTORS
330
2C6E1
102
}
330
1F
100
AcDbEntity
  8
ﾓｰﾀ
100
AcDbLine
 10
1163.013631906514
 20
2356.655384204937
 30
0.0
 11
1163.658085770636
 21
2358.01682832206
 31
0.0
  0
LINE
  5
2AA4C
102
{ACAD_REACTORS
330
2C6E1
102
}
330
1F
100
AcDbEntity
  8
ﾓｰﾀ
100
AcDbLine
 10
1168.088914319449
 20
2362.737766443198
 30
0.0
 11
1168.774797576053
 21
2364.186732423109
 31
0.0
  0
LINE
  5
2AA4D
102
{ACAD_REACTORS
330
2C6E1
102
}
330
1F
100
AcDbEntity
  8
ﾓｰﾀ
 48
50.0
100
AcDbLine
 10
1145.631761351476
 20
2321.374253067982
 30
0.0
 11
1135.423068792887
 21
2305.349815597538
 31
0.0
  0
LINE
  5
2AA4E
102
{ACAD_REACTORS
330
2C6E1
102
}
330
1F
100
AcDbEntity
  8
ﾓｰﾀ
100
AcDbLine
 10
1159.900316971451
 20
2358.66067100459
 30
0.0
 11
1140.667341070722
 21
2328.470946128161
 31
0.0
  0
LINE
  5
2AA4F
102
{ACAD_REACTORS
330
2C6E1
102
}
330
1F
100
AcDbEntity
  8
ﾓｰﾀ
100
AcDbLine
 10
1166.647448537951
 20
2354.362274137812
 30
0.0
 11
1147.428122982804
 21
2324.193976011967
 31
0.0
  0
LINE
  5
2AA50
102
{ACAD_REACTORS
330
2C6E1
102
}
330
1F
100
AcDbEntity
  8
ﾓｰﾀ
100
AcDbLine
 10
1169.898751040203
 20
2378.235203184763
 30
0.0
 11
1170.489780609384
 21
2379.162933775159
 31
0.0
  0
LINE
  5
2AA51
102
{ACAD_REACTORS
330
2C6E1
102
}
330
1F
100
AcDbEntity
  8
ﾓｰﾀ
100
AcDbLine
 10
1170.489780609384
 20
2379.162933775159
 30
0.0
 11
1171.333166950113
 21
2378.62563741911
 31
0.0
  0
LINE
  5
2AA52
102
{ACAD_REACTORS
330
2C6E1
102
}
330
1F
100
AcDbEntity
  8
ﾓｰﾀ
100
AcDbLine
 10
1180.019448389958
 20
2371.787607884601
 30
0.0
 11
1180.610477959139
 21
2372.715338474995
 31
0.0
  0
LINE
  5
2AA53
102
{ACAD_REACTORS
330
2C6E1
102
}
330
1F
100
AcDbEntity
  8
ﾓｰﾀ
100
AcDbLine
 10
1172.20421385907
 20
2371.431562322673
 30
0.0
 11
1174.142794620966
 21
2375.526920455787
 31
0.0
  0
LINE
  5
2AA54
102
{ACAD_REACTORS
330
2C169
330
2C6E1
102
}
330
1F
100
AcDbEntity
  8
ﾓｰﾀ
100
AcDbLine
 10
1176.054361285244
 20
2388.762575566893
 30
0.0
 11
1172.304578613622
 21
2384.670405860191
 31
0.0
  0
LINE
  5
2AA55
102
{ACAD_REACTORS
330
2C169
330
2C6E1
102
}
330
1F
100
AcDbEntity
  8
ﾓｰﾀ
100
AcDbLine
 10
1178.061831272428
 20
2395.515465347906
 30
0.0
 11
1172.007232257227
 21
2386.011648598518
 31
0.0
  0
LINE
  5
2AA56
102
{ACAD_REACTORS
330
2C169
330
2C6E1
102
}
330
1F
100
AcDbEntity
  8
ﾓｰﾀ
100
AcDbLine
 10
1176.702174608498
 20
2394.158664593615
 30
0.0
 11
1171.132987410896
 21
2385.416791773272
 31
0.0
  0
LINE
  5
2AA57
102
{ACAD_REACTORS
330
2C6E1
102
}
330
1F
100
AcDbEntity
  8
ﾓｰﾀ
100
AcDbLine
 10
1179.767081408242
 20
2373.252641335642
 30
0.0
 11
1186.805730510589
 21
2384.301107313989
 31
0.0
  0
LINE
  5
2AA58
102
{ACAD_REACTORS
330
2C169
330
2C6E1
102
}
330
1F
100
AcDbEntity
  8
ﾓｰﾀ
100
AcDbLine
 10
1172.304578613622
 20
2384.670405860191
 30
0.0
 11
1171.132987410896
 21
2385.416791773272
 31
0.0
  0
LINE
  5
2AA59
102
{ACAD_REACTORS
330
2C169
330
2C6E1
102
}
330
1F
100
AcDbEntity
  8
ﾓｰﾀ
100
AcDbLine
 10
1172.007232257227
 20
2386.011648598518
 30
0.0
 11
1171.654935601863
 21
2386.236086320633
 31
0.0
  0
LINE
  5
2AA5A
102
{ACAD_REACTORS
330
2C6E1
102
}
330
1F
100
AcDbEntity
  8
ﾓｰﾀ
100
AcDbLine
 10
1179.767081408242
 20
2373.252641335642
 30
0.0
 11
1180.610477959139
 21
2372.715338474995
 31
0.0
  0
LINE
  5
2AA5B
102
{ACAD_REACTORS
330
2C169
330
2C6E1
102
}
330
1F
100
AcDbEntity
  8
ﾓｰﾀ
100
AcDbLine
 10
1180.468156922323
 20
2395.134279056047
 30
0.0
 11
1179.403074010754
 21
2395.812811704303
 31
0.0
  0
LINE
  5
2AA5C
102
{ACAD_REACTORS
330
2C169
330
2C6E1
102
}
330
1F
100
AcDbEntity
  8
ﾓｰﾀ
100
AcDbLine
 10
1178.371816052461
 20
2389.674103397457
 30
0.0
 11
1175.15198848133
 21
2391.725359787952
 31
0.0
  0
LINE
  5
2AA5D
102
{ACAD_REACTORS
330
2C169
330
2C6E1
102
}
330
1F
100
AcDbEntity
  8
ﾓｰﾀ
100
AcDbLine
 10
1179.133551809271
 20
2393.220166961478
 30
0.0
 11
1177.30673314089
 21
2390.352636045713
 31
0.0
  0
ARC
  5
2AA5E
102
{ACAD_REACTORS
330
2C169
330
2C6E1
102
}
330
1F
100
AcDbEntity
  8
ﾓｰﾀ
100
AcDbCircle
 10
1176.412467420267
 20
2388.434431751766
 30
0.0
 40
0.4857142857142857
100
AcDbArc
 50
57.50000000000967
 51
137.50000000002
  0
LINE
  5
2AA5F
102
{ACAD_REACTORS
330
2C169
330
2C6E1
102
}
330
1F
100
AcDbEntity
  8
ﾓｰﾀ
100
AcDbLine
 10
1180.765503278719
 20
2393.79303631772
 30
0.0
 11
1179.982580992272
 21
2392.564094496679
 31
0.0
  0
ARC
  5
2AA60
102
{ACAD_REACTORS
330
2C169
330
2C6E1
102
}
330
1F
100
AcDbEntity
  8
ﾓｰﾀ
100
AcDbCircle
 10
1176.834760686294
 20
2388.165401270639
 30
0.0
 40
0.4857142857142857
100
AcDbArc
 50
327.5000000000097
 51
57.50000000000967
  0
LINE
  5
2AA61
102
{ACAD_REACTORS
330
2C169
330
2C6E1
102
}
330
1F
100
AcDbEntity
  8
ﾓｰﾀ
100
AcDbLine
 10
1180.468156922323
 20
2395.134279056047
 30
0.0
 11
1180.765503278719
 21
2393.79303631772
 31
0.0
  0
LINE
  5
2AA62
102
{ACAD_REACTORS
330
2C169
330
2C6E1
102
}
330
1F
100
AcDbEntity
  8
ﾓｰﾀ
100
AcDbLine
 10
1179.98258099227
 20
2392.564094496678
 30
0.0
 11
1179.133551809271
 21
2393.220166961478
 31
0.0
  0
LINE
  5
2AA63
102
{ACAD_REACTORS
330
2C169
330
2C6E1
102
}
330
1F
100
AcDbEntity
  8
ﾓｰﾀ
100
AcDbLine
 10
1177.095734781777
 20
2388.57504854432
 30
0.0
 11
1176.673441515748
 21
2388.844079025446
 31
0.0
  0
LINE
  5
2AA64
102
{ACAD_REACTORS
330
2C6E1
102
}
330
1F
100
AcDbEntity
  8
ﾓｰﾀ
100
AcDbLine
 10
1178.371816052461
 20
2389.674103397457
 30
0.0
 11
1186.805730510589
 21
2384.301107313989
 31
0.0
  0
LINE
  5
2AA65
102
{ACAD_REACTORS
330
2C6E1
102
}
330
1F
100
AcDbEntity
  8
ﾓｰﾀ
100
AcDbLine
 10
1188.178069642163
 20
2394.690876816146
 30
0.0
 11
1191.087770130217
 21
2392.837193167349
 31
0.0
  0
LINE
  5
2AA66
102
{ACAD_REACTORS
330
2C6E1
102
}
330
1F
100
AcDbEntity
  8
ﾓｰﾀ
100
AcDbLine
 10
1184.720164714331
 20
2396.893805210367
 30
0.0
 11
1187.629865202386
 21
2395.04012156157
 31
0.0
  0
LINE
  5
2AA67
102
{ACAD_REACTORS
330
2C6E1
102
}
330
1F
100
AcDbEntity
  8
ﾓｰﾀ
100
AcDbLine
 10
1184.720164714331
 20
2396.893805210367
 30
0.0
 11
1179.615818435036
 21
2388.881586475144
 31
0.0
  0
LINE
  5
2AA68
102
{ACAD_REACTORS
330
2C6E1
102
}
330
1F
100
AcDbEntity
  8
ﾓｰﾀ
100
AcDbLine
 10
1187.629865202386
 20
2395.04012156157
 30
0.0
 11
1182.525518923091
 21
2387.027902826348
 31
0.0
  0
LINE
  5
2AA69
102
{ACAD_REACTORS
330
2C6E1
102
}
330
1F
100
AcDbEntity
  8
ﾓｰﾀ
100
AcDbLine
 10
1188.178069642163
 20
2394.690876816146
 30
0.0
 11
1183.073723362868
 21
2386.678658080923
 31
0.0
  0
LINE
  5
2AA6A
102
{ACAD_REACTORS
330
2C6E1
102
}
330
1F
100
AcDbEntity
  8
ﾓｰﾀ
100
AcDbLine
 10
1191.087770130217
 20
2392.837193167349
 30
0.0
 11
1185.983423850922
 21
2384.824974432127
 31
0.0
  0
LINE
  5
2AA6B
102
{ACAD_REACTORS
330
2C169
330
2C6E1
102
}
330
1F
100
AcDbEntity
  8
ﾓｰﾀ
100
AcDbLine
 10
1178.098203533339
 20
2393.764575335899
 30
0.0
 11
1176.323579684056
 21
2390.978973874871
 31
0.0
  0
LINE
  5
2AA6C
102
{ACAD_REACTORS
330
2C169
330
2C6E1
102
}
330
1F
100
AcDbEntity
  8
ﾓｰﾀ
100
AcDbLine
 10
1177.278908985979
 20
2394.286523526865
 30
0.0
 11
1176.702174608498
 21
2394.158664593615
 31
0.0
  0
LINE
  5
2AA6D
102
{ACAD_REACTORS
330
2C169
330
2C6E1
102
}
330
1F
100
AcDbEntity
  8
ﾓｰﾀ
100
AcDbLine
 10
1178.061831272428
 20
2395.515465347906
 30
0.0
 11
1179.403074010754
 21
2395.812811704303
 31
0.0
  0
LINE
  5
2AA6E
102
{ACAD_REACTORS
330
2C169
330
2C6E1
102
}
330
1F
100
AcDbEntity
  8
ﾓｰﾀ
100
AcDbLine
 10
1178.098203533339
 20
2393.764575335899
 30
0.0
 11
1177.278908985979
 21
2394.286523526865
 31
0.0
  0
LINE
  5
2B463
102
{ACAD_REACTORS
330
2C6C8
102
}
330
1F
100
AcDbEntity
  8
中心線
 48
0.5
100
AcDbLine
 10
1283.096587609889
 20
2177.797827443038
 30
0.0
 11
1283.096587609889
 21
2280.142725736705
 31
0.0
  0
LINE
  5
2B466
102
{ACAD_REACTORS
330
2C6C8
102
}
330
1F
100
AcDbEntity
  8
実線
 48
10.0
100
AcDbLine
 10
1286.996587609889
 20
2198.288057377013
 30
0.0
 11
1286.99658760989
 21
2220.288057377015
 31
0.0
  0
LINE
  5
2B467
102
{ACAD_REACTORS
330
2C6C8
102
}
330
1F
100
AcDbEntity
  8
実線
 48
10.0
100
AcDbLine
 10
1278.396587609888
 20
2198.288057377014
 30
0.0
 11
1278.396587609889
 21
2220.288057377015
 31
0.0
  0
LINE
  5
2B468
102
{ACAD_REACTORS
330
2C6C8
102
}
330
1F
100
AcDbEntity
  8
実線
 48
10.0
100
AcDbLine
 10
1268.096587609889
 20
2219.288057377014
 30
0.0
 11
1268.096587609888
 21
2182.288057377014
 31
0.0
  0
LINE
  5
2B469
102
{ACAD_REACTORS
330
2C6C8
102
}
330
1F
100
AcDbEntity
  8
実線
 48
10.0
100
AcDbLine
 10
1298.09658760989
 20
2183.288057377014
 30
0.0
 11
1298.09658760989
 21
2219.788057377013
 31
0.0
  0
LINE
  5
2B46B
102
{ACAD_REACTORS
330
2C6C8
102
}
330
1F
100
AcDbEntity
  8
破線
 48
0.3
100
AcDbLine
 10
1276.396587609889
 20
2188.538057377012
 30
0.0
 11
1273.596587609889
 21
2188.538057377014
 31
0.0
  0
LINE
  5
2B46C
102
{ACAD_REACTORS
330
2C6C8
102
}
330
1F
100
AcDbEntity
  8
中心線
 48
0.5
100
AcDbLine
 10
1300.963910610465
 20
2191.288057377012
 30
0.0
 11
1264.647177920791
 21
2191.288057377014
 31
0.0
  0
LINE
  5
2B46D
102
{ACAD_REACTORS
330
2C6C8
102
}
330
1F
100
AcDbEntity
  8
破線
 48
0.3
100
AcDbLine
 10
1276.396587609889
 20
2196.788057377014
 30
0.0
 11
1268.096587609889
 21
2196.788057377014
 31
0.0
  0
LINE
  5
2B46E
102
{ACAD_REACTORS
330
2C6C8
102
}
330
1F
100
AcDbEntity
  8
破線
 48
0.3
100
AcDbLine
 10
1276.396587609888
 20
2185.788057377012
 30
0.0
 11
1268.096587609888
 21
2185.788057377016
 31
0.0
  0
LINE
  5
2B470
102
{ACAD_REACTORS
330
2C6C8
102
}
330
1F
100
AcDbEntity
  8
実線
 48
0.1
100
AcDbLine
 10
1276.396587609889
 20
2181.288057377013
 30
0.0
 11
1269.096587609888
 21
2181.288057377013
 31
0.0
  0
LINE
  5
2B475
102
{ACAD_REACTORS
330
2C6C8
102
}
330
1F
100
AcDbEntity
  8
実線
 48
0.1
100
AcDbLine
 10
1268.096587609888
 20
2182.288057377014
 30
0.0
 11
1269.096587609888
 21
2181.288057377013
 31
0.0
  0
CIRCLE
  5
2B47A
102
{ACAD_REACTORS
330
2C6C8
102
}
330
1F
100
AcDbEntity
  8
dimension
 48
0.1
100
AcDbCircle
 10
1283.096587609889
 20
2202.288057377013
 30
0.0
 40
3.6
  0
LINE
  5
2B47B
102
{ACAD_REACTORS
330
2C6C8
102
}
330
1F
100
AcDbEntity
  8
中心線
 48
0.1
100
AcDbLine
 10
1286.577170855188
 20
2202.288057377013
 30
0.0
 11
1279.288308738742
 21
2202.288057377013
 31
0.0
  0
LINE
  5
2B47D
102
{ACAD_REACTORS
330
2C6C8
102
}
330
1F
100
AcDbEntity
  8
実線
 48
10.0
100
AcDbLine
 10
1300.596587609888
 20
2181.788057377014
 30
0.0
 11
1300.596587609889
 21
2183.288057377013
 31
0.0
  0
LINE
  5
2B47E
102
{ACAD_REACTORS
330
2C6C8
102
}
330
1F
100
AcDbEntity
  8
破線
 48
0.5
100
AcDbLine
 10
1298.09658760989
 20
2185.788057377014
 30
0.0
 11
1291.596587609888
 21
2185.788057377016
 31
0.0
  0
LINE
  5
2B47F
102
{ACAD_REACTORS
330
2C6C8
102
}
330
1F
100
AcDbEntity
  8
破線
 48
0.5
100
AcDbLine
 10
1298.096587609889
 20
2196.788057377013
 30
0.0
 11
1291.596587609888
 21
2196.788057377014
 31
0.0
  0
LINE
  5
2B480
102
{ACAD_REACTORS
330
2C6C8
102
}
330
1F
100
AcDbEntity
  8
破線
 48
0.5
100
AcDbLine
 10
1291.59658760989
 20
2185.788057377015
 30
0.0
 11
1291.596587609888
 21
2196.788057377014
 31
0.0
  0
LINE
  5
2B481
102
{ACAD_REACTORS
330
2C6C8
102
}
330
1F
100
AcDbEntity
  8
実線
 48
10.0
100
AcDbLine
 10
1276.396587609888
 20
2197.788057377013
 30
0.0
 11
1276.896587609888
 21
2198.288057377013
 31
0.0
  0
LINE
  5
2B482
102
{ACAD_REACTORS
330
2C6C8
102
}
330
1F
100
AcDbEntity
  8
実線
 48
0.1
100
AcDbLine
 10
1278.396587609888
 20
2198.288057377014
 30
0.0
 11
1276.396587609888
 21
2198.288057377013
 31
0.0
  0
LINE
  5
2B483
102
{ACAD_REACTORS
330
2C6C8
102
}
330
1F
100
AcDbEntity
  8
破線
 48
0.5
100
AcDbLine
 10
1291.59658760989
 20
2187.988057377014
 30
0.0
 11
1276.396587609888
 21
2187.988057377012
 31
0.0
  0
LINE
  5
2B484
102
{ACAD_REACTORS
330
2C6C8
102
}
330
1F
100
AcDbEntity
  8
破線
 48
0.5
100
AcDbLine
 10
1291.596587609889
 20
2194.588057377015
 30
0.0
 11
1276.396587609889
 21
2194.588057377015
 31
0.0
  0
LINE
  5
2B485
102
{ACAD_REACTORS
330
2C6C8
102
}
330
1F
100
AcDbEntity
  8
実線
 48
10.0
100
AcDbLine
 10
1286.99658760989
 20
2198.288057377013
 30
0.0
 11
1276.896587609888
 21
2198.288057377013
 31
0.0
  0
LINE
  5
2B486
102
{ACAD_REACTORS
330
2C6C8
102
}
330
1F
100
AcDbEntity
  8
実線
 48
10.0
100
AcDbLine
 10
1298.096587609889
 20
2183.288057377013
 30
0.0
 11
1300.596587609889
 21
2183.288057377013
 31
0.0
  0
LINE
  5
2B491
102
{ACAD_REACTORS
330
2C6C8
102
}
330
1F
100
AcDbEntity
  8
実線
 48
10.0
100
AcDbLine
 10
1276.396587609889
 20
2181.288057377013
 30
0.0
 11
1300.096587609888
 21
2181.288057377014
 31
0.0
  0
LINE
  5
2B492
102
{ACAD_REACTORS
330
2C6C8
102
}
330
1F
100
AcDbEntity
  8
実線
 48
10.0
100
AcDbLine
 10
1300.596587609888
 20
2181.788057377014
 30
0.0
 11
1300.096587609888
 21
2181.288057377014
 31
0.0
  0
LINE
  5
2B493
102
{ACAD_REACTORS
330
2C6C8
102
}
330
1F
100
AcDbEntity
  8
実線
 48
10.0
100
AcDbLine
 10
1276.396587609889
 20
2181.288057377013
 30
0.0
 11
1276.396587609888
 21
2197.788057377013
 31
0.0
  0
LINE
  5
2B494
102
{ACAD_REACTORS
330
2C6C8
102
}
330
1F
100
AcDbEntity
  8
実線
 48
10.0
100
AcDbLine
 10
1276.396587609889
 20
2181.288057377013
 30
0.0
 11
1276.396587609888
 21
2198.288057377013
 31
0.0
  0
LINE
  5
2B498
102
{ACAD_REACTORS
330
2C6C8
102
}
330
1F
100
AcDbEntity
  8
実線
 48
10.0
100
AcDbLine
 10
1278.396587609889
 20
2220.288057377014
 30
0.0
 11
1269.096587609889
 21
2220.288057377014
 31
0.0
  0
LINE
  5
2B499
102
{ACAD_REACTORS
330
2C6C8
102
}
330
1F
100
AcDbEntity
  8
実線
 48
10.0
100
AcDbLine
 10
1269.096587609889
 20
2220.288057377014
 30
0.0
 11
1268.096587609889
 21
2219.288057377014
 31
0.0
  0
LINE
  5
2B4BD
102
{ACAD_REACTORS
330
2C6C8
102
}
330
1F
100
AcDbEntity
  8
実線
 48
10.0
100
AcDbLine
 10
1297.59658760989
 20
2220.288057377013
 30
0.0
 11
1286.99658760989
 21
2220.288057377014
 31
0.0
  0
LINE
  5
2B4CB
102
{ACAD_REACTORS
330
2C6C8
102
}
330
1F
100
AcDbEntity
  8
実線
 48
10.0
100
AcDbLine
 10
1297.59658760989
 20
2220.288057377013
 30
0.0
 11
1298.09658760989
 21
2219.788057377013
 31
0.0
  0
LINE
  5
2B692
102
{ACAD_REACTORS
330
2C6C8
102
}
330
1F
100
AcDbEntity
  8
実線
 48
0.1
100
AcDbLine
 10
1287.99658760989
 20
2220.288057377014
 30
0.0
 11
1286.196587609888
 21
2222.088057377016
 31
0.0
  0
LINE
  5
2B693
102
{ACAD_REACTORS
330
2C6C8
102
}
330
1F
100
AcDbEntity
  8
実線
 48
0.1
100
AcDbLine
 10
1286.196587609888
 20
2222.088057377016
 30
0.0
 11
1286.196587609888
 21
2277.288057377013
 31
0.0
  0
LINE
  5
2B696
102
{ACAD_REACTORS
330
2C6C8
102
}
330
1F
100
AcDbEntity
  8
実線
 48
0.1
100
AcDbLine
 10
1286.196587609888
 20
2277.288057377013
 30
0.0
 11
1279.996587609889
 21
2277.288057377013
 31
0.0
  0
LINE
  5
2B697
102
{ACAD_REACTORS
330
2C6C8
102
}
330
1F
100
AcDbEntity
  8
実線
 48
0.1
100
AcDbLine
 10
1279.996587609889
 20
2277.288057377013
 30
0.0
 11
1279.99658760989
 21
2222.088057377014
 31
0.0
  0
LINE
  5
2B698
102
{ACAD_REACTORS
330
2C6C8
102
}
330
1F
100
AcDbEntity
  8
実線
 48
0.1
100
AcDbLine
 10
1279.99658760989
 20
2222.088057377013
 30
0.0
 11
1278.196587609888
 21
2220.288057377014
 31
0.0
  0
SPLINE
  5
2BC66
102
{ACAD_REACTORS
330
2C6E1
102
}
330
1F
100
AcDbEntity
  8
ﾓｰﾀ
 48
0.1
100
AcDbSpline
210
0.0
220
0.0
230
1.0
 70
  1064
 71
     3
 72
    11
 73
     7
 74
     5
 42
0.000000001
 43
0.0000000001
 44
0.0000000001
 40
0.0
 40
0.0
 40
0.0
 40
0.0
 40
1.907696534023125
 40
4.607277419839562
 40
6.411727365641935
 40
8.747514479280012
 40
8.747514479280012
 40
8.747514479280012
 40
8.747514479280012
 10
1138.884629784973
 20
2325.672649934756
 30
0.0
 10
1139.567061348353
 20
2325.806286304536
 30
0.0
 10
1141.215201645553
 20
2326.129031467604
 30
0.0
 10
1142.365780412339
 20
2323.878348105986
 30
0.0
 10
1143.303769457845
 20
2321.702650031327
 30
0.0
 10
1144.792095945593
 20
2321.492700030909
 30
0.0
 10
1145.631761351476
 20
2321.374253067982
 30
0.0
 11
1138.884629784973
 21
2325.672649934756
 31
0.0
 11
1140.791103327192
 21
2325.740948534605
 31
0.0
 11
1142.457947122917
 21
2323.617421110785
 31
0.0
 11
1143.405761913695
 21
2322.081945051287
 31
0.0
 11
1145.631761351476
 21
2321.374253067982
 31
0.0
  0
SPLINE
  5
2BC67
102
{ACAD_REACTORS
330
2C6E1
102
}
330
1F
100
AcDbEntity
  8
ﾓｰﾀ
 48
0.1
100
AcDbSpline
210
0.0
220
0.0
230
1.0
 70
  1064
 71
     3
 72
    11
 73
     7
 74
     5
 42
0.000000001
 43
0.0000000001
 44
0.0000000001
 40
0.0
 40
0.0
 40
0.0
 40
0.0
 40
1.907696534023125
 40
4.607277419839562
 40
6.411727365641935
 40
8.747514479280012
 40
8.747514479280012
 40
8.747514479280012
 40
8.747514479280012
 10
1140.667341070722
 20
2328.470946128161
 30
0.0
 10
1141.349772634103
 20
2328.604582497941
 30
0.0
 10
1142.997912931302
 20
2328.92732766101
 30
0.0
 10
1144.148491698088
 20
2326.676644299392
 30
0.0
 10
1145.086480743595
 20
2324.500946224733
 30
0.0
 10
1146.574807231342
 20
2324.290996224314
 30
0.0
 10
1147.414472637225
 20
2324.172549261387
 30
0.0
 11
1140.667341070722
 21
2328.470946128161
 31
0.0
 11
1142.573814612941
 21
2328.539244728011
 31
0.0
 11
1144.240658408666
 21
2326.41571730419
 31
0.0
 11
1145.188473199444
 21
2324.880241244693
 31
0.0
 11
1147.414472637225
 21
2324.172549261387
 31
0.0
  0
ARC
  5
2BC7E
102
{ACAD_REACTORS
330
2C6E2
102
}
330
1F
100
AcDbEntity
  8
破線
 48
0.5
100
AcDbCircle
 10
936.600784209653
 20
2408.299799342587
 30
0.0
 40
238.0
100
AcDbArc
 50
212.5
 51
327.5000000000001
  0
LWPOLYLINE
  5
2BCA6
102
{ACAD_REACTORS
330
2C6E2
102
}
330
1F
100
AcDbEntity
  8
実線
 48
0.1
100
AcDbPolyline
 90
        6
 70
     1
 43
0.0
 10
754.2132990366354
 20
2268.680857364163
 10
753.0682990366354
 20
2266.697659189496
 10
754.2132990366354
 20
2264.71446101483
 10
756.5032990366353
 20
2264.71446101483
 10
757.6482990366353
 20
2266.697659189496
 10
756.5032990366353
 20
2268.680857364163
  0
LWPOLYLINE
  5
2BCD7
102
{ACAD_REACTORS
330
2C6E2
102
}
330
1F
100
AcDbEntity
  8
実線
 48
0.1
100
AcDbPolyline
 90
        6
 70
     1
 43
0.0
 10
775.6843471606126
 20
2244.834842611177
 10
774.5393471606126
 20
2242.85164443651
 10
775.6843471606126
 20
2240.868446261844
 10
777.9743471606125
 20
2240.868446261844
 10
779.1193471606125
 20
2242.85164443651
 10
777.9743471606125
 20
2244.834842611177
  0
LWPOLYLINE
  5
2BCDF
102
{ACAD_REACTORS
330
2C6E2
102
}
330
1F
100
AcDbEntity
  8
実線
 48
0.1
100
AcDbPolyline
 90
        6
 70
     1
 43
0.0
 10
800.2651761823936
 20
2224.209088811009
 10
799.1201761823936
 20
2222.225890636342
 10
800.2651761823936
 20
2220.242692461676
 10
802.5551761823936
 20
2220.242692461676
 10
803.7001761823935
 20
2222.225890636342
 10
802.5551761823936
 20
2224.209088811009
  0
CIRCLE
  5
2BCE0
102
{ACAD_REACTORS
330
2C6E2
102
}
330
1F
100
AcDbEntity
  8
実線
 48
10.0
100
AcDbCircle
 10
801.4101761823936
 20
2222.225890636342
 30
0.0
 40
4.25
  0
LWPOLYLINE
  5
2BCE7
102
{ACAD_REACTORS
330
2C6E2
102
}
330
1F
100
AcDbEntity
  8
実線
 48
0.1
100
AcDbPolyline
 90
        6
 70
     1
 43
0.0
 10
827.4773247689063
 20
2207.205051159696
 10
826.3323247689063
 20
2205.22185298503
 10
827.4773247689063
 20
2203.238654810363
 10
829.7673247689063
 20
2203.238654810363
 10
830.9123247689063
 20
2205.22185298503
 10
829.7673247689063
 20
2207.205051159696
  0
CIRCLE
  5
2BCE8
102
{ACAD_REACTORS
330
2C6E2
102
}
330
1F
100
AcDbEntity
  8
実線
 48
10.0
100
AcDbCircle
 10
828.6223247689063
 20
2205.22185298503
 30
0.0
 40
4.25
  0
LWPOLYLINE
  5
2BCEF
102
{ACAD_REACTORS
330
2C6E2
102
}
330
1F
100
AcDbEntity
  8
実線
 48
0.1
100
AcDbPolyline
 90
        6
 70
     1
 43
0.0
 10
856.7911512447563
 20
2194.153694736491
 10
855.6461512447563
 20
2192.170496561825
 10
856.7911512447563
 20
2190.187298387158
 10
859.0811512447563
 20
2190.187298387158
 10
860.2261512447562
 20
2192.170496561825
 10
859.0811512447563
 20
2194.153694736491
  0
CIRCLE
  5
2BCF0
102
{ACAD_REACTORS
330
2C6E2
102
}
330
1F
100
AcDbEntity
  8
実線
 48
10.0
100
AcDbCircle
 10
857.9361512447563
 20
2192.170496561825
 30
0.0
 40
4.25
  0
LWPOLYLINE
  5
2BCF7
102
{ACAD_REACTORS
330
2C6E2
102
}
330
1F
100
AcDbEntity
  8
実線
 48
0.1
100
AcDbPolyline
 90
        6
 70
     1
 43
0.0
 10
887.6360953215726
 20
2185.309049348477
 10
886.4910953215726
 20
2183.32585117381
 10
887.6360953215726
 20
2181.342652999144
 10
889.9260953215726
 20
2181.342652999144
 10
891.0710953215726
 20
2183.32585117381
 10
889.9260953215726
 20
2185.309049348477
  0
CIRCLE
  5
2BCF8
102
{ACAD_REACTORS
330
2C6E2
102
}
330
1F
100
AcDbEntity
  8
実線
 48
10.0
100
AcDbCircle
 10
888.7810953215726
 20
2183.32585117381
 30
0.0
 40
4.25
  0
LWPOLYLINE
  5
2BCFF
102
{ACAD_REACTORS
330
2C6E2
102
}
330
1F
100
AcDbEntity
  8
実線
 48
0.1
100
AcDbPolyline
 90
        6
 70
     1
 43
0.0
 10
919.4117952485067
 20
2180.843265957493
 10
918.2667952485067
 20
2178.860067782826
 10
919.4117952485067
 20
2176.87686960816
 10
921.7017952485066
 20
2176.87686960816
 10
922.8467952485066
 20
2178.860067782826
 10
921.7017952485066
 20
2180.843265957493
  0
CIRCLE
  5
2BD00
102
{ACAD_REACTORS
330
2C6E2
102
}
330
1F
100
AcDbEntity
  8
実線
 48
10.0
100
AcDbCircle
 10
920.5567952485067
 20
2178.860067782826
 30
0.0
 40
4.25
  0
LWPOLYLINE
  5
2BD07
102
{ACAD_REACTORS
330
2C6E2
102
}
330
1F
100
AcDbEntity
  8
実線
 48
0.1
100
AcDbPolyline
 90
        6
 70
     1
 43
0.0
 10
951.4997850142854
 20
2180.84326678567
 10
950.3547850142854
 20
2178.860068611004
 10
951.4997850142854
 20
2176.876870436337
 10
953.7897850142854
 20
2176.876870436337
 10
954.9347850142854
 20
2178.860068611004
 10
953.7897850142854
 20
2180.84326678567
  0
CIRCLE
  5
2BD08
102
{ACAD_REACTORS
330
2C6E2
102
}
330
1F
100
AcDbEntity
  8
実線
 48
10.0
100
AcDbCircle
 10
952.6447850142854
 20
2178.860068611004
 30
0.0
 40
4.25
  0
LWPOLYLINE
  5
2BD0F
102
{ACAD_REACTORS
330
2C6E2
102
}
330
1F
100
AcDbEntity
  8
実線
 48
0.1
100
AcDbPolyline
 90
        6
 70
     1
 43
0.0
 10
983.2754730977376
 20
2185.309049348477
 10
982.1304730977376
 20
2183.32585117381
 10
983.2754730977376
 20
2181.342652999144
 10
985.5654730977376
 20
2181.342652999144
 10
986.7104730977376
 20
2183.32585117381
 10
985.5654730977376
 20
2185.309049348477
  0
CIRCLE
  5
2BD10
102
{ACAD_REACTORS
330
2C6E2
102
}
330
1F
100
AcDbEntity
  8
実線
 48
10.0
100
AcDbCircle
 10
984.4204730977376
 20
2183.32585117381
 30
0.0
 40
4.25
  0
LWPOLYLINE
  5
2BD17
102
{ACAD_REACTORS
330
2C6E2
102
}
330
1F
100
AcDbEntity
  8
実線
 48
0.1
100
AcDbPolyline
 90
        6
 70
     1
 43
0.0
 10
1014.120417174555
 20
2194.153694736492
 10
1012.975417174555
 20
2192.170496561826
 10
1014.120417174555
 20
2190.187298387159
 10
1016.410417174555
 20
2190.187298387159
 10
1017.555417174555
 20
2192.170496561826
 10
1016.410417174555
 20
2194.153694736492
  0
CIRCLE
  5
2BD18
102
{ACAD_REACTORS
330
2C6E2
102
}
330
1F
100
AcDbEntity
  8
実線
 48
10.0
100
AcDbCircle
 10
1015.265417174555
 20
2192.170496561826
 30
0.0
 40
4.25
  0
LWPOLYLINE
  5
2BD27
102
{ACAD_REACTORS
330
2C6E2
102
}
330
1F
100
AcDbEntity
  8
実線
 48
0.1
100
AcDbPolyline
 90
        6
 70
     1
 43
0.0
 10
1043.434243650405
 20
2207.205051159696
 10
1042.289243650405
 20
2205.22185298503
 10
1043.434243650405
 20
2203.238654810363
 10
1045.724243650405
 20
2203.238654810363
 10
1046.869243650405
 20
2205.22185298503
 10
1045.724243650405
 20
2207.205051159696
  0
CIRCLE
  5
2BD28
102
{ACAD_REACTORS
330
2C6E2
102
}
330
1F
100
AcDbEntity
  8
実線
 48
10.0
100
AcDbCircle
 10
1044.579243650405
 20
2205.22185298503
 30
0.0
 40
4.25
  0
LWPOLYLINE
  5
2BD2F
102
{ACAD_REACTORS
330
2C6E2
102
}
330
1F
100
AcDbEntity
  8
実線
 48
0.1
100
AcDbPolyline
 90
        6
 70
     1
 43
0.0
 10
1070.646392236918
 20
2224.209088811011
 10
1069.501392236918
 20
2222.225890636344
 10
1070.646392236918
 20
2220.242692461678
 10
1072.936392236918
 20
2220.242692461678
 10
1074.081392236918
 20
2222.225890636344
 10
1072.936392236918
 20
2224.209088811011
  0
CIRCLE
  5
2BD30
102
{ACAD_REACTORS
330
2C6E2
102
}
330
1F
100
AcDbEntity
  8
実線
 48
10.0
100
AcDbCircle
 10
1071.791392236918
 20
2222.225890636344
 30
0.0
 40
4.25
  0
LWPOLYLINE
  5
2BD37
102
{ACAD_REACTORS
330
2C6E2
102
}
330
1F
100
AcDbEntity
  8
実線
 48
0.1
100
AcDbPolyline
 90
        6
 70
     1
 43
0.0
 10
1095.227209415217
 20
2244.834843439356
 10
1094.082209415217
 20
2242.851645264689
 10
1095.227209415217
 20
2240.868447090023
 10
1097.517209415217
 20
2240.868447090023
 10
1098.662209415217
 20
2242.851645264689
 10
1097.517209415217
 20
2244.834843439356
  0
CIRCLE
  5
2BD38
102
{ACAD_REACTORS
330
2C6E2
102
}
330
1F
100
AcDbEntity
  8
実線
 48
10.0
100
AcDbCircle
 10
1096.372209415217
 20
2242.851645264689
 30
0.0
 40
4.25
  0
LWPOLYLINE
  5
2BD3F
102
{ACAD_REACTORS
330
2C6E2
102
}
330
1F
100
AcDbEntity
  8
実線
 48
0.1
100
AcDbPolyline
 90
        6
 70
     1
 43
0.0
 10
1116.698257539194
 20
2268.680858192342
 10
1115.553257539194
 20
2266.697660017676
 10
1116.698257539194
 20
2264.714461843009
 10
1118.988257539194
 20
2264.714461843009
 10
1120.133257539194
 20
2266.697660017676
 10
1118.988257539194
 20
2268.680858192342
  0
CIRCLE
  5
2BD40
102
{ACAD_REACTORS
330
2C6E2
102
}
330
1F
100
AcDbEntity
  8
実線
 48
10.0
100
AcDbCircle
 10
1117.843257539194
 20
2266.697660017676
 30
0.0
 40
4.25
  0
LINE
  5
2C0FF
330
1F
100
AcDbEntity
  8
ﾓｰﾀ
100
AcDbLine
 10
1228.379829584961
 20
2425.950488275137
 30
0.0
 11
1232.129829584961
 21
2425.950488275137
 31
0.0
  0
LINE
  5
2C100
330
1F
100
AcDbEntity
  8
ﾓｰﾀ
100
AcDbLine
 10
1235.942329584961
 20
2411.118255365775
 30
0.0
 11
1230.64232958496
 21
2411.118255365775
 31
0.0
  0
LINE
  5
2C101
330
1F
100
AcDbEntity
  8
ﾓｰﾀ
100
AcDbLine
 10
1230.64232958496
 20
2422.975488275137
 30
0.0
 11
1235.942329584961
 21
2422.975488275137
 31
0.0
  0
LINE
  5
2C102
330
1F
100
AcDbEntity
  8
ﾓｰﾀ
100
AcDbLine
 10
1230.64232958496
 20
2416.743255365775
 30
0.0
 11
1235.942329584961
 21
2416.743255365775
 31
0.0
  0
LINE
  5
2C103
330
1F
100
AcDbEntity
  8
ﾓｰﾀ
100
AcDbLine
 10
1235.942329584961
 20
2417.350488275137
 30
0.0
 11
1230.64232958496
 21
2417.350488275137
 31
0.0
  0
LINE
  5
2C104
330
1F
100
AcDbEntity
  8
ﾓｰﾀ
100
AcDbLine
 10
1229.842329584961
 20
2416.743255365775
 30
0.0
 11
1229.842329584961
 21
2411.118255365775
 31
0.0
  0
LINE
  5
2C105
330
1F
100
AcDbEntity
  8
ﾓｰﾀ
100
AcDbLine
 10
1230.64232958496
 20
2411.118255365775
 30
0.0
 11
1230.64232958496
 21
2416.743255365775
 31
0.0
  0
LINE
  5
2C106
330
1F
100
AcDbEntity
  8
ﾓｰﾀ
100
AcDbLine
 10
1229.842329584961
 20
2422.975488275137
 30
0.0
 11
1229.842329584961
 21
2417.350488275137
 31
0.0
  0
LINE
  5
2C107
330
1F
100
AcDbEntity
  8
ﾓｰﾀ
100
AcDbLine
 10
1230.64232958496
 20
2417.350488275137
 30
0.0
 11
1230.64232958496
 21
2422.975488275137
 31
0.0
  0
LINE
  5
2C108
330
1F
100
AcDbEntity
  8
ﾓｰﾀ
100
AcDbLine
 10
1232.129829584961
 20
2423.900488275137
 30
0.0
 11
1228.379829584961
 21
2423.900488275137
 31
0.0
  0
LINE
  5
2C109
330
1F
100
AcDbEntity
  8
ﾓｰﾀ
100
AcDbLine
 10
1235.942329584961
 20
2416.743255365775
 30
0.0
 11
1235.942329584961
 21
2411.118255365775
 31
0.0
  0
LINE
  5
2C10A
330
1F
100
AcDbEntity
  8
ﾓｰﾀ
100
AcDbLine
 10
1236.742329584961
 20
2410.188255365776
 30
0.0
 11
1236.742329584961
 21
2423.900488275137
 31
0.0
  0
LINE
  5
2C10B
330
1F
100
AcDbEntity
  8
ﾓｰﾀ
100
AcDbLine
 10
1235.942329584961
 20
2422.975488275137
 30
0.0
 11
1235.942329584961
 21
2417.350488275137
 31
0.0
  0
TEXT
  5
2C10C
330
1F
100
AcDbEntity
  8
ﾓｰﾀ
370
    20
100
AcDbText
 10
1232.017329584962
 20
2412.430755365775
 30
0.0
 40
3.0
  1
４
 72
     1
 11
1233.292329584962
 21
2413.930755365775
 31
0.0
100
AcDbText
 73
     2
  0
TEXT
  5
2C10D
330
1F
100
AcDbEntity
  8
ﾓｰﾀ
370
    20
100
AcDbText
 10
1231.917329584962
 20
2418.662988275137
 30
0.0
 40
3.0
  1
２
 72
     1
 11
1233.292329584962
 21
2420.162988275137
 31
0.0
100
AcDbText
 73
     2
  0
LINE
  5
2C10E
330
1F
100
AcDbEntity
  8
ﾓｰﾀ
100
AcDbLine
 10
1224.542329584962
 20
2411.118255365775
 30
0.0
 11
1224.542329584962
 21
2416.743255365775
 31
0.0
  0
LINE
  5
2C10F
330
1F
100
AcDbEntity
  8
ﾓｰﾀ
100
AcDbLine
 10
1223.76732958496
 20
2410.188255365776
 30
0.0
 11
1223.76732958496
 21
2423.900488275137
 31
0.0
  0
LINE
  5
2C110
330
1F
100
AcDbEntity
  8
ﾓｰﾀ
100
AcDbLine
 10
1224.542329584962
 20
2417.350488275137
 30
0.0
 11
1224.542329584962
 21
2422.975488275137
 31
0.0
  0
LINE
  5
2C111
330
1F
100
AcDbEntity
  8
ﾓｰﾀ
100
AcDbLine
 10
1236.742329584961
 20
2410.188255365776
 30
0.0
 11
1223.76732958496
 21
2410.188255365776
 31
0.0
  0
LINE
  5
2C112
330
1F
100
AcDbEntity
  8
ﾓｰﾀ
100
AcDbLine
 10
1223.76732958496
 20
2423.900488275137
 30
0.0
 11
1236.742329584961
 21
2423.900488275137
 31
0.0
  0
LINE
  5
2C113
330
1F
100
AcDbEntity
  8
ﾓｰﾀ
100
AcDbLine
 10
1229.842329584961
 20
2411.118255365775
 30
0.0
 11
1224.542329584962
 21
2411.118255365775
 31
0.0
  0
LINE
  5
2C114
330
1F
100
AcDbEntity
  8
ﾓｰﾀ
100
AcDbLine
 10
1224.542329584962
 20
2416.743255365775
 30
0.0
 11
1229.842329584961
 21
2416.743255365775
 31
0.0
  0
LINE
  5
2C115
330
1F
100
AcDbEntity
  8
ﾓｰﾀ
100
AcDbLine
 10
1229.842329584961
 20
2417.350488275137
 30
0.0
 11
1224.542329584962
 21
2417.350488275137
 31
0.0
  0
LINE
  5
2C116
330
1F
100
AcDbEntity
  8
ﾓｰﾀ
100
AcDbLine
 10
1224.542329584962
 20
2422.975488275137
 30
0.0
 11
1229.842329584961
 21
2422.975488275137
 31
0.0
  0
TEXT
  5
2C117
330
1F
100
AcDbEntity
  8
ﾓｰﾀ
370
    20
100
AcDbText
 10
1225.842329584962
 20
2412.430755365775
 30
0.0
 40
3.0
  1
３
 72
     1
 11
1227.192329584961
 21
2413.930755365775
 31
0.0
100
AcDbText
 73
     2
  0
TEXT
  5
2C118
330
1F
100
AcDbEntity
  8
ﾓｰﾀ
370
    20
100
AcDbText
 10
1226.017329584962
 20
2418.662988275137
 30
0.0
 40
3.0
  1
１
 72
     1
 11
1227.192329584961
 21
2420.162988275137
 31
0.0
100
AcDbText
 73
     2
  0
LINE
  5
2C119
330
1F
100
AcDbEntity
  8
ﾓｰﾀ
100
AcDbLine
 10
1228.379829584961
 20
2423.900488275137
 30
0.0
 11
1228.379829584961
 21
2425.950488275137
 31
0.0
  0
LINE
  5
2C11A
330
1F
100
AcDbEntity
  8
ﾓｰﾀ
100
AcDbLine
 10
1232.129829584961
 20
2425.950488275137
 30
0.0
 11
1232.129829584961
 21
2423.900488275137
 31
0.0
  0
LINE
  5
2C143
330
1F
100
AcDbEntity
  8
二点鎖線
 48
2.0
100
AcDbLine
 10
1152.978638134819
 20
2411.658248937833
 30
0.0
 11
1147.678638134817
 21
2411.658248937833
 31
0.0
  0
LINE
  5
2C144
330
1F
100
AcDbEntity
  8
二点鎖線
 48
2.0
100
AcDbLine
 10
1147.678638134817
 20
2423.515481847195
 30
0.0
 11
1152.978638134819
 21
2423.515481847195
 31
0.0
  0
LINE
  5
2C145
330
1F
100
AcDbEntity
  8
二点鎖線
 48
2.0
100
AcDbLine
 10
1147.678638134817
 20
2417.283248937833
 30
0.0
 11
1152.978638134819
 21
2417.283248937833
 31
0.0
  0
LINE
  5
2C146
330
1F
100
AcDbEntity
  8
二点鎖線
 48
2.0
100
AcDbLine
 10
1152.978638134819
 20
2417.890481847195
 30
0.0
 11
1147.678638134817
 21
2417.890481847195
 31
0.0
  0
LINE
  5
2C147
330
1F
100
AcDbEntity
  8
二点鎖線
 48
2.0
100
AcDbLine
 10
1146.878638134818
 20
2423.515481847195
 30
0.0
 11
1146.878638134818
 21
2417.890481847195
 31
0.0
  0
LINE
  5
2C148
330
1F
100
AcDbEntity
  8
二点鎖線
 48
2.0
100
AcDbLine
 10
1146.878638134818
 20
2417.283248937833
 30
0.0
 11
1146.878638134818
 21
2411.658248937833
 31
0.0
  0
LINE
  5
2C149
330
1F
100
AcDbEntity
  8
二点鎖線
 48
2.0
100
AcDbLine
 10
1147.678638134817
 20
2417.890481847195
 30
0.0
 11
1147.678638134817
 21
2423.515481847195
 31
0.0
  0
LINE
  5
2C14A
330
1F
100
AcDbEntity
  8
二点鎖線
 48
2.0
100
AcDbLine
 10
1146.116138134817
 20
2426.490481847195
 30
0.0
 11
1146.116138134817
 21
2424.440481847195
 31
0.0
  0
TEXT
  5
2C14B
330
1F
100
AcDbEntity
  8
二点鎖線
 48
2.0
100
AcDbText
 10
1148.978638134819
 20
2419.202981847195
 30
0.0
 40
3.0
  1
３
 72
     1
 11
1150.328638134819
 21
2420.702981847195
 31
0.0
100
AcDbText
 73
     2
  0
TEXT
  5
2C14C
330
1F
100
AcDbEntity
  8
二点鎖線
 48
2.0
100
AcDbText
 10
1148.903638134819
 20
2412.970748937833
 30
0.0
 40
3.0
  1
６
 72
     1
 11
1150.328638134819
 21
2414.470748937833
 31
0.0
100
AcDbText
 73
     2
  0
LINE
  5
2C14D
330
1F
100
AcDbEntity
  8
二点鎖線
 48
2.0
100
AcDbLine
 10
1147.678638134817
 20
2411.658248937833
 30
0.0
 11
1147.678638134817
 21
2417.283248937833
 31
0.0
  0
LINE
  5
2C14E
330
1F
100
AcDbEntity
  8
二点鎖線
 48
2.0
100
AcDbLine
 10
1153.778638134818
 20
2410.728248937834
 30
0.0
 11
1153.778638134818
 21
2424.440481847195
 31
0.0
  0
LINE
  5
2C14F
330
1F
100
AcDbEntity
  8
二点鎖線
 48
2.0
100
AcDbLine
 10
1152.978638134819
 20
2417.283248937833
 30
0.0
 11
1152.978638134819
 21
2411.658248937833
 31
0.0
  0
LINE
  5
2C150
330
1F
100
AcDbEntity
  8
二点鎖線
 48
2.0
100
AcDbLine
 10
1152.978638134819
 20
2423.515481847195
 30
0.0
 11
1152.978638134819
 21
2417.890481847195
 31
0.0
  0
LINE
  5
2C151
330
1F
100
AcDbEntity
  8
二点鎖線
 48
2.0
100
AcDbLine
 10
1135.478638134819
 20
2411.658248937833
 30
0.0
 11
1135.478638134819
 21
2417.283248937833
 31
0.0
  0
LINE
  5
2C152
330
1F
100
AcDbEntity
  8
二点鎖線
 48
2.0
100
AcDbLine
 10
1134.703638134817
 20
2410.728248937834
 30
0.0
 11
1134.703638134817
 21
2424.440481847195
 31
0.0
  0
LINE
  5
2C153
330
1F
100
AcDbEntity
  8
二点鎖線
 48
2.0
100
AcDbLine
 10
1140.778638134818
 20
2411.658248937833
 30
0.0
 11
1135.478638134819
 21
2411.658248937833
 31
0.0
  0
LINE
  5
2C154
330
1F
100
AcDbEntity
  8
二点鎖線
 48
2.0
100
AcDbLine
 10
1141.578638134817
 20
2417.890481847195
 30
0.0
 11
1141.578638134817
 21
2423.515481847195
 31
0.0
  0
LINE
  5
2C155
330
1F
100
AcDbEntity
  8
二点鎖線
 48
2.0
100
AcDbLine
 10
1135.478638134819
 20
2423.515481847195
 30
0.0
 11
1140.778638134818
 21
2423.515481847195
 31
0.0
  0
LINE
  5
2C156
330
1F
100
AcDbEntity
  8
二点鎖線
 48
2.0
100
AcDbLine
 10
1140.778638134818
 20
2417.890481847195
 30
0.0
 11
1135.478638134819
 21
2417.890481847195
 31
0.0
  0
LINE
  5
2C157
330
1F
100
AcDbEntity
  8
二点鎖線
 48
2.0
100
AcDbLine
 10
1135.478638134819
 20
2417.283248937833
 30
0.0
 11
1140.778638134818
 21
2417.283248937833
 31
0.0
  0
LINE
  5
2C158
330
1F
100
AcDbEntity
  8
二点鎖線
 48
2.0
100
AcDbLine
 10
1135.478638134819
 20
2417.890481847195
 30
0.0
 11
1135.478638134819
 21
2423.515481847195
 31
0.0
  0
LINE
  5
2C159
330
1F
100
AcDbEntity
  8
二点鎖線
 48
2.0
100
AcDbLine
 10
1140.778638134818
 20
2423.515481847195
 30
0.0
 11
1140.778638134818
 21
2417.890481847195
 31
0.0
  0
LINE
  5
2C15A
330
1F
100
AcDbEntity
  8
二点鎖線
 48
2.0
100
AcDbLine
 10
1141.578638134817
 20
2411.658248937833
 30
0.0
 11
1141.578638134817
 21
2417.283248937833
 31
0.0
  0
LINE
  5
2C15B
330
1F
100
AcDbEntity
  8
二点鎖線
 48
2.0
100
AcDbLine
 10
1140.778638134818
 20
2417.283248937833
 30
0.0
 11
1140.778638134818
 21
2411.658248937833
 31
0.0
  0
TEXT
  5
2C15C
330
1F
100
AcDbEntity
  8
二点鎖線
 48
2.0
100
AcDbText
 10
1136.953638134818
 20
2419.202981847195
 30
0.0
 40
3.0
  1
１
 72
     1
 11
1138.128638134818
 21
2420.702981847195
 31
0.0
100
AcDbText
 73
     2
  0
LINE
  5
2C15D
330
1F
100
AcDbEntity
  8
二点鎖線
 48
2.0
100
AcDbLine
 10
1142.366138134817
 20
2424.440481847195
 30
0.0
 11
1142.366138134817
 21
2426.490481847195
 31
0.0
  0
TEXT
  5
2C15E
330
1F
100
AcDbEntity
  8
二点鎖線
 48
2.0
100
AcDbText
 10
1136.853638134818
 20
2412.970748937833
 30
0.0
 40
3.0
  1
４
 72
     1
 11
1138.128638134818
 21
2414.470748937833
 31
0.0
100
AcDbText
 73
     2
  0
LINE
  5
2C15F
330
1F
100
AcDbEntity
  8
二点鎖線
 48
2.0
100
AcDbLine
 10
1134.703638134817
 20
2424.440481847195
 30
0.0
 11
1153.778638134818
 21
2424.440481847195
 31
0.0
  0
LINE
  5
2C160
330
1F
100
AcDbEntity
  8
二点鎖線
 48
2.0
100
AcDbLine
 10
1153.778638134818
 20
2410.728248937834
 30
0.0
 11
1134.703638134817
 21
2410.728248937834
 31
0.0
  0
LINE
  5
2C161
330
1F
100
AcDbEntity
  8
二点鎖線
 48
2.0
100
AcDbLine
 10
1146.878638134818
 20
2417.890481847195
 30
0.0
 11
1141.578638134817
 21
2417.890481847195
 31
0.0
  0
LINE
  5
2C162
330
1F
100
AcDbEntity
  8
二点鎖線
 48
2.0
100
AcDbLine
 10
1141.578638134817
 20
2417.283248937833
 30
0.0
 11
1146.878638134818
 21
2417.283248937833
 31
0.0
  0
LINE
  5
2C163
330
1F
100
AcDbEntity
  8
二点鎖線
 48
2.0
100
AcDbLine
 10
1141.578638134817
 20
2423.515481847195
 30
0.0
 11
1146.878638134818
 21
2423.515481847195
 31
0.0
  0
LINE
  5
2C164
330
1F
100
AcDbEntity
  8
二点鎖線
 48
2.0
100
AcDbLine
 10
1146.878638134818
 20
2411.658248937833
 30
0.0
 11
1141.578638134817
 21
2411.658248937833
 31
0.0
  0
TEXT
  5
2C165
330
1F
100
AcDbEntity
  8
二点鎖線
 48
2.0
100
AcDbText
 10
1142.853638134819
 20
2419.202981847195
 30
0.0
 40
3.0
  1
２
 72
     1
 11
1144.228638134819
 21
2420.702981847195
 31
0.0
100
AcDbText
 73
     2
  0
LINE
  5
2C166
330
1F
100
AcDbEntity
  8
二点鎖線
 48
2.0
100
AcDbLine
 10
1146.116138134817
 20
2424.440481847195
 30
0.0
 11
1142.366138134817
 21
2424.440481847195
 31
0.0
  0
LINE
  5
2C167
330
1F
100
AcDbEntity
  8
二点鎖線
 48
2.0
100
AcDbLine
 10
1142.366138134817
 20
2426.490481847195
 30
0.0
 11
1146.116138134817
 21
2426.490481847195
 31
0.0
  0
TEXT
  5
2C168
330
1F
100
AcDbEntity
  8
二点鎖線
 48
2.0
100
AcDbText
 10
1142.753638134819
 20
2412.970748937833
 30
0.0
 40
3.0
  1
５
 72
     1
 11
1144.228638134819
 21
2414.470748937833
 31
0.0
100
AcDbText
 73
     2
  0
LINE
  5
2C35B
102
{ACAD_REACTORS
330
2C6E0
102
}
330
1F
100
AcDbEntity
  8
二点鎖線
 48
2.0
100
AcDbLine
 10
1162.537747097511
 20
2374.052082090974
 30
0.0
 11
1162.981025766217
 21
2374.903612490825
 31
0.0
  0
LINE
  5
2C35C
102
{ACAD_REACTORS
330
2C6E0
102
}
330
1F
100
AcDbEntity
  8
二点鎖線
 48
2.0
100
AcDbLine
 10
1161.68621669766
 20
2374.49536075968
 30
0.0
 11
1167.892118059539
 21
2386.416786357595
 31
0.0
  0
LINE
  5
2C35D
102
{ACAD_REACTORS
330
2C6E0
102
}
330
1F
100
AcDbEntity
  8
二点鎖線
 48
2.0
100
AcDbLine
 10
1152.489688379268
 20
2379.282770381701
 30
0.0
 11
1152.932967047974
 21
2380.134300781552
 31
0.0
  0
LINE
  5
2C35E
102
{ACAD_REACTORS
330
2C6E0
102
}
330
1F
100
AcDbEntity
  8
二点鎖線
 48
2.0
100
AcDbLine
 10
1153.34121877912
 20
2378.839491712995
 30
0.0
 11
1159.547120140998
 21
2390.76091731091
 31
0.0
  0
LWPOLYLINE
  5
2C369
102
{ACAD_REACTORS
330
2C6E0
102
}
330
1F
100
AcDbEntity
  8
二点鎖線
 48
2.0
100
AcDbPolyline
 90
        5
 70
   129
 43
0.0
 10
1116.868456984981
 20
2317.170406981133
 10
1128.254241503455
 20
2309.91686226845
 10
1117.50824933652
 20
2293.049033352194
 10
1106.544160540952
 20
2300.033928260702
 10
1106.391114622219
 20
2300.724273787781
  0
LWPOLYLINE
  5
2C36E
102
{ACAD_REACTORS
330
2C6E0
102
}
330
1F
100
AcDbEntity
  8
二点鎖線
 48
2.0
100
AcDbPolyline
 90
        6
 70
   128
 43
0.0
 10
1127.985591699283
 20
2309.495166545545
 10
1127.985591699283
 20
2309.495166545545
 10
1117.50824933652
 20
2293.049033352194
 10
1078.712242829127
 20
2317.764815336148
 10
1089.18958519189
 20
2334.210948529499
 10
1116.599807180809
 20
2316.748711258228
  0
LWPOLYLINE
  5
2C377
102
{ACAD_REACTORS
330
2C6E0
102
}
330
1F
100
AcDbEntity
  8
二点鎖線
 48
2.0
100
AcDbPolyline
 90
        4
 70
   128
 43
0.0
 10
1138.406221681457
 20
2334.626037187121
 10
1147.987504182719
 20
2353.031509625509
 10
1143.729852183464
 20
2355.247902969036
 10
1133.640646207643
 20
2335.866718614157
  0
LWPOLYLINE
  5
2C378
102
{ACAD_REACTORS
330
2C6E0
102
}
330
1F
100
AcDbEntity
  8
二点鎖線
 48
2.0
100
AcDbPolyline
 90
        4
 70
   128
 43
0.0
 10
1132.95290270896
 20
2334.787177563516
 10
1124.893408583757
 20
2322.136305876322
 10
1128.94168752366
 20
2319.557267756257
 10
1137.592211218043
 20
2333.135870033843
  0
SPLINE
  5
2C379
102
{ACAD_REACTORS
330
2C6E0
102
}
330
1F
100
AcDbEntity
  8
二点鎖線
 48
2.0
100
AcDbSpline
210
0.0
220
0.0
230
1.0
 70
  1064
 71
     3
 72
    11
 73
     7
 74
     5
 42
0.000000001
 43
0.0000000001
 44
0.0000000001
 40
0.0
 40
0.0
 40
0.0
 40
0.0
 40
1.788854381999315
 40
3.5777087639993
 40
5.36656314599969
 40
7.155417527999004
 40
7.155417527999004
 40
7.155417527999004
 40
7.155417527999004
 10
1132.573705429288
 20
2335.680880503154
 30
0.0
 10
1132.808594357049
 20
2335.056964133711
 30
0.0
 10
1133.278372212572
 20
2333.809131394824
 30
0.0
 10
1135.272558055889
 20
2333.961521756444
 30
0.0
 10
1137.266743899206
 20
2334.113912118065
 30
0.0
 10
1137.736521754729
 20
2332.866079379178
 30
0.0
 10
1137.97141068249
 20
2332.242163009735
 30
0.0
 11
1132.573705429288
 21
2335.680880503154
 31
0.0
 11
1133.49329205591
 21
2334.146487973149
 31
0.0
 11
1135.272558055889
 21
2333.961521756444
 31
0.0
 11
1137.051824055867
 21
2333.77655553974
 31
0.0
 11
1137.97141068249
 21
2332.242163009735
 31
0.0
  0
SPLINE
  5
2C37A
102
{ACAD_REACTORS
330
2C6E0
102
}
330
1F
100
AcDbEntity
  8
二点鎖線
 48
2.0
100
AcDbSpline
210
0.0
220
0.0
230
1.0
 70
  1064
 71
     3
 72
    11
 73
     7
 74
     5
 42
0.000000001
 43
0.0000000001
 44
0.0000000001
 40
0.0
 40
0.0
 40
0.0
 40
0.0
 40
1.788854381999315
 40
3.577708763999253
 40
5.366563145999238
 40
7.155417527998552
 40
7.155417527998552
 40
7.155417527998552
 40
7.155417527998552
 10
1133.261448927972
 20
2336.760421553794
 30
0.0
 10
1133.496337855733
 20
2336.136505184351
 30
0.0
 10
1133.966115711256
 20
2334.888672445464
 30
0.0
 10
1135.960301554573
 20
2335.041062807085
 30
0.0
 10
1137.954487397889
 20
2335.193453168705
 30
0.0
 10
1138.424265253412
 20
2333.945620429818
 30
0.0
 10
1138.659154181174
 20
2333.321704060375
 30
0.0
 11
1133.261448927972
 21
2336.760421553794
 31
0.0
 11
1134.181035554594
 21
2335.22602902379
 31
0.0
 11
1135.960301554573
 21
2335.041062807085
 31
0.0
 11
1137.739567554551
 21
2334.85609659038
 31
0.0
 11
1138.659154181174
 21
2333.321704060375
 31
0.0
  0
LINE
  5
2C37B
102
{ACAD_REACTORS
330
2C6E0
102
}
330
1F
100
AcDbEntity
  8
二点鎖線
 48
2.0
100
AcDbLine
 10
1123.498534912605
 20
2316.503648648912
 30
0.0
 11
1119.365916828123
 21
2319.136416729809
 31
0.0
  0
LINE
  5
2C37C
102
{ACAD_REACTORS
330
2C6E0
102
}
330
1F
100
AcDbEntity
  8
二点鎖線
 48
2.0
100
AcDbLine
 10
1123.590362463847
 20
2316.089441332664
 30
0.0
 11
1118.951709511874
 21
2319.04458917857
 31
0.0
  0
LINE
  5
2C37D
102
{ACAD_REACTORS
330
2C6E0
102
}
330
1F
100
AcDbEntity
  8
二点鎖線
 48
2.0
100
AcDbLine
 10
1123.590362463847
 20
2316.089441332664
 30
0.0
 11
1123.498534912605
 21
2316.503648648912
 31
0.0
  0
LINE
  5
2C37F
102
{ACAD_REACTORS
330
2C6E0
102
}
330
1F
100
AcDbEntity
  8
二点鎖線
 48
2.0
100
AcDbLine
 10
1118.951709511874
 20
2319.04458917857
 30
0.0
 11
1119.365916828123
 21
2319.136416729809
 31
0.0
  0
LINE
  5
2C380
102
{ACAD_REACTORS
330
2C6E0
102
}
330
1F
100
AcDbEntity
  8
二点鎖線
 48
2.0
100
AcDbLine
 10
1118.951709511874
 20
2319.04458917857
 30
0.0
 11
1117.501000569338
 21
2316.767432274877
 31
0.0
  0
LINE
  5
2C382
102
{ACAD_REACTORS
330
2C6E0
102
}
330
1F
100
AcDbEntity
  8
二点鎖線
 48
2.0
100
AcDbLine
 10
1128.980579310389
 20
2313.011201194658
 30
0.0
 11
1124.847961225907
 21
2315.643969275556
 31
0.0
  0
LINE
  5
2C383
102
{ACAD_REACTORS
330
2C6E0
102
}
330
1F
100
AcDbEntity
  8
二点鎖線
 48
2.0
100
AcDbLine
 10
1129.072406861629
 20
2312.59699387841
 30
0.0
 11
1127.621697919094
 21
2310.319836974714
 31
0.0
  0
LINE
  5
2C384
102
{ACAD_REACTORS
330
2C6E0
102
}
330
1F
100
AcDbEntity
  8
二点鎖線
 48
2.0
100
AcDbLine
 10
1129.072406861629
 20
2312.59699387841
 30
0.0
 11
1124.433753909659
 21
2315.552141724317
 31
0.0
  0
LINE
  5
2C389
102
{ACAD_REACTORS
330
2C6E0
102
}
330
1F
100
AcDbEntity
  8
二点鎖線
 48
2.0
100
AcDbLine
 10
1124.433753909659
 20
2315.552141724317
 30
0.0
 11
1122.983044967123
 21
2313.274984820621
 31
0.0
  0
LINE
  5
2C38A
102
{ACAD_REACTORS
330
2C6E0
102
}
330
1F
100
AcDbEntity
  8
二点鎖線
 48
2.0
100
AcDbLine
 10
1124.433753909659
 20
2315.552141724317
 30
0.0
 11
1124.847961225907
 21
2315.643969275556
 31
0.0
  0
LINE
  5
2C38B
102
{ACAD_REACTORS
330
2C6E0
102
}
330
1F
100
AcDbEntity
  8
二点鎖線
 48
2.0
100
AcDbLine
 10
1129.072406861629
 20
2312.59699387841
 30
0.0
 11
1128.980579310389
 21
2313.011201194658
 31
0.0
  0
LINE
  5
2C38C
102
{ACAD_REACTORS
330
2C6E0
102
}
330
1F
100
AcDbEntity
  8
二点鎖線
 48
2.0
100
AcDbLine
 10
1123.590362463847
 20
2316.089441332664
 30
0.0
 11
1122.139653521309
 21
2313.812284428967
 31
0.0
  0
LINE
  5
2C390
102
{ACAD_REACTORS
330
2C6E0
102
}
330
1F
100
AcDbEntity
  8
二点鎖線
 48
2.0
100
AcDbLine
 10
1151.988813679573
 20
2376.657362650116
 30
0.0
 11
1160.787961144701
 21
2372.076816406824
 31
0.0
  0
LINE
  5
2C391
102
{ACAD_REACTORS
330
2C6E0
102
}
330
1F
100
AcDbEntity
  8
二点鎖線
 48
2.0
100
AcDbLine
 10
1161.68619155079
 20
2374.495325037588
 30
0.0
 11
1153.341198786598
 21
2378.839453307719
 31
0.0
  0
LINE
  5
2C392
102
{ACAD_REACTORS
330
2C6E0
102
}
330
1F
100
AcDbEntity
  8
二点鎖線
 48
2.0
100
AcDbLine
 10
1162.53772195064
 20
2374.052046368883
 30
0.0
 11
1161.68619155079
 21
2374.495325037588
 31
0.0
  0
LINE
  5
2C393
102
{ACAD_REACTORS
330
2C6E0
102
}
330
1F
100
AcDbEntity
  8
二点鎖線
 48
2.0
100
AcDbLine
 10
1160.352126398631
 20
2375.189795399092
 30
0.0
 11
1159.170049948749
 21
2372.919047666155
 31
0.0
  0
LINE
  5
2C394
102
{ACAD_REACTORS
330
2C6E0
102
}
330
1F
100
AcDbEntity
  8
二点鎖線
 48
2.0
100
AcDbLine
 10
1153.341193632248
 20
2378.839455990904
 30
0.0
 11
1152.489663232398
 21
2379.28273465961
 31
0.0
  0
LINE
  5
2C395
102
{ACAD_REACTORS
330
2C6E0
102
}
330
1F
100
AcDbEntity
  8
二点鎖線
 48
2.0
100
AcDbLine
 10
1156.946004799227
 20
2376.962910073914
 30
0.0
 11
1155.763928349345
 21
2374.692162340978
 31
0.0
  0
LINE
  5
2C396
102
{ACAD_REACTORS
330
2C6E0
102
}
330
1F
100
AcDbEntity
  8
二点鎖線
 48
2.0
100
AcDbLine
 10
1155.810630932758
 20
2377.553948298855
 30
0.0
 11
1154.628554482877
 21
2375.283200565918
 31
0.0
  0
LINE
  5
2C397
102
{ACAD_REACTORS
330
2C6E0
102
}
330
1F
100
AcDbEntity
  8
二点鎖線
 48
2.0
100
AcDbLine
 10
1159.216752532162
 20
2375.780833624032
 30
0.0
 11
1158.034676082281
 21
2373.510085891096
 31
0.0
  0
LINE
  5
2C398
102
{ACAD_REACTORS
330
2C6E0
102
}
330
1F
100
AcDbEntity
  8
二点鎖線
 48
2.0
100
AcDbLine
 10
1158.081378665694
 20
2376.371871848973
 30
0.0
 11
1156.899302215812
 21
2374.101124116037
 31
0.0
  0
LINE
  5
2C399
102
{ACAD_REACTORS
330
2C6E0
102
}
330
1F
100
AcDbEntity
  8
二点鎖線
 48
2.0
100
AcDbLine
 10
1154.675257066291
 20
2378.144986523795
 30
0.0
 11
1153.493180616409
 21
2375.874238790859
 31
0.0
  0
LWPOLYLINE
  5
2C39A
102
{ACAD_REACTORS
330
2C6E0
102
}
330
1F
100
AcDbEntity
  8
二点鎖線
 48
2.0
100
AcDbPolyline
 90
        4
 70
   129
 43
0.0
 10
1148.697112849262
 20
2352.66211073492
 10
1149.288151074203
 20
2353.797484601388
 10
1141.90822094216
 20
2357.639233063504
 10
1141.317182717219
 20
2356.503859197036
  0
LWPOLYLINE
  5
2C39B
102
{ACAD_REACTORS
330
2C6E0
102
}
330
1F
100
AcDbEntity
  8
二点鎖線
 48
2.0
100
AcDbPolyline
 90
        4
 70
   129
 43
0.0
 10
1138.657510704985
 20
2351.394676797929
 10
1144.567892954394
 20
2362.748415462611
 10
1138.891023622053
 20
2365.703606587315
 10
1132.980641372645
 20
2354.349867922633
  0
LINE
  5
2C39C
102
{ACAD_REACTORS
330
2C6E0
102
}
330
1F
100
AcDbEntity
  8
二点鎖線
 48
2.0
100
AcDbLine
 10
1152.731239426884
 20
2360.758104679703
 30
0.0
 11
1147.338213561161
 21
2363.565536248172
 31
0.0
  0
ARC
  5
2C39D
102
{ACAD_REACTORS
330
2C6E0
102
}
330
1F
100
AcDbEntity
  8
二点鎖線
 48
2.0
100
AcDbCircle
 10
1156.094682282734
 20
2365.140164943487
 30
0.0
 40
0.96
100
AcDbArc
 50
62.49999999999996
 51
152.5
  0
LINE
  5
2C39E
102
{ACAD_REACTORS
330
2C6E0
102
}
330
1F
100
AcDbEntity
  8
二点鎖線
 48
2.0
100
AcDbLine
 10
1155.243151882883
 20
2365.583443612193
 30
0.0
 11
1152.731239426884
 21
2360.758104679703
 31
0.0
  0
ARC
  5
2C39F
102
{ACAD_REACTORS
330
2C6E0
102
}
330
1F
100
AcDbEntity
  8
二点鎖線
 48
2.0
100
AcDbCircle
 10
1156.981239620145
 20
2366.843225743189
 30
0.0
 40
0.96
100
AcDbArc
 50
242.5
 51
332.5
  0
ARC
  5
2C3A0
102
{ACAD_REACTORS
330
2C6E0
102
}
330
1F
100
AcDbEntity
  8
二点鎖線
 48
2.0
100
AcDbCircle
 10
1148.998595617308
 20
2368.834153849367
 30
0.0
 40
0.96
100
AcDbArc
 50
332.5
 51
62.49999999999996
  0
LINE
  5
2C3A1
102
{ACAD_REACTORS
330
2C6E0
102
}
330
1F
100
AcDbEntity
  8
二点鎖線
 48
2.0
100
AcDbLine
 10
1147.338213561161
 20
2363.565536248172
 30
0.0
 11
1149.850126017159
 21
2368.390875180662
 31
0.0
  0
ARC
  5
2C3A2
102
{ACAD_REACTORS
330
2C6E0
102
}
330
1F
100
AcDbEntity
  8
二点鎖線
 48
2.0
100
AcDbCircle
 10
1149.88515295472
 20
2370.537214649069
 30
0.0
 40
0.96
100
AcDbArc
 50
152.5
 51
242.5
  0
LWPOLYLINE
  5
2C3A3
102
{ACAD_REACTORS
330
2C6E0
102
}
330
1F
100
AcDbEntity
  8
二点鎖線
 48
2.0
100
AcDbPolyline
 90
        2
 70
   128
 43
0.0
 10
1147.905900494394
 20
2363.270017135702
 10
1144.320890408405
 20
2356.383276835505
  0
LWPOLYLINE
  5
2C3A4
102
{ACAD_REACTORS
330
2C6E0
102
}
330
1F
100
AcDbEntity
  8
二点鎖線
 48
2.0
100
AcDbPolyline
 90
        2
 70
   128
 43
0.0
 10
1148.578542407661
 20
2354.166883491976
 10
1152.16355249365
 20
2361.053623792174
  0
LINE
  5
2C3A5
102
{ACAD_REACTORS
330
2C6E0
102
}
330
1F
100
AcDbEntity
  8
二点鎖線
 48
2.0
100
AcDbLine
 10
1157.832770019996
 20
2366.399947074483
 30
0.0
 11
1160.787961144701
 21
2372.076816406824
 31
0.0
  0
LINE
  5
2C3A6
102
{ACAD_REACTORS
330
2C6E0
102
}
330
1F
100
AcDbEntity
  8
二点鎖線
 48
2.0
100
AcDbLine
 10
1149.033622554869
 20
2370.980493317775
 30
0.0
 11
1151.988813679573
 21
2376.657362650116
 31
0.0
  0
LINE
  5
2C3A7
102
{ACAD_REACTORS
330
2C6E0
102
}
330
1F
100
AcDbEntity
  8
二点鎖線
 48
2.0
100
AcDbLine
 10
1167.892092912667
 20
2386.416750635502
 30
0.0
 11
1159.547094994126
 21
2390.760881588817
 31
0.0
  0
LWPOLYLINE
  5
2C3A8
102
{ACAD_REACTORS
330
2C6E0
102
}
330
1F
100
AcDbEntity
  8
二点鎖線
 48
2.0
100
AcDbPolyline
 90
        4
 70
   129
 43
0.0
 10
1167.040587659688
 20
2386.860065026301
 10
1171.030095678038
 20
2394.52383862496
 10
1168.04973927856
 20
2396.07531396543
 10
1164.06023126021
 20
2388.41154036677
  0
LINE
  5
2C3A9
102
{ACAD_REACTORS
330
2C6E0
102
}
330
1F
100
AcDbEntity
  8
二点鎖線
 48
2.0
100
AcDbLine
 10
1162.981000619346
 20
2374.903576768733
 30
0.0
 11
1162.129470219495
 21
2375.346855437439
 31
0.0
  0
LINE
  5
2C3AA
102
{ACAD_REACTORS
330
2C6E0
102
}
330
1F
100
AcDbEntity
  8
二点鎖線
 48
2.0
100
AcDbLine
 10
1151.754869497395
 20
2385.563706413007
 30
0.0
 11
1158.601714200959
 21
2394.662218687289
 31
0.0
  0
LINE
  5
2C3AB
102
{ACAD_REACTORS
330
2C6E0
102
}
330
1F
100
AcDbEntity
  8
二点鎖線
 48
2.0
100
AcDbLine
 10
1159.721916917981
 20
2394.079078062869
 30
0.0
 11
1158.695564594275
 21
2391.204160257523
 31
0.0
  0
LWPOLYLINE
  5
2C3AC
102
{ACAD_REACTORS
330
2C6E0
102
}
330
1F
100
AcDbEntity
  8
二点鎖線
 48
2.0
100
AcDbPolyline
 90
        4
 70
   129
 43
0.0
 10
1160.39864023215
 20
2390.317644008574
 10
1164.388148250501
 20
2397.981417607233
 10
1167.368504649979
 20
2396.429942266764
 10
1163.378996631629
 20
2388.766168668104
  0
LINE
  5
2C3AD
102
{ACAD_REACTORS
330
2C6E0
102
}
330
1F
100
AcDbEntity
  8
二点鎖線
 48
2.0
100
AcDbLine
 10
1157.523531993277
 20
2388.5368959093
 30
0.0
 11
1153.44452309805
 21
2385.171157422706
 31
0.0
  0
LINE
  5
2C3AE
102
{ACAD_REACTORS
330
2C6E0
102
}
330
1F
100
AcDbEntity
  8
二点鎖線
 48
2.0
100
AcDbLine
 10
1158.695564594275
 20
2391.204160257523
 30
0.0
 11
1159.547120140998
 21
2390.76091731091
 31
0.0
  0
LINE
  5
2C3AF
102
{ACAD_REACTORS
330
2C6E0
102
}
330
1F
100
AcDbEntity
  8
二点鎖線
 48
2.0
100
AcDbLine
 10
1157.523531993277
 20
2388.5368959093
 30
0.0
 11
1158.204761467508
 21
2388.182270291151
 31
0.0
  0
LINE
  5
2C3B0
102
{ACAD_REACTORS
330
2C6E0
102
}
330
1F
100
AcDbEntity
  8
二点鎖線
 48
2.0
100
AcDbLine
 10
1153.784472300954
 20
2379.690986390755
 30
0.0
 11
1152.932941901103
 21
2380.13426505946
 31
0.0
  0
LINE
  5
2C3B1
102
{ACAD_REACTORS
330
2C6E0
102
}
330
1F
100
AcDbEntity
  8
二点鎖線
 48
2.0
100
AcDbLine
 10
1153.444523098052
 20
2385.171157422706
 30
0.0
 11
1151.754869497395
 21
2385.563706413007
 31
0.0
  0
LINE
  5
2C3B2
102
{ACAD_REACTORS
330
2C6E0
102
}
330
1F
100
AcDbEntity
  8
二点鎖線
 48
2.0
100
AcDbLine
 10
1158.601714200959
 20
2394.662218687289
 30
0.0
 11
1159.721916917981
 21
2394.079078062869
 31
0.0
  0
LWPOLYLINE
  5
2C3B6
102
{ACAD_REACTORS
330
2C6E0
102
}
330
1F
100
AcDbEntity
  8
二点鎖線
 48
2.0
100
AcDbPolyline
 90
        4
 70
   128
 43
0.0
 10
1126.40823540066
 20
2314.649965000115
 10
1129.363383246566
 20
2319.288617952083
 10
1124.47171286085
 20
2322.404955680495
 10
1121.516565014944
 20
2317.766302728527
  0
LINE
  5
2C3DC
102
{ACAD_REACTORS
330
2C6C8
102
}
330
1F
100
AcDbEntity
  8
中心線
 48
0.2
100
AcDbLine
 10
1274.096587609889
 20
2207.041592846645
 30
0.0
 11
1274.096587609889
 21
2213.141121983948
 31
0.0
  0
LINE
  5
2C3DD
102
{ACAD_REACTORS
330
2C6C8
102
}
330
1F
100
AcDbEntity
  8
中心線
 48
0.2
100
AcDbLine
 10
1277.199624257775
 20
2216.788057377014
 30
0.0
 11
1270.886011828847
 21
2216.788057377014
 31
0.0
  0
LINE
  5
2C3DE
102
{ACAD_REACTORS
330
2C6C8
102
}
330
1F
100
AcDbEntity
  8
中心線
 48
0.2
100
AcDbLine
 10
1277.199624257775
 20
2210.288057377014
 30
0.0
 11
1270.886011828847
 21
2210.288057377014
 31
0.0
  0
LINE
  5
2C41A
102
{ACAD_REACTORS
330
2C6C8
102
}
330
1F
100
AcDbEntity
  8
中心線
 48
0.2
100
AcDbLine
 10
1274.096587609889
 20
2213.743304579743
 30
0.0
 11
1274.096587609889
 21
2219.767541524107
 31
0.0
  0
CIRCLE
  5
2C41B
102
{ACAD_REACTORS
330
2C6C8
102
}
330
1F
100
AcDbEntity
  8
細線
 48
0.1
100
AcDbCircle
 10
1274.096587609889
 20
2216.788057377014
 30
0.0
 40
1.5
  0
CIRCLE
  5
2C41C
102
{ACAD_REACTORS
330
2C6C8
102
}
330
1F
100
AcDbEntity
  8
実線
 48
0.1
100
AcDbCircle
 10
1274.096587609889
 20
2216.788057377014
 30
0.0
 40
1.2
  0
CIRCLE
  5
2C41D
102
{ACAD_REACTORS
330
2C6C8
102
}
330
1F
100
AcDbEntity
  8
細線
 48
0.1
100
AcDbCircle
 10
1274.096587609889
 20
2210.288057377014
 30
0.0
 40
1.5
  0
CIRCLE
  5
2C41E
102
{ACAD_REACTORS
330
2C6C8
102
}
330
1F
100
AcDbEntity
  8
実線
 48
0.1
100
AcDbCircle
 10
1274.096587609889
 20
2210.288057377014
 30
0.0
 40
1.2
  0
LINE
  5
2C6B2
102
{ACAD_REACTORS
330
2C6C6
102
}
330
1F
100
AcDbEntity
  8
二点鎖線
 48
2.0
100
AcDbLine
 10
1269.096587609888
 20
2222.288057377013
 30
0.0
 11
1269.096587609888
 21
2296.288057377013
 31
0.0
  0
LINE
  5
2C6B3
102
{ACAD_REACTORS
330
2C6C6
102
}
330
1F
100
AcDbEntity
  8
中心線
 48
0.5
100
AcDbLine
 10
1283.096587609889
 20
2298.711631117291
 30
0.0
 11
1283.096587609889
 21
2217.798318849633
 31
0.0
  0
LINE
  5
2C6B4
102
{ACAD_REACTORS
330
2C6C6
102
}
330
1F
100
AcDbEntity
  8
中心線
 48
0.5
100
AcDbLine
 10
1308.096587609889
 20
2287.788057377006
 30
0.0
 11
1258.096587609888
 21
2287.788057377006
 31
0.0
  0
LINE
  5
2C6B5
102
{ACAD_REACTORS
330
2C6C6
102
}
330
1F
100
AcDbEntity
  8
二点鎖線
 48
2.0
100
AcDbLine
 10
1269.096587609885
 20
2295.788057377006
 30
0.0
 11
1269.096587609885
 21
2268.788057377006
 31
0.0
  0
LINE
  5
2C6B6
102
{ACAD_REACTORS
330
2C6C6
102
}
330
1F
100
AcDbEntity
  8
二点鎖線
 48
2.0
100
AcDbLine
 10
1297.096587609889
 20
2295.788057377006
 30
0.0
 11
1297.096587609878
 21
2268.788057376998
 31
0.0
  0
LINE
  5
2C6B7
102
{ACAD_REACTORS
330
2C6C6
102
}
330
1F
100
AcDbEntity
  8
二点鎖線
 48
2.0
100
AcDbLine
 10
1263.096587609888
 20
2222.288057377013
 30
0.0
 11
1263.096587609888
 21
2296.288057377013
 31
0.0
  0
LINE
  5
2C6B8
102
{ACAD_REACTORS
330
2C6C6
102
}
330
1F
100
AcDbEntity
  8
二点鎖線
 48
2.0
100
AcDbLine
 10
1303.096587609889
 20
2222.288057377013
 30
0.0
 11
1303.096587609889
 21
2296.288057377013
 31
0.0
  0
LINE
  5
2C6B9
102
{ACAD_REACTORS
330
2C6C6
102
}
330
1F
100
AcDbEntity
  8
二点鎖線
 48
2.0
100
AcDbLine
 10
1297.096587609889
 20
2222.288057377013
 30
0.0
 11
1297.096587609889
 21
2296.288057377013
 31
0.0
  0
LINE
  5
2C6BA
102
{ACAD_REACTORS
330
2C6C6
102
}
330
1F
100
AcDbEntity
  8
二点鎖線
 48
2.0
100
AcDbLine
 10
1297.096587609889
 20
2295.788057377006
 30
0.0
 11
1269.096587609885
 21
2295.788057377006
 31
0.0
  0
LINE
  5
2C6BB
102
{ACAD_REACTORS
330
2C6C6
102
}
330
1F
100
AcDbEntity
  8
二点鎖線
 48
2.0
100
AcDbLine
 10
1263.096587609888
 20
2296.288057377013
 30
0.0
 11
1269.096587609888
 21
2296.288057377013
 31
0.0
  0
LINE
  5
2C6BC
102
{ACAD_REACTORS
330
2C6C6
102
}
330
1F
100
AcDbEntity
  8
二点鎖線
 48
2.0
100
AcDbLine
 10
1303.096587609889
 20
2296.288057377013
 30
0.0
 11
1297.096587609889
 21
2296.288057377013
 31
0.0
  0
LWPOLYLINE
  5
2C6BD
102
{ACAD_REACTORS
330
2C6C6
102
}
330
1F
100
AcDbEntity
  8
二点鎖線
 48
2.0
100
AcDbPolyline
 90
        4
 70
   129
 43
0.0
 10
1269.096587609891
 20
2262.934289982001
 10
1279.096587609891
 20
2262.934289982008
 10
1279.096587609914
 20
2222.934289982008
 10
1269.096587609914
 20
2222.934289982001
  0
LWPOLYLINE
  5
2C6BE
102
{ACAD_REACTORS
330
2C6C6
102
}
330
1F
100
AcDbEntity
  8
二点鎖線
 48
2.0
100
AcDbPolyline
 90
        4
 70
   129
 43
0.0
 10
1297.09658760989
 20
2262.934289982008
 10
1287.09658760989
 20
2262.934289982008
 10
1287.096587609889
 20
2222.934289982008
 10
1297.096587609889
 20
2222.934289982008
  0
LINE
  5
2C6BF
102
{ACAD_REACTORS
330
2C6C6
102
}
330
1F
100
AcDbEntity
  8
二点鎖線
 48
2.0
100
AcDbLine
 10
1279.096587609885
 20
2281.788057376998
 30
0.0
 11
1279.096587609889
 21
2268.788057376998
 31
0.0
  0
LINE
  5
2C6C0
102
{ACAD_REACTORS
330
2C6C6
102
}
330
1F
100
AcDbEntity
  8
二点鎖線
 48
2.0
100
AcDbLine
 10
1287.096587609889
 20
2281.788057376998
 30
0.0
 11
1287.096587609889
 21
2268.788057376998
 31
0.0
  0
LINE
  5
2C6C1
102
{ACAD_REACTORS
330
2C6C6
102
}
330
1F
100
AcDbEntity
  8
二点鎖線
 48
2.0
100
AcDbLine
 10
1287.096587609889
 20
2281.788057376998
 30
0.0
 11
1279.096587609885
 21
2281.788057376998
 31
0.0
  0
LINE
  5
2C6C2
102
{ACAD_REACTORS
330
2C6C6
102
}
330
1F
100
AcDbEntity
  8
二点鎖線
 48
2.0
100
AcDbLine
 10
1297.096587609878
 20
2268.788057376998
 30
0.0
 11
1287.096587609889
 21
2268.788057376998
 31
0.0
  0
LINE
  5
2C6C3
102
{ACAD_REACTORS
330
2C6C6
102
}
330
1F
100
AcDbEntity
  8
二点鎖線
 48
2.0
100
AcDbLine
 10
1279.096587609889
 20
2268.788057376998
 30
0.0
 11
1269.096587609889
 21
2268.788057376998
 31
0.0
  0
LINE
  5
2C6C4
102
{ACAD_REACTORS
330
2C6C6
102
}
330
1F
100
AcDbEntity
  8
二点鎖線
 48
2.0
100
AcDbLine
 10
1263.096587609889
 20
2222.288057377013
 30
0.0
 11
1269.096587609888
 21
2222.288057377013
 31
0.0
  0
LINE
  5
2C6C5
102
{ACAD_REACTORS
330
2C6C6
102
}
330
1F
100
AcDbEntity
  8
二点鎖線
 48
2.0
100
AcDbLine
 10
1303.096587609889
 20
2222.288057377013
 30
0.0
 11
1297.096587609889
 21
2222.288057377013
 31
0.0
  0
MTEXT
  5
2C6DA
330
1F
100
AcDbEntity
  8
dimension
 62
    40
 48
0.1
100
AcDbMText
 10
1333.922291897278
 20
2345.42913285524
 30
0.0
 40
5.0
 41
160.9158
 71
     1
 72
     1
  1

  7
まこ
 73
     1
 44
1.0
  0
LINE
  5
2CBEC
330
1F
100
AcDbEntity
  8
中心線
 48
0.5
100
AcDbLine
 10
915.4168417179477
 20
2408.299799342587
 30
0.0
 11
957.7847267013584
 21
2408.299799342587
 31
0.0
  0
LINE
  5
2CBED
330
1F
100
AcDbEntity
  8
中心線
 48
0.5
100
AcDbLine
 10
936.600784209653
 20
2429.483741834292
 30
0.0
 11
936.600784209653
 21
2159.026166130915
 31
0.0
  0
MTEXT
  5
2CE9E
330
1F
100
AcDbEntity
  8
寸法
 62
    40
 48
0.1
100
AcDbMText
 10
1094.776677369904
 20
2262.927383408527
 30
0.0
 40
5.0
 41
160.9158
 71
     9
 72
     1
  1

  7
まこ
 73
     1
 44
1.0
  0
MTEXT
  5
2CEA1
330
1F
100
AcDbEntity
  8
寸法
 62
    40
 48
0.1
100
AcDbMText
 10
1134.103472611326
 20
2256.884430511164
 30
0.0
 40
5.0
 41
160.9158
 71
     1
 72
     1
  1

  7
まこ
 73
     1
 44
1.0
  0
MTEXT
  5
2CEA3
330
1F
100
AcDbEntity
  8
寸法
 62
    40
 48
0.1
100
AcDbMText
 10
1134.103472611326
 20
2256.884430511164
 30
0.0
 40
5.0
 41
14.0925
 71
     1
 72
     1
  1

  7
まこ
 73
     1
 44
1.0
  0
MTEXT
  5
2CEA5
330
1F
100
AcDbEntity
  8
寸法
 62
    40
 48
0.1
100
AcDbMText
 10
1158.590210293986
 20
2256.884430511164
 30
0.0
 40
5.0
 41
14.0925
 71
     1
 72
     1
  1

  7
まこ
 73
     1
 44
1.0
  0
LINE
  5
2CF18
102
{ACAD_REACTORS
330
2CF7F
102
}
330
1F
100
AcDbEntity
  8
実線
 48
0.1
100
AcDbLine
 10
1285.595576709981
 20
2096.256565334311
 30
0.0
 11
1187.919179390978
 21
2096.256565334311
 31
0.0
  0
LINE
  5
2CF19
102
{ACAD_REACTORS
330
2CF7F
102
}
330
1F
100
AcDbEntity
  8
実線
 48
0.1
100
AcDbLine
 10
1285.595576709981
 20
2095.256565334311
 30
0.0
 11
1187.161538599079
 21
2095.256565334311
 31
0.0
  0
LINE
  5
2CF1A
102
{ACAD_REACTORS
330
2CF7F
102
}
330
1F
100
AcDbEntity
  8
実線
 48
0.1
100
AcDbLine
 10
1285.595576709981
 20
2063.75656533431
 30
0.0
 11
1188.773448873368
 21
2063.75656533431
 31
0.0
  0
LINE
  5
2CF1B
102
{ACAD_REACTORS
330
2CF7F
102
}
330
1F
100
AcDbEntity
  8
実線
 48
0.1
100
AcDbLine
 10
1285.595576709981
 20
2064.25656533431
 30
0.0
 11
1189.25007353781
 21
2064.25656533431
 31
0.0
  0
LINE
  5
2CF1C
102
{ACAD_REACTORS
330
2CF7F
102
}
330
1F
100
AcDbEntity
  8
実線
 48
0.1
100
AcDbLine
 10
1285.595576709981
 20
2063.75656533431
 30
0.0
 11
1285.595576709981
 21
2096.256565334311
 31
0.0
  0
SPLINE
  5
2CF1D
102
{ACAD_REACTORS
330
2CF7F
102
}
330
1F
100
AcDbEntity
  8
細線
 48
0.1
100
AcDbSpline
210
0.0
220
0.0
230
1.0
 70
     8
 71
     3
 72
    10
 73
     6
 74
     0
 42
0.000000001
 43
0.0000000001
 40
5.69003300121483
 40
5.69003300121483
 40
5.69003300121483
 40
5.69003300121483
 40
20.44630274576833
 40
41.99043975419643
 40
55.12439346642678
 40
55.12439346642678
 40
55.12439346642678
 40
55.12439346642678
 10
1187.919179390978
 20
2096.256565334311
 30
0.0
 10
1182.692572225757
 20
2089.587174157877
 30
0.0
 10
1184.816846461027
 20
2081.799305171116
 30
0.0
 10
1194.451388577738
 20
2077.420704860959
 30
0.0
 10
1194.209474374753
 20
2069.3683395444
 30
0.0
 10
1188.773448873368
 20
2063.75656533431
 30
0.0
  0
LINE
  5
2CF4D
102
{ACAD_REACTORS
330
2CF78
330
2CF80
102
}
330
1F
100
AcDbEntity
  8
0
 62
     2
100
AcDbLine
 10
1226.095576709981
 20
2075.25656533431
 30
0.0
 11
1260.095576709981
 21
2075.25656533431
 31
0.0
  0
LINE
  5
2CF4E
102
{ACAD_REACTORS
330
2CF78
330
2CF80
102
}
330
1F
100
AcDbEntity
  8
0
 62
     2
100
AcDbLine
 10
1260.095576709981
 20
2087.25656533431
 30
0.0
 11
1226.095576709981
 21
2087.25656533431
 31
0.0
  0
TEXT
  5
2CF4F
102
{ACAD_REACTORS
330
2CF78
330
2CF80
102
}
330
1F
100
AcDbEntity
  8
0
 62
     2
100
AcDbText
 10
1227.419546740847
 20
2083.639477481988
 30
0.0
 40
2.6
  1
MODEL:CLD-CN***
 41
1.2
  7
MSｺﾞｼｯｸN
 11
1227.419546740847
 21
2083.164350578435
 31
0.0
100
AcDbText
 73
     1
  0
LINE
  5
2CF50
102
{ACAD_REACTORS
330
2CF78
330
2CF80
102
}
330
1F
100
AcDbEntity
  8
0
 62
     2
100
AcDbLine
 10
1225.595576709981
 20
2080.25656533431
 30
0.0
 11
1260.595576709981
 21
2080.25656533431
 31
0.0
  0
LWPOLYLINE
  5
2CF51
102
{ACAD_REACTORS
330
2CF76
330
2CF80
102
}
330
1F
100
AcDbEntity
  8
0
 62
     4
100
AcDbPolyline
 90
        8
 70
     1
 43
0.0
 10
1266.095576709981
 20
2076.25656533431
 10
1280.095576709981
 20
2076.25656533431
 42
0.414213562373095
 10
1280.595576709981
 20
2076.75656533431
 10
1280.595576709981
 20
2085.75656533431
 42
0.414213562373095
 10
1280.095576709981
 20
2086.25656533431
 10
1266.095576709981
 20
2086.25656533431
 42
0.4142135623730996
 10
1265.595576709981
 20
2085.75656533431
 10
1265.595576709981
 20
2076.75656533431
 42
0.4142135623730904
  0
LINE
  5
2CF52
102
{ACAD_REACTORS
330
2CF54
330
2CF78
330
2CF80
102
}
330
1F
100
AcDbEntity
  8
0
 62
     2
100
AcDbLine
 10
1228.542123211059
 20
2079.314088752311
 30
0.0
 11
1232.94762321106
 21
2079.314088752311
 31
0.0
  0
LINE
  5
2CF53
102
{ACAD_REACTORS
330
2CF54
330
2CF78
330
2CF80
102
}
330
1F
100
AcDbEntity
  8
0
 62
     2
100
AcDbLine
 10
1228.141623211059
 20
2076.110088752312
 30
0.0
 11
1232.54712321106
 21
2076.110088752312
 31
0.0
  0
HATCH
  5
2CF54
102
{ACAD_REACTORS
330
2CF78
330
2CF80
102
}
330
1F
100
AcDbEntity
  8
0
 62
     2
100
AcDbHatch
 10
0.0
 20
0.0
 30
0.0
210
0.0
220
0.0
230
1.0
  2
SOLID
 70
     1
 71
     1
 91
        2
 92
       17
 93
        1
 72
     2
 10
1230.54462321106
 20
2077.511838752312
 40
0.6007500000000001
 50
0.0
 51
360.0
 73
     1
 97
        1
330
2CF6D
 92
        1
 93
        8
 72
     2
 10
1230.545554606408
 20
2077.513701543009
 40
1.003113223100251
 50
113.5897772726142
 51
269.9468005913759
 73
     1
 72
     2
 10
1230.54462321106
 20
2077.311588752312
 40
0.801
 50
270.0
 51
450.0
 73
     1
 72
     1
 10
1230.54462321106
 20
2078.112588752312
 11
1232.78742321106
 21
2078.112588752312
 72
     1
 10
1232.78742321106
 20
2078.112588752312
 11
1232.54712321106
 21
2076.110088752312
 72
     1
 10
1232.54712321106
 20
2076.110088752312
 11
1228.141623211059
 21
2076.110088752312
 72
     1
 10
1228.141623211059
 20
2076.110088752312
 11
1228.542123211059
 21
2079.314088752311
 72
     1
 10
1228.542123211059
 20
2079.314088752311
 11
1232.94762321106
 21
2079.314088752311
 72
     1
 10
1232.94762321106
 20
2079.314088752311
 11
1230.14412321106
 21
2078.432988752312
 97
        8
330
2CF6F
330
2CF6E
330
2CF6C
330
2CF6B
330
2CF53
330
2CF64
330
2CF52
330
2CF6A
 75
     0
 76
     1
 98
        1
 10
1029.066913116824
 20
2079.991313568071
  0
TEXT
  5
2CF55
102
{ACAD_REACTORS
330
2CF78
330
2CF80
102
}
330
1F
100
AcDbEntity
  8
0
 62
     2
100
AcDbText
 10
1227.392420168035
 20
2080.815444133557
 30
0.0
 40
2.0
  1
SER No.******
 41
1.2
  7
MSｺﾞｼｯｸN
 11
1227.392420168035
 21
2080.449961900054
 31
0.0
100
AcDbText
 73
     1
  0
LINE
  5
2CF56
102
{ACAD_REACTORS
330
2CF76
330
2CF80
102
}
330
1F
100
AcDbEntity
  8
0
 62
     4
100
AcDbLine
 10
1265.595576709981
 20
2082.25656533431
 30
0.0
 11
1280.595576709981
 21
2082.25656533431
 31
0.0
  0
TEXT
  5
2CF57
102
{ACAD_REACTORS
330
2CF76
330
2CF80
102
}
330
1F
100
AcDbEntity
  8
0
 62
     4
100
AcDbText
 10
1266.810295189188
 20
2083.215124785238
 30
0.0
 40
2.0
  1
Certificate
  7
TIMESNR
 11
1266.810295189188
 21
2082.576336032534
 31
0.0
100
AcDbText
 73
     1
  0
TEXT
  5
2CF58
102
{ACAD_REACTORS
330
2CF76
330
2CF80
102
}
330
1F
100
AcDbEntity
  8
0
 62
     4
100
AcDbText
 10
1272.474749335987
 20
2077.602793553507
 30
0.0
 40
1.44
  1
DENSO
  7
TIMESNR
100
AcDbText
  0
TEXT
  5
2CF59
102
{ACAD_REACTORS
330
2CF76
330
2CF80
102
}
330
1F
100
AcDbEntity
  8
0
 62
     4
100
AcDbText
 10
1272.596162446126
 20
2079.299555962492
 30
0.0
 40
1.44
  1
NIKKI
  7
TIMESNR
100
AcDbText
  0
LINE
  5
2CF5A
102
{ACAD_REACTORS
330
2CF63
330
2CF76
330
2CF80
102
}
330
1F
100
AcDbEntity
  8
0
 62
     4
100
AcDbLine
 10
1266.852650111598
 20
2077.555059414924
 30
0.0
 11
1267.2531501116
 21
2080.759059414923
 31
0.0
  0
ARC
  5
2CF5B
102
{ACAD_REACTORS
330
2CF63
330
2CF76
330
2CF80
102
}
330
1F
100
AcDbEntity
  8
0
 62
     4
100
AcDbCircle
 10
1269.256581506947
 20
2078.958672205621
 30
0.0
 40
1.003113223100251
100
AcDbArc
 50
113.5897772726142
 51
269.9468005913759
  0
LINE
  5
2CF5C
102
{ACAD_REACTORS
330
2CF63
330
2CF76
330
2CF80
102
}
330
1F
100
AcDbEntity
  8
0
 62
     4
100
AcDbLine
 10
1269.255650111598
 20
2079.557559414923
 30
0.0
 11
1271.498450111598
 21
2079.557559414923
 31
0.0
  0
ARC
  5
2CF5D
102
{ACAD_REACTORS
330
2CF63
330
2CF76
330
2CF80
102
}
330
1F
100
AcDbEntity
  8
0
 62
     4
100
AcDbCircle
 10
1269.255650111598
 20
2078.756559414923
 30
0.0
 40
0.801
100
AcDbArc
 50
270.0
 51
90.0
  0
CIRCLE
  5
2CF5E
102
{ACAD_REACTORS
330
2CF63
330
2CF76
330
2CF80
102
}
330
1F
100
AcDbEntity
  8
0
 62
     4
100
AcDbCircle
 10
1269.255650111598
 20
2078.956809414923
 30
0.0
 40
0.6007500000000001
  0
LINE
  5
2CF5F
102
{ACAD_REACTORS
330
2CF63
330
2CF76
330
2CF80
102
}
330
1F
100
AcDbEntity
  8
0
 62
     4
100
AcDbLine
 10
1266.852650111598
 20
2077.555059414924
 30
0.0
 11
1271.258150111599
 21
2077.555059414924
 31
0.0
  0
LINE
  5
2CF60
102
{ACAD_REACTORS
330
2CF63
330
2CF76
330
2CF80
102
}
330
1F
100
AcDbEntity
  8
0
 62
     4
100
AcDbLine
 10
1271.658650111599
 20
2080.759059414923
 30
0.0
 11
1268.855150111599
 21
2079.877959414923
 31
0.0
  0
LINE
  5
2CF61
102
{ACAD_REACTORS
330
2CF63
330
2CF76
330
2CF80
102
}
330
1F
100
AcDbEntity
  8
0
 62
     4
100
AcDbLine
 10
1267.2531501116
 20
2080.759059414923
 30
0.0
 11
1271.658650111599
 21
2080.759059414923
 31
0.0
  0
LINE
  5
2CF62
102
{ACAD_REACTORS
330
2CF63
330
2CF76
330
2CF80
102
}
330
1F
100
AcDbEntity
  8
0
 62
     4
100
AcDbLine
 10
1271.258150111599
 20
2077.555059414924
 30
0.0
 11
1271.498450111598
 21
2079.557559414923
 31
0.0
  0
HATCH
  5
2CF63
102
{ACAD_REACTORS
330
2CF76
330
2CF80
102
}
330
1F
100
AcDbEntity
  8
0
 62
     4
100
AcDbHatch
 10
0.0
 20
0.0
 30
0.0
210
0.0
220
0.0
230
1.0
  2
SOLID
 70
     1
 71
     1
 91
        2
 92
       17
 93
        1
 72
     2
 10
1269.255650111598
 20
2078.956809414923
 40
0.6007500000000001
 50
0.0
 51
360.0
 73
     1
 97
        1
330
2CF5E
 92
        1
 93
        8
 72
     2
 10
1269.256581506947
 20
2078.958672205621
 40
1.003113223100251
 50
113.5897772726142
 51
269.9468005913759
 73
     1
 72
     2
 10
1269.255650111598
 20
2078.756559414923
 40
0.801
 50
270.0
 51
450.0
 73
     1
 72
     1
 10
1269.255650111598
 20
2079.557559414923
 11
1271.498450111598
 21
2079.557559414923
 72
     1
 10
1271.498450111598
 20
2079.557559414923
 11
1271.258150111599
 21
2077.555059414924
 72
     1
 10
1271.258150111599
 20
2077.555059414924
 11
1266.852650111598
 21
2077.555059414924
 72
     1
 10
1266.852650111598
 20
2077.555059414924
 11
1267.2531501116
 21
2080.759059414923
 72
     1
 10
1267.2531501116
 20
2080.759059414923
 11
1271.658650111599
 21
2080.759059414923
 72
     1
 10
1271.658650111599
 20
2080.759059414923
 11
1268.855150111599
 21
2079.877959414923
 97
        8
330
2CF5B
330
2CF5D
330
2CF5C
330
2CF62
330
2CF5F
330
2CF5A
330
2CF61
330
2CF60
 75
     0
 76
     1
 98
        1
 10
1067.777940017363
 20
2081.436284230683
  0
LINE
  5
2CF64
102
{ACAD_REACTORS
330
2CF54
330
2CF78
330
2CF80
102
}
330
1F
100
AcDbEntity
  8
0
 62
     2
100
AcDbLine
 10
1228.141623211059
 20
2076.110088752312
 30
0.0
 11
1228.542123211059
 21
2079.314088752311
 31
0.0
  0
LINE
  5
2CF65
102
{ACAD_REACTORS
330
2CF78
330
2CF80
102
}
330
1F
100
AcDbEntity
  8
0
 62
     2
100
AcDbLine
 10
1225.595576709981
 20
2086.75656533431
 30
0.0
 11
1225.595576709981
 21
2075.75656533431
 31
0.0
  0
ARC
  5
2CF66
102
{ACAD_REACTORS
330
2CF78
330
2CF80
102
}
330
1F
100
AcDbEntity
  8
0
 62
     2
100
AcDbCircle
 10
1226.095576709981
 20
2086.75656533431
 30
0.0
 40
0.5
100
AcDbArc
 50
90.0
 51
180.0
  0
ARC
  5
2CF67
102
{ACAD_REACTORS
330
2CF78
330
2CF80
102
}
330
1F
100
AcDbEntity
  8
0
 62
     2
100
AcDbCircle
 10
1226.095576709981
 20
2075.75656533431
 30
0.0
 40
0.5
100
AcDbArc
 50
180.0
 51
270.0
  0
TEXT
  5
2CF68
102
{ACAD_REACTORS
330
2CF78
330
2CF80
102
}
330
1F
100
AcDbEntity
  8
0
 62
     2
100
AcDbText
 10
1233.763722435446
 20
2076.157822890896
 30
0.0
 40
1.44
  1
DENSO
 41
1.3
  7
TIMESNR
100
AcDbText
  0
TEXT
  5
2CF69
102
{ACAD_REACTORS
330
2CF78
330
2CF80
102
}
330
1F
100
AcDbEntity
  8
0
 62
     2
100
AcDbText
 10
1233.885135545587
 20
2077.854585299881
 30
0.0
 40
1.44
  1
NIKKI
 41
1.25
  7
TIMESNR
100
AcDbText
  0
LINE
  5
2CF6A
102
{ACAD_REACTORS
330
2CF54
330
2CF78
330
2CF80
102
}
330
1F
100
AcDbEntity
  8
0
 62
     2
100
AcDbLine
 10
1232.94762321106
 20
2079.314088752311
 30
0.0
 11
1230.14412321106
 21
2078.432988752312
 31
0.0
  0
LINE
  5
2CF6B
102
{ACAD_REACTORS
330
2CF54
330
2CF78
330
2CF80
102
}
330
1F
100
AcDbEntity
  8
0
 62
     2
100
AcDbLine
 10
1232.54712321106
 20
2076.110088752312
 30
0.0
 11
1232.78742321106
 21
2078.112588752312
 31
0.0
  0
LINE
  5
2CF6C
102
{ACAD_REACTORS
330
2CF54
330
2CF78
330
2CF80
102
}
330
1F
100
AcDbEntity
  8
0
 62
     2
100
AcDbLine
 10
1230.54462321106
 20
2078.112588752312
 30
0.0
 11
1232.78742321106
 21
2078.112588752312
 31
0.0
  0
CIRCLE
  5
2CF6D
102
{ACAD_REACTORS
330
2CF54
330
2CF78
330
2CF80
102
}
330
1F
100
AcDbEntity
  8
0
 62
     2
100
AcDbCircle
 10
1230.54462321106
 20
2077.511838752312
 30
0.0
 40
0.6007500000000001
  0
ARC
  5
2CF6E
102
{ACAD_REACTORS
330
2CF54
330
2CF78
330
2CF80
102
}
330
1F
100
AcDbEntity
  8
0
 62
     2
100
AcDbCircle
 10
1230.54462321106
 20
2077.311588752312
 30
0.0
 40
0.801
100
AcDbArc
 50
270.0
 51
90.0
  0
ARC
  5
2CF6F
102
{ACAD_REACTORS
330
2CF54
330
2CF78
330
2CF80
102
}
330
1F
100
AcDbEntity
  8
0
 62
     2
100
AcDbCircle
 10
1230.545554606408
 20
2077.513701543009
 30
0.0
 40
1.003113223100251
100
AcDbArc
 50
113.5897772726142
 51
269.9468005913759
  0
LINE
  5
2CF70
102
{ACAD_REACTORS
330
2CF78
330
2CF80
102
}
330
1F
100
AcDbEntity
  8
0
 62
     2
100
AcDbLine
 10
1260.595576709981
 20
2075.75656533431
 30
0.0
 11
1260.595576709981
 21
2086.75656533431
 31
0.0
  0
ARC
  5
2CF71
102
{ACAD_REACTORS
330
2CF78
330
2CF80
102
}
330
1F
100
AcDbEntity
  8
0
 62
     2
100
AcDbCircle
 10
1260.095576709981
 20
2075.75656533431
 30
0.0
 40
0.5
100
AcDbArc
 50
270.0
 51
0.0
  0
ARC
  5
2CF72
102
{ACAD_REACTORS
330
2CF78
330
2CF80
102
}
330
1F
100
AcDbEntity
  8
0
 62
     2
100
AcDbCircle
 10
1260.095576709981
 20
2086.75656533431
 30
0.0
 40
0.5
100
AcDbArc
 50
0.0
 51
90.0
  0
TEXT
  5
2CF73
102
{ACAD_REACTORS
330
2CF78
330
2CF80
102
}
330
1F
100
AcDbEntity
  8
0
 62
     7
100
AcDbText
 10
1245.217237104533
 20
2075.891374560361
 30
137.5
 40
1.5
  1
MADE IN JAPAN
  7
MSｺﾞｼｯｸN
 11
1245.217237104533
 21
2075.617262885235
 31
137.5
100
AcDbText
 73
     1
  0
TEXT
  5
2CF74
102
{ACAD_REACTORS
330
2CF78
330
2CF80
102
}
330
1F
100
AcDbEntity
  8
0
 62
     7
100
AcDbText
 10
1245.217237104533
 20
2077.761160610748
 30
137.5
 40
1.5
  1
SN-16140
  7
MSｺﾞｼｯｸN
 11
1245.217237104533
 21
2077.487048935621
 31
137.5
100
AcDbText
 73
     1
  0
LINE
  5
2CF77
102
{ACAD_REACTORS
330
2CF7F
102
}
330
1F
100
AcDbEntity
  8
中心線
 48
0.5
100
AcDbLine
 10
1326.154756945064
 20
2081.25656533431
 30
0.0
 11
1177.719494537779
 21
2081.25656533431
 31
0.0
  0
LINE
  5
2CF79
102
{ACAD_REACTORS
330
2CF7F
102
}
330
1F
100
AcDbEntity
  8
ﾓｰﾀ
 48
0.5
100
AcDbLine
 10
1305.595576709981
 20
2084.75656533431
 30
0.0
 11
1285.595576709981
 21
2084.75656533431
 31
0.0
  0
LINE
  5
2CF7A
102
{ACAD_REACTORS
330
2CF7F
102
}
330
1F
100
AcDbEntity
  8
ﾓｰﾀ
 48
0.5
100
AcDbLine
 10
1305.595576709981
 20
2077.75656533431
 30
0.0
 11
1285.595576709981
 21
2077.75656533431
 31
0.0
  0
LINE
  5
2CF7B
102
{ACAD_REACTORS
330
2CF7F
102
}
330
1F
100
AcDbEntity
  8
ﾓｰﾀ
 48
0.5
100
AcDbLine
 10
1316.139304417277
 20
2085.25656533431
 30
0.0
 11
1305.595576709981
 21
2085.25656533431
 31
0.0
  0
LINE
  5
2CF7C
102
{ACAD_REACTORS
330
2CF7F
102
}
330
1F
100
AcDbEntity
  8
ﾓｰﾀ
 48
0.5
100
AcDbLine
 10
1316.823130251132
 20
2077.25656533431
 30
0.0
 11
1305.595576709981
 21
2077.25656533431
 31
0.0
  0
LINE
  5
2CF7D
102
{ACAD_REACTORS
330
2CF7F
102
}
330
1F
100
AcDbEntity
  8
ﾓｰﾀ
 48
0.1
100
AcDbLine
 10
1305.595576709981
 20
2077.25656533431
 30
0.0
 11
1305.595576709981
 21
2085.25656533431
 31
0.0
  0
SPLINE
  5
2CF7E
102
{ACAD_REACTORS
330
2CF7F
102
}
330
1F
100
AcDbEntity
  8
細線
 48
0.1
100
AcDbSpline
210
0.0
220
0.0
230
1.0
 70
  1064
 71
     3
 72
    10
 73
     6
 74
     4
 42
0.000000001
 43
0.0000000001
 44
0.0000000001
 40
0.0
 40
0.0
 40
0.0
 40
0.0
 40
2.581201829955599
 40
7.68394734566013
 40
9.88951503079827
 40
9.88951503079827
 40
9.88951503079827
 40
9.88951503079827
 10
1316.139304417277
 20
2085.25656533431
 30
0.0
 10
1315.3468514633
 20
2084.568949068665
 30
0.0
 10
1312.987808206161
 20
2082.521992833815
 30
0.0
 10
1318.964862979193
 20
2080.198208686308
 30
0.0
 10
1317.31964019821
 20
2077.938515591637
 30
0.0
 10
1316.823130251131
 20
2077.25656533431
 30
0.0
 11
1316.139304417277
 21
2085.25656533431
 31
0.0
 11
1314.552196277961
 21
2083.220959615836
 31
0.0
 11
1317.760532028509
 21
2079.253013861444
 31
0.0
 11
1316.823130251131
 21
2077.25656533431
 31
0.0
  0
MTEXT
  5
2D2D8
330
1F
100
AcDbEntity
  8
寸法
 62
    40
 48
0.1
100
AcDbMText
 10
889.9323611107548
 20
2154.184529246342
 30
0.0
 40
5.0
 41
14.0925
 71
     1
 72
     1
  1

  7
まこ
 73
     1
 44
1.0
  0
LINE
  5
2D75C
102
{ACAD_REACTORS
330
2D763
102
}
330
1F
100
AcDbEntity
  8
細線
 48
10.0
100
AcDbLine
 10
1318.09658760989
 20
2183.288057377014
 30
0.0
 11
1298.09658760989
 21
2183.288057377014
 31
0.0
  0
LINE
  5
2D75D
102
{ACAD_REACTORS
330
2D763
102
}
330
1F
100
AcDbEntity
  8
細線
 48
10.0
100
AcDbLine
 10
1298.09658760989
 20
2183.288057377014
 30
0.0
 11
1298.09658760989
 21
2220.288057377014
 31
0.0
  0
LINE
  5
2D75E
102
{ACAD_REACTORS
330
2D763
102
}
330
1F
100
AcDbEntity
  8
細線
 48
10.0
100
AcDbLine
 10
1298.09658760989
 20
2220.288057377014
 30
0.0
 11
1318.09658760989
 21
2220.288057377014
 31
0.0
  0
HATCH
  5
2D762
102
{ACAD_REACTORS
330
2D763
102
}
330
1F
100
AcDbEntity
  8
細線
 48
10.0
100
AcDbHatch
 10
0.0
 20
0.0
 30
0.0
210
0.0
220
0.0
230
1.0
  2
ANSI31
 70
     0
 71
     0
 91
        1
 92
        7
 72
     0
 73
     1
 93
        4
 10
1318.09658760989
 20
2183.288057377014
 10
1318.09658760989
 20
2220.288057377014
 10
1298.09658760989
 20
2220.288057377014
 10
1298.09658760989
 20
2183.288057377014
 97
        0
 75
     0
 76
     1
 52
0.0
 41
20.0
 77
     0
 78
     1
 53
45.0
 43
-73.43828451060267
 44
16.42342041570737
 45
-1.767766952966369
 46
1.767766952966369
 79
     0
 47
0.0
 98
        1
 10
1309.86455254628
 20
2207.984162567844
1001
ACAD
1010
0.0
1020
0.0
1030
0.0
  0
LINE
  5
2D765
102
{ACAD_REACTORS
330
2D76A
102
}
330
1F
100
AcDbEntity
  8
細線
 48
10.0
100
AcDbLine
 10
1303.096587609889
 20
2222.288057377013
 30
0.0
 11
1303.096587609889
 21
2322.288057377013
 31
0.0
  0
LINE
  5
2D766
102
{ACAD_REACTORS
330
2D76A
102
}
330
1F
100
AcDbEntity
  8
細線
 48
10.0
100
AcDbLine
 10
1303.096587609889
 20
2222.288057377013
 30
0.0
 11
1318.096587609889
 21
2222.288057377013
 31
0.0
  0
HATCH
  5
2D769
102
{ACAD_REACTORS
330
2D76A
102
}
330
1F
100
AcDbEntity
  8
細線
 48
10.0
100
AcDbHatch
 10
0.0
 20
0.0
 30
0.0
210
0.0
220
0.0
230
1.0
  2
ANSI31
 70
     0
 71
     0
 91
        1
 92
        7
 72
     0
 73
     1
 93
        4
 10
1318.096587609889
 20
2222.288057377013
 10
1318.096587609889
 20
2322.288057377013
 10
1303.096587609889
 20
2322.288057377013
 10
1303.096587609889
 20
2222.288057377013
 97
        0
 75
     0
 76
     1
 52
0.0
 41
20.0
 77
     0
 78
     1
 53
45.0
 43
-16.16316555395406
 44
12.98825803442742
 45
-1.767766952966369
 46
1.767766952966369
 79
     0
 47
0.0
 98
        1
 10
1312.568171405492
 20
2294.854616306528
1001
ACAD
1010
0.0
1020
0.0
1030
0.0
  0
TEXT
  5
2DCC3
330
1F
100
AcDbEntity
  8
0
100
AcDbText
 10
1275.595306142166
 20
1997.459699165001
 30
0.0
 40
5.0
  1
コイルユニット外形図
100
AcDbText
  0
TEXT
  5
2DD2D
330
1F
100
AcDbEntity
  8
0
100
AcDbText
 10
1276.410423108538
 20
2004.879349633588
 30
0.0
 40
3.5
  1
NLD　サーボコンパス（R200） NLC-CN53CA2A
 41
0.6
100
AcDbText
  0
TEXT
  5
2DD60
330
1F
100
AcDbEntity
  8
0
100
AcDbText
 10
1274.959062320528
 20
1989.018242319035
 30
0.0
 40
7.0
  1
ＳＥ－４９２４０Ａ
 41
0.953
100
AcDbText
  0
VIEWPORT
  5
2DD69
330
2DD65
100
AcDbEntity
 67
     1
  8
0
100
AcDbViewport
 10
5.25
 20
3.5
 30
0.0
 40
12.6
 41
8.4
 68
     1
 69
     1
 12
5.25
 22
3.5
 13
0.0
 23
0.0
 14
0.5
 24
0.5
 15
0.0
 25
0.0
 16
0.0
 26
0.0
 36
1.0
 17
0.0
 27
0.0
 37
0.0
 42
50.0
 43
0.0
 44
0.0
 45
8.4
 50
0.0
 51
0.0
 72
   100
 90
   557152
  1

281
     0
 71
     1
 74
     0
110
0.0
120
0.0
130
0.0
111
1.0
121
0.0
131
0.0
112
0.0
122
1.0
132
0.0
 79
     0
146
0.0
  0
ENDSEC
  0
SECTION
  2
OBJECTS
  0
DICTIONARY
  5
C
330
0
100
AcDbDictionary
281
     1
  3
ACAD_DETAILVIEWSTYLE
350
2D76F
  3
ACAD_GROUP
350
D
  3
ACAD_IMAGE_VARS
350
2D44D
  3
ACAD_LAYOUT
350
1A
  3
ACAD_MLINESTYLE
350
17
  3
ACAD_PLOTSETTINGS
350
19
  3
ACAD_PLOTSTYLENAME
350
E
  3
ACAD_SCALELIST
350
2D421
  3
ACAD_SECTIONVIEWSTYLE
350
2D770
  3
AcadDim
350
2CE9F
  3
AcDbVariableDictionary
350
72CC
  3
AcDsDecomposeData
350
2DD97
  3
AcStStandard
350
2D79B
  3
APPDATA
350
2D44B
  3
CLOUDSETTINGS
350
2DB68
  3
DWGPROPS
350
2DD94
  3
FX_DICT_DIMENSION_PALETTE
350
2D46B
  0
DICTIONARY
  5
2C179
330
2
100
AcDbDictionary
280
     1
281
     1
  3
ACAD_LAYERSTATES
360
2C196
  3
ACLYDICTIONARY
360
2D74D
  0
DICTIONARY
  5
2D76F
102
{ACAD_REACTORS
330
C
102
}
330
C
100
AcDbDictionary
281
     1
  0
DICTIONARY
  5
D
102
{ACAD_REACTORS
330
C
102
}
330
C
100
AcDbDictionary
281
     1
  3
*A1
350
2C6E2
  3
*A10
350
2CF80
  3
*A11
350
2D763
  3
*A12
350
2D76A
  3
*A2
350
2C6C6
  3
*A3
350
2C6C8
  3
*A4
350
2C169
  3
*A5
350
2C6E0
  3
*A6
350
2C6E1
  3
*A7
350
2CF76
  3
*A8
350
2CF78
  3
*A9
350
2CF7F
  0
RASTERVARIABLES
  5
2D44D
102
{ACAD_REACTORS
330
C
102
}
330
C
100
AcDbRasterVariables
 90
        0
 70
     1
 71
     1
 72
     1
  0
DICTIONARY
  5
1A
102
{ACAD_REACTORS
330
C
102
}
330
C
100
AcDbDictionary
281
     1
  3
Model
350
22
  3
Sheet1
350
2DD66
  0
DICTIONARY
  5
17
102
{ACAD_REACTORS
330
C
102
}
330
C
100
AcDbDictionary
281
     1
  3
Standard
350
18
  0
DICTIONARY
  5
19
102
{ACAD_REACTORS
330
C
102
}
330
C
100
AcDbDictionary
281
     1
  0
ACDBDICTIONARYWDFLT
  5
E
102
{ACAD_REACTORS
330
C
102
}
330
C
100
AcDbDictionary
281
     1
  3
Normal
350
F
100
AcDbDictionaryWithDefault
340
F
  0
DICTIONARY
  5
2D421
102
{ACAD_REACTORS
330
C
102
}
330
C
100
AcDbDictionary
281
     1
  3
*A1
350
2DBB9
  3
A0
350
2D422
  3
A1
350
2D423
  3
A2
350
2D424
  3
A3
350
2D425
  3
A4
350
2D426
  3
A5
350
2D427
  3
A6
350
2D428
  3
A7
350
2D429
  3
A8
350
2D42A
  3
A9
350
2D42B
  3
B0
350
2D42C
  3
B1
350
2D42D
  3
B2
350
2D42E
  3
B3
350
2D42F
  3
B4
350
2D430
  3
B5
350
2D431
  3
B6
350
2D432
  3
B7
350
2D433
  3
B8
350
2D434
  3
B9
350
2D435
  3
C0
350
2D436
  3
C1
350
2D437
  3
C2
350
2D438
  3
C3
350
2D439
  3
C4
350
2D43A
  3
C5
350
2D43B
  3
C6
350
2D43C
  3
C7
350
2D43D
  3
C8
350
2D43E
  3
C9
350
2D43F
  3
D0
350
2D440
  3
D1
350
2D441
  3
D2
350
2D442
  0
DICTIONARY
  5
2D770
102
{ACAD_REACTORS
330
C
102
}
330
C
100
AcDbDictionary
281
     1
  0
XRECORD
  5
2CE9F
102
{ACAD_REACTORS
330
C
102
}
330
C
100
AcDbXrecord
280
     1
 90
   990106
  3

 60
     0
 61
     0
 62
     1
 63
     3
 64
     0
 65
     0
 66
     0
 67
     3
 68
     1
 69
     0
 70
     0
 71
     0
 72
     0
 40
14.09248332816481
170
     0
340
2D2D8
  0
DICTIONARY
  5
72CC
102
{ACAD_REACTORS
330
C
102
}
330
C
100
AcDbDictionary
281
     1
  3
DIMASSOC
350
2CBE0
  3
SORTENTS
350
72CD
  0
DICTIONARY
  5
2DD97
102
{ACAD_REACTORS
330
C
102
}
330
C
100
AcDbDictionary
281
     1
  3
AcDsRecords
350
2DD98
  3
AcDsSchemas
350
2DD99
1001
ACAD
1070
     2
  0
DICTIONARY
  5
2D79B
102
{ACAD_REACTORS
330
C
102
}
330
C
100
AcDbDictionary
281
     1
  0
DICTIONARY
  5
2D44B
102
{ACAD_REACTORS
330
C
102
}
330
C
100
AcDbDictionary
281
     1
  0
XRECORD
  5
2DB68
102
{ACAD_REACTORS
330
C
102
}
330
C
100
AcDbXrecord
280
     1
 40
0.5
  0
XRECORD
  5
2DD94
102
{ACAD_REACTORS
330
C
102
}
330
C
100
AcDbXrecord
280
     1
  1
DWGPROPS COOKIE
  2

  3

  4

  6

  7

  8
a-okamoto
  9

300
=
301
=
302
=
303
=
304
=
305
=
306
=
307
=
308
=
309
=
 40
0.0
 41
2452312.068623218
 42
2457695.099964178
  1

 90
        0
  0
DICTIONARY
  5
2D46B
102
{ACAD_REACTORS
330
C
102
}
330
C
100
AcDbDictionary
281
     1
  0
DICTIONARY
  5
2C196
102
{ACAD_REACTORS
330
2C179
102
}
330
2C179
100
AcDbDictionary
281
     1
  3
ARGON_LAYERP_43
350
2DD92
  0
DICTIONARY
  5
2D74D
102
{ACAD_REACTORS
330
2C179
102
}
330
2C179
100
AcDbDictionary
281
     1
  3
*A1
350
2D74E
  3
*A10
350
2D757
  3
*A11
350
2D758
  3
*A2
350
2D74F
  3
*A3
350
2D750
  3
*A4
350
2D751
  3
*A5
350
2D752
  3
*A6
350
2D753
  3
*A7
350
2D754
  3
*A8
350
2D755
  3
*A9
350
2D756
1001
ACAD
1000
<All
  0
GROUP
  5
2C6E2
102
{ACAD_REACTORS
330
D
102
}
330
D
100
AcDbGroup
300

 70
     1
 71
     1
340
2BC7E
340
2A949
340
2A948
340
2A947
340
2A946
340
2AA17
340
2AA15
340
2AA14
340
2AA11
340
2AA10
340
2BD28
340
2BD27
340
2BD30
340
2BD2F
340
2AA12
340
2AA13
340
2AA34
340
2BD38
340
2BD37
340
2AA0C
340
2AA0B
340
2AA0E
340
2AA33
340
2AA32
340
2AA31
340
2BD40
340
2BD3F
340
2A94A
340
2BD17
340
2BD18
340
2A9EB
340
2A9EA
340
2A9ED
340
2A9EC
340
2A9E9
340
2BD10
340
2BD0F
340
2A9DF
340
2A9DE
340
2A9C2
340
2A9C7
340
2A9C6
340
2BD00
340
2A9C4
340
2BCFF
340
2A9A3
340
2BD08
340
2BD07
340
2A9A4
340
2BCF8
340
2A9BB
340
2A9BA
340
2BCF7
340
2BCEF
340
2BCF0
340
2A98A
340
2A987
340
2A986
340
2A95A
340
2A988
340
2A985
340
2A984
340
2A983
340
2A961
340
2A960
340
2BCE8
340
2BCE7
340
2BCE0
340
2BCDF
340
2A95F
340
2A981
340
2A970
340
2A96F
340
2A969
340
2BCA6
340
2A96E
340
2A96C
340
2A96D
340
2A968
340
2A96A
340
2A967
340
2BCD7
340
2A952
340
2A9FB
340
2AA03
340
2AA40
  0
GROUP
  5
2CF80
102
{ACAD_REACTORS
330
D
102
}
330
D
100
AcDbGroup
300

 70
     1
 71
     1
340
2CF58
340
2CF63
340
2CF5F
340
2CF5A
340
2CF57
340
2CF56
340
2CF51
340
2CF62
340
2CF61
340
2CF60
340
2CF5E
340
2CF5D
340
2CF5C
340
2CF5B
340
2CF59
340
2CF73
340
2CF72
340
2CF4E
340
2CF70
340
2CF74
340
2CF71
340
2CF50
340
2CF55
340
2CF4F
340
2CF4D
340
2CF6F
340
2CF6E
340
2CF6D
340
2CF6C
340
2CF6B
340
2CF6A
340
2CF67
340
2CF66
340
2CF65
340
2CF64
340
2CF54
340
2CF53
340
2CF52
340
2CF69
340
2CF68
  0
GROUP
  5
2D763
102
{ACAD_REACTORS
330
D
102
}
330
D
100
AcDbGroup
300

 70
     1
 71
     1
340
2D75C
340
2D75D
340
2D75E
340
2D762
  0
GROUP
  5
2D76A
102
{ACAD_REACTORS
330
D
102
}
330
D
100
AcDbGroup
300

 70
     1
 71
     1
340
2D765
340
2D769
340
2D766
  0
GROUP
  5
2C6C6
102
{ACAD_REACTORS
330
D
102
}
330
D
100
AcDbGroup
300

 70
     1
 71
     1
340
2C6B3
340
2C6C0
340
2C6BF
340
2C6B9
340
2C6B8
340
2C6B7
340
2C6B6
340
2C6B5
340
2C6B2
340
2C6C3
340
2C6BD
340
2C6C4
340
2C6BE
340
2C6C5
340
2C6C2
340
2C6B4
340
2C6BA
340
2C6BB
340
2C6C1
340
2C6BC
  0
GROUP
  5
2C6C8
102
{ACAD_REACTORS
330
D
102
}
330
D
100
AcDbGroup
300

 70
     1
 71
     1
340
2B463
340
2B697
340
2B693
340
2B696
340
2B692
340
2B4BD
340
2B466
340
2B498
340
2B698
340
2B467
340
2C3DD
340
2C41C
340
2C41B
340
2C41A
340
2C3DE
340
2C41E
340
2C41D
340
2C3DC
340
2B468
340
2B499
340
2B4CB
340
2B469
340
2B484
340
2B483
340
2B46C
340
2B480
340
2B47E
340
2B47F
340
2B485
340
2B494
340
2B493
340
2B46E
340
2B46B
340
2B46D
340
2B482
340
2B481
340
2B47B
340
2B47A
340
2B470
340
2B475
340
2B491
340
2B492
340
2B47D
340
2B486
  0
GROUP
  5
2C169
102
{ACAD_REACTORS
330
D
102
}
330
D
100
AcDbGroup
300

 70
     1
 71
     1
340
2AA55
340
2AA56
340
2AA5B
340
2AA5C
340
2AA5D
340
2AA5F
340
2AA61
340
2AA62
340
2AA6B
340
2AA6C
340
2AA6D
340
2AA6E
340
2AA54
340
2AA58
340
2AA59
340
2AA63
340
2AA5E
340
2AA60
  0
GROUP
  5
2C6E0
102
{ACAD_REACTORS
330
D
102
}
330
D
100
AcDbGroup
300

 70
     1
 71
     1
340
2C380
340
2C36E
340
2C369
340
2C3A8
340
2C39B
340
2C39A
340
2C377
340
2C378
340
2C3B6
340
2C38C
340
2C38B
340
2C38A
340
2C389
340
2C384
340
2C383
340
2C382
340
2C37F
340
2C37D
340
2C37C
340
2C37B
340
2C379
340
2C37A
340
2C3A4
340
2C3AD
340
2C3AA
340
2C39F
340
2C398
340
2C391
340
2C390
340
2C35E
340
2C3B1
340
2C3B0
340
2C3A6
340
2C3A3
340
2C3A2
340
2C3A1
340
2C3A0
340
2C39E
340
2C39D
340
2C39C
340
2C399
340
2C396
340
2C395
340
2C394
340
2C35D
340
2C3B2
340
2C3AF
340
2C3AE
340
2C3AC
340
2C3AB
340
2C3A9
340
2C3A7
340
2C3A5
340
2C397
340
2C393
340
2C392
340
2C35C
340
2C35B
  0
GROUP
  5
2C6E1
102
{ACAD_REACTORS
330
D
102
}
330
D
100
AcDbGroup
300

 70
     1
 71
     1
340
2AA02
340
2AA01
340
2AA48
340
2AA4D
340
2AA47
340
2AA4F
340
2AA4E
340
2BC67
340
2BC66
340
2AA3E
340
2AA3D
340
2AA3A
340
2AA39
340
2AA4A
340
2AA49
340
2AA46
340
2AA4C
340
2AA4B
340
2AA53
340
2AA3C
340
2AA3B
340
2AA3F
340
2AA5A
340
2AA52
340
2AA57
340
2AA38
340
2AA51
340
2AA50
340
2AA56
340
2AA55
340
2AA54
340
2AA59
340
2AA58
340
2AA63
340
2AA60
340
2AA5E
340
2AA5B
340
2AA5C
340
2AA5D
340
2AA5F
340
2AA61
340
2AA62
340
2AA6B
340
2AA6C
340
2AA6D
340
2AA6E
340
2AA67
340
2AA64
340
2AA6A
340
2AA65
340
2AA69
340
2AA68
340
2AA66
  0
GROUP
  5
2CF76
102
{ACAD_REACTORS
330
D
102
}
330
D
100
AcDbGroup
300

 70
     1
 71
     1
340
2CF63
340
2CF5F
340
2CF5A
340
2CF57
340
2CF56
340
2CF51
340
2CF62
340
2CF61
340
2CF60
340
2CF5E
340
2CF5D
340
2CF5C
340
2CF5B
340
2CF59
340
2CF58
  0
GROUP
  5
2CF78
102
{ACAD_REACTORS
330
D
102
}
330
D
100
AcDbGroup
300

 70
     1
 71
     1
340
2CF72
340
2CF4E
340
2CF70
340
2CF74
340
2CF73
340
2CF71
340
2CF50
340
2CF55
340
2CF4F
340
2CF4D
340
2CF6F
340
2CF6E
340
2CF6D
340
2CF6C
340
2CF6B
340
2CF6A
340
2CF67
340
2CF66
340
2CF65
340
2CF64
340
2CF54
340
2CF53
340
2CF52
340
2CF69
340
2CF68
  0
GROUP
  5
2CF7F
102
{ACAD_REACTORS
330
D
102
}
330
D
100
AcDbGroup
300

 70
     1
 71
     1
340
2CF77
340
2CF18
340
2CF19
340
2CF7A
340
2CF79
340
2CF1C
340
2CF7B
340
2CF7C
340
2CF7E
340
2CF7D
340
2CF1A
340
2CF1B
340
2CF1D
  0
LAYOUT
  5
22
102
{ACAD_REACTORS
330
1A
102
}
102
{ACAD_XDICTIONARY
360
2DD95
102
}
330
1A
100
AcDbPlotSettings
  1

  2
C:\Program Files\AutoCAD LT 2000i\plotters\DWF Classic.pc3
  4
ANSI_A_(8.50_x_11.00_Inches)
  6

 40
5.793749809265137
 41
17.79375076293945
 42
5.793746948242188
 43
17.79376220703125
 44
215.8999938964844
 45
279.3999938964844
 46
0.0
 47
0.0
 48
0.0
 49
0.0
140
0.0
141
0.0
142
1.0
143
1.0
 70
 11952
 72
     1
 73
     1
 74
     0
  7

 75
     0
147
1.0
148
-166.0601465173197
149
-1.953042043267828
100
AcDbLayout
  1
Model
 70
     1
 71
     0
 10
0.0
 20
0.0
 11
12.0
 21
9.0
 12
0.0
 22
0.0
 32
0.0
 14
734.1868372145614
 24
1989.834908985701
 34
0.0
 15
1343.892728987195
 25
2429.483741834292
 35
137.5
146
0.0
 13
0.0
 23
0.0
 33
0.0
 16
1.0
 26
0.0
 36
0.0
 17
0.0
 27
1.0
 37
0.0
 76
     0
330
1F
331
2D402
  0
LAYOUT
  5
2DD66
102
{ACAD_REACTORS
330
1A
102
}
330
1A
100
AcDbPlotSettings
  1

  2
none_device
  4
ANSI_A_(11.00_x_8.50_Inches)
  6

 40
6.35
 41
19.05
 42
6.35
 43
19.05
 44
279.4
 45
215.9
 46
0.0
 47
0.0
 48
0.0
 49
0.0
140
0.0
141
0.0
142
1.0
143
1.0
 70
   688
 72
     0
 73
     0
 74
     5
  7

 75
    16
147
1.0
148
0.0
149
0.0
100
AcDbLayout
  1
Sheet1
 70
     1
 71
     1
 10
0.0
 20
0.0
 11
0.0
 21
0.0
 12
0.0
 22
0.0
 32
0.0
 14
1.000000000000000E+20
 24
1.000000000000000E+20
 34
1.000000000000000E+20
 15
-1.000000000000000E+20
 25
-1.000000000000000E+20
 35
-1.000000000000000E+20
146
0.0
 13
0.0
 23
0.0
 33
0.0
 16
1.0
 26
0.0
 36
0.0
 17
0.0
 27
1.0
 37
0.0
 76
     0
330
2DD65
331
2DD69
  0
MLINESTYLE
  5
18
102
{ACAD_REACTORS
330
17
102
}
330
17
100
AcDbMlineStyle
  2
STANDARD
 70
     0
  3

 62
   256
 51
90.0
 52
90.0
 71
     2
 49
0.5
 62
   256
  6
BYLAYER
 49
-0.5
 62
   256
  6
BYLAYER
  0
ACDBPLACEHOLDER
  5
F
102
{ACAD_REACTORS
330
E
102
}
330
E
  0
SCALE
  5
2DBB9
102
{ACAD_REACTORS
330
2D421
102
}
330
2D421
100
AcDbScale
 70
     0
300
1:1_XREF_XREF
140
1.0
141
1.0
290
     0
  0
SCALE
  5
2D422
102
{ACAD_REACTORS
330
2D421
102
}
330
2D421
100
AcDbScale
 70
     0
300
1:1
140
1.0
141
1.0
290
     1
  0
SCALE
  5
2D423
102
{ACAD_REACTORS
330
2D421
102
}
330
2D421
100
AcDbScale
 70
     0
300
1:2
140
1.0
141
2.0
290
     0
  0
SCALE
  5
2D424
102
{ACAD_REACTORS
330
2D421
102
}
330
2D421
100
AcDbScale
 70
     0
300
1:4
140
1.0
141
4.0
290
     0
  0
SCALE
  5
2D425
102
{ACAD_REACTORS
330
2D421
102
}
330
2D421
100
AcDbScale
 70
     0
300
1:5
140
1.0
141
5.0
290
     0
  0
SCALE
  5
2D426
102
{ACAD_REACTORS
330
2D421
102
}
330
2D421
100
AcDbScale
 70
     0
300
1:8
140
1.0
141
8.0
290
     0
  0
SCALE
  5
2D427
102
{ACAD_REACTORS
330
2D421
102
}
330
2D421
100
AcDbScale
 70
     0
300
1:10
140
1.0
141
10.0
290
     0
  0
SCALE
  5
2D428
102
{ACAD_REACTORS
330
2D421
102
}
330
2D421
100
AcDbScale
 70
     0
300
1:16
140
1.0
141
16.0
290
     0
  0
SCALE
  5
2D429
102
{ACAD_REACTORS
330
2D421
102
}
330
2D421
100
AcDbScale
 70
     0
300
1:20
140
1.0
141
20.0
290
     0
  0
SCALE
  5
2D42A
102
{ACAD_REACTORS
330
2D421
102
}
330
2D421
100
AcDbScale
 70
     0
300
1:30
140
1.0
141
30.0
290
     0
  0
SCALE
  5
2D42B
102
{ACAD_REACTORS
330
2D421
102
}
330
2D421
100
AcDbScale
 70
     0
300
1:40
140
1.0
141
40.0
290
     0
  0
SCALE
  5
2D42C
102
{ACAD_REACTORS
330
2D421
102
}
330
2D421
100
AcDbScale
 70
     0
300
1:50
140
1.0
141
50.0
290
     0
  0
SCALE
  5
2D42D
102
{ACAD_REACTORS
330
2D421
102
}
330
2D421
100
AcDbScale
 70
     0
300
1:100
140
1.0
141
100.0
290
     0
  0
SCALE
  5
2D42E
102
{ACAD_REACTORS
330
2D421
102
}
330
2D421
100
AcDbScale
 70
     0
300
2:1
140
2.0
141
1.0
290
     0
  0
SCALE
  5
2D42F
102
{ACAD_REACTORS
330
2D421
102
}
330
2D421
100
AcDbScale
 70
     0
300
4:1
140
4.0
141
1.0
290
     0
  0
SCALE
  5
2D430
102
{ACAD_REACTORS
330
2D421
102
}
330
2D421
100
AcDbScale
 70
     0
300
8:1
140
8.0
141
1.0
290
     0
  0
SCALE
  5
2D431
102
{ACAD_REACTORS
330
2D421
102
}
330
2D421
100
AcDbScale
 70
     0
300
10:1
140
10.0
141
1.0
290
     0
  0
SCALE
  5
2D432
102
{ACAD_REACTORS
330
2D421
102
}
330
2D421
100
AcDbScale
 70
     0
300
100:1
140
100.0
141
1.0
290
     0
  0
SCALE
  5
2D433
102
{ACAD_REACTORS
330
2D421
102
}
330
2D421
100
AcDbScale
 70
     0
300
1/128" = 1'-0"
140
0.0078125
141
12.0
290
     0
  0
SCALE
  5
2D434
102
{ACAD_REACTORS
330
2D421
102
}
330
2D421
100
AcDbScale
 70
     0
300
1/64" = 1'-0"
140
0.015625
141
12.0
290
     0
  0
SCALE
  5
2D435
102
{ACAD_REACTORS
330
2D421
102
}
330
2D421
100
AcDbScale
 70
     0
300
1/32" = 1'-0"
140
0.03125
141
12.0
290
     0
  0
SCALE
  5
2D436
102
{ACAD_REACTORS
330
2D421
102
}
330
2D421
100
AcDbScale
 70
     0
300
1/16" = 1'-0"
140
0.0625
141
12.0
290
     0
  0
SCALE
  5
2D437
102
{ACAD_REACTORS
330
2D421
102
}
330
2D421
100
AcDbScale
 70
     0
300
3/32" = 1'-0"
140
0.09375
141
12.0
290
     0
  0
SCALE
  5
2D438
102
{ACAD_REACTORS
330
2D421
102
}
330
2D421
100
AcDbScale
 70
     0
300
1/8" = 1'-0"
140
0.125
141
12.0
290
     0
  0
SCALE
  5
2D439
102
{ACAD_REACTORS
330
2D421
102
}
330
2D421
100
AcDbScale
 70
     0
300
3/16" = 1'-0"
140
0.1875
141
12.0
290
     0
  0
SCALE
  5
2D43A
102
{ACAD_REACTORS
330
2D421
102
}
330
2D421
100
AcDbScale
 70
     0
300
1/4" = 1'-0"
140
0.25
141
12.0
290
     0
  0
SCALE
  5
2D43B
102
{ACAD_REACTORS
330
2D421
102
}
330
2D421
100
AcDbScale
 70
     0
300
3/8" = 1'-0"
140
0.375
141
12.0
290
     0
  0
SCALE
  5
2D43C
102
{ACAD_REACTORS
330
2D421
102
}
330
2D421
100
AcDbScale
 70
     0
300
1/2" = 1'-0"
140
0.5
141
12.0
290
     0
  0
SCALE
  5
2D43D
102
{ACAD_REACTORS
330
2D421
102
}
330
2D421
100
AcDbScale
 70
     0
300
3/4" = 1'-0"
140
0.75
141
12.0
290
     0
  0
SCALE
  5
2D43E
102
{ACAD_REACTORS
330
2D421
102
}
330
2D421
100
AcDbScale
 70
     0
300
1" = 1'-0"
140
1.0
141
12.0
290
     0
  0
SCALE
  5
2D43F
102
{ACAD_REACTORS
330
2D421
102
}
330
2D421
100
AcDbScale
 70
     0
300
1-1/2" = 1'-0"
140
1.5
141
12.0
290
     0
  0
SCALE
  5
2D440
102
{ACAD_REACTORS
330
2D421
102
}
330
2D421
100
AcDbScale
 70
     0
300
3" = 1'-0"
140
3.0
141
12.0
290
     0
  0
SCALE
  5
2D441
102
{ACAD_REACTORS
330
2D421
102
}
330
2D421
100
AcDbScale
 70
     0
300
6" = 1'-0"
140
6.0
141
12.0
290
     0
  0
SCALE
  5
2D442
102
{ACAD_REACTORS
330
2D421
102
}
330
2D421
100
AcDbScale
 70
     0
300
1'-0" = 1'-0"
140
12.0
141
12.0
290
     0
  0
DICTIONARYVAR
  5
2CBE0
102
{ACAD_REACTORS
330
72CC
102
}
330
72CC
100
DictionaryVariables
280
     0
  1
1
  0
DICTIONARYVAR
  5
72CD
102
{ACAD_REACTORS
330
72CC
102
}
330
72CC
100
DictionaryVariables
280
     0
  1
96
  0
DICTIONARY
  5
2DD98
102
{ACAD_REACTORS
330
2DD97
102
}
330
2DD97
100
AcDbDictionary
281
     1
  0
DICTIONARY
  5
2DD99
102
{ACAD_REACTORS
330
2DD97
102
}
330
2DD97
100
AcDbDictionary
281
     1
  3
8796077903432
350
2DD9A
  3
8796077903448
350
2DD9B
  3
8796077903464
350
2DD9C
  3
8796077903480
350
2DD9D
  3
8796077903496
350
2DD9E
  3
8796077903512
350
2DD9F
  0
XRECORD
  5
2DD92
102
{ACAD_REACTORS
330
2C196
102
}
330
2C196
100
AcDbXrecord
280
     1
 91
     1023
301

290
     0
302
0
330
10
 90
        8
 62
     7
370
    -3
331
16
  1
Color_7
330
12A
 90
        8
 62
     4
370
    13
331
16
  1
Color_4
330
6B3
 90
        8
 62
    13
370
    13
331
6B0
  1
Color_13
330
20520
 90
        8
 62
     7
370
    13
331
16
  1
Color_7
330
20606
 90
        8
 62
     3
370
    40
331
16
  1
Color_3
330
225B5
 90
        8
 62
     8
370
    13
331
6B1
  1
Color_8
330
2330F
 90
        9
 62
    30
370
    40
331
16
  1
Color_30
330
2746E
 90
        8
 62
    40
370
    30
331
16
  1
Color_40
330
27471
 90
        8
 62
     7
370
    13
331
16
  1
Color_7
330
0
 90
        8
 62
    40
370
    20
331
16
  1
Color_40
330
2C08E
 90
        8
 62
     5
370
    13
331
2C08B
  1
Color_5
  0
XRECORD
  5
2D74E
102
{ACAD_REACTORS
330
2D74D
102
}
330
2D74D
100
AcDbXrecord
280
     1
  1
AcLyLayerFilter
 90
        1
300
0
301
NAME=="*0"
  0
XRECORD
  5
2D757
102
{ACAD_REACTORS
330
2D74D
102
}
330
2D74D
100
AcDbXrecord
280
     1
  1
AcLyLayerFilter
 90
        1
300
7
301
NAME=="*7"
  0
XRECORD
  5
2D758
102
{ACAD_REACTORS
330
2D74D
102
}
330
2D74D
100
AcDbXrecord
280
     1
  1
AcLyLayerFilter
 90
        1
300
kiseki
301
NAME=="kiseki*"
  0
XRECORD
  5
2D74F
102
{ACAD_REACTORS
330
2D74D
102
}
330
2D74D
100
AcDbXrecord
280
     1
  1
AcLyLayerFilter
 90
        1
300
11
301
NAME=="*11"
  0
XRECORD
  5
2D750
102
{ACAD_REACTORS
330
2D74D
102
}
330
2D74D
100
AcDbXrecord
280
     1
  1
AcLyLayerFilter
 90
        1
300
150_
301
NAME=="150_*"
  0
XRECORD
  5
2D751
102
{ACAD_REACTORS
330
2D74D
102
}
330
2D74D
100
AcDbXrecord
280
     1
  1
AcLyLayerFilter
 90
        1
300
160_
301
NAME=="160_*"
  0
XRECORD
  5
2D752
102
{ACAD_REACTORS
330
2D74D
102
}
330
2D74D
100
AcDbXrecord
280
     1
  1
AcLyLayerFilter
 90
        1
300
170_
301
NAME=="170_*"
  0
XRECORD
  5
2D753
102
{ACAD_REACTORS
330
2D74D
102
}
330
2D74D
100
AcDbXrecord
280
     1
  1
AcLyLayerFilter
 90
        1
300
171_
301
NAME=="171_*"
  0
XRECORD
  5
2D754
102
{ACAD_REACTORS
330
2D74D
102
}
330
2D74D
100
AcDbXrecord
280
     1
  1
AcLyLayerFilter
 90
        1
300
350_
301
NAME=="350_*"
  0
XRECORD
  5
2D755
102
{ACAD_REACTORS
330
2D74D
102
}
330
2D74D
100
AcDbXrecord
280
     1
  1
AcLyLayerFilter
 90
        1
300
4
301
NAME=="*4"
  0
XRECORD
  5
2D756
102
{ACAD_REACTORS
330
2D74D
102
}
330
2D74D
100
AcDbXrecord
280
     1
  1
AcLyLayerFilter
 90
        1
300
5
301
NAME=="*5"
  0
DICTIONARY
  5
2DD95
330
22
100
AcDbDictionary
280
     1
281
     1
  3
ADSK_XREC_LAYOUTTHUMBNAIL
360
2DD96
  0
XRECORD
  5
2DD9A
102
{ACAD_REACTORS
330
2DD99
102
}
330
2DD99
100
AcDbXrecord
280
     1
  1
AcDb_Thumbnail_Schema
102
{ATTRRECORD
341
2DD9C
  2
AcDbDs::TreatedAsObjectData
280
     1
291
     1
102
ATTRRECORD}
102
{ATTRRECORD
341
2DD9D
  2
AcDbDs::Legacy
280
     1
291
     1
102
ATTRRECORD}
  2
AcDbDs::ID
280
    10
 91
        8
102
{ATTRRECORD
341
2DD9E
  2
AcDs:Indexable
280
     1
291
     1
102
ATTRRECORD}
102
{ATTRRECORD
341
2DD9F
  2
AcDbDs::HandleAttribute
280
     7
282
     1
102
ATTRRECORD}
  2
Thumbnail_Data
280
    15
 91
        0
  0
XRECORD
  5
2DD9B
102
{ACAD_REACTORS
330
2DD99
102
}
330
2DD99
100
AcDbXrecord
280
     1
  1
AcDb3DSolid_ASM_Data
102
{ATTRRECORD
341
2DD9C
  2
AcDbDs::TreatedAsObjectData
280
     1
291
     1
102
ATTRRECORD}
102
{ATTRRECORD
341
2DD9D
  2
AcDbDs::Legacy
280
     1
291
     1
102
ATTRRECORD}
  2
AcDbDs::ID
280
    10
 91
        8
102
{ATTRRECORD
341
2DD9E
  2
AcDs:Indexable
280
     1
291
     1
102
ATTRRECORD}
102
{ATTRRECORD
341
2DD9F
  2
AcDbDs::HandleAttribute
280
     7
282
     1
102
ATTRRECORD}
  2
ASM_Data
280
    15
 91
        0
  0
XRECORD
  5
2DD9C
102
{ACAD_REACTORS
330
2DD99
102
}
330
2DD99
100
AcDbXrecord
280
     1
  1
AcDbDs::TreatedAsObjectDataSchema
  2
AcDbDs::TreatedAsObjectData
280
     1
 91
        0
  0
XRECORD
  5
2DD9D
102
{ACAD_REACTORS
330
2DD99
102
}
330
2DD99
100
AcDbXrecord
280
     1
  1
AcDbDs::LegacySchema
  2
AcDbDs::Legacy
280
     1
 91
        0
  0
XRECORD
  5
2DD9E
102
{ACAD_REACTORS
330
2DD99
102
}
330
2DD99
100
AcDbXrecord
280
     1
  1
AcDbDs::IndexedPropertySchema
  2
AcDs:Indexable
280
     1
 91
        0
  0
XRECORD
  5
2DD9F
102
{ACAD_REACTORS
330
2DD99
102
}
330
2DD99
100
AcDbXrecord
280
     1
  1
AcDbDs::HandleAttributeSchema
  2
AcDbDs::HandleAttribute
280
     7
 91
        1
284
     1
  0
XRECORD
  5
2DD96
102
{ACAD_REACTORS
330
2DD95
102
}
330
2DD95
100
AcDbXrecord
280
     1
310
89504E470D0A1A0A0000000D49484452000001000000008E080200000051DD412D000000097048597300000EC400000EC401952B0E1B0000200049444154789CECBD79701BE97DE7FDEDBBD168DC2709800748F026A863A4198D461AD9737BC633F6C44E9CF888DF249577531B576DD5DA792BD9D456E5AF54AAB2D9AA4DA5
310
36556F92B7B2B137E3D81B1F49ECD81E5BBE66C61A49230D255294788327EE1BE846A3D1EF1F202990047853943CFC944A45A00F3C0D3CBFE7F89DC031C77C80A18EBA01C73CA40402019AA6F3F9FC5137E470218FBA01C73C8C501475F1E2C5C71E7B6CED9D0B172EF4F7F71F61930E89E319E0983A0C0C0CD0345D2E9703
310
81802008F97C3E1C0EDB6CB670387CD44D3B608E05E003C46FFFF66F8BA2F8CA2BAF6432199AA6AD56ABCFE76B6B6BB3DBED8542616060A0DAD7CF9F3FCF304CB95C2E97CBE974FAC68D1BE572F9C48913535353172F5E8C44220CC39C3C793293C9783C9ECECECE542A75EEDC39822054552D954A47FD94BBE37809F401C2
310
6EB75B2C96279E788220089D4E278A62229148241256AB15804EA71304C16C365314552C1673B9DC4F7EF2936BD7AE01A8542A57AE5CC9E572AAAA922449926467672700ABD5AAD3E9FC7EBFA228168B451084237EC2DD431C75038E79400CB6832060B198799E5F5A5AF639311701808E0EBFC96C5614C56177FCE8473F02
310
E0B050EFDE13FAFAFAAE5CB9B276794733F43CAC568BAA56D2E9B4C38C686AE590681001E4B2B9EA4B82C0FB930FF6D9F6017DD40D38E6014110189E4220E0B0D2D6E1A96500C35300E0E9EE6608C3D8D4D890C1134A9853A954D0AF964A259D4E577BB99EC7F01482A20FC0F0D470D0BF723980B367FB64591E9E7ABFFA32
310
E87F804FB56F8E05E08302CF22E887DB99E5B852D08F2EDFCAFB8BE3FFFEE10F7DD83C282C2FFCB4C59A6AB1A2AB4D4C94CC9224D55ECE3208FAD1EB2B653219D45C0EC0404CB7365BB4ECCA4B9BF1C13CD0C1702C001F14A41286A750A40C369B6D786A16581BC235FFA0717A3A6EB1F8ABEF9F3E3BD42AE3EAD5ABB59797
310
140C4F212665388E9B9E46CDE5B067B4C72CFEE1A97BD597C733C0310F23D519C06E4936B9F9C2FA21DCEFCC593926BC3C59EDBB4B536FBDF5EEC6CBAB33C013E75A64593610EB2EB73B10682A2CAEF6FBE319E0988791EA0CE091B91C74D5C17B6D08774D211A55E2716D6EAEE1E5D519A048C5F57AFD86CB07F54D9CEDEC
310
F0D44FAB2F1FAD19E0D80EF041A1D5059B111E276D37A81C91EAF281A6E0B2E0DC63FE9E76B3812B9C3BEDE788A4812B36DB31B1B0F1729F1376131CE68AD5A0085476ED7297052D6E2E131F67B564F5A5CD8899E5A378C23D713C037C50D034282A385EEF70368D4FCE9455282A00B0AC607736AB1552AD106A855454A895
310
3A97576780336702E532333CB5809A19C0E469CB46B26B2F1FAD19E058003E2894CA189F87CDEBBD7E27333E0F1D8BF17900B07B4573989E9E56A2B1A58989AC248167EA5C1E4E22E8871CBF5A2210F443C7DDEFE8D9A59F1324B9F6B2203F90E739208E05E083024B23E081815EEEE872CA49B4B8509401C02624C76EFCEB
310
D0D09081568922240976539DCBC34984938DEEAD01EAA135FC703916800F0AA5322616D0D2E39F0D4B130BD0F12B0B7D5F57534BF7892BC3F7284A3F1DA6F239F0DC51B7F50172BC09FEA0D0E2845E07A3AECC9279B292F237A1A2C16A8459AC2CCEDCEE6CB315330B0C9133E92B4D564C2D1D75731F14C7BE401F144802D4
310
CE863B4D43F9515DD11C73CC31C71C2AAD36DB5137E19803E37813BC6B584D3BEA26EC8D56C00438001F100766811410DAF3ED28029D56045D2080F7C3984CA25CCF80F090731C10B347789E3FEA26EC96C78101E00CA000FDC039E0D9FDDCCEA1C70B5DA019703C2EB4C3A53FA87636E430BEF36301D835255505B0C15BF8
310
5180003C800768073C8015D84ADF7932B0FD1D753C780E0C03F281F4A3C3F8CE8FD5A0BB86A1A882A2FCEEEFFEAED56A7DFAE9A759962508E299679EB977EFDE8913271EE2B0F101E01E2003EF0125601C6081F71B9DDD6C438707A148C3DB892CCE7AA16AA008C8122693C83E62F1C0C0F10CB0074496056032996C365B57
310
57D7273EF1099AA60D0683CFE73B71E2446B6BEB5137B0111C701238013C0D9C007A80C6AB1683613CA99BDD4E96A339500C2806DA23DB8F8EED00DBD0623271ABFAF39424D12419181C5CBA7B976098BC2CEB699AA1E952A9142E143292C4B2EC439C1681DEA4F32803E5FAE70683181EDEFA760C89934D8006001A707319
310
CA23B8093ED6026D43289D5EF7DA6613CF9F1F7FE79DBA273FB4BDFFC22092B9F2A5A1F2CF6EC1EB80D7813B219CE9C67FFBA77A67FFE66FE2DFFF7DEB1B3ED98FA925080EDC9CC0A5212C2570D2089F13FFE7A787D1FC43E4919DBA8E0486C1A73F9DF9C6378EBA1DBB4652509491CC415131D00E970576234C8D5640990C
310
B6DCC998F4588881004E74C26941C08B979F80518F4ECF61B4FD70395E02ED86975E822CBBAE5C093F6A19338D024A65480DE72703906D74AC2EAD2E2432D0B0B20402C0D030E8117A6855000D385E02ED98C141681A6EDD3272DC2327009942A32314C00203C020F05360CC21A0CD8C8202138FF7979157EA5F56777F9CCC
310
1D50731F20C74BA09DD1D10151C4D212A2D1A36ECAC17211B80844800580E5287CE93C5C226415AD269C6E06F9CBBE4438B603EC008F07361B723984C328141892CC2B0D06C6478C21400658E0243006A49EF1A77332B2259004E6322828883C6253DDAE399E01B6C36A05CBA25000C3FC720DFF22E0034CC08F80BF05BC16
310
3E14B06238821F4C41CFC0A2C3DDD851B7F1F0399E01B64410E0744214B1B8884A05990C80668321512C1E75CBF64F0948017120071080492A2F4A658CC5A06A984EC1CC63F9115CD3EF96E319A0311485F676280A6667E1F3618BA4398F2404F01C50DDCC9E006EF6D89191578C59DDB60FC4F08F632DD056F4F5616A0A4D
310
4D204924126B6F571E5577E80D740234F0BBC06D008032E8044B2172073C8DBC02F9831114763C0334A0A70777EFA2A3031313F0F9303FBF76242D3F52793F1A6205FE1EB809D880D13633180AB28ADF18C4C7FBD9F9CCBE6E7DEEDCB9A79E7A0A403018ACFE2F8A626B6B6B2010703A9D67CE9CD1EBF57D7D7D6BE7BB5C2E
310
0046A3F1CC9933D5774C26537777F7BE1AB1338E600FE0F178CE9E3D3B5DCDB00A300C63B1587A7A7A969797CF9C3963369B5F7EF9E5D3A74F271289D75F7F3D954ABDFAEAAB77EEDCA1695AD3B453A74E793C1E49923A3A3AF47A7D4B4B8B20088140C060307CFEF39F1F191979F2C9274992FCD8C73E363A3AEA70388686
310
86E6E6E63A3A3A743ADDE9D3A71545F9D297BE343A3AFA852F7C211C0E3737374722F5DC1DDBDA1089C0E1C0F232F47A94CBD5D57F15AB4E9779E46540049A813960116081D97E072C3C281277A2F8EE84A6B95C2008ECD5B3E3A5975EBA70E1C2DCDCDC273FF9C9DBB76F7FE6339F191B1BB3582C06834196654DD34AA5D2
310
534F3D353D3DFD894F7CE2D6AD5B4F3FFD74381CF6783C0CC300F07ABDE974BABBBB7B6E6E4E3BE4F9F60804A0582C721C67341A7D3E5F2291F8B33FFBB3E9E9695114B3D96C676727CBB2FDFDFD2E974B92A4575E79656C6CECD5575F7DF7DD77FFF00FFFF0EDB7DF36994CAAAA462291679E79E6273FF9C9993367DE7DF7
310
DDBEBE3E9EE74F9E3C79F9F2E5679F7D7666668624C9E5E56582209C4E672814EAEAEA1204E1FCF9F39224399D4EA3D1F8E28B2FBEFFFEFB344D2F2C6C4A02E876A354423E0FBB1D8B8B0804303E5E7BDCA5D73FB29B600B6002F28007480214F004F09E5BACBCD809A582B90CAECCA3A269C8E5E0F1A0A909B1DD6C058C46
310
9C3E0D8B654E516E2C2DCD140AB392B4502E8FC4E3614D0B030BE572C5E15828970B06C3DD74BA68342E0305519C95E582C110A3A84555CD0A428CA2E0764F66B35AB98C42431BDE81F060ED1C4343D0349D4E27C9B25659711D14F47A5992FC1D1D89789C66188A246559D6EBF59148C4DFD1118FC5B2B95CA954B2582CD1
310
4844D0EB0114F27992242B950ACD306545214992A4281DCF67B3599D20288A120804A29108C330556911F4FA62A1409224C7F31449964A25BBDD9E4AA7354D2BFCE217A81D634C26984C088556DC210501CDCD9898A87D8880D53A5EB32578A4781C58065C0007840013300CE0C36D7089C895F0C369146A2D1C348DDE5E44
310
A358DE71B2CF6010C3C3814000004DD34EA73393C9E4F3F97BF7EE01703A9DBDBDBDC964321E8F2F2E2EEAF5FA5CEE88354D0F760670B9303CEC02DA74BAF0F030C26184C3CAFC3CC261BF5E3FF1D65B66492222117571B1BCB0503D949D9868E5F9E8AD5BF9A92984C32649D2E77285E9692E95F2B16C767CBC4DA7934321
310
2193B1944AA9BB77854C46999FF7D2F4E4DB6F9B65998AC532E3E3BA4C868C469B294A9A9DE5D3E9CCF8B8AD5CD69696B4E565B97631C371F07A313585CE4ECCCE4251D0DB8B3B77363CC4111AC20606069E78E2896834FAC52F7E311C0E57D781344D330C63B7DB4F9C38B1B0B050A934724AB6033960196807A280059807
310
0A7D0EB45B5050706501A90D1157950A2211E874686F4732898677AE415561365F3C79726868289BCDB6B4B42C2F2F1B0C06BD5EEFF17844511C1B1B6B6D6DEDE8E888C7E32FBDF4D2EDDBB7F7FDADEC8B072B0024099D2EBBBCEC72B94451AC2E813EFBD9CFAAAA4A5154241279EEB9E7B2D9ECEFFFFEEF5FBA74697979F9
310
CFFFFCCFE7E7E7FFE88FFEE8F2E5CB2FBCF0C2CCCC4C5F5F9FCD662B954ABFF22BBFF2D65B6F7DFAD39F7EFBEDB75F7BED358BC5F2C52F7EF1F2E5CBBFF77BBF97CBE50441989F9FF7783C7ABD3E1C0E777777373535BDF8E28BE974FAB77EEBB7969797FFE66FFEE6DAB56B0E87E3FE128820D0DB8BD15188220401910804
310
011C87E4C6848022CB1E95007477777FE94B5F9A9999F9C217BE303E3E5E0D11AC2E1D53A9542010181B1B6BBC683E03DC062E0143C04DC002DC730870E8D164C0CD65841A6D7C0B0524123879122C8B54AAC1493527B7B7476FDFCEE5729148241C0E6B9AB6B8B8180A85C2E170B95CF67ABDD3D3D3F1787C6969697474F4
310
B097F8DBF2600520974367A7A15028140A0B0B0BE170B852A9B8DDEED1D1519BCD06209FCFCBB25C2C16C3E1F0FCFC7C369B9D9C9CBC75EBD6E2E222CFF37373732449663299F9F9F9858585743ABDB4B4944EA7A3D1683E9F1F1D1D9D9999C9E7F35353534EA7B352A994CB658661A2D1A84EA7A3286A7E7E5ED3B4919191
310
5028542C16474747F3F97C6AED171D18C0C80800F4F4606C0C007A7B57FE58CF033584E974C6279E90CD66C6E7ABD8ED1192FCC7CB97A70A85BFFDD77FBD150E87647959D3F2A218A328C6E79BC86424B71B9B77352B580003C0014BC039E02A90EBB4E2C632C662701B10DEC2EB41A7C3A73E851FFF183B91FC5CAE68B72F
310
8D8EA65229A7D399CFE76D369B20082D2D2D001886A1699A2088E6E6669EE75B5B5B0982686F6F2749B2A5A585E338BBDD6EB3D9789E6F6969A128CAEFF7574F88C7E3472E2D07414F0F58F6A81BB1894000D59A705D5DA8A61ED0EBD1D151FF5CABF501B60CC1603010087CF18B5FB4DBED9FFBDCE7CC66F333CF3CD3D2D2
310
72EEDCB94020D0D4D4D4D1D171FAF4E9CF7DEE730CC39CFCE427B155AD52237012A0807E00BD76302400045DDB35C2E783D7BB8B46F7F5910CF3FCF3CF731CD7D3D303606868A8FABF20089D9D9D9D9D9D0CC3F4F6F602A8AA3B878686388EABC694BADDEEC1C1419224AB577577771B0C864B972E7977D586879760F0A85B
310
B01E9F0F160B00984C68695979B371239B44F181346B8593274FBADDEED6D6569D4E57ED4CD5FFBD5EAFCFE7F37ABDA2287675757DE4231FB1DBED76BB7DCBAFD70EF4014F028C8587D708006E118EADCBFBD2346A74F63BA4EB939F349BCDD5BFF53C9C665844E8B74B6B42917037185E689AAECAC3A3CF810B80C9B46ED8
310
6318B8DD3BBDD6E14053D35AC3BC0E3CD60D5E64D0D3D3F08AC32E07DDD5B5AFCBB7FA7A1F0778E071AC8EFA0430E8DCEE8603037B487BC2B4B77FE49557AA7FB3345E3B8F57CE61A01D1FBF80FE367CF41C680AE7FA375ED5E5C5AB4FA2C58917CFE2C220FADBF0D4E0CAA1FEFEFEC3308D1D85335C2E079F6FF3E672EFC8
310
324E9D8224A1584447079A9AF0C20BB8750BEA76D67C51E45C960BE6398B01CBB600666632E9F2894E24BCBDF99B77D160C5E939D43D4053133EFA51481264197B4B8343516059D469A11D50011F703D60C54C0AE50A7AEC188FA3B2C5D2DA66DB6007DC217EBB7D5CA72BCECDA1ABABB58D2732D9E504041E1489680A1C0B
310
B984625B574AE7402C868E0EB8DD48242842B31911CF40E0212B60682C2790CA551F8BD2EBF5D18376C83D0A015014F87C5B479DEE1AA311CF3C034D4328B4E2B6502EA3818EF9F15EF89C984FD2F0FB0794710094CBBE10AE10A9E4A73E849444DDCEDA51D7420C00B0E9748728008F3D865FFC02F7EEC1E9447333E2F15D
310
DF219B4520B0E9EBA5808BC028208A6C5460102DC0C4812691D842CA0862C51964F7288AF2585FDF4C2ED7FE1FFE832B704AD1B74D489CAEEBC9EB718E691BBC2B991C27CEC55AFB6DCF3C930D87ED2FBD44B6B7BFF0DC73D33291B307657BEB78C952720FE46CDD8AD35F8E44589AE6388EA2A84422F1D8638F2D2E2EEEA1
310
497539225FA0580C76FB41DEB0BD9D0F06512CA21AAC78ED1A04A1EE76B0D38378062C0DFDE93E6E7C5429C366C495543316177B5A707D1C3F29F7AFA8831E3C9D9D181E46280400A110C6C7D1DF8FE6E62DAFE903DA7770EB006003FE1818F55B30950401B498309BAE73AA8E45D00F9606FAF7FE55B02C3B373242B85CB6
310
9FFDEC7C32799AA69F77BB9F73B9EC8B8B1FF3FBED8B8BAF77769E9D9CB4DFBA85E1E1E6582CF73FFEC7AFF7F676E4721FF7FB4F33CC93A2789A610285C27F7EEE39284A6767A7CD66AB542A369B6D6868686060A0FA2956AB35B8BF15F54178837677AF044CED8AAE2EDCBB77009F2E8AFC1343D2B7BF2FBDF30E3EFAD1FB
310
F79C9C445F1FEEDD43F97EEA1B868241408F0FDF4AF5C937462EF42392C494A517D7474D7A542AA078B6D23874BCCA6139C3592C1BDC4E512EE3F66DF86D7876103F1AA967877201314003CE02C3C0EA601E8BC166AB993D74000BBC09FCB0C382501A003AAD186F60CEB69B91CCE1F4E3E677E6323B327ED583244982202A
310
9393CBBDBDDFFBDEF754554D2412376EDC585E5EFEDAD7BE168FC77FF8C31F26120985E300547D61FEF22FFF726E6EEE8D37DE6018667E7EBEB3B37369698920089EE7A7A6A66459EEEAEAB2DBEDC964B2BDBDDD6834E672B9DBB76F3F04AAA1975FC6134FECFAAA8E8E2D15763B8024F1F197F1D9572050A8EE8EAC56783C
310
2E0BCE5677B00C831327D64E27804F3F8B6007982E3F4471A8030E135EFFB88D69F500786A102F3D0ED785ED377CEEC3D002F13C020D92719E05DCC0A706D0BD21E71C099CA97919006A76CFEBC6C5B300053CC6511872E1521BF40CFC96FA9F56DD803ED107E7D3FB1A59F57AFDC58B175DADADCECF7D0E0CE3743A0154FF
310
F7783C552F09B7DB4D9D3A3530308060B03AA87776769224E976BB9D4E27C3301E8F67EDAAC71F7FBCBBBBFBA5975E1A1A1ABA78F1A2DFBF5294CF64AA57D26CC71C842FD089135858D875B82049A2AF0F7BB6847777E395F3F8EA7731BF0400554D76186C4F873536B51C5BDDD6D134868670FDBA51C0E92E5CBE89D77FAD
310
F95B974B623EF6E193988FE38E713077E5160051878E16EA7DBA67DB49FFE07D81743A78BD1B5CEE56E807EE001580001E33C2DB8637A791ADA6301902C680DAE98803868019205293DACD05108019981A72953232BC4614145C5F0200E27E5A9315441D4C7A1807FD77AE46763DABAF8724C9D3E7CE113E9F92CFEBE2F15C
310
2E475194AAAA2CCBAAAA0A80A669A2BB9B999ECE7B3CCCF474B95CD6EBF58AA2548D9800288A2A954AD5ABA2D1E8D2D2C359B9A9B3738F63F9C00088DD4BA05E8F5FFB353C7F71E3FB3D405D0B9BC582DE5EBB092F3F81BE939635838EC0C1F9D4FAF17E6746BA033684E9740DC77E2FB0E1A3F4C06B6D08760276A0A9FE55
310
68037A61B1C11700CCC04BC025E0ACD7082B0F002F75825DD57D580DF89D97717A75E61075F8C4D3E8EC16D1BE937DC50EE0387477C3EF47A369331804E07EFEF9BE554E9E3C79301FBD338E3420667616BB4D25DBD3835F7B1597BF83EF6FCAC13706D4D5DD2793989A8A79FA7E322E4C956C6BA12D05A32332195FB7C665
310
989D78C0CBDB6A5777CE1663BF17A8001B669A3CF0AD19688BF8D520AC8DB62233C004927E585E037E151807E21471DDC8212181A330994469F5091259FCFB558C8500C06A409717EFDE41B9D58FD5688D83616A0A7E3F80A10EF89CE0189CEE8250939BFD087D1C8E5400B259188D3B3DD96CC6EF7C06A288BFFB47441AA4
310
31BB0D0CD47B5F963139997BFE35E9EECCFD379B9A503BA5F6F56D76FCAC8B5C6E905076B758AD0D7BBF1E30018D747DB70AF8E68FF0840E171F6B708602C8A07E017218781178ACDBA6DE8B0340970DE3B59AD59E9EF9149B9700C0690141A0F954CBCCBB7B2F1BD39068140E87CF09A71965159A56DFCA4210C4031686A3
310
8E098E44E0746EA1745FE1A5974051F8CAFFA967DFA9A1024C019DC066CD755717DE78033D3D88C71189A0AF0FA3A3F78F922448123BEBD9079319AEA303B25CBFF753401BB0F54EA4047C67012D4BF8F541FC388AA50DFEFA1E601E190BBC0A42DF30F327730ACA15B8F488E46B16FD2E1792C9EAA4D7ED435186D1CC5C5F
310
D0237508026030E0D2A591A0A3F8CE757FE7A2F923E771238BABC378B08E559B396A01585E4630B89500389DB87409D7DFC6E47CC3736A29008B9B64A0BB1B77EF42D370E70EDADAF0A10FE1D6AD75DDBDAB0B77EFEEF111764BD5CD6E721275A58806BAB6EBFD6B842A98BF854B0E0C0CE267E3AB9663026806AE62B2BA7E
310
32B5186734A0D5043D8BD1355505CBC26CAE3EB5D302BD0E6E2B66DDBDCAF7B6C98ABE47EEDD432432FD8E0F04B13C3C3C3E0F2C2F231259D35611ABBB41620FDBC27DF01004C5CB32B87AB57A280A2FBC801327F08D6FECB4F75729000960D58704ADAD585EBEBFB89F99412E87E666D4167B64D91D39FA56DBBB9F3D404F
310
0FDC6E0C0FD7EFFD143008D471C16E4C05F85114C3B7F04A17DAAB9BE93EE0BDB5E34D62FB626EE45604CD06DC59EBFD06035E7B6D4DE6350D3405CAD73C73FDC02CAC7548A5A0AA609895979B46BD07BFFEC143210077EF62939393D82CE2148FF7DEC3F7BFBFF3AE799F043001F4006E172409B539FE83415CBD8AE161F0
310
3C8241E8F5BBB57796F7661B72BB110C6271119393F54F10816EE006B087DB8781AF0FA329C6F73D05A8C08A88D2648B995F8E15B476336E456A163FDDDD78FF7E71A4213FE6E2E48FA62DBB8B00DE099AB66EA6BD7B17A74F6F3EAB5A82A4712CDB21F21008C006744010C5521185FCBE521116819811033C52355E31CDCD
310
5873235958C0F030DC6EF4F66237E507797A97EBC6F6760483A854303CDCD0ABCC0E3881D1FA0777CA3B4989FD394002A70000749F437F27B6CCD36048E46AF55BD7AED59AE1DF7C0F0977F7C118E65721491200A128DCBC1E0802144041059A7DED671E5F79090A7002C17E62A55401CFF30FB8FAE051EF01AA4C4CA0B313
310
1313F00314300C152A78C0BA490FB8735816F666BC39862E2002A4008681C95447D5F3DDEFC2E58228229BDD89FA8FDAE1229565D1D50592C4D2D236B7F50345606A4777DD8AEEAA088D023470D1A96722F91F03E8B262786B2D83D32947927B99691BE072B9EC767B2E979B9DAD465DF3F755D4FFFB862A53E0DA81AA44F6
310
016F128457D3B407DFFBF1B00840A100B700019804D6D6C6F3C00090DC64ABDC213D3D2BA6D07B80AF1A0FD85BA7EE955E8F7C1E535300208A7C30280150148C8D6D56D4D98CF03971AE1D1D6924B31075F8E17B1BEF074140672700C8324647B7F1A5E181AEF54FBD675C4071B553A10CFC342E52AA4B6D9AC6D2B6F6DCEA
310
B6E4E070381C1313139224AD5662D5EEEFEB798A8BCDC3945B7DE7D4CADB47D1FBF1500800097443D0150A6376E4D7AF416F03C16AE68E5D3230B0CEC9620EE86A867E1116A0360C6183AF6F2E2755FB014DAFB352C7E34824502CC633F0D8311F57DF9F414FEB6AEF7738208A70380040925028ECB433B500DC9E9E6E332C
310
6006D6EBB1D4B08A302A974CD17B696C915C672D06FAE0B87DFBF62BAFBC3272ED1A552214D52C9529406FE4380032C75124191084AA0234CC717A5174E9F5158E9B97E5079F76F2A805C00398817B20E796D99E9ED2E64DD80CD0B34BC54867272627D70DBD0401D68A776E23000480770100160BF4FAFA7997CA65DCBA75
310
FFA5D50A8F0782009E1F51A4B85E8CB7E7AED24055831789201ADD9DE9D408B401B3403D6FE4BDD0535F9044514CBE5D841108027780CD6B1CBD1E8AB2E70C705B40926441D3C2892460043820BF623CF17A5B142554CD3401C02B6772B9703EBFB118E183E2E8048001DBC99622A5EA4C985372369D2E4ED31BAD51194007
310
B856D3186F8BD75B1DADD7BD3938B8322A57ED4E83800C0C3DBB53DD7F22B1E6A5AC0282D55A4A24F6D86538A00BC81ED0C05FA5AFBEDD8024499AA673B91C62400CE8012BB3A5E9F50DEFE838D8C5CF1A747D558111D14EC084E85645EA1F24072D000C83FFFA5FF1B5AF6D731A49F2A9319DA253128AB6BAC6CF5EB9C29F
310
3A25BDFBEEC693C3403BE000B6D509D9EDA854B0C155B3A505B3B3EBDEB90570E03B6F4A18AFE30F794854477D09B87DA09FE80596D7D49EEBB0582CF19A80327A82E64E735A945558168904080281C0C66FE680F0F97CDFF9CE776AF6006BE8F8A6EB1C9BE5270392D70BAB152D3E20089F6FC50DB16A925FB3156C814E87
310
B131EC7BDE3868015014A452B87B178DA246AA76D0A929C9E42899174C66532A9902401144A9541219461084B22CB7984C73E9F47D93D334D00DA4D736790DEE6C34AE6C67D7E038E8742B3156B5C890BE330E0003000984773CC3ECD61046007E400FA40F74D4AF62DFE83067E17933CF4FA7522E972BBC3E2AD2D86E4C24
310
24703AF03CBABB41D3181CC41B6F1C749B002093C97CEC631FBB7CF97238BC3191965496E449556A2D62781EF3F3C0108687CB6EF7FDFCDB5583FDB6FC97FF822B57F6DFD4435802FDE0070D7B7F6727346D65CE6D6BAB8CCD29BD8AA888B95CCEC871CA93955CF3FB5E0C726313139B6361EF028F038D1E99A2D0D656C79E
310
D5DDBDCD145FDD2A3BD716F4C076693077EA0C17007480064C62AB3DE89EB103EC4687B9A424654BA513EDED73EE382EC0336758B89205E0743AA34214B32618F50885C07178F145FCF450AA5AF33CCF715C2A956AA4D5A99ABD6AA93500F33BB4C934B227EE92076508ABE6AB595858D76E09F9709EF3701445250725BE9C
310
B10F72000020004944415499B6872BF3C162A252A9EF10F22ED0DF2086A7AE35B7AD6DA77BD308300C0C031520B8FACF533FC0C058D771038008F4AD5E7B16980786815B87D6FB8DF5DD45499A9EC8444B3D925FB264CEC9008C4663C29DD0466A165EB28C6F7D0BE5320607B1A93BEE19BD5EFFABBFFAABA228060281DFF9
310
9DDF594BF60F10ABDF4BEBAAC6975E7D679D33DC2EBC2146F769355C615F3380DB0A3D8FED25B1B717A954FD917811F1FEB8CD664BA909AA42501A0943324D512693A99AB4D0258A095956AA361A0DB8039C06AE6DBAFFE6AF431040D3ABC1533B2602ACD98C6C80BF9E0C080DFA741608010F20DBB11D60D619CE5C667322
310
93512A1592248D46632C1B63194ACE95398A9659545C95F252199BE7AD4864C5313693A9AD00B267F2F9FCD5AB5763B198A6695FFEF2976FDDD7A469EBD77FD61A6FA523CE75B57701F03A5052902BA2B51DB38D7CA89A9AE0706074742B4FE3116827A5D645D794751976B4FCB310FAE8478BFFF4BF4D2613572E171545A9
310
B5505680EBC059E0FDD560C0F676CCCFD7B97F35C3C27E8803F5929294CD156C9722F610A9F6FEF5B181E154AACD6C8E150AAC28C652314EA3CCEFF30BED59F63BD4407FFB7BE989ADF407A3A3B058100C6EB573DB19EDEDEDD5BA278AA2540320578F10AB4B4C1B300A28C00BABCFB032031004411044A5D1E47F68EC7D09
310
14CFE0F75EC3E37DF58B8603C0C73E0651C4F0F0D67EF66E51AC4CA8CB9E0CFF731E6F20164ED88708F93748D3099AE2B83AB55834E05DA015E080A626E4727586F9D656CCCCECF1C1B6A374801161BBC557A7F7579949A59CAD36F55C019F81F38C3E7C258F37608A596F6A53ED09B361EB50CF6412C3C378FDF57D46424E
310
4F4F9F3B778E20884C2653DD09AC1ED1569798A358D1222CADBE93C00E5CA0CFF6A0CB873D6468DC96BD0B4051C63F7C1FF35B3899BCFB2E9E7E7AEB9B788DC65CA994CA4A855081F6D12CCB16DA95E297FF61F0DB86101BCF5A4AECEA2F4712C4BACDD33D60C0020B5DC761AE1A65B6FB64663B84DA7D9EC083A16A40A8E9
310
FDE69AFDA2D3E99C1696CB61B5EF3B8E397B0626582C96744FBA72B3329D4A090C63D97A736932C1E9DC6724645B5B5B3A9D76381C00666666A806BB8BCD9B606A3B6FD03B21C82580A601F0079A5B795FBFE5D412A6B7D0992C2EE2DFFEED7EE6CD7ACC6732B9AA19328A9C9CD37BF4A44C5A0CBAD996342752B9851CCBB2
310
1CC711409BD9BC4EFFC8F3C8D8519EAB9315AAADED90D4DB5536FF7E0F822010C286A5975C2E7B8D4600068321994C6A92A6E3994847DEC0B37C85977BE4D2D515B571389F4F6EED69E3F3E17FFECF7DB651144583C1D0DCDC0C602D6DC9817069084FAC8EFE178308FA61DD712CEDD6EC5D0028122F9C41B36DCB93969660
310
B3812429128E6DD3B7849024927D94777129979165D3086FD4B85C678E73B25D4D4D53B5B94449129D9D181FC73D200AD44E8C55AFD25F260CC0E0BAB4576B14CBE5AC2CB7353549AD9262565A974DE98414CB172AD70857ABA970A7B0F9920D0C567BA9D389586CFF0E119148C46AB556D3777EFBDBDF26773C556EABFC79
310
7F12EFAC2AF96E4E40AD207740C929F72500A20E9E6D131C8E8EF27D7DED4DB01860D932A3144B51ED09F3ED72C892B56018917BF9F26B157B9FA07CBEB8A0CFEAF5FAFBA7F6F5DD577AE6807B4010300006030EBFACDA416685D8163F60076E353C4EE9F5C99369BE9F307C829DF76594D10A3D4A5334B7508CB6C3BCF5BD
310
873A5056014180D3B98B2A609B705B01B319402E979365D96AB5DAEDF6279F7CB2BA16DACC1EBEC08017DDBE95BFCFF682A6EEA772D9277B17805219233358DAD65FBF5291E6E7E3669FDB8AD6C649CB4541708BE2742A857B4888099BD7461044A1A2182B9C30C6E41CB96AD62400E8EAC2F8F83A5FE532300CD881A7DB0F
310
6FEFBBC6816585D81A1D100432408365394DD376BB3D9148A4858247311AC73835A8D1342DB409995CA63C5909A5D35DAE86A52F28121C039308AEB763EFE9C980979F408B135DE75B00B4B5B5150A058AA29A9A9AAE5DBB566830126DB1866CE414EDB202C48AC5E25FDF593721EC937DCD002ECBCE5247A65239CA90A50C
310
B134CED44DDDE376E70A85357F40EDAE16B7C69B3B9A0D73EC2C9B2A1815C76D4196E572B96CAA46D0D7D5D6B1DDF8E918824083A47F07454343D801D20A788061A0418822C771A228C6E37102704F8BE3623CEE2BDA7F20567B7FD598AD6ADABD7018A2887A7E69837EC432583677C863FB8AC4B97E0FE93C96E200303131
310
118FC727638BA3A3A37EBFFFCECED2CC60D512BC4548C0E40272C546F9EAF7C5DE05A0C98664161489D66D0BEC00CAF0E80DC93B9FA4AF6E766C6E6AAAA3271D86CA6684B0A5F20F28FE6D5992CB7641904DA65C3C6E25C935AD1949102B0A3E930992844C09C3801EE83B7A47EF3D5275CA486DCCEC52ABF0311A8D8220A4
310
52299A209A0D86E5EB39F57F69C4D718DEA123F2F27D578E3367100820974357D7E6C46C372710E35DA1C96CFDF0FC1D6335C06A58D1CC04DB4B167A7CE869B7AAAA6363633B0F702997CB5B07C49CED8151D843998EEDD9FB2DE7A3189EC2F0D48A1DA0A705413F827EE8750D2EB873A78E1ED7EF87A26C8EC56E339B6363
310
F93013B67AAC00B2A5528A653BBC5E756121914858ADD6EA72A8C362C956B76EADADF7353FF3C05D20001C7C3D11E0F0F60055AF7D0218AE132750D134A75E0F4014C572B99C4C26799A6E361816B259003A9D8EE964E61351364D99D626A8E1619C3E0DB319A3A32B513BB5E87425D25059DE2E23D376883A4C2EADE864C6
310
42B8318ED1ED34709B0D293A9D6E6B69F9EEBB9858D873A6EAAD38B071B2A48063B09C407E8B9DEED8D8BAF823BF1FE1F0E611A8C5649ACF64CA950AC6111F8CDB057B826B2AEBF553BFF845BFC331994CC6E3719D4ED7D5DC3C5F3502543542B5A8C01D80038280048C1FA407F2C1EF0104A0731B77D18C2CBB0D06CA684C
310
2693922459753A816166D369000683A1EC29674219A41145C121080C492A950A64196FBC819616D034A6A7D1DE0E9A5E593D9224FC7EE920CA20BC3B060091108015CD4CA24083A2B628CFC36CDA0314B72B3812F082A5112AEE2563C6D61CD8A4B294C0ED6984B7AE7B542A2112C1273F09001D1D757B3F80503A7D3FF5C8
310
2DC40A31D3857E2114D2809168D4C873E2FFCDAA7F584AF5673851A4DC6E140A28165B4D2641B77EF691816160161800060FAC1ACE41EE014C4010F0AFB6733DCD16CB5A060A4110C28A52FA584AFA7F24C387D872A5329FC900B05AAD529B545C2AAE4D1AD14241A91D2A4321B02C65B39CE1A69BECABCE292FBC7050CE64
310
2BD49A901F7B0C5B1A01F6E0EA3017C1BD39946B65EA80D2F71E9800F89B70A213AE6D37A08904F2797CE6339899D9E9EA731EC9AFBE4138D2168B0540A43B4F6471E22D77C4954BEAF5DC89136226C3D37445D30A75071219B805DC067A80E06A22F5A38504FC40103001C3AB2ED99B584C267D4623499256ABB552A9A4DB
310
D2D94CE9A9AB2DA5363523CB1445D99A6CD9B6AC7257D926B47271B14B9F3409B04951944AF88FFF11A3A307BCA3BCEFF809BE1A83110CA2A787202A1CE7039A577C3FB9364855D5D0AA37E8780E0892A4D852C3E6DB9F0AA0C3B3FEAD9ACA0FFBE120B78A3BFD467FF633BCF002060771E3C64E6F1D475ECA977A4AD6056B
310
722AE9FCB0FEA671B9B96488BDF04261EC876C4FA9BDE89C1EBFBF91B0F07C4A92D6B5672D2F810B08021A103AB890DC9D53CD785E0166EAE741B1EA74C96271ADE559A0F5AC7BBAB8883B302CB2F4F3E47BA6252D05BD5ECFB7F2712A5E93036E2BA697512A63B200FCE1A7F095AF1CB0A59CE370F3E65A92434910C03050
310
14B0AC36D82B6726CC422A45A75A2EBA42F3617C13B05AD1B4D2EEC73B7576D90794D626E88AA66D2E74F9BFAA3BFBAEAEB54EC6EBF592C9F4104584C90A2617E1B240AFDB2EC747368B7FF9175CB800AB7563F8E216E4A1BCA724BA136D8427F7B7F912A52E46B3CEC03F2BAD4594C91977984B08A6B2A9EA8B6B17848696
310
FFB5E0AF16A09A9B3DD6380F733D0ABBCD9FC3003EA0BA359A03B6F43BCE954A2D26D36C3ACDB22CCFF3094FCECE297C8976BEAC8FFE4B3EFBDF4AB0A18B698E07F3F1501C8D6AC26F422A61721118F0E2AB5F3D9420604BCDD45F2EC36CBEEFA36534A644AD73CEA0175058166228646479C5170E2851A569F9BEA5832008
310
9AA6B76AE1EA212912D97FEFC7010AC0F4123A9AB19C407E27366A594624029D6E7732A0819FA00B2DA97C1BEC217B0CB1882EC927E9C7639EF77A97B264361BCD5A2C16B75E3FBF6DBA690021A01A296903065757A6857A99A537B662071801DFEAA05602E6769AF7AAA4AA344D9B4C26499232990C087010CE25BD973B66
310
4081211823639C6D8E354D08F1DD66CD6B6D3D2C074159C64F7FBA2EC3C0861E1C0C4ECC0DF75EF3C50A0500DC96A9F576EA0EFDFDEFEFBEA175383001502BB8B7DB988A8505783CBB9201AFD13831950087D2999269D624CD494DAFEBDE9A9A634B544BCEB4D4934D069225352F5EB7B0E5727C8735466BFDFE75AB8EEBB5
310
A480AAC3750650A15F0BD9D6AF86CB3837057F6780B1FAB1EA5B40D3B45EAFCF3928F65C319D91753FA46D5961C19ACD054BE6695E65197810D7E2B886454A6D319976914AA4AD0D89044872170519760EC7F1AFBC22ADE906AA1B805A6CB6D6DFFE6D9DE727F6EF0B3114EA5A828F2A1EE0A8CD4555195857D2B0210E4198
310
AEBAC4C9507EAEA4DBD2DE5E47F9BBA44A6B85901242BAF5B3265FD4F46E65216C0A9313A4C96422493259E345471284D768DCAADF14EBE9224D800100D004D0351161B9D520FD99F5A5BA7640BBD93C9DBAEFDBC9F3BC2008E572399D4EA73F027FCC6250B8D027D2F37F93C112324E35C036DDE99853436A3504BEA4AA05
310
45A1497247997A7B7AB0B8884CA6EAB173F0C8B224085BAD5B3EFDE9D9B1B1F83F2EE63A0B686D955B5A907F079B42D476180CD96C47BB1B37B75D69EF8CA31600000B0B7C4787C4F358586873235F44B441FF8C6EF02D9901992A855AD3968AA562AAA4D3E9D94CBA582E936D84E72DC3B2964BA7D30441D86C368AA2E2F1
310
B8AAAA5EA3315C53F8CD6D362FA77610DC955EB75D964DEA1E76CF26419015455ADD3FD0AB564D83C14092A4A669894402809E61E86532E3902903519EA850146516CD6577F9766CC6376D9C4BDF5FC3C41AFBFC557DC5AE541D110607313979D80E82F8D6B7EABF2F8AF0FB71E70EDE7B2FE7F55264D1DFDCEC9A9D8D9D1E
310
2ABC77BD7A4A75ECD7346D8702E0B543ADC0DFBC858BE02E7828B2434B93932816D1D1611470AE1FBD3BAB1BE6331AC3D91CDE47722159E82C98BDE6F69F3923525EFA66797929D76A36775AAD2C49C6E3F14824A2D3E96C369B6030D4DA710DEB6DEBE20E2AE4613786B0DA1BA60B059FC1B0F672369D7EACBBDB66B34992
310
944EA733998C4BAF0F58AD3C4DA72FCBB1B90239435A87ADE2A01877C7D3EFA73185B25AD9610B2F06C1B30045E1EC598C8D1D6AEFB71931E80757B75D2D2D7038EE87045AAD6AAB36DEA54DBCD8565855051439AE78E9D2CE7B3F009E054D217E401ABC876006A892484096A7035DA6FC38456AA7BAF0DEB6C9BA697AA537
310
27A02414A92BA7392CB65B3635A3A6B454357EC0A9D7F3345D509498375718CC2B34EB78D351A95464592E974AB5EB078720288D97132441ACA5ADDC5022A9F6D0069A44714341558661CC66B32CCB3063E2CC6C4A92A8370997A257352D23CBD5DB120461BD672D7B48B1A3141A4B6335DE73299773994CB9EDBCF69F1A44
310
380967AB911BF4CA9BB38C1D344FF663310E9F63BDEE8024C981FE0B96B9B77F9E52005EA7D3DB6C8AD9540C33E4E51B66B339114DDA9B9BF3F9BC9BE727689A753AC9F04E13334D2E225380A5B167F1AE7828668015F2F9EC58E896AEEFF622B77DEF77BBE7D6F72D4FD430FB56344EC7E56ED9DE6617451140249FAFDA95
310
5D2FE94F694D45BD123545E3F178C15EE8B8E82E34B1369BCD60300030F17CBAB13B4A87A5A1856F8B43AAA6510451ADFC6C3299885E5EF7842E5A8E663299CCD3196398EBCEDB5CAF8B49498A150AC572992008A3D1681FB4A7DBD2D1A5686144312BEBE218C3E934DCDBFCF23FBF85ACDE7E79B949BE79A0B6DE06FCCB3B
310
B83D8D78AD7AC96A455F1F3F7EDB504A392C0020158BF1783C9349B360598D652A0C4BB19AA6A5D3E9542A657AF34D521050333D6ECD420CD902423B4E64B6350FCD0C504592525746D1D58570185BACCE7DBE0D81F01C45955455033085E254B1E82FB23DAC3169E4B37C341A4D4912E260498AD413ED8A59EDD3221DF978
310
2911EECBE11E880AE16C72EA04DE502EEB74BA542AA5AA6AB9F13A675B67389665699AE6384E66D9EE5EDFE26226128954DA2A392A63854E3CCB365D15A3D942CA24A91CBB389F85BAE2DE4C7692D162144B2B4920632804ACD6D406B1B4D9108D6EE16983B6B65042C6D2032A7916F4C365C58DB581B45AFCEFF66DC96E8D
310
B67AC325D2F2A55F7764329AD5AA3D7D31DE6172FDD3655B3A9D1E1931709C68B5FA4C26499216A6A78BEDED3A49E229AAA15F10C31C600AA3351E320100A069B87B172D2DB058EAC76813044C26CCCDD5BE4793E45CAD927B0AA5A952A9A9947167AC7E2B314E68FFA2242F4AF2B7D5E9D914823085B9FE84034F81F7D373
310
A974E4B548BEC2E4EF28999F65F47A3DC7713A9DAE2A03D5B83E56106C04411084A22882C160A36959964992E4799E62189BCD461084AAAAAAAA320C23CBB22449854221F979A42C4C3EA6885F65CDCDBC5256FD4B965BCF47C67F9CC03781C7C1EA28C78843F6CAAA578D17E218D99856687173C28B91919A2AF01BBF197E
310
60409A9DDDA7BE5F100493C9542DCBCE715CA5526118C6E5722D2E2ECA3591185D5D5D939393C5929A2BA25491C1B2E8E9592BFE578925AEBC910090BC73AFDC6B6167242D345BF426178751D1E912A512092455D54751CB5587D6E969F4F64A5B84B37A3C78FAE9FBDE03274E1C8845EFE113802AA1100C06048375720A6D
310
C8FD0F00C8D7B5CE2E014B48F00974A15DB016162C64BC58112BB9E99CF6246EB747C263796A92B07E52A74C54DA8DE6C5812C718388E4F3154DCBACF5213BF8E7E98C9A90BFA1926592F0105A279B2EA42B372B15B9927166E427B87454C6F7D67D324FD3DE26B3642F076E586F3EBEAC33318B23D9CA098D3B4DE7AE9548
310
8534594CEAB86A3B699A7785F36A0957EA1BD8EA3F57340ABB7DA30FB9CB05B75B1A1EDEBF938FC56271B95C994C86A2A83367CE180C8637DF7CB3BFBFDF6EB7FFC99FFCC96FFEE66F7EEA539FFAFAD7BF7EFAF4E9A5A5A5F1F9ECF83CE04AC1EFAFDF230B0585AE64150989385C902A30D2951C99CB257200A6E2531D431D
310
6A9C824E874A2579EE9C7969E98EBD7EA02D4F10D2AA1D83ECE8A86CCE25BE7B1E56010090CD6278187D7D8846EFDBD5AB3FFCAE7E630918066545580BA30D1CC759648B7D548CD2597296542B95E88F0BF6CF08B7F311E546452CB14DA2489164D5589391657C1CBEB469A69CE25E53F9EFD072B0ECCCEBD27C5139A9E27D
310
681F41FBB279D29E2C9D533D775756B14949AA68DA4238A3842BC42964EF95B2B1123470EF70541BEFCAB195A7104BC73445CBBC950908D6F19DDBC2AB2C2D6170709D00F4F62297ABAD7BB7770C06A6BF9F6B6A328A22CB711183A1E5CC19533A9D6F6E2EE9745FB97A35E5744E52942E181CAB54841327B2CBCB6059C462
310
5B54D9906E48A8E60659042CA0CDE4DADE73464B46DFFC45BE48DC2FDAD9DB5B279971F53EE7CFAFF95C507FF7771596FDA516802AA3A3686AC2C000666791CDA2B9790F139F4BAF0FE772280149C89065B3CCF69532C5A2B1C5C844196551B1BCA1CBA4CBC89572286D54B324C194A98C28AB53956251A9A85A3C598CD305
310
4D05644046B22CA5CC1266B1B91F135F26D866DE51D2551C95B2BBAC19B5996CC42108D1B7F3F7AD40C29EBE9689090402989C84CF079309D3D3BB4E02D9884261FE9D77348F27D8D3B3B8B868D4B4ECC848766424A7AA23376E2C5FBDCAE672F36FBF9D5E5878E2C517598A7298CDCD36DB02F0FC6FFCC65FFDD55F793C9E
310
E9CD0BD7EEC1DA8223CB0BB9FB8F1F6CCDBB35DCBA8535FB4C2C06B7BB4EEEDB96164C4DADB9F11D543DB3831000B71BAA7A7FBDDED3B3FF247BEB585A422C86FFF49F303787AF7F7D0F372009225BD3AD990CC98FD095742585149A8116F074996BE7F415BD3AAB321243D3B42CCBAAAA66B359FC33C89789D2B88A2B50A1
310
6104B940492954701BA800FF1FD22F48F4CFC9F2620580D56AADEE1C743A5DD151D40C5A8A2A31B9725C29AC65F53159B948F9BE16359CCF0B0CB36B07BBEA4EF1B77E0BA1D04179C5ACA0AA069AAEE4F3BFF6EAAB92248D8F8FBFF6DA6B3FFBC10F1E0F066FBEF34EA7C773F7EEDD338383D968D46BB351A552281412789E
310
E3389AA6AB9EDB750460BD7783B461D8DEE0FB90CF2316434BCBC67920143A0C4BF601F85D102FBCA095CB585539935FFC62E5CFFF7CFBCBEA2DE5B7E1C2055CB880FFFEDF371680D925CD4663A250A8FD193AACD6C944022CE05DF17A20498AA228ABD5522E971DA43E392197B36500340D13518A2BB2A66904494083E0A0
310
6126D3521E40A150282BABB70D0119A0828075DD2267C3CB3D72FE3C9E7A0A5FFFFAEEB2849BCD301A1B2D306A1104415555000CC3A8AABAA699A99A6C298A52555514C542A1C0F37C359CD762B184C3619AA6EB043736DAB5570F6193F31C009B0D3C8F85157F571D0700524F507BFF805D590F400068A7531584B55539BB
310
65158BFBF4F6EEA80EC2663C1E582CB873672B55E096F03A9D5423423A8631725CAD8BC4069A0C86A5FB0B8C7CC0A08E67EFF760739697D3E562E3C5E8861ECF501449D3F29E67488301EDED58584036BBEB54563B168003660F0200C0E38124559DC43EFD2C3205FCBB1454DE3B60013880255079BDEFF14E7F13A3718F39
310
7C66664092E8ED45A9848989B50D314DAD0F996B8CD4D959FBD13CCFC74BA52D22AEC50DFEAA566B6D5116992E5B75BA85C64BF00D8A7C4555D1DEBEC3F4756E2B96D73E8BA6D1D7B7A21BF820B0EA2849269393D9D3828E7CCC6AD75B9D9148C466B32593498BC5A2D7EB43A1D09D3B7794BD16397E982CC13BA752C1C808
310
E6E73130C077ADA408FBD049F89B61DF3601A3D3B961BF9894A41DF954AE42AC77672F96CBC29635AD36FAF00110B6DFF936D9D0E686ADAAF4E3380C0C2010C0F0F03EF3D71E152D4E0CB4E34C376C4698F4300A687343D4C15C9342812471AE0FA20E5E07025E00C0C202CCE6C79E7E3A1A4BBC7B6DC427E8054148241246
310
A3B150289C3E7D7A7E7E7E7878B8B7B777CF0D7B3405A04AB1885BB7A4D95904836C5FE0CE1C712A00B388674E6D7995DB8D1DBB9D549958BF649FDFB4589AD8ED9A3E97DB9CA8A796674EA1CD8D6E1F66120C82C195EA4F7B5B313E1CC433D0F3904AE8F2E2B5F3381980DB0AA58C969A10ED4A05E1140880A557251FC0E4
310
A4CE6CD6082297CBB5B5B5F13CDFD5D52508825EAF6F6A6AD234EDC9279F5CDE475EC7A348745CC5E5DA6D47AC8FAA221C56B3854C4BAFB7CF71EF6EFECEC496B3E1BE3F57E9E8D89CC868772493E8E9D9A2197311B04D0EB2AB73A668C2ED919D044BEC089E07C71D4824E1EE387FBEF5A36713AA9E775BA62AAE28E75AA2
310
5D59A3ABF4EAEB99DEC708CE507EEE39C8B2DE670F9C76C1ED92AD2ED9EA4ACEA5AADB3C13CB8EE9F5B0DBA70B859962715696E74BA51845DD8E46971716A2B3B32E972BBA394BFEC3CEA6C0E7038024D1D18160105E6FFD13743A0402FBFD94036979839B100481AE2E04835BA795DF236633EAE55C38746C3608429D49CF
310
E984C3B172B4B1A7F7C58B17FBFBFB05410060B3D9AABE2A6B2F070707EB2692D8210FBD216C57542A2B6A41970B274EA05C4628B4CE31A6A5E50164CFDD23CDCDB0DBE94AA53C3EAE1DA015E561A0D10CB693D06D606C6CCCED769F3F7F3E1C0EBB5CAE42A150A9544451ACBE9424696A6AEFE94D7FB904608D7018E13008
310
022D2D686B0380580CB91C38EE202D74FB616A0A7E3F5229F03CAAAE2F8B8B181E3E2803E743C8C79EC20FAEE1B3CFE19F7E8C5F7F062333F0D82170F87FFF6D9B0B239148A446545E7DF5D51FFFF8C755672D8AA2BABBBBF3FB486FFA4B2A005534ED7E029CB36771F122380E7E3FBEF9CDBAA77BEC5888C16A4062DF5E05
310
560358064A79BDA3FC1A160B5E7F1D5E2F52297CF9CB1F04B5A6CF01A58C5637F43AB435C16E8241079ADAB521AAB3B3D36834F6F7F7BFF3CE3B00EC76BB24497ABD7ECF32F04023F0D7B18571E4F03018E0F5624D6B99CB616E0EAB2AE4F30348E7D1E6C67202C35328351A8DB76CB9DB0ABB09A702787B04B134526B1A23
310
9E4767E74A82638240B188F9F9430FD5DDC05119C2009240455BB1D59004005476EFB4CA30CC33CF3C431004499204418442A15028E4F3F9464646B6A82FB635BFD433C066B2D975CA4451444707CBB20AA0010B3645AF4F28E5F0B57D04932C27E034239C6798803715D3DF4FE95D2C6264E45052DC3F0A54BB7BD552B987
310
AE5F85A2A8895503622412C9643246A3B1582C721CB76D7ADD467CC06680AD611858AD685C550500FAFAE070606909F1F886BD1DBF5AC58B2451914A5858402EF770F5F8A39B011E5A3E6033C0D628CACAEE790B641966335229C4621B0460CDE1E110B2D81F73581C0BC02EB9FB80626D8F79303CCAAE100F906E1F441D9A
310
6D186807C720E001808007CD767435B0B91DF348703C036C4FBB1B8B717CE8246812D7EFE1C5B3F03A30B9889E56E48B883DF81CEB8F022E972B128988A2284952ADAB66D5824BD3742E976359565114F541969DDDC4A3EF0B74F8142474FBF0D3F7912FC2EBC47BF770770E06018A8A680A2CBD5D5D9C878707E50BD4DBDB
310
FB95AF7CE57BDFFBDE5FFCC55F58ADD6F7DE5BA90670E9D2A5679F7DD662B1FCC11FFC412412F9D33FFDD39B376FEE3487F1E170743380C3813FFE63FCE42747E09BB54B4AC0380F043107CC0158ADCDB3041022787635F7FF43CEF9F3A4D94C7DE52B0FC0D89C6F69F9FABD7BC60B17AE954A6335A6F719B3395D28C0E1F8
310
EA9D3BC30471BD5C4EEEC033FC97149309001E40CDDD63AA701C186627A108FBC5E743DD6C792ED7362AE6638EF965A091B7EC61F8FFEE9B632DD0311F688EB540C7346647C9D8D7E370201DA97F215373C35D46F31F1EC702704C7D1E3FFFF875CFF5F2A63A2EDBD0DA84D9061E2EAD400700C0007C777785098F39E68162
310
369B4F9DDA3AB6BA1EA288CF7FBEFE21A311AFBCB2F2B71D68DE73D30E98E319E0983A0402816BD7AE6D7B9AD3B9AE5C415E2F30E21C5BB3D70D8556B3DCD3349A1F9A5E5FC3D179831EF3103A4D50000003764944415410E3F7FB4BA5D2FCFC36753F8341FCFDDF83E7914EE38FFF189FFE34A25188229E7C125FF90AC6C6
310
303B8B61F2045E780143431004CCCCE05BDFA2DEBFDCDFBC5203A10A4D4247235B8241149764FDD4FC83B3901ECF00C7AC83A5A8569309A994CBE1109B9A5459069091658EA6AB19B33520572AB114C55154B71DC979F9FA15BABB93EA30636EA40C421BFE31FDB5BF26AA57057C74B164445B5B269FE74A25CEED06CFAB36
310
4B4C29D3D2FD14DC161D65E1C9489EA408ABA7D94A151400896231BEBF1C983BE158008E594749555712392612A74F9F9E9D9D8D35CE0163CEE2FA18F4CDB005F0F9FF8C7FFC47A8EAAFBFF67F3DCDB2EC5FFFF55F47E7E666924BE34A0A67CE4055D1D3837BF7502A51F1647F33B05AFC49C7FCFFEDDD5F4FDA501806F0E7
310
500AADAC30A61D864CDDC8E666322E94C4A857CB62D89589C99225FB04FB2EFB50DE6C176613A63103A38059062CE0C6BF8E5184D25DA06C3569ABA080C9FBBB3C7D2FB8390DE79CF73C85E884DB099187A69466C3AF3E7C1A383BF5D2E82F10B112894462B198D9D3A525617D5D650C5E2FAA55D46A50947020705F5194B9
310
B987C964626F2F7554909AFF45BCB84BA5A69A858B7681C86D60B31764BBAE0D06110A194642A1B1DA05A2936062451445ABC726DF3232145CC8C3B2CC841C3E5A031053ABAF5793952416CD2BE6ED1AEABBC9C59C716412189B7B75340188A9F87EBCC95BE688B5EC9A1ABABDD7A78611AEC8B122BBF219F3CDA009404C35
310
0FED52F438E0AB5D018C351CB4EC1DF89CD796F83B189A00E47A4CDFC3F233082E7C3EC0B131AE5C74E1C9033C7F84DD14120078BE1785BBB186DC09E247C3FFBD6768114C062349703A0130865F356C272075AFDCF8FDBDAFDF355A4CF5F83FA684BBDEF36D77C6BA97667653E7F52342E700A47FC2E6A6BAB080AD2D341A
310
6E1E0E07A4099C54A0EB802C636505F93C641980903910CA85CA5A14D92C321944A3D8D9413A3D21A0D546EBCBFE7825881172299C5DA802C7E1C24902C781B17F8991A336BA540872FBCDC8BACF0307837A0A8F008F804E07533EB43568DD7C3C5D8724391AF58DE5762A075DC7D99B7E6CDEF7340148FF161F233885D900
310
DEBC405BC3FB772894F1F625AA75E47A0D44E5B2107EEA2E153B3A7EDF786FDB95D10420FD9BF4A1AE42F983741ED99FF856C0F10F74741C6651EDE5F5EB3A1F9A999E97D3DF35BD3EDC38784288B5BF2541E85C19EF85FC0000000049454E44AE426082
  0
ENDSEC
  0
EOF
