  0
SECTION
  2
HEADER
  9
$ACADVER
  1
AC1014
  9
$ACADMAINTVER
 70
     9
  9
$DWGCODEPAGE
  3
ANSI_932
  9
$INSBASE
 10
0.0
 20
0.0
 30
0.0
  9
$EXTMIN
 10
-1487.74067039476
 20
-998.3983952664296
 30
0.0
  9
$EXTMAX
 10
-1274.108759997228
 20
-816.4841817040565
 30
0.0
  9
$LIMMIN
 10
0.0
 20
0.0
  9
$LIMMAX
 10
420.0
 20
297.0
  9
$ORTHOMODE
 70
     1
  9
$REGENMODE
 70
     1
  9
$FILLMODE
 70
     1
  9
$QTEXTMODE
 70
     0
  9
$MIRRTEXT
 70
     0
  9
$DRAGMODE
 70
     2
  9
$LTSCALE
 40
1.0
  9
$OSMODE
 70
   959
  9
$ATTMODE
 70
     1
  9
$TEXTSIZE
 40
3.0
  9
$TRACEWID
 40
1.0
  9
$TEXTSTYLE
  7
STD-I
  9
$CLAYER
  8
文字
  9
$CELTYPE
  6
BYLAYER
  9
$CECOLOR
 62
   256
  9
$CELTSCALE
 40
10.0
  9
$DELOBJ
 70
     1
  9
$DISPSILH
 70
     0
  9
$DIMSCALE
 40
1.0
  9
$DIMASZ
 40
3.0
  9
$DIMEXO
 40
0.8
  9
$DIMDLI
 40
9.0
  9
$DIMRND
 40
0.0
  9
$DIMDLE
 40
0.0
  9
$DIMEXE
 40
1.0
  9
$DIMTP
 40
0.0
  9
$DIMTM
 40
0.0
  9
$DIMTXT
 40
3.0
  9
$DIMCEN
 40
0.0
  9
$DIMTSZ
 40
0.0
  9
$DIMTOL
 70
     0
  9
$DIMLIM
 70
     0
  9
$DIMTIH
 70
     0
  9
$DIMTOH
 70
     0
  9
$DIMSE1
 70
     0
  9
$DIMSE2
 70
     0
  9
$DIMTAD
 70
     3
  9
$DIMZIN
 70
     8
  9
$DIMBLK
  1
OPEN30
  9
$DIMASO
 70
     1
  9
$DIMSHO
 70
     1
  9
$DIMPOST
  1

  9
$DIMAPOST
  1

  9
$DIMALT
 70
     0
  9
$DIMALTD
 70
     2
  9
$DIMALTF
 40
25.4
  9
$DIMLFAC
 40
1.0
  9
$DIMTOFL
 70
     1
  9
$DIMTVP
 40
0.0
  9
$DIMTIX
 70
     0
  9
$DIMSOXD
 70
     0
  9
$DIMSAH
 70
     0
  9
$DIMBLK1
  1

  9
$DIMBLK2
  1

  9
$DIMSTYLE
  2
まこ
  9
$DIMCLRD
 70
     4
  9
$DIMCLRE
 70
     4
  9
$DIMCLRT
 70
   256
  9
$DIMTFAC
 40
1.0
  9
$DIMGAP
 40
0.8
  9
$DIMJUST
 70
     0
  9
$DIMSD1
 70
     0
  9
$DIMSD2
 70
     0
  9
$DIMTOLJ
 70
     1
  9
$DIMTZIN
 70
     0
  9
$DIMALTZ
 70
     0
  9
$DIMALTTZ
 70
     0
  9
$DIMFIT
 70
     3
  9
$DIMUPT
 70
     0
  9
$DIMUNIT
 70
     2
  9
$DIMDEC
 70
     6
  9
$DIMTDEC
 70
     6
  9
$DIMALTU
 70
     2
  9
$DIMALTTD
 70
     2
  9
$DIMTXSTY
  7
まこ
  9
$DIMAUNIT
 70
     0
  9
$LUNITS
 70
     2
  9
$LUPREC
 70
     4
  9
$SKETCHINC
 40
1.0
  9
$FILLETRAD
 40
2.0
  9
$AUNITS
 70
     0
  9
$AUPREC
 70
     3
  9
$MENU
  1
.
  9
$ELEVATION
 40
0.0
  9
$PELEVATION
 40
0.0
  9
$THICKNESS
 40
0.0
  9
$LIMCHECK
 70
     0
  9
$BLIPMODE
 70
     0
  9
$CHAMFERA
 40
0.5
  9
$CHAMFERB
 40
0.5
  9
$CHAMFERC
 40
20.0
  9
$CHAMFERD
 40
0.0
  9
$SKPOLY
 70
     0
  9
$TDCREATE
 40
2452479.723123183
  9
$TDUPDATE
 40
2455601.563663009
  9
$TDINDWG
 40
7.8464212731
  9
$TDUSRTIMER
 40
7.8464190972
  9
$USRTIMER
 70
     1
  9
$ANGBASE
 50
0.0
  9
$ANGDIR
 70
     0
  9
$PDMODE
 70
     0
  9
$PDSIZE
 40
0.0
  9
$PLINEWID
 40
0.0
  9
$COORDS
 70
     1
  9
$SPLFRAME
 70
     0
  9
$SPLINETYPE
 70
     6
  9
$SPLINESEGS
 70
     8
  9
$ATTDIA
 70
     0
  9
$ATTREQ
 70
     1
  9
$HANDLING
 70
-16383
  9
$HANDSEED
  5
27809
  9
$SURFTAB1
 70
     6
  9
$SURFTAB2
 70
     6
  9
$SURFTYPE
 70
     6
  9
$SURFU
 70
     6
  9
$SURFV
 70
     6
  9
$UCSNAME
  2

  9
$UCSORG
 10
0.0
 20
0.0
 30
0.0
  9
$UCSXDIR
 10
1.0
 20
0.0
 30
0.0
  9
$UCSYDIR
 10
0.0
 20
1.0
 30
0.0
  9
$PUCSNAME
  2

  9
$PUCSORG
 10
0.0
 20
0.0
 30
0.0
  9
$PUCSXDIR
 10
1.0
 20
0.0
 30
0.0
  9
$PUCSYDIR
 10
0.0
 20
1.0
 30
0.0
  9
$USERI1
 70
     0
  9
$USERI2
 70
     0
  9
$USERI3
 70
     0
  9
$USERI4
 70
     0
  9
$USERI5
 70
     0
  9
$USERR1
 40
0.0
  9
$USERR2
 40
0.0
  9
$USERR3
 40
0.0
  9
$USERR4
 40
0.0
  9
$USERR5
 40
0.0
  9
$WORLDVIEW
 70
     1
  9
$SHADEDGE
 70
     3
  9
$SHADEDIF
 70
    70
  9
$TILEMODE
 70
     0
  9
$MAXACTVP
 70
    48
  9
$PINSBASE
 10
0.0
 20
0.0
 30
0.0
  9
$PLIMCHECK
 70
     0
  9
$PEXTMIN
 10
-0.0127991343682652
 20
-0.0066052139874273
 30
-0.0015258207003583
  9
$PEXTMAX
 10
400.0087297852953
 20
288.0065844806182
 30
0.0000000349246037
  9
$PLIMMIN
 10
-22.6748215589716
 20
-4.152944021585105
  9
$PLIMMAX
 10
412.4784844740505
 20
303.5870478481583
  9
$UNITMODE
 70
     0
  9
$VISRETAIN
 70
     1
  9
$PLINEGEN
 70
     0
  9
$PSLTSCALE
 70
     0
  9
$TREEDEPTH
 70
  3020
  9
$PICKSTYLE
 70
     0
  9
$CMLSTYLE
  2
STANDARD
  9
$CMLJUST
 70
     0
  9
$CMLSCALE
 40
20.0
  9
$PROXYGRAPHICS
 70
     1
  9
$MEASUREMENT
 70
     0
  0
ENDSEC
  0
SECTION
  2
CLASSES
  0
CLASS
  1
HATCH
  2
AcDbHatch
  3
AutoCAD 2000
 90
        0
280
     0
281
     1
  0
CLASS
  1
LWPOLYLINE
  2
AcDbPolyline
  3
AutoCAD 2000
 90
        0
280
     0
281
     1
  0
CLASS
  1
ACDBDICTIONARYWDFLT
  2
AcDbDictionaryWithDefault
  3
AutoCAD 2000
 90
        0
280
     0
281
     0
  0
CLASS
  1
ACDBPLACEHOLDER
  2
AcDbPlaceHolder
  3
AutoCAD 2000
 90
        0
280
     0
281
     0
  0
CLASS
  1
LAYOUT
  2
AcDbLayout
  3
AutoCAD 2000
 90
        0
280
     0
281
     0
  0
CLASS
  1
DICTIONARYVAR
  2
AcDbDictionaryVar
  3
AutoCAD 2000
 90
        0
280
     0
281
     0
  0
CLASS
  1
LONG_TRANSACTION
  2
AcDbLongTransaction
  3
AutoCAD 2000
 90
        0
280
     0
281
     0
  0
CLASS
  1
LWPOLYLINE
  2
AcDbPolyline
  3
AutoCAD 2000
 90
        0
280
     0
281
     1
  0
CLASS
  1
HATCH
  2
AcDbHatch
  3
AutoCAD 2000
 90
        0
280
     0
281
     1
  0
CLASS
  1
XRECORD
  2
AcDbXrecord
  3
AutoCAD 2000
 90
        0
280
     0
281
     0
  0
ENDSEC
  0
SECTION
  2
TABLES
  0
TABLE
  2
VPORT
  5
8
330
0
100
AcDbSymbolTable
 70
     2
  0
VPORT
  5
277E3
330
8
100
AcDbSymbolTableRecord
100
AcDbViewportTableRecord
  2
*ACTIVE
 70
     0
 10
0.0
 20
0.0
 11
1.0
 21
1.0
 12
-1380.912524723869
 22
-907.4737843084498
 13
0.0
 23
0.0
 14
10.0
 24
10.0
 15
10.0
 25
10.0
 16
0.0
 26
0.0
 36
1.0
 17
0.0
 27
0.0
 37
0.0
 40
183.285253752299
 41
2.184834123222748
 42
50.0
 43
0.0
 44
0.0
 50
0.0
 51
0.0
 71
     0
 72
   100
 73
     1
 74
     0
 75
     0
 76
     0
 77
     0
 78
     2
  0
ENDTAB
  0
TABLE
  2
LTYPE
  5
5
330
0
100
AcDbSymbolTable
 70
     4
  0
LTYPE
  5
12
330
5
100
AcDbSymbolTableRecord
100
AcDbLinetypeTableRecord
  2
BYBLOCK
 70
     0
  3

 72
    65
 73
     0
 40
0.0
  0
LTYPE
  5
13
330
5
100
AcDbSymbolTableRecord
100
AcDbLinetypeTableRecord
  2
BYLAYER
 70
     0
  3

 72
    65
 73
     0
 40
0.0
  0
LTYPE
  5
14
330
5
100
AcDbSymbolTableRecord
100
AcDbLinetypeTableRecord
  2
CONTINUOUS
 70
     0
  3
Solid line
 72
    65
 73
     0
 40
0.0
  0
LTYPE
  5
3306
330
5
100
AcDbSymbolTableRecord
100
AcDbLinetypeTableRecord
  2
CENTER
 70
     0
  3
Center ____ _ ____ _ ____ _ ____ _ ____ _ ____
 72
    65
 73
     4
 40
2.0
 49
1.25
 74
     0
 49
-0.25
 74
     0
 49
0.25
 74
     0
 49
-0.25
 74
     0
  0
LTYPE
  5
B54C
330
5
100
AcDbSymbolTableRecord
100
AcDbLinetypeTableRecord
  2
ACAD_ISO09W100
 70
     0
  3
ISO long-dash double-short-dash ____ __ __ ____
 72
    65
 73
     6
 40
45.0
 49
24.0
 74
     0
 49
-3.0
 74
     0
 49
6.0
 74
     0
 49
-3.0
 74
     0
 49
6.0
 74
     0
 49
-3.0
 74
     0
  0
LTYPE
  5
B567
330
5
100
AcDbSymbolTableRecord
100
AcDbLinetypeTableRecord
  2
HIDDEN
 70
     0
  3
Hidden __ __ __ __ __ __ __ __ __ __ __ __ __ _
 72
    65
 73
     2
 40
0.375
 49
0.25
 74
     0
 49
-0.125
 74
     0
  0
ENDTAB
  0
TABLE
  2
LAYER
  5
2
102
{ACAD_XDICTIONARY
360
22589
102
}
330
0
100
AcDbSymbolTable
 70
    13
  0
LAYER
  5
E
330
2
100
AcDbSymbolTableRecord
100
AcDbLayerTableRecord
  2
0
 70
     2
 62
     7
  6
CONTINUOUS
  0
LAYER
  5
2C
330
2
100
AcDbSymbolTableRecord
100
AcDbLayerTableRecord
  2
M_VIEW
 70
     0
 62
    -1
  6
CONTINUOUS
  0
LAYER
  5
12B
330
2
100
AcDbSymbolTableRecord
100
AcDbLayerTableRecord
  2
DEFPOINTS
 70
     0
 62
    -7
  6
CONTINUOUS
  0
LAYER
  5
86A
330
2
100
AcDbSymbolTableRecord
100
AcDbLayerTableRecord
  2
文字改
 70
     0
 62
   -40
  6
CONTINUOUS
  0
LAYER
  5
8C6
330
2
100
AcDbSymbolTableRecord
100
AcDbLayerTableRecord
  2
文字
 70
     0
 62
     7
  6
CONTINUOUS
  0
LAYER
  5
1523
330
2
100
AcDbSymbolTableRecord
100
AcDbLayerTableRecord
  2
細線
 70
     0
 62
     7
  6
CONTINUOUS
  0
LAYER
  5
A51A
330
2
100
AcDbSymbolTableRecord
100
AcDbLayerTableRecord
  2
中心線
 70
     0
 62
     7
  6
CENTER
  0
LAYER
  5
ABC2
330
2
100
AcDbSymbolTableRecord
100
AcDbLayerTableRecord
  2
ｷｬｯﾌ_ﾎ_ﾙﾄ
 70
     0
 62
     7
  6
CONTINUOUS
  0
LAYER
  5
B010
330
2
100
AcDbSymbolTableRecord
100
AcDbLayerTableRecord
  2
実線
 70
     0
 62
     7
  6
CONTINUOUS
  0
LAYER
  5
B570
330
2
100
AcDbSymbolTableRecord
100
AcDbLayerTableRecord
  2
破線
 70
     0
 62
     7
  6
HIDDEN
  0
ENDTAB
  0
TABLE
  2
STYLE
  5
3
330
0
100
AcDbSymbolTable
 70
     6
  0
STYLE
  5
F
330
3
100
AcDbSymbolTableRecord
100
AcDbTextStyleTableRecord
  2
STANDARD
 70
     0
 40
0.0
 41
1.0
 50
0.0
 71
     0
 42
2.5
  3
isocp.shx
  4
bigfont.shx
  0
STYLE
  5
8D7
330
3
100
AcDbSymbolTableRecord
100
AcDbTextStyleTableRecord
  2
MSｺ_ｼｯｸ-0
 70
     0
 40
0.0
 41
1.0
 50
0.0
 71
     0
 42
4.0
  3
simplex.shx
  4
bigfont.shx
  0
STYLE
  5
1529
330
3
100
AcDbSymbolTableRecord
100
AcDbTextStyleTableRecord
  2
まこ
 70
     0
 40
0.0
 41
1.0
 50
0.0
 71
     0
 42
2.5
  3
simplex.shx
  4
bigfont.shx
  0
STYLE
  5
1431D
330
3
100
AcDbSymbolTableRecord
100
AcDbTextStyleTableRecord
  2
STD-I
 70
     0
 40
3.0
 41
1.0
 50
0.0
 71
     0
 42
3.0
  3
isocp.shx
  4
bigfont.shx
  0
ENDTAB
  0
TABLE
  2
VIEW
  5
6
330
0
100
AcDbSymbolTable
 70
     0
  0
ENDTAB
  0
TABLE
  2
UCS
  5
7
330
0
100
AcDbSymbolTable
 70
     0
  0
ENDTAB
  0
TABLE
  2
APPID
  5
9
330
0
100
AcDbSymbolTable
 70
     1
  0
APPID
  5
10
330
9
100
AcDbSymbolTableRecord
100
AcDbRegAppTableRecord
  2
ACAD
 70
     0
  0
ENDTAB
  0
TABLE
  2
DIMSTYLE
  5
A
330
0
100
AcDbSymbolTable
 70
     3
  0
DIMSTYLE
105
1D
330
A
100
AcDbSymbolTableRecord
100
AcDbDimStyleTableRecord
  2
STANDARD
 70
     0
  3

  4

  5
OPEN30
  6

  7

 40
1.0
 41
3.0
 42
0.8
 43
0.38
 44
0.8
 45
0.0
 46
0.0
 47
0.0
 48
0.0
140
3.0
141
0.0
142
0.0
143
25.4
144
1.0
145
0.0
146
1.0
147
0.5
 71
     0
 72
     0
 73
     0
 74
     0
 75
     0
 76
     0
 77
     3
 78
     8
170
     0
171
     2
172
     0
173
     0
174
     0
175
     0
176
     4
177
     4
178
   256
270
     2
271
     4
272
     4
273
     2
274
     2
340
8D7
275
     0
280
     0
281
     0
282
     0
283
     1
284
     0
285
     0
286
     0
287
     3
288
     0
  0
DIMSTYLE
105
152B
330
A
100
AcDbSymbolTableRecord
100
AcDbDimStyleTableRecord
  2
まこ
 70
     0
  3

  4

  5
OPEN30
  6

  7

 40
1.0
 41
3.0
 42
0.8
 43
9.0
 44
1.0
 45
0.0
 46
0.0
 47
0.0
 48
0.0
140
3.0
141
0.0
142
0.0
143
25.4
144
1.0
145
0.0
146
1.0
147
0.8
 71
     0
 72
     0
 73
     0
 74
     0
 75
     0
 76
     0
 77
     3
 78
     8
170
     0
171
     2
172
     1
173
     0
174
     0
175
     0
176
     4
177
     4
178
   256
270
     2
271
     6
272
     6
273
     2
274
     2
340
1529
275
     0
280
     0
281
     0
282
     0
283
     1
284
     0
285
     0
286
     0
287
     3
288
     0
  0
ENDTAB
  0
TABLE
  2
BLOCK_RECORD
  5
1
330
0
100
AcDbSymbolTable
 70
    18
  0
BLOCK_RECORD
  5
18
102
{ACAD_XDICTIONARY
360
27807
102
}
330
1
100
AcDbSymbolTableRecord
100
AcDbBlockTableRecord
  2
*MODEL_SPACE
  0
BLOCK_RECORD
  5
15
102
{ACAD_XDICTIONARY
360
27805
102
}
330
1
100
AcDbSymbolTableRecord
100
AcDbBlockTableRecord
  2
*PAPER_SPACE
  0
BLOCK_RECORD
  5
89E
330
1
100
AcDbSymbolTableRecord
100
AcDbBlockTableRecord
  2
_OPEN30
  0
ENDTAB
  0
ENDSEC
  0
SECTION
  2
BLOCKS
  0
BLOCK
  5
19
330
18
100
AcDbEntity
  8
0
100
AcDbBlockBegin
  2
*MODEL_SPACE
 70
     0
 10
0.0
 20
0.0
 30
0.0
  3
*MODEL_SPACE
  1

  0
ENDBLK
  5
1A
330
18
100
AcDbEntity
  8
0
100
AcDbBlockEnd
  0
BLOCK
  5
16
330
15
100
AcDbEntity
 67
     1
  8
0
100
AcDbBlockBegin
  2
*PAPER_SPACE
 70
     0
 10
0.0
 20
0.0
 30
0.0
  3
*PAPER_SPACE
  1

  0
ENDBLK
  5
17
330
15
100
AcDbEntity
 67
     1
  8
0
100
AcDbBlockEnd
  0
BLOCK
  5
8A2
330
89E
100
AcDbEntity
  8
0
100
AcDbBlockBegin
  2
_OPEN30
 70
     0
 10
0.0
 20
0.0
 30
0.0
  3
_OPEN30
  1

  0
LINE
  5
89F
330
89E
100
AcDbEntity
  8
0
  6
BYBLOCK
 62
     0
100
AcDbLine
 10
-1.0
 20
0.26794919
 30
0.0
 11
0.0
 21
0.0
 31
0.0
  0
LINE
  5
8A0
330
89E
100
AcDbEntity
  8
0
  6
BYBLOCK
 62
     0
100
AcDbLine
 10
0.0
 20
0.0
 30
0.0
 11
-1.0
 21
-0.26794919
 31
0.0
  0
LINE
  5
8A1
330
89E
100
AcDbEntity
  8
0
  6
BYBLOCK
 62
     0
100
AcDbLine
 10
0.0
 20
0.0
 30
0.0
 11
-1.0
 21
0.0
 31
0.0
  0
ENDBLK
  5
8A3
330
89E
100
AcDbEntity
  8
0
100
AcDbBlockEnd
  0
ENDSEC
  0
SECTION
  2
ENTITIES
  0
MTEXT
  5
1431A
330
18
100
AcDbEntity
  8
文字
 48
10.0
100
AcDbMText
 10
402.0272408791282
 20
-331.3570882864405
 30
0.0
 40
3.0
 41
14.63429999999999
 71
     1
 72
     5
  1

1001
ACAD
1000
MTEXTBEGIN
1070
    73
1070
     1
1070
    44
1040
1.0
1070
    74
1070
     0
1000
MTEXTEND
  0
LINE
  5
260C0
330
18
100
AcDbEntity
  8
実線
100
AcDbLine
 10
-1487.326456832387
 20
-818.8983952664298
 30
0.0
 11
-1487.326456832387
 21
-949.8983952664296
 31
0.0
  0
LINE
  5
260C4
330
18
100
AcDbEntity
  8
実線
100
AcDbLine
 10
-1391.326456832387
 20
-949.8983952664296
 30
0.0
 11
-1391.326456832387
 21
-818.8983952664298
 31
0.0
  0
LINE
  5
260C6
330
18
100
AcDbEntity
  8
実線
100
AcDbLine
 10
-1393.326456832387
 20
-816.8983952664296
 30
0.0
 11
-1485.326456832387
 21
-816.8983952664296
 31
0.0
  0
LINE
  5
260C8
330
18
100
AcDbEntity
  8
中心線
 48
8.0
100
AcDbLine
 10
-1407.326456832387
 20
-831.8983952664297
 30
0.0
 11
-1471.326456832387
 21
-831.8983952664297
 31
0.0
  0
CIRCLE
  5
260CE
330
18
100
AcDbEntity
  8
実線
100
AcDbCircle
 10
-1400.326456832387
 20
-826.8983952664296
 30
0.0
 40
5.5
  0
ARC
  5
260D3
330
18
100
AcDbEntity
  8
実線
100
AcDbCircle
 10
-1393.326456832387
 20
-818.8983952664298
 30
0.0
 40
2.0
100
AcDbArc
 50
0.0
 51
90.0
  0
CIRCLE
  5
260D4
330
18
100
AcDbEntity
  8
実線
100
AcDbCircle
 10
-1439.326456832387
 20
-826.8983952664296
 30
0.0
 40
5.5
  0
CIRCLE
  5
260D6
330
18
100
AcDbEntity
  8
実線
100
AcDbCircle
 10
-1415.326456832387
 20
-831.8983952664297
 30
0.0
 40
5.5
  0
CIRCLE
  5
260DA
330
18
100
AcDbEntity
  8
実線
100
AcDbCircle
 10
-1415.326456832387
 20
-854.3983952664296
 30
0.0
 40
5.5
  0
CIRCLE
  5
260E1
330
18
100
AcDbEntity
  8
実線
100
AcDbCircle
 10
-1463.326456832387
 20
-831.8983952664297
 30
0.0
 40
5.5
  0
CIRCLE
  5
260E2
330
18
100
AcDbEntity
  8
実線
100
AcDbCircle
 10
-1478.326456832387
 20
-826.8983952664296
 30
0.0
 40
5.5
  0
ARC
  5
260E5
330
18
100
AcDbEntity
  8
実線
100
AcDbCircle
 10
-1485.326456832387
 20
-818.8983952664298
 30
0.0
 40
2.0
100
AcDbArc
 50
90.0
 51
180.0
  0
CIRCLE
  5
260E6
330
18
100
AcDbEntity
  8
実線
100
AcDbCircle
 10
-1463.326456832387
 20
-854.3983952664296
 30
0.0
 40
5.5
  0
LINE
  5
260E9
330
18
100
AcDbEntity
  8
実線
100
AcDbLine
 10
-1485.326456832387
 20
-951.8983952664298
 30
0.0
 11
-1393.326456832387
 21
-951.8983952664298
 31
0.0
  0
ARC
  5
260EB
330
18
100
AcDbEntity
  8
実線
100
AcDbCircle
 10
-1393.326456832387
 20
-949.8983952664296
 30
0.0
 40
2.0
100
AcDbArc
 50
270.0
 51
0.0
  0
ARC
  5
260ED
330
18
100
AcDbEntity
  8
実線
100
AcDbCircle
 10
-1485.326456832387
 20
-949.8983952664296
 30
0.0
 40
2.0
100
AcDbArc
 50
180.0
 51
270.0
  0
LINE
  5
264CD
330
18
100
AcDbEntity
  8
実線
100
AcDbLine
 10
-1486.826456832387
 20
-817.3983952664297
 30
0.0
 11
-1486.826456832387
 21
-817.5755196108973
 31
0.0
  0
LINE
  5
264D2
330
18
100
AcDbEntity
  8
実線
100
AcDbLine
 10
-1391.826456832387
 20
-817.5755196108973
 30
0.0
 11
-1391.826456832387
 21
-817.3983952664297
 31
0.0
  0
LINE
  5
264D3
330
18
100
AcDbEntity
  8
中心線
 48
5.0
100
AcDbLine
 10
-1415.326456832387
 20
-839.8983952664297
 30
0.0
 11
-1415.326456832387
 21
-823.8983952664295
 31
0.0
  0
LINE
  5
264D4
330
18
100
AcDbEntity
  8
中心線
 48
5.0
100
AcDbLine
 10
-1463.326456832387
 20
-839.8983952664297
 30
0.0
 11
-1463.326456832387
 21
-823.8983952664295
 31
0.0
  0
LINE
  5
264DA
330
18
100
AcDbEntity
  8
実線
100
AcDbLine
 10
-1486.649332487919
 20
-817.3983952664297
 30
0.0
 11
-1486.826456832387
 21
-817.3983952664297
 31
0.0
  0
LINE
  5
264E0
330
18
100
AcDbEntity
  8
実線
100
AcDbLine
 10
-1392.526456832387
 20
-817.3983952664297
 30
0.0
 11
-1392.526456832387
 21
-817.3983952664297
 31
0.0
  0
LINE
  5
264E1
330
18
100
AcDbEntity
  8
実線
100
AcDbLine
 10
-1391.526456832387
 20
-818.3983952664297
 30
0.0
 11
-1391.526456832387
 21
-818.3983952664297
 31
0.0
  0
CIRCLE
  5
264E3
330
18
100
AcDbEntity
  8
実線
100
AcDbCircle
 10
-1415.326456832387
 20
-831.8983952664297
 30
0.0
 40
3.5
  0
CIRCLE
  5
264E4
330
18
100
AcDbEntity
  8
実線
100
AcDbCircle
 10
-1415.326456832387
 20
-831.8983952664297
 30
0.0
 40
3.5
  0
CIRCLE
  5
264E8
330
18
100
AcDbEntity
  8
実線
100
AcDbCircle
 10
-1463.326456832387
 20
-831.8983952664297
 30
0.0
 40
3.5
  0
LINE
  5
264EA
330
18
100
AcDbEntity
  8
0
  6
HIDDEN
100
AcDbLine
 10
-1486.126456832387
 20
-817.3983952664297
 30
0.0
 11
-1486.126456832387
 21
-817.3983952664297
 31
0.0
  0
LINE
  5
264F0
330
18
100
AcDbEntity
  8
破線
 48
8.0
100
AcDbLine
 10
-1486.826456832387
 20
-864.3983952664298
 30
0.0
 11
-1391.826456832387
 21
-864.3983952664298
 31
0.0
  0
LINE
  5
264F5
330
18
100
AcDbEntity
  8
実線
100
AcDbLine
 10
-1391.526456832387
 20
-863.3983952664296
 30
0.0
 11
-1391.526456832387
 21
-863.3983952664296
 31
0.0
  0
LINE
  5
264F6
330
18
100
AcDbEntity
  8
実線
100
AcDbLine
 10
-1391.526456832387
 20
-863.3983952664296
 30
0.0
 11
-1391.526456832387
 21
-863.3983952664296
 31
0.0
  0
LINE
  5
264F7
330
18
100
AcDbEntity
  8
実線
100
AcDbLine
 10
-1392.526456832387
 20
-864.3983952664298
 30
0.0
 11
-1392.526456832387
 21
-864.3983952664298
 31
0.0
  0
LINE
  5
264F8
330
18
100
AcDbEntity
  8
実線
100
AcDbLine
 10
-1392.526456832387
 20
-864.3983952664298
 30
0.0
 11
-1392.526456832387
 21
-864.3983952664298
 31
0.0
  0
LINE
  5
264F9
330
18
100
AcDbEntity
  8
0
  6
HIDDEN
100
AcDbLine
 10
-1391.526456832387
 20
-840.3983952664297
 30
0.0
 11
-1391.526456832387
 21
-840.3983952664297
 31
0.0
  0
LINE
  5
264FF
330
18
100
AcDbEntity
  8
実線
100
AcDbLine
 10
-1487.126456832386
 20
-863.3983952664296
 30
0.0
 11
-1487.126456832386
 21
-863.3983952664296
 31
0.0
  0
LINE
  5
26500
330
18
100
AcDbEntity
  8
実線
100
AcDbLine
 10
-1487.126456832386
 20
-863.3983952664296
 30
0.0
 11
-1487.126456832386
 21
-863.3983952664296
 31
0.0
  0
LINE
  5
26501
330
18
100
AcDbEntity
  8
実線
100
AcDbLine
 10
-1486.126456832387
 20
-864.3983952664298
 30
0.0
 11
-1486.126456832387
 21
-864.3983952664298
 31
0.0
  0
LINE
  5
26502
330
18
100
AcDbEntity
  8
実線
100
AcDbLine
 10
-1486.126456832387
 20
-864.3983952664298
 30
0.0
 11
-1486.126456832387
 21
-864.3983952664298
 31
0.0
  0
LINE
  5
26503
330
18
100
AcDbEntity
  8
0
  6
HIDDEN
100
AcDbLine
 10
-1487.126456832386
 20
-840.3983952664297
 30
0.0
 11
-1487.126456832386
 21
-840.3983952664297
 31
0.0
  0
CIRCLE
  5
265F2
102
{ACAD_REACTORS
330
265F9
102
}
330
18
100
AcDbEntity
  8
ｷｬｯﾌ_ﾎ_ﾙﾄ
100
AcDbCircle
 10
-1478.326456832387
 20
-826.8983952664296
 30
0.0
 40
5.0
  0
LINE
  5
265F3
102
{ACAD_REACTORS
330
265F9
102
}
330
18
100
AcDbEntity
  8
ｷｬｯﾌ_ﾎ_ﾙﾄ
100
AcDbLine
 10
-1479.826456832388
 20
-827.7644206564296
 30
0.0
 11
-1478.326456859309
 21
-828.6304460664297
 31
0.0
  0
LINE
  5
265F4
102
{ACAD_REACTORS
330
265F9
102
}
330
18
100
AcDbEntity
  8
ｷｬｯﾌ_ﾎ_ﾙﾄ
100
AcDbLine
 10
-1478.326456805465
 20
-828.6304460664297
 30
0.0
 11
-1476.826456832387
 21
-827.7644206564296
 31
0.0
  0
LINE
  5
265F5
102
{ACAD_REACTORS
330
265F9
102
}
330
18
100
AcDbEntity
  8
ｷｬｯﾌ_ﾎ_ﾙﾄ
100
AcDbLine
 10
-1479.826456832388
 20
-826.0323698764297
 30
0.0
 11
-1479.826456832388
 21
-827.7644206564296
 31
0.0
  0
LINE
  5
265F6
102
{ACAD_REACTORS
330
265F9
102
}
330
18
100
AcDbEntity
  8
ｷｬｯﾌ_ﾎ_ﾙﾄ
100
AcDbLine
 10
-1478.326456859309
 20
-825.1663444664298
 30
0.0
 11
-1479.826456832388
 21
-826.0323698764297
 31
0.0
  0
LINE
  5
265F7
102
{ACAD_REACTORS
330
265F9
102
}
330
18
100
AcDbEntity
  8
ｷｬｯﾌ_ﾎ_ﾙﾄ
100
AcDbLine
 10
-1476.826456832387
 20
-827.7644206564296
 30
0.0
 11
-1476.826456832387
 21
-826.0323698764297
 31
0.0
  0
LINE
  5
265F8
102
{ACAD_REACTORS
330
265F9
102
}
330
18
100
AcDbEntity
  8
ｷｬｯﾌ_ﾎ_ﾙﾄ
100
AcDbLine
 10
-1476.826456832387
 20
-826.0323698764297
 30
0.0
 11
-1478.326456805465
 21
-825.1663444664298
 31
0.0
  0
CIRCLE
  5
265FA
102
{ACAD_REACTORS
330
26601
102
}
330
18
100
AcDbEntity
  8
ｷｬｯﾌ_ﾎ_ﾙﾄ
100
AcDbCircle
 10
-1439.326456832387
 20
-826.8983952664296
 30
0.0
 40
5.0
  0
LINE
  5
265FB
102
{ACAD_REACTORS
330
26601
102
}
330
18
100
AcDbEntity
  8
ｷｬｯﾌ_ﾎ_ﾙﾄ
100
AcDbLine
 10
-1440.826456832387
 20
-827.7644206564296
 30
0.0
 11
-1439.326456859309
 21
-828.6304460664297
 31
0.0
  0
LINE
  5
265FC
102
{ACAD_REACTORS
330
26601
102
}
330
18
100
AcDbEntity
  8
ｷｬｯﾌ_ﾎ_ﾙﾄ
100
AcDbLine
 10
-1439.326456805465
 20
-828.6304460664297
 30
0.0
 11
-1437.826456832388
 21
-827.7644206564296
 31
0.0
  0
LINE
  5
265FD
102
{ACAD_REACTORS
330
26601
102
}
330
18
100
AcDbEntity
  8
ｷｬｯﾌ_ﾎ_ﾙﾄ
100
AcDbLine
 10
-1440.826456832387
 20
-826.0323698764297
 30
0.0
 11
-1440.826456832387
 21
-827.7644206564296
 31
0.0
  0
LINE
  5
265FE
102
{ACAD_REACTORS
330
26601
102
}
330
18
100
AcDbEntity
  8
ｷｬｯﾌ_ﾎ_ﾙﾄ
100
AcDbLine
 10
-1439.326456859309
 20
-825.1663444664298
 30
0.0
 11
-1440.826456832387
 21
-826.0323698764297
 31
0.0
  0
LINE
  5
265FF
102
{ACAD_REACTORS
330
26601
102
}
330
18
100
AcDbEntity
  8
ｷｬｯﾌ_ﾎ_ﾙﾄ
100
AcDbLine
 10
-1437.826456832388
 20
-827.7644206564296
 30
0.0
 11
-1437.826456832388
 21
-826.0323698764297
 31
0.0
  0
LINE
  5
26600
102
{ACAD_REACTORS
330
26601
102
}
330
18
100
AcDbEntity
  8
ｷｬｯﾌ_ﾎ_ﾙﾄ
100
AcDbLine
 10
-1437.826456832388
 20
-826.0323698764297
 30
0.0
 11
-1439.326456805465
 21
-825.1663444664298
 31
0.0
  0
CIRCLE
  5
26602
102
{ACAD_REACTORS
330
26609
102
}
330
18
100
AcDbEntity
  8
ｷｬｯﾌ_ﾎ_ﾙﾄ
100
AcDbCircle
 10
-1400.326456832387
 20
-826.8983952664296
 30
0.0
 40
5.0
  0
LINE
  5
26603
102
{ACAD_REACTORS
330
26609
102
}
330
18
100
AcDbEntity
  8
ｷｬｯﾌ_ﾎ_ﾙﾄ
100
AcDbLine
 10
-1401.826456832387
 20
-827.7644206564296
 30
0.0
 11
-1400.32645685931
 21
-828.6304460664297
 31
0.0
  0
LINE
  5
26604
102
{ACAD_REACTORS
330
26609
102
}
330
18
100
AcDbEntity
  8
ｷｬｯﾌ_ﾎ_ﾙﾄ
100
AcDbLine
 10
-1400.326456805465
 20
-828.6304460664297
 30
0.0
 11
-1398.826456832387
 21
-827.7644206564296
 31
0.0
  0
LINE
  5
26605
102
{ACAD_REACTORS
330
26609
102
}
330
18
100
AcDbEntity
  8
ｷｬｯﾌ_ﾎ_ﾙﾄ
100
AcDbLine
 10
-1401.826456832387
 20
-826.0323698764297
 30
0.0
 11
-1401.826456832387
 21
-827.7644206564296
 31
0.0
  0
LINE
  5
26606
102
{ACAD_REACTORS
330
26609
102
}
330
18
100
AcDbEntity
  8
ｷｬｯﾌ_ﾎ_ﾙﾄ
100
AcDbLine
 10
-1400.32645685931
 20
-825.1663444664298
 30
0.0
 11
-1401.826456832387
 21
-826.0323698764297
 31
0.0
  0
LINE
  5
26607
102
{ACAD_REACTORS
330
26609
102
}
330
18
100
AcDbEntity
  8
ｷｬｯﾌ_ﾎ_ﾙﾄ
100
AcDbLine
 10
-1398.826456832387
 20
-827.7644206564296
 30
0.0
 11
-1398.826456832387
 21
-826.0323698764297
 31
0.0
  0
LINE
  5
26608
102
{ACAD_REACTORS
330
26609
102
}
330
18
100
AcDbEntity
  8
ｷｬｯﾌ_ﾎ_ﾙﾄ
100
AcDbLine
 10
-1398.826456832387
 20
-826.0323698764297
 30
0.0
 11
-1400.326456805465
 21
-825.1663444664298
 31
0.0
  0
CIRCLE
  5
2660A
102
{ACAD_REACTORS
330
26611
102
}
330
18
100
AcDbEntity
  8
ｷｬｯﾌ_ﾎ_ﾙﾄ
100
AcDbCircle
 10
-1415.326456832387
 20
-854.3983952664296
 30
0.0
 40
5.0
  0
LINE
  5
2660B
102
{ACAD_REACTORS
330
26611
102
}
330
18
100
AcDbEntity
  8
ｷｬｯﾌ_ﾎ_ﾙﾄ
100
AcDbLine
 10
-1416.826456832387
 20
-855.2644206564297
 30
0.0
 11
-1415.326456859309
 21
-856.1304460664297
 31
0.0
  0
LINE
  5
2660C
102
{ACAD_REACTORS
330
26611
102
}
330
18
100
AcDbEntity
  8
ｷｬｯﾌ_ﾎ_ﾙﾄ
100
AcDbLine
 10
-1415.326456805465
 20
-856.1304460664297
 30
0.0
 11
-1413.826456832387
 21
-855.2644206564297
 31
0.0
  0
LINE
  5
2660D
102
{ACAD_REACTORS
330
26611
102
}
330
18
100
AcDbEntity
  8
ｷｬｯﾌ_ﾎ_ﾙﾄ
100
AcDbLine
 10
-1416.826456832387
 20
-853.5323698764297
 30
0.0
 11
-1416.826456832387
 21
-855.2644206564297
 31
0.0
  0
LINE
  5
2660E
102
{ACAD_REACTORS
330
26611
102
}
330
18
100
AcDbEntity
  8
ｷｬｯﾌ_ﾎ_ﾙﾄ
100
AcDbLine
 10
-1415.326456859309
 20
-852.6663444664297
 30
0.0
 11
-1416.826456832387
 21
-853.5323698764297
 31
0.0
  0
LINE
  5
2660F
102
{ACAD_REACTORS
330
26611
102
}
330
18
100
AcDbEntity
  8
ｷｬｯﾌ_ﾎ_ﾙﾄ
100
AcDbLine
 10
-1413.826456832387
 20
-855.2644206564297
 30
0.0
 11
-1413.826456832387
 21
-853.5323698764297
 31
0.0
  0
LINE
  5
26610
102
{ACAD_REACTORS
330
26611
102
}
330
18
100
AcDbEntity
  8
ｷｬｯﾌ_ﾎ_ﾙﾄ
100
AcDbLine
 10
-1413.826456832387
 20
-853.5323698764297
 30
0.0
 11
-1415.326456805465
 21
-852.6663444664297
 31
0.0
  0
CIRCLE
  5
26612
102
{ACAD_REACTORS
330
26619
102
}
330
18
100
AcDbEntity
  8
ｷｬｯﾌ_ﾎ_ﾙﾄ
100
AcDbCircle
 10
-1463.326456832387
 20
-854.3983952664296
 30
0.0
 40
5.0
  0
LINE
  5
26613
102
{ACAD_REACTORS
330
26619
102
}
330
18
100
AcDbEntity
  8
ｷｬｯﾌ_ﾎ_ﾙﾄ
100
AcDbLine
 10
-1464.826456832387
 20
-855.2644206564297
 30
0.0
 11
-1463.32645685931
 21
-856.1304460664297
 31
0.0
  0
LINE
  5
26614
102
{ACAD_REACTORS
330
26619
102
}
330
18
100
AcDbEntity
  8
ｷｬｯﾌ_ﾎ_ﾙﾄ
100
AcDbLine
 10
-1463.326456805465
 20
-856.1304460664297
 30
0.0
 11
-1461.826456832388
 21
-855.2644206564297
 31
0.0
  0
LINE
  5
26615
102
{ACAD_REACTORS
330
26619
102
}
330
18
100
AcDbEntity
  8
ｷｬｯﾌ_ﾎ_ﾙﾄ
100
AcDbLine
 10
-1464.826456832387
 20
-853.5323698764297
 30
0.0
 11
-1464.826456832387
 21
-855.2644206564297
 31
0.0
  0
LINE
  5
26616
102
{ACAD_REACTORS
330
26619
102
}
330
18
100
AcDbEntity
  8
ｷｬｯﾌ_ﾎ_ﾙﾄ
100
AcDbLine
 10
-1463.32645685931
 20
-852.6663444664297
 30
0.0
 11
-1464.826456832387
 21
-853.5323698764297
 31
0.0
  0
LINE
  5
26617
102
{ACAD_REACTORS
330
26619
102
}
330
18
100
AcDbEntity
  8
ｷｬｯﾌ_ﾎ_ﾙﾄ
100
AcDbLine
 10
-1461.826456832388
 20
-855.2644206564297
 30
0.0
 11
-1461.826456832388
 21
-853.5323698764297
 31
0.0
  0
LINE
  5
26618
102
{ACAD_REACTORS
330
26619
102
}
330
18
100
AcDbEntity
  8
ｷｬｯﾌ_ﾎ_ﾙﾄ
100
AcDbLine
 10
-1461.826456832388
 20
-853.5323698764297
 30
0.0
 11
-1463.326456805465
 21
-852.6663444664297
 31
0.0
  0
LINE
  5
2661A
330
18
100
AcDbEntity
  8
実線
100
AcDbLine
 10
-1391.826456832387
 20
-817.3983952664297
 30
0.0
 11
-1392.003581176854
 21
-817.3983952664297
 31
0.0
  0
LINE
  5
2661B
330
18
100
AcDbEntity
  8
破線
 48
8.0
100
AcDbLine
 10
-1391.826456832387
 20
-817.5755196108973
 30
0.0
 11
-1391.826456832387
 21
-864.3983952664294
 31
0.0
  0
LINE
  5
2661C
330
18
100
AcDbEntity
  8
破線
 48
8.0
100
AcDbLine
 10
-1392.003581176854
 20
-817.3983952664297
 30
0.0
 11
-1486.649332487919
 21
-817.3983952664297
 31
0.0
  0
LINE
  5
2661D
330
18
100
AcDbEntity
  8
破線
 48
8.0
100
AcDbLine
 10
-1486.826456832387
 20
-817.5755196108973
 30
0.0
 11
-1486.826456832387
 21
-864.3983952664294
 31
0.0
  0
LINE
  5
26622
102
{ACAD_REACTORS
330
2664B
102
}
330
18
100
AcDbEntity
  8
0
100
AcDbLine
 10
-1421.826456832388
 20
-859.8983952664296
 30
0.0
 11
-1421.826456832388
 21
-848.8983952664295
 31
0.0
  0
LINE
  5
26626
102
{ACAD_REACTORS
330
2664B
102
}
330
18
100
AcDbEntity
  8
0
100
AcDbLine
 10
-1456.826456832388
 20
-848.8983952664295
 30
0.0
 11
-1456.826456832388
 21
-859.8983952664296
 31
0.0
  0
LINE
  5
26628
102
{ACAD_REACTORS
330
2664B
102
}
330
18
100
AcDbEntity
  8
0
100
AcDbLine
 10
-1456.326456832388
 20
-860.3983952664297
 30
0.0
 11
-1422.326456832388
 21
-860.3983952664297
 31
0.0
  0
ARC
  5
26629
102
{ACAD_REACTORS
330
2664B
102
}
330
18
100
AcDbEntity
  8
0
100
AcDbCircle
 10
-1456.326456832388
 20
-859.8983952664296
 30
0.0
 40
0.5
100
AcDbArc
 50
180.0
 51
270.0
  0
ARC
  5
26631
102
{ACAD_REACTORS
330
2664B
102
}
330
18
100
AcDbEntity
  8
0
100
AcDbCircle
 10
-1422.326456832388
 20
-859.8983952664296
 30
0.0
 40
0.5
100
AcDbArc
 50
270.0
 51
0.0
  0
LINE
  5
26632
102
{ACAD_REACTORS
330
2664B
102
}
330
18
100
AcDbEntity
  8
0
100
AcDbLine
 10
-1422.326456832388
 20
-848.3983952664297
 30
0.0
 11
-1456.326456832388
 21
-848.3983952664297
 31
0.0
  0
LINE
  5
26633
102
{ACAD_REACTORS
330
2664B
102
}
330
18
100
AcDbEntity
  8
0
100
AcDbLine
 10
-1456.826456832388
 20
-855.3983952664296
 30
0.0
 11
-1421.826456832388
 21
-855.3983952664296
 31
0.0
  0
ARC
  5
26635
102
{ACAD_REACTORS
330
2664B
102
}
330
18
100
AcDbEntity
  8
0
100
AcDbCircle
 10
-1456.326456832388
 20
-848.8983952664295
 30
0.0
 40
0.5
100
AcDbArc
 50
90.0
 51
180.0
  0
ARC
  5
26638
102
{ACAD_REACTORS
330
2664B
102
}
330
18
100
AcDbEntity
  8
0
100
AcDbCircle
 10
-1422.326456832388
 20
-848.8983952664295
 30
0.0
 40
0.5
100
AcDbArc
 50
0.0
 51
90.0
  0
LWPOLYLINE
  5
26642
102
{ACAD_REACTORS
330
2664A
102
}
330
18
100
AcDbEntity
  8
0
100
AcDbPolyline
 90
        8
 70
     1
 43
0.0
 10
-1484.326456832387
 20
-859.3983952664297
 10
-1470.326456832387
 20
-859.39839526643
 42
0.4142135623730951
 10
-1469.826456832387
 20
-858.89839526643
 10
-1469.826456832387
 20
-849.8983952664302
 42
0.4142135623730951
 10
-1470.326456832387
 20
-849.3983952664301
 10
-1484.326456832387
 20
-849.3983952664301
 42
0.4142135623730996
 10
-1484.826456832387
 20
-849.8983952664302
 10
-1484.826456832387
 20
-858.8983952664296
 42
0.4142135623730904
  0
LINE
  5
26647
102
{ACAD_REACTORS
330
2664A
102
}
330
18
100
AcDbEntity
  8
0
100
AcDbLine
 10
-1484.826456832387
 20
-853.3983952664296
 30
0.0
 11
-1469.826456832387
 21
-853.3983952664296
 31
0.0
  0
LINE
  5
2664F
330
18
100
AcDbEntity
  8
実線
100
AcDbLine
 10
-1282.008759997228
 20
-818.3983952664297
 30
0.0
 11
-1282.008759997228
 21
-863.3983952664296
 31
0.0
  0
LINE
  5
26650
330
18
100
AcDbEntity
  8
実線
100
AcDbLine
 10
-1313.008759997228
 20
-818.3983952664297
 30
0.0
 11
-1313.008759997229
 21
-863.3983952664296
 31
0.0
  0
LINE
  5
26651
330
18
100
AcDbEntity
  8
中心線
 48
8.0
100
AcDbLine
 10
-1280.708759997227
 20
-831.8983952664297
 30
0.0
 11
-1314.908759997228
 21
-831.8983952664297
 31
0.0
  0
LINE
  5
26657
330
18
100
AcDbEntity
  8
実線
100
AcDbLine
 10
-1313.008759997228
 20
-817.3983952664297
 30
0.0
 11
-1282.008759997228
 21
-817.3983952664297
 31
0.0
  0
LINE
  5
26659
330
18
100
AcDbEntity
  8
実線
100
AcDbLine
 10
-1282.008759997228
 20
-817.3983952664297
 30
0.0
 11
-1282.008759997228
 21
-818.3983952664297
 31
0.0
  0
LINE
  5
2665D
330
18
100
AcDbEntity
  8
実線
100
AcDbLine
 10
-1313.008759997228
 20
-818.3983952664297
 30
0.0
 11
-1313.008759997228
 21
-817.3983952664297
 31
0.0
  0
LINE
  5
26663
330
18
100
AcDbEntity
  8
実線
100
AcDbLine
 10
-1291.608759997227
 20
-840.3983952664297
 30
0.0
 11
-1303.408759997227
 21
-840.3983952664297
 31
0.0
  0
LINE
  5
26665
330
18
100
AcDbEntity
  8
実線
100
AcDbLine
 10
-1282.008759997228
 20
-863.3983952664296
 30
0.0
 11
-1282.008759997228
 21
-864.3983952664298
 31
0.0
  0
LINE
  5
26666
330
18
100
AcDbEntity
  8
実線
100
AcDbLine
 10
-1282.008759997228
 20
-864.3983952664298
 30
0.0
 11
-1291.608759997227
 21
-864.3983952664298
 31
0.0
  0
LINE
  5
2666B
330
18
100
AcDbEntity
  8
実線
100
AcDbLine
 10
-1291.608759997227
 20
-864.3983952664298
 30
0.0
 11
-1291.608759997227
 21
-840.3983952664297
 31
0.0
  0
LINE
  5
2666F
330
18
100
AcDbEntity
  8
実線
100
AcDbLine
 10
-1313.008759997229
 20
-864.3983952664298
 30
0.0
 11
-1313.008759997229
 21
-863.3983952664296
 31
0.0
  0
LINE
  5
26671
330
18
100
AcDbEntity
  8
実線
100
AcDbLine
 10
-1303.408759997229
 20
-864.3983952664298
 30
0.0
 11
-1313.008759997229
 21
-864.3983952664298
 31
0.0
  0
LINE
  5
26676
330
18
100
AcDbEntity
  8
実線
100
AcDbLine
 10
-1303.408759997227
 20
-840.3983952664297
 30
0.0
 11
-1303.408759997229
 21
-864.3983952664298
 31
0.0
  0
LINE
  5
2671C
330
18
100
AcDbEntity
  8
実線
100
AcDbLine
 10
-1318.908759997228
 20
-818.8983952664298
 30
0.0
 11
-1318.908759997228
 21
-949.8983952664296
 31
0.0
  0
LINE
  5
2671D
330
18
100
AcDbEntity
  8
実線
100
AcDbLine
 10
-1313.008759997228
 20
-818.8983952664298
 30
0.0
 11
-1313.008759997228
 21
-949.8983952664296
 31
0.0
  0
LINE
  5
2671F
330
18
100
AcDbEntity
  8
実線
100
AcDbLine
 10
-1313.008759997228
 20
-816.8983952664296
 30
0.0
 11
-1318.908759997228
 21
-816.8983952664296
 31
0.0
  0
LINE
  5
26720
330
18
100
AcDbEntity
  8
実線
100
AcDbLine
 10
-1318.908759997228
 20
-816.8983952664296
 30
0.0
 11
-1318.908759997228
 21
-818.8983952664298
 31
0.0
  0
LINE
  5
26721
330
18
100
AcDbEntity
  8
実線
100
AcDbLine
 10
-1313.008759997228
 20
-818.8983952664298
 30
0.0
 11
-1313.008759997228
 21
-816.8983952664296
 31
0.0
  0
LINE
  5
26728
330
18
100
AcDbEntity
  8
中心線
 48
4.0
100
AcDbLine
 10
-1320.908759997228
 20
-831.8983952664297
 30
0.0
 11
-1311.008759997227
 21
-831.8983952664297
 31
0.0
  0
LINE
  5
26730
330
18
100
AcDbEntity
  8
実線
100
AcDbLine
 10
-1318.908759997228
 20
-951.8983952664298
 30
0.0
 11
-1313.008759997228
 21
-951.8983952664298
 31
0.0
  0
LINE
  5
26731
330
18
100
AcDbEntity
  8
実線
100
AcDbLine
 10
-1318.908759997228
 20
-949.8983952664296
 30
0.0
 11
-1318.908759997228
 21
-951.8983952664298
 31
0.0
  0
LINE
  5
26732
330
18
100
AcDbEntity
  8
実線
100
AcDbLine
 10
-1313.008759997228
 20
-951.8983952664298
 30
0.0
 11
-1313.008759997228
 21
-949.8983952664296
 31
0.0
  0
LINE
  5
26734
330
18
100
AcDbEntity
  8
実線
100
AcDbLine
 10
-1282.008759997228
 20
-818.8983952664298
 30
0.0
 11
-1282.008759997228
 21
-949.8983952664296
 31
0.0
  0
LINE
  5
26735
330
18
100
AcDbEntity
  8
実線
100
AcDbLine
 10
-1276.108759997228
 20
-818.8983952664298
 30
0.0
 11
-1276.108759997228
 21
-949.8983952664296
 31
0.0
  0
LINE
  5
26736
330
18
100
AcDbEntity
  8
実線
100
AcDbLine
 10
-1276.108759997228
 20
-951.8983952664298
 30
0.0
 11
-1282.008759997228
 21
-951.8983952664298
 31
0.0
  0
LINE
  5
26737
330
18
100
AcDbEntity
  8
実線
100
AcDbLine
 10
-1276.108759997228
 20
-949.8983952664296
 30
0.0
 11
-1276.108759997228
 21
-951.8983952664298
 31
0.0
  0
LINE
  5
26738
330
18
100
AcDbEntity
  8
実線
100
AcDbLine
 10
-1282.008759997228
 20
-951.8983952664298
 30
0.0
 11
-1282.008759997228
 21
-949.8983952664296
 31
0.0
  0
LINE
  5
2673B
330
18
100
AcDbEntity
  8
中心線
 48
4.0
100
AcDbLine
 10
-1274.108759997228
 20
-831.8983952664297
 30
0.0
 11
-1284.008759997228
 21
-831.8983952664297
 31
0.0
  0
LINE
  5
26742
330
18
100
AcDbEntity
  8
実線
100
AcDbLine
 10
-1282.008759997228
 20
-816.8983952664296
 30
0.0
 11
-1276.108759997228
 21
-816.8983952664296
 31
0.0
  0
LINE
  5
26748
330
18
100
AcDbEntity
  8
実線
100
AcDbLine
 10
-1276.108759997228
 20
-816.8983952664296
 30
0.0
 11
-1276.108759997228
 21
-818.8983952664298
 31
0.0
  0
LINE
  5
2674A
330
18
100
AcDbEntity
  8
実線
100
AcDbLine
 10
-1282.008759997228
 20
-818.8983952664298
 30
0.0
 11
-1282.008759997228
 21
-816.8983952664296
 31
0.0
  0
LINE
  5
2674C
102
{ACAD_REACTORS
330
26757
102
}
330
18
100
AcDbEntity
  8
破線
 48
10.0
100
AcDbLine
 10
-1313.008759997228
 20
-828.3983952664296
 30
0.0
 11
-1282.008759997228
 21
-828.3983952664296
 31
0.0
  0
LINE
  5
2674D
102
{ACAD_REACTORS
330
26757
102
}
330
18
100
AcDbEntity
  8
破線
 48
10.0
100
AcDbLine
 10
-1313.008759997228
 20
-835.3983952664295
 30
0.0
 11
-1282.008759997228
 21
-835.3983952664295
 31
0.0
  0
LINE
  5
2674E
102
{ACAD_REACTORS
330
26757
102
}
330
18
100
AcDbEntity
  8
破線
 48
10.0
100
AcDbLine
 10
-1282.008759997228
 20
-837.3983952664296
 30
0.0
 11
-1276.108759997228
 21
-837.3983952664296
 31
0.0
  0
LINE
  5
2674F
102
{ACAD_REACTORS
330
26757
102
}
330
18
100
AcDbEntity
  8
破線
 48
10.0
100
AcDbLine
 10
-1282.008759997228
 20
-826.3983952664297
 30
0.0
 11
-1282.008759997228
 21
-837.3983952664296
 31
0.0
  0
LINE
  5
26750
102
{ACAD_REACTORS
330
26757
102
}
330
18
100
AcDbEntity
  8
破線
 48
10.0
100
AcDbLine
 10
-1282.008759997228
 20
-826.3983952664297
 30
0.0
 11
-1276.108759997228
 21
-826.3983952664297
 31
0.0
  0
LINE
  5
26751
102
{ACAD_REACTORS
330
26757
102
}
330
18
100
AcDbEntity
  8
破線
 48
10.0
100
AcDbLine
 10
-1318.908759997228
 20
-837.3983952664296
 30
0.0
 11
-1318.908759997228
 21
-826.3983952664297
 31
0.0
  0
LINE
  5
26752
102
{ACAD_REACTORS
330
26757
102
}
330
18
100
AcDbEntity
  8
破線
 48
10.0
100
AcDbLine
 10
-1313.008759997228
 20
-826.3983952664297
 30
0.0
 11
-1318.908759997228
 21
-826.3983952664297
 31
0.0
  0
LINE
  5
26753
102
{ACAD_REACTORS
330
26757
102
}
330
18
100
AcDbEntity
  8
破線
 48
10.0
100
AcDbLine
 10
-1313.008759997228
 20
-826.3983952664297
 30
0.0
 11
-1313.008759997228
 21
-837.3983952664296
 31
0.0
  0
LINE
  5
26754
102
{ACAD_REACTORS
330
26757
102
}
330
18
100
AcDbEntity
  8
破線
 48
10.0
100
AcDbLine
 10
-1313.008759997228
 20
-837.3983952664296
 30
0.0
 11
-1318.908759997228
 21
-837.3983952664296
 31
0.0
  0
LINE
  5
26756
102
{ACAD_REACTORS
330
26757
102
}
330
18
100
AcDbEntity
  8
破線
 48
10.0
100
AcDbLine
 10
-1276.108759997228
 20
-837.3983952664296
 30
0.0
 11
-1276.108759997228
 21
-826.3983952664297
 31
0.0
  0
MTEXT
  5
268C1
330
18
100
AcDbEntity
  8
0
100
AcDbMText
 10
-88.18252400491244
 20
-1210.211471745049
 30
0.0
 40
5.0
 41
162.3077
 71
     9
 72
     1
  1

  7
MSｺ_ｼｯｸ-0
1001
ACAD
1000
MTEXTBEGIN
1070
    73
1070
     1
1070
    44
1040
1.0
1070
    74
1070
     0
1000
MTEXTEND
  0
LINE
  5
26A39
330
18
100
AcDbEntity
  8
実線
100
AcDbLine
 10
-1313.008759997228
 20
-950.8983952664296
 30
0.0
 11
-1302.908759997227
 21
-950.8983952664296
 31
0.0
  0
LINE
  5
26A3A
330
18
100
AcDbEntity
  8
実線
100
AcDbLine
 10
-1313.008759997228
 20
-865.8983952664296
 30
0.0
 11
-1302.908759997227
 21
-865.8983952664296
 31
0.0
  0
LINE
  5
26A3C
330
18
100
AcDbEntity
  8
実線
100
AcDbLine
 10
-1292.108759997228
 20
-865.8983952664296
 30
0.0
 11
-1292.108759997228
 21
-950.8983952664296
 31
0.0
  0
LINE
  5
26A3D
330
18
100
AcDbEntity
  8
実線
100
AcDbLine
 10
-1302.908759997227
 20
-865.8983952664296
 30
0.0
 11
-1302.908759997227
 21
-950.8983952664296
 31
0.0
  0
LINE
  5
26A3E
330
18
100
AcDbEntity
  8
実線
100
AcDbLine
 10
-1292.108759997228
 20
-865.8983952664296
 30
0.0
 11
-1282.008759997228
 21
-865.8983952664296
 31
0.0
  0
LINE
  5
26A3F
330
18
100
AcDbEntity
  8
実線
100
AcDbLine
 10
-1292.108759997228
 20
-950.8983952664296
 30
0.0
 11
-1282.008759997228
 21
-950.8983952664296
 31
0.0
  0
LINE
  5
26A44
102
{ACAD_REACTORS
330
26A7B
102
}
330
18
100
AcDbEntity
  8
細線
  6
ACAD_ISO09W100
 48
0.3
100
AcDbLine
 10
-1293.108759997227
 20
-953.3983952664293
 30
0.0
 11
-1293.108759997227
 21
-861.3983952664296
 31
0.0
  0
LINE
  5
26A45
102
{ACAD_REACTORS
330
26A7B
102
}
330
18
100
AcDbEntity
  8
細線
  6
ACAD_ISO09W100
 48
0.3
100
AcDbLine
 10
-1301.708759997227
 20
-861.3983952664296
 30
0.0
 11
-1301.708759997227
 21
-953.3983952664296
 31
0.0
  0
LINE
  5
26A46
102
{ACAD_REACTORS
330
26A7B
102
}
330
18
100
AcDbEntity
  8
中心線
 48
3.0
100
AcDbLine
 10
-1297.408759997227
 20
-842.3983952664301
 30
0.0
 11
-1297.408759997227
 21
-998.3983952664296
 31
0.0
  0
CIRCLE
  5
26A47
102
{ACAD_REACTORS
330
26A7B
102
}
330
18
100
AcDbEntity
  8
細線
  6
ACAD_ISO09W100
 48
0.05
100
AcDbCircle
 10
-1307.90875976562
 20
-959.3983954347002
 30
0.0
 40
1.5
  0
CIRCLE
  5
26A48
102
{ACAD_REACTORS
330
26A7B
102
}
330
18
100
AcDbEntity
  8
細線
  6
ACAD_ISO09W100
 48
0.05
100
AcDbCircle
 10
-1307.90875976562
 20
-959.3983954347002
 30
0.0
 40
1.0
  0
LINE
  5
26A49
102
{ACAD_REACTORS
330
26A7B
102
}
330
18
100
AcDbEntity
  8
細線
  6
ACAD_ISO09W100
 48
0.3
100
AcDbLine
 10
-1291.108759997228
 20
-955.3983952664296
 30
0.0
 11
-1291.108759997228
 21
-970.3983952664296
 31
0.0
  0
LINE
  5
26A4A
102
{ACAD_REACTORS
330
26A7B
102
}
330
18
100
AcDbEntity
  8
細線
  6
ACAD_ISO09W100
 48
0.3
100
AcDbLine
 10
-1303.708759997229
 20
-955.3983952664296
 30
0.0
 11
-1303.708759997229
 21
-970.3983952664296
 31
0.0
  0
LINE
  5
26A4B
102
{ACAD_REACTORS
330
26A7B
102
}
330
18
100
AcDbEntity
  8
細線
  6
ACAD_ISO09W100
 48
0.3
100
AcDbLine
 10
-1317.408759997227
 20
-955.89839526643
 30
0.0
 11
-1317.408759997229
 21
-995.8983952664295
 31
0.0
  0
LINE
  5
26A4C
102
{ACAD_REACTORS
330
26A7B
102
}
330
18
100
AcDbEntity
  8
細線
  6
ACAD_ISO09W100
 48
0.3
100
AcDbLine
 10
-1277.408759997228
 20
-955.89839526643
 30
0.0
 11
-1277.408759997228
 21
-995.8983952664295
 31
0.0
  0
LINE
  5
26A4D
102
{ACAD_REACTORS
330
26A7B
102
}
330
18
100
AcDbEntity
  8
中心線
100
AcDbLine
 10
-1307.90875976562
 20
-968.7233954347
 30
0.0
 11
-1307.90875976562
 21
-957.0733954347003
 31
0.0
  0
LINE
  5
26A4E
102
{ACAD_REACTORS
330
26A7B
102
}
330
18
100
AcDbEntity
  8
中心線
100
AcDbLine
 10
-1310.233759765619
 20
-959.3983954347002
 30
0.0
 11
-1305.58375976562
 21
-959.3983954347002
 31
0.0
  0
LINE
  5
26A4F
102
{ACAD_REACTORS
330
26A7B
102
}
330
18
100
AcDbEntity
  8
細線
  6
ACAD_ISO09W100
 48
0.3
100
AcDbLine
 10
-1303.708759997229
 20
-970.3983952664296
 30
0.0
 11
-1306.708759997228
 21
-970.3983952664296
 31
0.0
  0
LINE
  5
26A50
102
{ACAD_REACTORS
330
26A7B
102
}
330
18
100
AcDbEntity
  8
細線
  6
ACAD_ISO09W100
 48
0.3
100
AcDbLine
 10
-1301.408759997228
 20
-991.3983952664295
 30
0.0
 11
-1317.408759997228
 21
-991.3983952664295
 31
0.0
  0
LINE
  5
26A51
102
{ACAD_REACTORS
330
26A7B
102
}
330
18
100
AcDbEntity
  8
細線
  6
ACAD_ISO09W100
 48
0.3
100
AcDbLine
 10
-1306.708759997228
 20
-975.3983952664295
 30
0.0
 11
-1303.708759997229
 21
-975.3983952664295
 31
0.0
  0
LINE
  5
26A52
102
{ACAD_REACTORS
330
26A7B
102
}
330
18
100
AcDbEntity
  8
細線
  6
ACAD_ISO09W100
 48
0.3
100
AcDbLine
 10
-1301.408759997228
 20
-983.3983952664295
 30
0.0
 11
-1317.408759997228
 21
-983.3983952664295
 31
0.0
  0
LINE
  5
26A53
102
{ACAD_REACTORS
330
26A7B
102
}
330
18
100
AcDbEntity
  8
中心線
100
AcDbLine
 10
-1310.233759765619
 20
-966.3983954346999
 30
0.0
 11
-1305.58375976562
 21
-966.3983954346999
 31
0.0
  0
LINE
  5
26A54
102
{ACAD_REACTORS
330
26A7B
102
}
330
18
100
AcDbEntity
  8
細線
  6
ACAD_ISO09W100
 48
0.3
100
AcDbLine
 10
-1316.908759997229
 20
-996.3983952664296
 30
0.0
 11
-1277.908759997226
 21
-996.3983952664296
 31
0.0
  0
LINE
  5
26A55
102
{ACAD_REACTORS
330
26A7B
102
}
330
18
100
AcDbEntity
  8
細線
  6
ACAD_ISO09W100
 48
0.3
100
AcDbLine
 10
-1277.408759997228
 20
-990.9983952664301
 30
0.0
 11
-1317.408759997228
 21
-990.9983952664301
 31
0.0
  0
LINE
  5
26A56
102
{ACAD_REACTORS
330
26A7B
102
}
330
18
100
AcDbEntity
  8
細線
  6
ACAD_ISO09W100
 48
0.3
100
AcDbLine
 10
-1277.408759997228
 20
-983.7983952664304
 30
0.0
 11
-1317.408759997228
 21
-983.7983952664304
 31
0.0
  0
LINE
  5
26A57
102
{ACAD_REACTORS
330
26A7B
102
}
330
18
100
AcDbEntity
  8
中心線
 48
3.0
100
AcDbLine
 10
-1275.408759997228
 20
-987.3983952664296
 30
0.0
 11
-1319.408759997227
 21
-987.39839526643
 31
0.0
  0
LINE
  5
26A58
102
{ACAD_REACTORS
330
26A7B
102
}
330
18
100
AcDbEntity
  8
細線
  6
ACAD_ISO09W100
 48
0.3
100
AcDbLine
 10
-1317.408759997229
 20
-995.8983952664295
 30
0.0
 11
-1316.908759997229
 21
-996.3983952664296
 31
0.0
  0
LINE
  5
26A59
102
{ACAD_REACTORS
330
26A7B
102
}
330
18
100
AcDbEntity
  8
細線
  6
ACAD_ISO09W100
 48
0.3
100
AcDbLine
 10
-1306.708759997228
 20
-970.3983952664296
 30
0.0
 11
-1306.708759997228
 21
-975.3983952664295
 31
0.0
  0
CIRCLE
  5
26A5A
102
{ACAD_REACTORS
330
26A7B
102
}
330
18
100
AcDbEntity
  8
細線
  6
ACAD_ISO09W100
 48
0.05
100
AcDbCircle
 10
-1307.90875976562
 20
-966.3983954346999
 30
0.0
 40
1.5
  0
CIRCLE
  5
26A5B
102
{ACAD_REACTORS
330
26A7B
102
}
330
18
100
AcDbEntity
  8
細線
  6
ACAD_ISO09W100
 48
0.05
100
AcDbCircle
 10
-1307.90875976562
 20
-966.3983954346999
 30
0.0
 40
1.0
  0
LINE
  5
26A5C
102
{ACAD_REACTORS
330
26A7B
102
}
330
18
100
AcDbEntity
  8
細線
  6
ACAD_ISO09W100
 48
0.3
100
AcDbLine
 10
-1277.408759997228
 20
-995.8983952664295
 30
0.0
 11
-1277.908759997226
 21
-996.3983952664296
 31
0.0
  0
LINE
  5
26A5D
102
{ACAD_REACTORS
330
26A7B
102
}
330
18
100
AcDbEntity
  8
細線
  6
ACAD_ISO09W100
 48
0.3
100
AcDbLine
 10
-1293.408759997227
 20
-991.3983952664295
 30
0.0
 11
-1277.408759997227
 21
-991.3983952664295
 31
0.0
  0
LINE
  5
26A5E
102
{ACAD_REACTORS
330
26A7B
102
}
330
18
100
AcDbEntity
  8
細線
  6
ACAD_ISO09W100
 48
0.3
100
AcDbLine
 10
-1293.408759997227
 20
-983.3983952664295
 30
0.0
 11
-1277.408759997227
 21
-983.3983952664295
 31
0.0
  0
LINE
  5
26A5F
102
{ACAD_REACTORS
330
26A7B
102
}
330
18
100
AcDbEntity
  8
細線
  6
ACAD_ISO09W100
 48
0.3
100
AcDbLine
 10
-1288.108759997228
 20
-970.3983952664296
 30
0.0
 11
-1288.108759997228
 21
-975.3983952664295
 31
0.0
  0
LINE
  5
26A60
102
{ACAD_REACTORS
330
26A7B
102
}
330
18
100
AcDbEntity
  8
細線
  6
ACAD_ISO09W100
 48
0.3
100
AcDbLine
 10
-1291.108759997228
 20
-970.3983952664296
 30
0.0
 11
-1288.108759997228
 21
-970.3983952664296
 31
0.0
  0
LINE
  5
26A61
102
{ACAD_REACTORS
330
26A7B
102
}
330
18
100
AcDbEntity
  8
細線
  6
ACAD_ISO09W100
 48
0.3
100
AcDbLine
 10
-1288.108759997228
 20
-975.3983952664295
 30
0.0
 11
-1291.108759997228
 21
-975.3983952664295
 31
0.0
  0
LINE
  5
26A62
102
{ACAD_REACTORS
330
26A7B
102
}
330
18
100
AcDbEntity
  8
細線
  6
ACAD_ISO09W100
 48
0.3
100
AcDbLine
 10
-1293.408759997227
 20
-991.3983952664295
 30
0.0
 11
-1294.101580320256
 21
-990.9983952664301
 31
0.0
  0
LINE
  5
26A63
102
{ACAD_REACTORS
330
26A7B
102
}
330
18
100
AcDbEntity
  8
細線
  6
ACAD_ISO09W100
 48
0.3
100
AcDbLine
 10
-1293.408759997227
 20
-983.3983952664295
 30
0.0
 11
-1293.408759997227
 21
-991.3983952664295
 31
0.0
  0
LINE
  5
26A64
102
{ACAD_REACTORS
330
26A7B
102
}
330
18
100
AcDbEntity
  8
細線
  6
ACAD_ISO09W100
 48
0.3
100
AcDbLine
 10
-1293.408759997227
 20
-983.3983952664295
 30
0.0
 11
-1294.101580320255
 21
-983.7983952664304
 31
0.0
  0
LINE
  5
26A65
102
{ACAD_REACTORS
330
26A7B
102
}
330
18
100
AcDbEntity
  8
細線
  6
ACAD_ISO09W100
 48
0.3
100
AcDbLine
 10
-1291.108759997228
 20
-975.3983952664295
 30
0.0
 11
-1291.108759997228
 21
-980.89839526643
 31
0.0
  0
ARC
  5
26A66
102
{ACAD_REACTORS
330
26A7B
102
}
330
18
100
AcDbEntity
  8
細線
  6
ACAD_ISO09W100
 48
0.3
100
AcDbCircle
 10
-1291.608759997229
 20
-980.8983952664302
 30
0.0
 40
0.5
100
AcDbArc
 50
270.0
 51
0.0
  0
LINE
  5
26A67
102
{ACAD_REACTORS
330
26A7B
102
}
330
18
100
AcDbEntity
  8
細線
  6
ACAD_ISO09W100
 48
0.3
100
AcDbLine
 10
-1301.408759997228
 20
-983.3983952664295
 30
0.0
 11
-1301.408759997228
 21
-991.3983952664295
 31
0.0
  0
LINE
  5
26A68
102
{ACAD_REACTORS
330
26A7B
102
}
330
18
100
AcDbEntity
  8
細線
  6
ACAD_ISO09W100
 48
0.3
100
AcDbLine
 10
-1301.408759997228
 20
-991.3983952664295
 30
0.0
 11
-1300.7159396742
 21
-990.9983952664301
 31
0.0
  0
LINE
  5
26A69
102
{ACAD_REACTORS
330
26A7B
102
}
330
18
100
AcDbEntity
  8
細線
  6
ACAD_ISO09W100
 48
0.3
100
AcDbLine
 10
-1303.708759997229
 20
-975.3983952664295
 30
0.0
 11
-1303.708759997229
 21
-980.89839526643
 31
0.0
  0
ARC
  5
26A6A
102
{ACAD_REACTORS
330
26A7B
102
}
330
18
100
AcDbEntity
  8
細線
  6
ACAD_ISO09W100
 48
0.3
100
AcDbCircle
 10
-1303.208759997229
 20
-980.8983952664302
 30
0.0
 40
0.5
100
AcDbArc
 50
180.0
 51
270.0
  0
LINE
  5
26A6B
102
{ACAD_REACTORS
330
26A7B
102
}
330
18
100
AcDbEntity
  8
細線
  6
ACAD_ISO09W100
 48
0.3
100
AcDbLine
 10
-1301.408759997228
 20
-983.3983952664295
 30
0.0
 11
-1300.715939674201
 21
-983.7983952664304
 31
0.0
  0
LINE
  5
26A6C
102
{ACAD_REACTORS
330
26A7B
102
}
330
18
100
AcDbEntity
  8
細線
  6
ACAD_ISO09W100
 48
0.3
100
AcDbLine
 10
-1303.208759997229
 20
-981.3983952664303
 30
0.0
 11
-1291.608759997227
 21
-981.3983952664298
 31
0.0
  0
CIRCLE
  5
26A6D
102
{ACAD_REACTORS
330
26A7B
102
}
330
18
100
AcDbEntity
  8
細線
  6
ACAD_ISO09W100
 48
0.3
100
AcDbCircle
 10
-1297.408759997227
 20
-976.8983952664298
 30
0.0
 40
4.0
  0
LINE
  5
26A6E
102
{ACAD_REACTORS
330
26A7B
102
}
330
18
100
AcDbEntity
  8
中心線
 48
6.0
100
AcDbLine
 10
-1305.510201034588
 20
-976.8983952664294
 30
0.0
 11
-1289.307318959868
 21
-976.8983952664294
 31
0.0
  0
HATCH
  5
26A6F
102
{ACAD_REACTORS
330
26A7B
102
}
330
18
100
AcDbEntity
  8
細線
  6
ACAD_ISO09W100
 48
0.05
100
AcDbHatch
 10
0.0
 20
0.0
 30
0.0
210
0.0
220
0.0
230
1.0
  2
ANSI31
 70
     0
 71
     0
 91
        2
 92
        7
 72
     1
 73
     1
 93
        3
 10
-1297.408759997227
 20
-972.8983952664295
 42
0.0
 10
-1297.408759997227
 20
-976.8983952664294
 42
0.0
 10
-1293.408759997228
 20
-976.8983952664294
 42
0.4142135623730618
 97
        0
 92
        7
 72
     1
 73
     1
 93
        3
 10
-1297.408759997227
 20
-976.8983952664294
 42
0.0
 10
-1301.408759997228
 20
-976.8983952664294
 42
0.4142135623731284
 10
-1297.408759997227
 20
-980.89839526643
 42
0.0
 97
        0
 75
     0
 76
     1
 52
0.0
 41
5.0
 77
     0
 78
     1
 53
45.0
 43
-1257.632713276603
 44
266.27801718139
 45
-0.4419417382415923
 46
0.4419417382415923
 79
     0
 47
0.0659687566481647
 98
        2
 10
-1295.782836213428
 20
-975.0773966784832
 10
-1298.225039180635
 20
-978.3098643318622
  0
LINE
  5
26A70
102
{ACAD_REACTORS
330
26A7B
102
}
330
18
100
AcDbEntity
  8
細線
  6
ACAD_ISO09W100
 48
0.3
100
AcDbLine
 10
-1316.908759997227
 20
-955.3983952664296
 30
0.0
 11
-1303.708759997229
 21
-955.3983952664296
 31
0.0
  0
LINE
  5
26A71
102
{ACAD_REACTORS
330
26A7B
102
}
330
18
100
AcDbEntity
  8
細線
  6
ACAD_ISO09W100
 48
0.3
100
AcDbLine
 10
-1316.908759997227
 20
-955.3983952664296
 30
0.0
 11
-1317.408759997227
 21
-955.89839526643
 31
0.0
  0
LINE
  5
26A72
102
{ACAD_REACTORS
330
26A7B
102
}
330
18
100
AcDbEntity
  8
細線
  6
ACAD_ISO09W100
 48
0.3
100
AcDbLine
 10
-1277.908759997226
 20
-955.3983952664296
 30
0.0
 11
-1291.108759997228
 21
-955.3983952664296
 31
0.0
  0
LINE
  5
26A73
102
{ACAD_REACTORS
330
26A7B
102
}
330
18
100
AcDbEntity
  8
細線
  6
ACAD_ISO09W100
 48
0.3
100
AcDbLine
 10
-1291.108759997228
 20
-955.3983952664296
 30
0.0
 11
-1293.108759997227
 21
-953.3983952664293
 31
0.0
  0
LINE
  5
26A74
102
{ACAD_REACTORS
330
26A7B
102
}
330
18
100
AcDbEntity
  8
細線
  6
ACAD_ISO09W100
 48
0.3
100
AcDbLine
 10
-1303.708759997229
 20
-955.3983952664296
 30
0.0
 11
-1301.708759997227
 21
-953.3983952664296
 31
0.0
  0
LINE
  5
26A75
102
{ACAD_REACTORS
330
26A7B
102
}
330
18
100
AcDbEntity
  8
細線
  6
ACAD_ISO09W100
 48
0.3
100
AcDbLine
 10
-1277.908759997226
 20
-955.3983952664296
 30
0.0
 11
-1277.408759997228
 21
-955.89839526643
 31
0.0
  0
LINE
  5
26A76
102
{ACAD_REACTORS
330
26A7B
102
}
330
18
100
AcDbEntity
  8
細線
  6
ACAD_ISO09W100
 48
0.3
100
AcDbLine
 10
-1292.608759997228
 20
-844.3983952664297
 30
0.0
 11
-1292.608759997228
 21
-861.3983952664296
 31
0.0
  0
LINE
  5
26A77
102
{ACAD_REACTORS
330
26A7B
102
}
330
18
100
AcDbEntity
  8
細線
  6
ACAD_ISO09W100
 48
0.3
100
AcDbLine
 10
-1302.208759997228
 20
-861.3983952664296
 30
0.0
 11
-1302.208759997228
 21
-844.3983952664297
 31
0.0
  0
LINE
  5
26A78
102
{ACAD_REACTORS
330
26A7B
102
}
330
18
100
AcDbEntity
  8
細線
  6
ACAD_ISO09W100
 48
0.3
100
AcDbLine
 10
-1292.608759997228
 20
-861.3983952664296
 30
0.0
 11
-1293.108759997227
 21
-861.3983952664296
 31
0.0
  0
LINE
  5
26A79
102
{ACAD_REACTORS
330
26A7B
102
}
330
18
100
AcDbEntity
  8
細線
  6
ACAD_ISO09W100
 48
0.3
100
AcDbLine
 10
-1301.708759997227
 20
-861.3983952664296
 30
0.0
 11
-1302.208759997228
 21
-861.3983952664296
 31
0.0
  0
LINE
  5
26A7A
102
{ACAD_REACTORS
330
26A7B
102
}
330
18
100
AcDbEntity
  8
細線
  6
ACAD_ISO09W100
 48
0.3
100
AcDbLine
 10
-1292.608759997228
 20
-844.3983952664297
 30
0.0
 11
-1302.208759997228
 21
-844.3983952664297
 31
0.0
  0
LINE
  5
277B5
102
{ACAD_REACTORS
330
277BF
102
}
330
18
100
AcDbEntity
  8
0
100
AcDbLine
 10
-1421.826456832388
 20
-870.3983952664296
 30
0.0
 11
-1456.826456832389
 21
-870.3983952664296
 31
0.0
  0
LINE
  5
277B7
102
{ACAD_REACTORS
330
277BF
102
}
330
18
100
AcDbEntity
  8
0
100
AcDbLine
 10
-1456.326456832388
 20
-877.3983952664297
 30
0.0
 11
-1422.326456832388
 21
-877.3983952664297
 31
0.0
  0
LINE
  5
277B8
102
{ACAD_REACTORS
330
277BF
102
}
330
18
100
AcDbEntity
  8
0
100
AcDbLine
 10
-1421.826456832388
 20
-876.8983952664298
 30
0.0
 11
-1421.826456832388
 21
-865.8983952664296
 31
0.0
  0
ARC
  5
277B9
102
{ACAD_REACTORS
330
277BF
102
}
330
18
100
AcDbEntity
  8
0
100
AcDbCircle
 10
-1422.326456832388
 20
-876.8983952664287
 30
0.0
 40
0.5
100
AcDbArc
 50
270.0
 51
0.0
  0
ARC
  5
277BA
102
{ACAD_REACTORS
330
277BF
102
}
330
18
100
AcDbEntity
  8
0
100
AcDbCircle
 10
-1422.326456832388
 20
-865.8983952664286
 30
0.0
 40
0.5
100
AcDbArc
 50
0.0
 51
90.0
  0
ARC
  5
277BB
102
{ACAD_REACTORS
330
277BF
102
}
330
18
100
AcDbEntity
  8
0
100
AcDbCircle
 10
-1456.326456832388
 20
-876.8983952664287
 30
0.0
 40
0.5
100
AcDbArc
 50
180.0
 51
270.0
  0
LINE
  5
277BC
102
{ACAD_REACTORS
330
277BF
102
}
330
18
100
AcDbEntity
  8
0
100
AcDbLine
 10
-1422.326456832388
 20
-865.3983952664297
 30
0.0
 11
-1456.326456832388
 21
-865.3983952664297
 31
0.0
  0
ARC
  5
277BD
102
{ACAD_REACTORS
330
277BF
102
}
330
18
100
AcDbEntity
  8
0
100
AcDbCircle
 10
-1456.326456832388
 20
-865.8983952664286
 30
0.0
 40
0.5
100
AcDbArc
 50
90.0
 51
180.0
  0
LINE
  5
277BE
102
{ACAD_REACTORS
330
277BF
102
}
330
18
100
AcDbEntity
  8
0
100
AcDbLine
 10
-1456.826456832388
 20
-865.8983952664296
 30
0.0
 11
-1456.826456832388
 21
-876.8983952664298
 31
0.0
  0
VIEWPORT
  5
23
330
15
100
AcDbEntity
 67
     1
  8
0
100
AcDbViewport
 10
194.9018314575394
 20
149.7170519132865
 30
0.0
 40
677.1349950947076
 41
309.9251279066883
 68
     1
 69
     1
1001
ACAD
1000
MVIEW
1002
{
1070
    16
1010
0.0
1020
0.0
1030
0.0
1010
0.0
1020
0.0
1030
1.0
1040
0.0
1040
309.9251279066883
1040
194.9018314575394
1040
149.7170519132865
1040
50.0
1040
0.0
1040
0.0
1070
     0
1070
   100
1070
     1
1070
     0
1070
     0
1070
     0
1070
     0
1070
     1
1040
0.0
1040
0.0
1040
0.0
1040
10.0
1040
10.0
1040
10.0
1040
10.0
1070
     0
1002
{
1002
}
1002
}
  0
VIEWPORT
  5
2E
330
15
100
AcDbEntity
 67
     1
  8
M_VIEW
100
AcDbViewport
 10
200.0
 20
144.0
 30
0.0
 40
400.0
 41
288.0
 68
     2
 69
     2
1001
ACAD
1000
MVIEW
1002
{
1070
    16
1010
0.0
1020
0.0
1030
0.0
1010
0.0
1020
0.0
1030
1.0
1040
0.0
1040
294.7751824620906
1040
-1361.567588396083
1040
-924.4737612397095
1040
50.0
1040
0.0
1040
0.0
1070
     0
1070
   100
1070
     1
1070
     0
1070
     0
1070
     0
1070
     0
1070
     0
1040
0.0
1040
0.0
1040
0.0
1040
1.0
1040
1.0
1040
10.0
1040
10.0
1070
     0
1002
{
1002
}
1002
}
  0
TEXT
  5
635
330
15
100
AcDbEntity
 67
     1
  8
文字改
  6
CONTINUOUS
100
AcDbText
 10
121.8666920704526
 20
15.78333333333638
 30
0.0
 40
3.5
  1
Ａ
 72
     1
 11
123.5000254037859
 21
15.78333333333638
 31
0.0
100
AcDbText
  0
TEXT
  5
638
330
15
100
AcDbEntity
 67
     1
  8
文字改
  6
CONTINUOUS
100
AcDbText
 10
145.8960540858611
 20
16.35134447262123
 30
0.0
 40
3.5
  1
＊＊＊＊＊
100
AcDbText
  0
TEXT
  5
639
330
15
100
AcDbEntity
 67
     1
  8
文字改
  6
CONTINUOUS
100
AcDbText
 10
120.8652350702617
 20
10.96666666666598
 30
0.0
 40
4.0
  1
Ｒ＊－
 41
0.625
100
AcDbText
  0
TEXT
  5
6DC
330
15
100
AcDbEntity
 67
     1
  8
文字改
  6
CONTINUOUS
100
AcDbText
 10
387.4022848534178
 20
5.981155417998706
 30
0.0
 40
7.0
  1
Ａ
 41
0.9529999999999999
100
AcDbText
  0
TEXT
  5
728
330
15
100
AcDbEntity
 67
     1
  8
文字改
  6
CONTINUOUS
100
AcDbText
 10
129.8652350702614
 20
15.96666666666598
 30
0.0
 40
4.0
  1
１～＊
 41
0.625
100
AcDbText
  0
TEXT
  5
2442
330
15
100
AcDbEntity
 67
     1
  8
文字
100
AcDbText
 10
324.1164138233838
 20
6.706161883767662
 30
0.0
 40
6.5
  1
ＳＥ－４０７８２
  7
まこ
100
AcDbText
  0
TEXT
  5
9F83
330
15
100
AcDbEntity
 67
     1
  8
文字改
100
AcDbText
 10
271.2999999999999
 20
20.5
 30
0.0
 40
6.0
  1
武田
 72
     1
 11
277.4999999999999
 21
23.5
 31
0.0
100
AcDbText
 73
     2
  0
TEXT
  5
9F84
330
15
100
AcDbEntity
 67
     1
  8
文字改
100
AcDbText
 10
251.1
 20
20.5
 30
0.0
 40
6.0
  1
寺嶋
 72
     1
 11
257.5
 21
23.5
 31
0.0
100
AcDbText
 73
     2
  0
TEXT
  5
9F85
330
15
100
AcDbEntity
 67
     1
  8
文字改
100
AcDbText
 10
231.0999999999999
 20
20.5
 30
0.0
 40
6.0
  1
寺嶋
 72
     1
 11
237.5
 21
23.5
 31
0.0
100
AcDbText
 73
     2
  0
TEXT
  5
9F86
330
15
100
AcDbEntity
 67
     1
  8
文字改
  6
CONTINUOUS
100
AcDbText
 10
228.7667857142857
 20
12.15
 30
0.0
 40
2.7
  1
'03.06.03
 41
0.95
  7
まこ
 72
     1
 11
237.5
 21
13.5
 31
0.0
100
AcDbText
 73
     2
  0
TEXT
  5
9F87
330
15
100
AcDbEntity
 67
     1
  8
文字改
  6
CONTINUOUS
100
AcDbText
 10
248.7667857142857
 20
12.15
 30
0.0
 40
2.7
  1
'03.06.03
 41
0.95
  7
まこ
 72
     1
 11
257.5
 21
13.5
 31
0.0
100
AcDbText
 73
     2
  0
TEXT
  5
9F88
330
15
100
AcDbEntity
 67
     1
  8
文字改
  6
CONTINUOUS
100
AcDbText
 10
268.7667857142856
 20
12.15
 30
0.0
 40
2.7
  1
'03.06.03
 41
0.95
  7
まこ
 72
     1
 11
277.4999999999999
 21
13.5
 31
0.0
100
AcDbText
 73
     2
  0
TEXT
  5
B6F4
330
15
100
AcDbEntity
 67
     1
  8
実線
100
AcDbText
 10
292.9247407785627
 20
50.22828969396096
 30
0.0
 40
2.5
  1
%%
100
AcDbText
  0
TEXT
  5
1A256
330
15
100
AcDbEntity
 67
     1
  8
文字
100
AcDbText
 10
325.2862853798792
 20
17.82728981007505
 30
0.0
 40
3.0
  1

 41
0.7
  7
まこ
100
AcDbText
  0
MTEXT
  5
277CB
330
15
100
AcDbEntity
 67
     1
  8
文字
 48
10.0
100
AcDbMText
 10
174.922305455628
 20
24.31343405836355
 30
0.0
 40
6.0
 41
211.5237
 71
     1
 72
     5
  1
τﾘﾆｱﾓｰﾀ ｺｱﾚｽ大推力 NVA-BL MGﾍﾞｰｽ MBV-BLM00B (96mm)
  7
STD-I
1001
ACAD
1000
MTEXTBEGIN
1070
    73
1070
     1
1070
    44
1040
1.0
1070
    74
1070
     0
1000
MTEXTEND
  0
ENDSEC
  0
SECTION
  2
OBJECTS
  0
DICTIONARY
  5
C
330
0
100
AcDbDictionary
  3
ACAD_GROUP
350
D
  3
ACAD_LAYOUT
350
73F
  3
ACAD_MLINESTYLE
350
1B
  3
ACAD_PLOTSETTINGS
350
740
  3
ACAD_PLOTSTYLENAME
350
73D
  3
ACADDIM
350
27410
  3
ACDBHEADERROUNDTRIPXREC
350
277E4
  3
ACDBVARIABLEDICTIONARY
350
11AC
  0
DICTIONARY
  5
22589
330
2
100
AcDbDictionary
280
     1
  3
ACAD_LAYERFILTERS
360
2258A
  3
ACAD_LAYERSTATES
360
2261C
  0
DICTIONARY
  5
27807
330
18
100
AcDbDictionary
280
     1
  3
ACAD_LAYOUTSELFREF
360
27808
  0
DICTIONARY
  5
27805
330
15
100
AcDbDictionary
280
     1
  3
ACAD_LAYOUTSELFREF
360
27806
  0
DICTIONARY
  5
D
102
{ACAD_REACTORS
330
C
102
}
330
C
100
AcDbDictionary
  3
*A1
350
DCF
  3
*A10
350
512A
  3
*A100
350
16A67
  3
*A101
350
143E3
  3
*A102
350
5DF8
  3
*A103
350
980D
  3
*A104
350
9655
  3
*A105
350
49DE
  3
*A106
350
1161
  3
*A107
350
9650
  3
*A108
350
154FF
  3
*A109
350
18D02
  3
*A11
350
12304
  3
*A110
350
154EA
  3
*A111
350
A99C
  3
*A112
350
18CA5
  3
*A113
350
2664B
  3
*A114
350
1EF86
  3
*A115
350
18C47
  3
*A116
350
5E3F
  3
*A117
350
22351
  3
*A118
350
5DC8
  3
*A119
350
17224
  3
*A12
350
18CDF
  3
*A120
350
A3D1
  3
*A121
350
1F0FC
  3
*A122
350
8072
  3
*A123
350
1092
  3
*A124
350
26757
  3
*A125
350
5E5F
  3
*A126
350
820D
  3
*A127
350
49E4
  3
*A128
350
15517
  3
*A129
350
64A1
  3
*A13
350
8375
  3
*A130
350
8227
  3
*A131
350
18CCD
  3
*A132
350
49DB
  3
*A133
350
2FE2
  3
*A134
350
17222
  3
*A135
350
269EC
  3
*A136
350
1F0F7
  3
*A137
350
10A4
  3
*A138
350
7555
  3
*A139
350
5DE0
  3
*A14
350
498C
  3
*A140
350
A637
  3
*A141
350
112B
  3
*A142
350
18C3B
  3
*A143
350
15391
  3
*A144
350
15332
  3
*A145
350
8065
  3
*A146
350
26A35
  3
*A147
350
16A62
  3
*A148
350
3183
  3
*A149
350
1EB5C
  3
*A15
350
18CF8
  3
*A150
350
2247B
  3
*A151
350
220DE
  3
*A152
350
BA00
  3
*A153
350
5E68
  3
*A154
350
980E
  3
*A155
350
B307
  3
*A156
350
18C6E
  3
*A157
350
18CB8
  3
*A158
350
499B
  3
*A159
350
15351
  3
*A16
350
64A5
  3
*A160
350
4980
  3
*A161
350
7556
  3
*A162
350
1721E
  3
*A163
350
FEDE
  3
*A164
350
77C8
  3
*A165
350
222E2
  3
*A166
350
1EB5D
  3
*A167
350
81E6
  3
*A168
350
26A7B
  3
*A169
350
64AD
  3
*A17
350
10FE
  3
*A170
350
E710
  3
*A171
350
17F35
  3
*A172
350
154ED
  3
*A173
350
5E1D
  3
*A174
350
57BB
  3
*A175
350
5E65
  3
*A176
350
BCEC
  3
*A177
350
18CB7
  3
*A178
350
223E7
  3
*A179
350
274F4
  3
*A18
350
154EC
  3
*A180
350
4AB4
  3
*A181
350
E71A
  3
*A182
350
4A10
  3
*A183
350
A3EA
  3
*A184
350
223E8
  3
*A185
350
17F3E
  3
*A186
350
317C
  3
*A187
350
77D2
  3
*A188
350
83B1
  3
*A189
350
8062
  3
*A19
350
16A6B
  3
*A190
350
18CDE
  3
*A191
350
606A
  3
*A192
350
22446
  3
*A193
350
81A9
  3
*A194
350
57B9
  3
*A195
350
B355
  3
*A196
350
239B6
  3
*A197
350
5DEC
  3
*A198
350
42C0
  3
*A199
350
A3CD
  3
*A2
350
26620
  3
*A20
350
10EC
  3
*A200
350
9656
  3
*A201
350
77B9
  3
*A202
350
15F76
  3
*A203
350
805E
  3
*A204
350
498F
  3
*A205
350
8823
  3
*A206
350
22447
  3
*A207
350
1EF8A
  3
*A208
350
8189
  3
*A209
350
8217
  3
*A21
350
114F
  3
*A210
350
4AA4
  3
*A211
350
17F37
  3
*A212
350
1A9E3
  3
*A213
350
81B8
  3
*A214
350
5F9B
  3
*A215
350
A37B
  3
*A216
350
15518
  3
*A217
350
499E
  3
*A218
350
619C
  3
*A219
350
8222
  3
*A22
350
A9A1
  3
*A220
350
17225
  3
*A221
350
16A6A
  3
*A222
350
220DF
  3
*A223
350
265F9
  3
*A224
350
274F5
  3
*A225
350
17F34
  3
*A226
350
B340
  3
*A227
350
A3B9
  3
*A228
350
5E6E
  3
*A229
350
5D44
  3
*A23
350
8051
  3
*A230
350
57BE
  3
*A231
350
1080
  3
*A232
350
4983
  3
*A233
350
81E4
  3
*A234
350
7AE5
  3
*A235
350
2FF6
  3
*A236
350
1077
  3
*A237
350
17F3D
  3
*A238
350
1F10F
  3
*A239
350
2FF7
  3
*A24
350
26621
  3
*A240
350
B346
  3
*A241
350
822B
  3
*A242
350
18CB9
  3
*A243
350
10B6
  3
*A244
350
17F39
  3
*A245
350
15384
  3
*A246
350
5DD4
  3
*A247
350
154E7
  3
*A248
350
17221
  3
*A249
350
247A5
  3
*A25
350
B343
  3
*A250
350
5E6B
  3
*A251
350
10BF
  3
*A252
350
24826
  3
*A253
350
818C
  3
*A254
350
8212
  3
*A255
350
1A9E2
  3
*A256
350
880A
  3
*A257
350
A397
  3
*A258
350
18C3C
  3
*A259
350
2483F
  3
*A26
350
18C3E
  3
*A260
350
2485D
  3
*A261
350
24879
  3
*A262
350
16A65
  3
*A263
350
16A63
  3
*A264
350
249F6
  3
*A265
350
1FA91
  3
*A266
350
249FE
  3
*A267
350
24A06
  3
*A268
350
10AD
  3
*A269
350
512B
  3
*A27
350
18D1A
  3
*A270
350
24A0E
  3
*A271
350
2C9E
  3
*A272
350
18C3D
  3
*A273
350
4AAE
  3
*A274
350
18CCC
  3
*A275
350
22448
  3
*A276
350
24A29
  3
*A277
350
2513E
  3
*A278
350
212E8
  3
*A279
350
1DFCE
  3
*A28
350
2CA5
  3
*A280
350
33BD
  3
*A281
350
1F10E
  3
*A282
350
25143
  3
*A283
350
25177
  3
*A284
350
25209
  3
*A285
350
2520A
  3
*A286
350
4AB1
  3
*A287
350
3522
  3
*A288
350
277BF
  3
*A289
350
821D
  3
*A29
350
7AF2
  3
*A290
350
10DA
  3
*A291
350
8818
  3
*A292
350
2FE3
  3
*A293
350
18C4C
  3
*A294
350
155E0
  3
*A295
350
33A2
  3
*A296
350
239B7
  3
*A297
350
143F6
  3
*A298
350
1EB5B
  3
*A299
350
17F33
  3
*A3
350
18C39
  3
*A30
350
154E5
  3
*A300
350
17226
  3
*A301
350
965C
  3
*A302
350
1DFCD
  3
*A303
350
A387
  3
*A304
350
880E
  3
*A305
350
1721F
  3
*A306
350
15347
  3
*A307
350
15361
  3
*A308
350
49A1
  3
*A309
350
1089
  3
*A31
350
6221
  3
*A310
350
F193
  3
*A311
350
5F9C
  3
*A312
350
18C82
  3
*A313
350
1EF87
  3
*A314
350
5E55
  3
*A315
350
33BA
  3
*A316
350
155D6
  3
*A317
350
1EF88
  3
*A318
350
154E6
  3
*A319
350
5128
  3
*A32
350
8819
  3
*A320
350
31CE
  3
*A321
350
1122
  3
*A322
350
83B2
  3
*A323
350
339E
  3
*A324
350
6400
  3
*A325
350
4F1D
  3
*A326
350
820E
  3
*A327
350
57BC
  3
*A328
350
239DB
  3
*A329
350
1F937
  3
*A33
350
818B
  3
*A330
350
33B9
  3
*A331
350
49C4
  3
*A332
350
18C5B
  3
*A333
350
806F
  3
*A334
350
605A
  3
*A335
350
881D
  3
*A336
350
16A66
  3
*A337
350
5E29
  3
*A338
350
18D08
  3
*A339
350
17F40
  3
*A34
350
17227
  3
*A340
350
E02F
  3
*A341
350
A38F
  3
*A342
350
1D8AC
  3
*A343
350
1FA94
  3
*A344
350
B34F
  3
*A345
350
42BF
  3
*A346
350
4992
  3
*A347
350
A3B5
  3
*A348
350
17F38
  3
*A349
350
18C40
  3
*A35
350
1E944
  3
*A350
350
9808
  3
*A351
350
212B8
  3
*A352
350
18D20
  3
*A353
350
106E
  3
*A354
350
18C90
  3
*A355
350
1F933
  3
*A356
350
A9D2
  3
*A357
350
113D
  3
*A358
350
22162
  3
*A359
350
18CCA
  3
*A36
350
1FA93
  3
*A360
350
1F110
  3
*A361
350
7C2A
  3
*A362
350
A3EB
  3
*A363
350
2046B
  3
*A364
350
A623
  3
*A365
350
4998
  3
*A366
350
15366
  3
*A367
350
A37F
  3
*A368
350
5C9F
  3
*A369
350
1535B
  3
*A37
350
A3C9
  3
*A370
350
21409
  3
*A371
350
10D1
  3
*A372
350
5133
  3
*A373
350
16A64
  3
*A374
350
49C7
  3
*A375
350
83DB
  3
*A376
350
18D0E
  3
*A377
350
1EC9C
  3
*A378
350
116A
  3
*A379
350
1F101
  3
*A38
350
A38B
  3
*A380
350
4A96
  3
*A381
350
18C3F
  3
*A382
350
7AD2
  3
*A383
350
339B
  3
*A384
350
328C
  3
*A385
350
B34C
  3
*A386
350
2FF1
  3
*A387
350
4989
  3
*A388
350
49CA
  3
*A389
350
1107
  3
*A39
350
4A14
  3
*A390
350
1119
  3
*A391
350
3398
  3
*A392
350
E028
  3
*A393
350
6F78
  3
*A394
350
4986
  3
*A395
350
8814
  3
*A396
350
2389C
  3
*A397
350
317D
  3
*A398
350
5E4A
  3
*A399
350
5E34
  3
*A4
350
18CF3
  3
*A40
350
5E62
  3
*A400
350
16A6C
  3
*A401
350
18C8F
  3
*A402
350
10E3
  3
*A403
350
FEDD
  3
*A404
350
3487
  3
*A405
350
160EB
  3
*A406
350
2FE8
  3
*A407
350
4ABC
  3
*A408
350
1F934
  3
*A409
350
57BF
  3
*A41
350
42D2
  3
*A410
350
18C42
  3
*A411
350
A628
  3
*A412
350
17220
  3
*A413
350
A3BD
  3
*A414
350
B349
  3
*A415
350
E711
  3
*A416
350
1EC89
  3
*A417
350
17F36
  3
*A418
350
18C56
  3
*A419
350
20B03
  3
*A42
350
A3C5
  3
*A420
350
6F77
  3
*A421
350
B352
  3
*A422
350
220E0
  3
*A423
350
18CCB
  3
*A424
350
1EC76
  3
*A425
350
18C81
  3
*A426
350
1FA92
  3
*A427
350
4F1E
  3
*A428
350
18CB6
  3
*A429
350
1EB00
  3
*A43
350
4A97
  3
*A430
350
17F3F
  3
*A431
350
10F5
  3
*A432
350
18C38
  3
*A433
350
E70E
  3
*A434
350
26601
  3
*A435
350
5129
  3
*A436
350
4214
  3
*A437
350
8218
  3
*A438
350
65A8
  3
*A439
350
155AE
  3
*A44
350
1110
  3
*A440
350
109B
  3
*A441
350
57BD
  3
*A442
350
1065
  3
*A443
350
1F531
  3
*A444
350
17F3B
  3
*A445
350
26609
  3
*A446
350
18C78
  3
*A447
350
18CFD
  3
*A448
350
881E
  3
*A449
350
22465
  3
*A45
350
964C
  3
*A450
350
4995
  3
*A451
350
18C91
  3
*A452
350
22458
  3
*A453
350
9807
  3
*A454
350
7C28
  3
*A455
350
17F3A
  3
*A456
350
26611
  3
*A457
350
57BA
  3
*A458
350
A393
  3
*A459
350
16A68
  3
*A46
350
154EB
  3
*A460
350
7AE6
  3
*A461
350
64A9
  3
*A462
350
18C3A
  3
*A463
350
818A
  3
*A464
350
3289
  3
*A465
350
822C
  3
*A466
350
3286
  3
*A467
350
26619
  3
*A468
350
212B9
  3
*A469
350
8213
  3
*A47
350
2C9A
  3
*A470
350
8226
  3
*A471
350
42D1
  3
*A472
350
6062
  3
*A473
350
17F3C
  3
*A474
350
1E293
  3
*A475
350
A9D3
  3
*A476
350
1F935
  3
*A477
350
1134
  3
*A48
350
1534C
  3
*A49
350
E719
  3
*A5
350
16A69
  3
*A50
350
2A28
  3
*A51
350
81E1
  3
*A52
350
8813
  3
*A53
350
1721D
  3
*A54
350
2FE9
  3
*A55
350
18C51
  3
*A56
350
8043
  3
*A57
350
2664A
  3
*A58
350
1158
  3
*A59
350
880F
  3
*A6
350
A636
  3
*A60
350
8804
  3
*A61
350
212CC
  3
*A62
350
22395
  3
*A63
350
1146
  3
*A64
350
18C73
  3
*A65
350
3305
  3
*A66
350
5CA6
  3
*A67
350
49C1
  3
*A68
350
4ABD
  3
*A69
350
10C8
  3
*A7
350
18D14
  3
*A70
350
8805
  3
*A71
350
5134
  3
*A72
350
8822
  3
*A73
350
821C
  3
*A74
350
A3C1
  3
*A75
350
2CA6
  3
*A76
350
E70D
  3
*A77
350
8221
  3
*A78
350
A61E
  3
*A79
350
8187
  3
*A8
350
15356
  3
*A80
350
18CE0
  3
*A81
350
7C29
  3
*A82
350
18CE1
  3
*A83
350
5D38
  3
*A84
350
154F6
  3
*A85
350
A383
  3
*A86
350
8809
  3
*A87
350
5E04
  3
*A88
350
49E1
  3
*A89
350
154E9
  3
*A9
350
B358
  3
*A90
350
7AC6
  3
*A91
350
154E8
  3
*A92
350
17223
  3
*A93
350
1EF85
  3
*A94
350
A635
  3
*A95
350
1489F
  3
*A96
350
1E9A4
  3
*A97
350
1EA8C
  3
*A98
350
F198
  3
*A99
350
1EF89
  0
DICTIONARY
  5
73F
102
{ACAD_REACTORS
330
C
102
}
330
C
100
AcDbDictionary
  0
DICTIONARY
  5
1B
102
{ACAD_REACTORS
330
C
102
}
330
C
100
AcDbDictionary
  3
STANDARD
350
1C
  0
DICTIONARY
  5
740
102
{ACAD_REACTORS
330
C
102
}
330
C
100
AcDbDictionary
  0
ACDBDICTIONARYWDFLT
  5
73D
102
{ACAD_REACTORS
330
C
102
}
330
C
100
AcDbDictionary
281
     1
  3
Normal
350
73E
100
AcDbDictionaryWithDefault
340
73E
  0
XRECORD
  5
27410
102
{ACAD_REACTORS
330
C
102
}
330
C
100
AcDbXrecord
 90
   990106
  3

 60
     0
 61
     0
 62
     1
 63
     3
 64
     0
 65
     0
 66
     0
 67
     3
 68
     1
 69
     0
 70
     0
 71
     0
 72
     0
 40
0.0
170
     0
  0
DICTIONARY
  5
277E4
102
{ACAD_REACTORS
330
C
102
}
330
C
100
AcDbDictionary
  3
CEPSNTYPE
350
277EE
  3
DIMSTYLEDATA
350
277F2
  3
FINGERPRINTGUID
350
277EF
  3
HYPERLINKBASE
350
277E7
  3
INSUNITS
350
277ED
  3
LAYOUTDICT
350
277E9
  3
LWETCUNION
350
277EC
  3
PLOTSETDICT
350
277EA
  3
PLOTSTYLNAMDICT
350
277EB
  3
PSVPSCALE
350
277F1
  3
PUCSBASE
350
277F5
  3
PUCSORGBACK
350
277FB
  3
PUCSORGBOTTOM
350
277F7
  3
PUCSORGFRONT
350
277FA
  3
PUCSORGLEFT
350
277F8
  3
PUCSORGRIGHT
350
277F9
  3
PUCSORGTOP
350
277F6
  3
PUCSORTHOREF
350
277F3
  3
PUCSORTHOVIEW
350
277F4
  3
STYLESHEET
350
277E8
  3
TSTACKALIGN
350
277E5
  3
TSTACKSIZE
350
277E6
  3
UCSBASE
350
277FE
  3
UCSORGBACK
350
27804
  3
UCSORGBOTTOM
350
27800
  3
UCSORGFRONT
350
27803
  3
UCSORGLEFT
350
27801
  3
UCSORGRIGHT
350
27802
  3
UCSORGTOP
350
277FF
  3
UCSORTHOREF
350
277FC
  3
UCSORTHOVIEW
350
277FD
  3
VERSIONGUID
350
277F0
  0
DICTIONARY
  5
11AC
102
{ACAD_REACTORS
330
C
102
}
330
C
100
AcDbDictionary
  3
DIMASSOC
350
11AD
  3
SORTENTS
350
B4C6
  0
DICTIONARY
  5
2258A
102
{ACAD_REACTORS
330
22589
102
}
330
22589
100
AcDbDictionary
280
     1
  3
0
360
2258B
  3
11
360
2258C
  3
150_
360
2258D
  3
160_
360
2258E
  3
170_
360
2258F
  3
171_
360
22590
  3
350_
360
22591
  3
4
360
22592
  3
5
360
22593
  3
7
360
22594
  3
KISEKI
360
22595
  0
DICTIONARY
  5
2261C
102
{ACAD_REACTORS
330
22589
102
}
330
22589
100
AcDbDictionary
  0
XRECORD
  5
27808
102
{ACAD_REACTORS
330
27807
102
}
330
27807
100
AcDbXrecord
340
18
  0
XRECORD
  5
27806
102
{ACAD_REACTORS
330
27805
102
}
330
27805
100
AcDbXrecord
340
15
  0
GROUP
  5
DCF
102
{ACAD_REACTORS
330
D
102
}
330
D
100
AcDbGroup
300

 70
     1
 71
     1
  0
GROUP
  5
512A
102
{ACAD_REACTORS
330
D
102
}
330
D
100
AcDbGroup
300

 70
     1
 71
     1
  0
GROUP
  5
16A67
102
{ACAD_REACTORS
330
D
102
}
330
D
100
AcDbGroup
300

 70
     1
 71
     1
  0
GROUP
  5
143E3
102
{ACAD_REACTORS
330
D
102
}
330
D
100
AcDbGroup
300

 70
     1
 71
     1
  0
GROUP
  5
5DF8
102
{ACAD_REACTORS
330
D
102
}
330
D
100
AcDbGroup
300

 70
     1
 71
     1
  0
GROUP
  5
980D
102
{ACAD_REACTORS
330
D
102
}
330
D
100
AcDbGroup
300

 70
     1
 71
     1
  0
GROUP
  5
9655
102
{ACAD_REACTORS
330
D
102
}
330
D
100
AcDbGroup
300

 70
     1
 71
     1
  0
GROUP
  5
49DE
102
{ACAD_REACTORS
330
D
102
}
330
D
100
AcDbGroup
300

 70
     1
 71
     1
  0
GROUP
  5
1161
102
{ACAD_REACTORS
330
D
102
}
330
D
100
AcDbGroup
300

 70
     1
 71
     1
  0
GROUP
  5
9650
102
{ACAD_REACTORS
330
D
102
}
330
D
100
AcDbGroup
300

 70
     1
 71
     1
  0
GROUP
  5
154FF
102
{ACAD_REACTORS
330
D
102
}
330
D
100
AcDbGroup
300

 70
     1
 71
     1
  0
GROUP
  5
18D02
102
{ACAD_REACTORS
330
D
102
}
330
D
100
AcDbGroup
300

 70
     1
 71
     1
  0
GROUP
  5
12304
102
{ACAD_REACTORS
330
D
102
}
330
D
100
AcDbGroup
300

 70
     1
 71
     1
  0
GROUP
  5
154EA
102
{ACAD_REACTORS
330
D
102
}
330
D
100
AcDbGroup
300

 70
     1
 71
     1
  0
GROUP
  5
A99C
102
{ACAD_REACTORS
330
D
102
}
330
D
100
AcDbGroup
300

 70
     1
 71
     1
  0
GROUP
  5
18CA5
102
{ACAD_REACTORS
330
D
102
}
330
D
100
AcDbGroup
300

 70
     1
 71
     1
  0
GROUP
  5
2664B
102
{ACAD_REACTORS
330
D
102
}
330
D
100
AcDbGroup
300

 70
     1
 71
     1
340
26622
340
26626
340
26628
340
26629
340
26631
340
26632
340
26633
340
26635
340
26638
  0
GROUP
  5
1EF86
102
{ACAD_REACTORS
330
D
102
}
330
D
100
AcDbGroup
300

 70
     1
 71
     1
  0
GROUP
  5
18C47
102
{ACAD_REACTORS
330
D
102
}
330
D
100
AcDbGroup
300

 70
     1
 71
     1
  0
GROUP
  5
5E3F
102
{ACAD_REACTORS
330
D
102
}
330
D
100
AcDbGroup
300

 70
     1
 71
     1
  0
GROUP
  5
22351
102
{ACAD_REACTORS
330
D
102
}
330
D
100
AcDbGroup
300

 70
     1
 71
     1
  0
GROUP
  5
5DC8
102
{ACAD_REACTORS
330
D
102
}
330
D
100
AcDbGroup
300

 70
     1
 71
     1
  0
GROUP
  5
17224
102
{ACAD_REACTORS
330
D
102
}
330
D
100
AcDbGroup
300

 70
     1
 71
     1
  0
GROUP
  5
18CDF
102
{ACAD_REACTORS
330
D
102
}
330
D
100
AcDbGroup
300

 70
     1
 71
     1
  0
GROUP
  5
A3D1
102
{ACAD_REACTORS
330
D
102
}
330
D
100
AcDbGroup
300

 70
     1
 71
     1
  0
GROUP
  5
1F0FC
102
{ACAD_REACTORS
330
D
102
}
330
D
100
AcDbGroup
300

 70
     1
 71
     1
  0
GROUP
  5
8072
102
{ACAD_REACTORS
330
D
102
}
330
D
100
AcDbGroup
300

 70
     1
 71
     1
  0
GROUP
  5
1092
102
{ACAD_REACTORS
330
D
102
}
330
D
100
AcDbGroup
300

 70
     1
 71
     1
  0
GROUP
  5
26757
102
{ACAD_REACTORS
330
D
102
}
330
D
100
AcDbGroup
300

 70
     1
 71
     1
340
26756
340
2674F
340
26751
340
26753
340
2674D
340
26754
340
2674E
340
2674C
340
26752
340
26750
  0
GROUP
  5
5E5F
102
{ACAD_REACTORS
330
D
102
}
330
D
100
AcDbGroup
300

 70
     1
 71
     1
  0
GROUP
  5
820D
102
{ACAD_REACTORS
330
D
102
}
330
D
100
AcDbGroup
300

 70
     1
 71
     1
  0
GROUP
  5
49E4
102
{ACAD_REACTORS
330
D
102
}
330
D
100
AcDbGroup
300

 70
     1
 71
     1
  0
GROUP
  5
15517
102
{ACAD_REACTORS
330
D
102
}
330
D
100
AcDbGroup
300

 70
     1
 71
     1
  0
GROUP
  5
64A1
102
{ACAD_REACTORS
330
D
102
}
330
D
100
AcDbGroup
300

 70
     1
 71
     1
  0
GROUP
  5
8375
102
{ACAD_REACTORS
330
D
102
}
330
D
100
AcDbGroup
300

 70
     1
 71
     1
  0
GROUP
  5
8227
102
{ACAD_REACTORS
330
D
102
}
330
D
100
AcDbGroup
300

 70
     1
 71
     1
  0
GROUP
  5
18CCD
102
{ACAD_REACTORS
330
D
102
}
330
D
100
AcDbGroup
300

 70
     1
 71
     1
  0
GROUP
  5
49DB
102
{ACAD_REACTORS
330
D
102
}
330
D
100
AcDbGroup
300

 70
     1
 71
     1
  0
GROUP
  5
2FE2
102
{ACAD_REACTORS
330
D
102
}
330
D
100
AcDbGroup
300

 70
     1
 71
     1
  0
GROUP
  5
17222
102
{ACAD_REACTORS
330
D
102
}
330
D
100
AcDbGroup
300

 70
     1
 71
     1
  0
GROUP
  5
269EC
102
{ACAD_REACTORS
330
D
102
}
330
D
100
AcDbGroup
300

 70
     1
 71
     1
  0
GROUP
  5
1F0F7
102
{ACAD_REACTORS
330
D
102
}
330
D
100
AcDbGroup
300

 70
     1
 71
     1
  0
GROUP
  5
10A4
102
{ACAD_REACTORS
330
D
102
}
330
D
100
AcDbGroup
300

 70
     1
 71
     1
  0
GROUP
  5
7555
102
{ACAD_REACTORS
330
D
102
}
330
D
100
AcDbGroup
300

 70
     1
 71
     1
  0
GROUP
  5
5DE0
102
{ACAD_REACTORS
330
D
102
}
330
D
100
AcDbGroup
300

 70
     1
 71
     1
  0
GROUP
  5
498C
102
{ACAD_REACTORS
330
D
102
}
330
D
100
AcDbGroup
300

 70
     1
 71
     1
  0
GROUP
  5
A637
102
{ACAD_REACTORS
330
D
102
}
330
D
100
AcDbGroup
300

 70
     1
 71
     1
  0
GROUP
  5
112B
102
{ACAD_REACTORS
330
D
102
}
330
D
100
AcDbGroup
300

 70
     1
 71
     1
  0
GROUP
  5
18C3B
102
{ACAD_REACTORS
330
D
102
}
330
D
100
AcDbGroup
300

 70
     1
 71
     1
  0
GROUP
  5
15391
102
{ACAD_REACTORS
330
D
102
}
330
D
100
AcDbGroup
300

 70
     1
 71
     1
  0
GROUP
  5
15332
102
{ACAD_REACTORS
330
D
102
}
330
D
100
AcDbGroup
300

 70
     1
 71
     1
  0
GROUP
  5
8065
102
{ACAD_REACTORS
330
D
102
}
330
D
100
AcDbGroup
300

 70
     1
 71
     1
  0
GROUP
  5
26A35
102
{ACAD_REACTORS
330
D
102
}
330
D
100
AcDbGroup
300

 70
     1
 71
     1
  0
GROUP
  5
16A62
102
{ACAD_REACTORS
330
D
102
}
330
D
100
AcDbGroup
300

 70
     1
 71
     1
  0
GROUP
  5
3183
102
{ACAD_REACTORS
330
D
102
}
330
D
100
AcDbGroup
300

 70
     1
 71
     1
  0
GROUP
  5
1EB5C
102
{ACAD_REACTORS
330
D
102
}
330
D
100
AcDbGroup
300

 70
     1
 71
     1
  0
GROUP
  5
18CF8
102
{ACAD_REACTORS
330
D
102
}
330
D
100
AcDbGroup
300

 70
     1
 71
     1
  0
GROUP
  5
2247B
102
{ACAD_REACTORS
330
D
102
}
330
D
100
AcDbGroup
300

 70
     1
 71
     1
  0
GROUP
  5
220DE
102
{ACAD_REACTORS
330
D
102
}
330
D
100
AcDbGroup
300

 70
     1
 71
     1
  0
GROUP
  5
BA00
102
{ACAD_REACTORS
330
D
102
}
330
D
100
AcDbGroup
300

 70
     1
 71
     1
  0
GROUP
  5
5E68
102
{ACAD_REACTORS
330
D
102
}
330
D
100
AcDbGroup
300

 70
     1
 71
     1
  0
GROUP
  5
980E
102
{ACAD_REACTORS
330
D
102
}
330
D
100
AcDbGroup
300

 70
     1
 71
     1
  0
GROUP
  5
B307
102
{ACAD_REACTORS
330
D
102
}
330
D
100
AcDbGroup
300

 70
     1
 71
     1
  0
GROUP
  5
18C6E
102
{ACAD_REACTORS
330
D
102
}
330
D
100
AcDbGroup
300

 70
     1
 71
     1
  0
GROUP
  5
18CB8
102
{ACAD_REACTORS
330
D
102
}
330
D
100
AcDbGroup
300

 70
     1
 71
     1
  0
GROUP
  5
499B
102
{ACAD_REACTORS
330
D
102
}
330
D
100
AcDbGroup
300

 70
     1
 71
     1
  0
GROUP
  5
15351
102
{ACAD_REACTORS
330
D
102
}
330
D
100
AcDbGroup
300

 70
     1
 71
     1
  0
GROUP
  5
64A5
102
{ACAD_REACTORS
330
D
102
}
330
D
100
AcDbGroup
300

 70
     1
 71
     1
  0
GROUP
  5
4980
102
{ACAD_REACTORS
330
D
102
}
330
D
100
AcDbGroup
300

 70
     1
 71
     1
  0
GROUP
  5
7556
102
{ACAD_REACTORS
330
D
102
}
330
D
100
AcDbGroup
300

 70
     1
 71
     1
  0
GROUP
  5
1721E
102
{ACAD_REACTORS
330
D
102
}
330
D
100
AcDbGroup
300

 70
     1
 71
     1
  0
GROUP
  5
FEDE
102
{ACAD_REACTORS
330
D
102
}
330
D
100
AcDbGroup
300

 70
     1
 71
     1
  0
GROUP
  5
77C8
102
{ACAD_REACTORS
330
D
102
}
330
D
100
AcDbGroup
300

 70
     1
 71
     1
  0
GROUP
  5
222E2
102
{ACAD_REACTORS
330
D
102
}
330
D
100
AcDbGroup
300

 70
     1
 71
     1
  0
GROUP
  5
1EB5D
102
{ACAD_REACTORS
330
D
102
}
330
D
100
AcDbGroup
300

 70
     1
 71
     1
  0
GROUP
  5
81E6
102
{ACAD_REACTORS
330
D
102
}
330
D
100
AcDbGroup
300

 70
     1
 71
     1
  0
GROUP
  5
26A7B
102
{ACAD_REACTORS
330
D
102
}
330
D
100
AcDbGroup
300

 70
     1
 71
     1
340
26A44
340
26A45
340
26A46
340
26A47
340
26A48
340
26A49
340
26A4A
340
26A4B
340
26A4C
340
26A4D
340
26A4E
340
26A4F
340
26A50
340
26A51
340
26A52
340
26A53
340
26A54
340
26A55
340
26A56
340
26A57
340
26A58
340
26A59
340
26A5A
340
26A5B
340
26A5C
340
26A5D
340
26A5E
340
26A5F
340
26A60
340
26A61
340
26A62
340
26A63
340
26A64
340
26A65
340
26A66
340
26A67
340
26A68
340
26A69
340
26A6A
340
26A6B
340
26A6C
340
26A6D
340
26A6E
340
26A6F
340
26A70
340
26A71
340
26A72
340
26A73
340
26A74
340
26A75
340
26A76
340
26A77
340
26A78
340
26A79
340
26A7A
  0
GROUP
  5
64AD
102
{ACAD_REACTORS
330
D
102
}
330
D
100
AcDbGroup
300

 70
     1
 71
     1
  0
GROUP
  5
10FE
102
{ACAD_REACTORS
330
D
102
}
330
D
100
AcDbGroup
300

 70
     1
 71
     1
  0
GROUP
  5
E710
102
{ACAD_REACTORS
330
D
102
}
330
D
100
AcDbGroup
300

 70
     1
 71
     1
  0
GROUP
  5
17F35
102
{ACAD_REACTORS
330
D
102
}
330
D
100
AcDbGroup
300

 70
     1
 71
     1
  0
GROUP
  5
154ED
102
{ACAD_REACTORS
330
D
102
}
330
D
100
AcDbGroup
300

 70
     1
 71
     1
  0
GROUP
  5
5E1D
102
{ACAD_REACTORS
330
D
102
}
330
D
100
AcDbGroup
300

 70
     1
 71
     1
  0
GROUP
  5
57BB
102
{ACAD_REACTORS
330
D
102
}
330
D
100
AcDbGroup
300

 70
     1
 71
     1
  0
GROUP
  5
5E65
102
{ACAD_REACTORS
330
D
102
}
330
D
100
AcDbGroup
300

 70
     1
 71
     1
  0
GROUP
  5
BCEC
102
{ACAD_REACTORS
330
D
102
}
330
D
100
AcDbGroup
300

 70
     1
 71
     1
  0
GROUP
  5
18CB7
102
{ACAD_REACTORS
330
D
102
}
330
D
100
AcDbGroup
300

 70
     1
 71
     1
  0
GROUP
  5
223E7
102
{ACAD_REACTORS
330
D
102
}
330
D
100
AcDbGroup
300

 70
     1
 71
     1
  0
GROUP
  5
274F4
102
{ACAD_REACTORS
330
D
102
}
330
D
100
AcDbGroup
300

 70
     1
 71
     1
  0
GROUP
  5
154EC
102
{ACAD_REACTORS
330
D
102
}
330
D
100
AcDbGroup
300

 70
     1
 71
     1
  0
GROUP
  5
4AB4
102
{ACAD_REACTORS
330
D
102
}
330
D
100
AcDbGroup
300

 70
     1
 71
     1
  0
GROUP
  5
E71A
102
{ACAD_REACTORS
330
D
102
}
330
D
100
AcDbGroup
300

 70
     1
 71
     1
  0
GROUP
  5
4A10
102
{ACAD_REACTORS
330
D
102
}
330
D
100
AcDbGroup
300

 70
     1
 71
     1
  0
GROUP
  5
A3EA
102
{ACAD_REACTORS
330
D
102
}
330
D
100
AcDbGroup
300

 70
     1
 71
     1
  0
GROUP
  5
223E8
102
{ACAD_REACTORS
330
D
102
}
330
D
100
AcDbGroup
300

 70
     1
 71
     1
  0
GROUP
  5
17F3E
102
{ACAD_REACTORS
330
D
102
}
330
D
100
AcDbGroup
300

 70
     1
 71
     1
  0
GROUP
  5
317C
102
{ACAD_REACTORS
330
D
102
}
330
D
100
AcDbGroup
300

 70
     1
 71
     1
  0
GROUP
  5
77D2
102
{ACAD_REACTORS
330
D
102
}
330
D
100
AcDbGroup
300

 70
     1
 71
     1
  0
GROUP
  5
83B1
102
{ACAD_REACTORS
330
D
102
}
330
D
100
AcDbGroup
300

 70
     1
 71
     1
  0
GROUP
  5
8062
102
{ACAD_REACTORS
330
D
102
}
330
D
100
AcDbGroup
300

 70
     1
 71
     1
  0
GROUP
  5
16A6B
102
{ACAD_REACTORS
330
D
102
}
330
D
100
AcDbGroup
300

 70
     1
 71
     1
  0
GROUP
  5
18CDE
102
{ACAD_REACTORS
330
D
102
}
330
D
100
AcDbGroup
300

 70
     1
 71
     1
  0
GROUP
  5
606A
102
{ACAD_REACTORS
330
D
102
}
330
D
100
AcDbGroup
300

 70
     1
 71
     1
  0
GROUP
  5
22446
102
{ACAD_REACTORS
330
D
102
}
330
D
100
AcDbGroup
300

 70
     1
 71
     1
  0
GROUP
  5
81A9
102
{ACAD_REACTORS
330
D
102
}
330
D
100
AcDbGroup
300

 70
     1
 71
     1
  0
GROUP
  5
57B9
102
{ACAD_REACTORS
330
D
102
}
330
D
100
AcDbGroup
300

 70
     1
 71
     1
  0
GROUP
  5
B355
102
{ACAD_REACTORS
330
D
102
}
330
D
100
AcDbGroup
300

 70
     1
 71
     1
  0
GROUP
  5
239B6
102
{ACAD_REACTORS
330
D
102
}
330
D
100
AcDbGroup
300

 70
     1
 71
     1
  0
GROUP
  5
5DEC
102
{ACAD_REACTORS
330
D
102
}
330
D
100
AcDbGroup
300

 70
     1
 71
     1
  0
GROUP
  5
42C0
102
{ACAD_REACTORS
330
D
102
}
330
D
100
AcDbGroup
300

 70
     1
 71
     1
  0
GROUP
  5
A3CD
102
{ACAD_REACTORS
330
D
102
}
330
D
100
AcDbGroup
300

 70
     1
 71
     1
  0
GROUP
  5
26620
102
{ACAD_REACTORS
330
D
102
}
330
D
100
AcDbGroup
300

 70
     1
 71
     1
  0
GROUP
  5
10EC
102
{ACAD_REACTORS
330
D
102
}
330
D
100
AcDbGroup
300

 70
     1
 71
     1
  0
GROUP
  5
9656
102
{ACAD_REACTORS
330
D
102
}
330
D
100
AcDbGroup
300

 70
     1
 71
     1
  0
GROUP
  5
77B9
102
{ACAD_REACTORS
330
D
102
}
330
D
100
AcDbGroup
300

 70
     1
 71
     1
  0
GROUP
  5
15F76
102
{ACAD_REACTORS
330
D
102
}
330
D
100
AcDbGroup
300

 70
     1
 71
     1
  0
GROUP
  5
805E
102
{ACAD_REACTORS
330
D
102
}
330
D
100
AcDbGroup
300

 70
     1
 71
     1
  0
GROUP
  5
498F
102
{ACAD_REACTORS
330
D
102
}
330
D
100
AcDbGroup
300

 70
     1
 71
     1
  0
GROUP
  5
8823
102
{ACAD_REACTORS
330
D
102
}
330
D
100
AcDbGroup
300

 70
     1
 71
     1
  0
GROUP
  5
22447
102
{ACAD_REACTORS
330
D
102
}
330
D
100
AcDbGroup
300

 70
     1
 71
     1
  0
GROUP
  5
1EF8A
102
{ACAD_REACTORS
330
D
102
}
330
D
100
AcDbGroup
300

 70
     1
 71
     1
  0
GROUP
  5
8189
102
{ACAD_REACTORS
330
D
102
}
330
D
100
AcDbGroup
300

 70
     1
 71
     1
  0
GROUP
  5
8217
102
{ACAD_REACTORS
330
D
102
}
330
D
100
AcDbGroup
300

 70
     1
 71
     1
  0
GROUP
  5
114F
102
{ACAD_REACTORS
330
D
102
}
330
D
100
AcDbGroup
300

 70
     1
 71
     1
  0
GROUP
  5
4AA4
102
{ACAD_REACTORS
330
D
102
}
330
D
100
AcDbGroup
300

 70
     1
 71
     1
  0
GROUP
  5
17F37
102
{ACAD_REACTORS
330
D
102
}
330
D
100
AcDbGroup
300

 70
     1
 71
     1
  0
GROUP
  5
1A9E3
102
{ACAD_REACTORS
330
D
102
}
330
D
100
AcDbGroup
300

 70
     1
 71
     1
  0
GROUP
  5
81B8
102
{ACAD_REACTORS
330
D
102
}
330
D
100
AcDbGroup
300

 70
     1
 71
     1
  0
GROUP
  5
5F9B
102
{ACAD_REACTORS
330
D
102
}
330
D
100
AcDbGroup
300

 70
     1
 71
     1
  0
GROUP
  5
A37B
102
{ACAD_REACTORS
330
D
102
}
330
D
100
AcDbGroup
300

 70
     1
 71
     1
  0
GROUP
  5
15518
102
{ACAD_REACTORS
330
D
102
}
330
D
100
AcDbGroup
300

 70
     1
 71
     1
  0
GROUP
  5
499E
102
{ACAD_REACTORS
330
D
102
}
330
D
100
AcDbGroup
300

 70
     1
 71
     1
  0
GROUP
  5
619C
102
{ACAD_REACTORS
330
D
102
}
330
D
100
AcDbGroup
300

 70
     1
 71
     1
  0
GROUP
  5
8222
102
{ACAD_REACTORS
330
D
102
}
330
D
100
AcDbGroup
300

 70
     1
 71
     1
  0
GROUP
  5
A9A1
102
{ACAD_REACTORS
330
D
102
}
330
D
100
AcDbGroup
300

 70
     1
 71
     1
  0
GROUP
  5
17225
102
{ACAD_REACTORS
330
D
102
}
330
D
100
AcDbGroup
300

 70
     1
 71
     1
  0
GROUP
  5
16A6A
102
{ACAD_REACTORS
330
D
102
}
330
D
100
AcDbGroup
300

 70
     1
 71
     1
  0
GROUP
  5
220DF
102
{ACAD_REACTORS
330
D
102
}
330
D
100
AcDbGroup
300

 70
     1
 71
     1
  0
GROUP
  5
265F9
102
{ACAD_REACTORS
330
D
102
}
330
D
100
AcDbGroup
300

 70
     1
 71
     1
340
265F2
340
265F3
340
265F4
340
265F5
340
265F6
340
265F7
340
265F8
  0
GROUP
  5
274F5
102
{ACAD_REACTORS
330
D
102
}
330
D
100
AcDbGroup
300

 70
     1
 71
     1
  0
GROUP
  5
17F34
102
{ACAD_REACTORS
330
D
102
}
330
D
100
AcDbGroup
300

 70
     1
 71
     1
  0
GROUP
  5
B340
102
{ACAD_REACTORS
330
D
102
}
330
D
100
AcDbGroup
300

 70
     1
 71
     1
  0
GROUP
  5
A3B9
102
{ACAD_REACTORS
330
D
102
}
330
D
100
AcDbGroup
300

 70
     1
 71
     1
  0
GROUP
  5
5E6E
102
{ACAD_REACTORS
330
D
102
}
330
D
100
AcDbGroup
300

 70
     1
 71
     1
  0
GROUP
  5
5D44
102
{ACAD_REACTORS
330
D
102
}
330
D
100
AcDbGroup
300

 70
     1
 71
     1
  0
GROUP
  5
8051
102
{ACAD_REACTORS
330
D
102
}
330
D
100
AcDbGroup
300

 70
     1
 71
     1
  0
GROUP
  5
57BE
102
{ACAD_REACTORS
330
D
102
}
330
D
100
AcDbGroup
300

 70
     1
 71
     1
  0
GROUP
  5
1080
102
{ACAD_REACTORS
330
D
102
}
330
D
100
AcDbGroup
300

 70
     1
 71
     1
  0
GROUP
  5
4983
102
{ACAD_REACTORS
330
D
102
}
330
D
100
AcDbGroup
300

 70
     1
 71
     1
  0
GROUP
  5
81E4
102
{ACAD_REACTORS
330
D
102
}
330
D
100
AcDbGroup
300

 70
     1
 71
     1
  0
GROUP
  5
7AE5
102
{ACAD_REACTORS
330
D
102
}
330
D
100
AcDbGroup
300

 70
     1
 71
     1
  0
GROUP
  5
2FF6
102
{ACAD_REACTORS
330
D
102
}
330
D
100
AcDbGroup
300

 70
     1
 71
     1
  0
GROUP
  5
1077
102
{ACAD_REACTORS
330
D
102
}
330
D
100
AcDbGroup
300

 70
     1
 71
     1
  0
GROUP
  5
17F3D
102
{ACAD_REACTORS
330
D
102
}
330
D
100
AcDbGroup
300

 70
     1
 71
     1
  0
GROUP
  5
1F10F
102
{ACAD_REACTORS
330
D
102
}
330
D
100
AcDbGroup
300

 70
     1
 71
     1
  0
GROUP
  5
2FF7
102
{ACAD_REACTORS
330
D
102
}
330
D
100
AcDbGroup
300

 70
     1
 71
     1
  0
GROUP
  5
26621
102
{ACAD_REACTORS
330
D
102
}
330
D
100
AcDbGroup
300

 70
     1
 71
     1
  0
GROUP
  5
B346
102
{ACAD_REACTORS
330
D
102
}
330
D
100
AcDbGroup
300

 70
     1
 71
     1
  0
GROUP
  5
822B
102
{ACAD_REACTORS
330
D
102
}
330
D
100
AcDbGroup
300

 70
     1
 71
     1
  0
GROUP
  5
18CB9
102
{ACAD_REACTORS
330
D
102
}
330
D
100
AcDbGroup
300

 70
     1
 71
     1
  0
GROUP
  5
10B6
102
{ACAD_REACTORS
330
D
102
}
330
D
100
AcDbGroup
300

 70
     1
 71
     1
  0
GROUP
  5
17F39
102
{ACAD_REACTORS
330
D
102
}
330
D
100
AcDbGroup
300

 70
     1
 71
     1
  0
GROUP
  5
15384
102
{ACAD_REACTORS
330
D
102
}
330
D
100
AcDbGroup
300

 70
     1
 71
     1
  0
GROUP
  5
5DD4
102
{ACAD_REACTORS
330
D
102
}
330
D
100
AcDbGroup
300

 70
     1
 71
     1
  0
GROUP
  5
154E7
102
{ACAD_REACTORS
330
D
102
}
330
D
100
AcDbGroup
300

 70
     1
 71
     1
  0
GROUP
  5
17221
102
{ACAD_REACTORS
330
D
102
}
330
D
100
AcDbGroup
300

 70
     1
 71
     1
  0
GROUP
  5
247A5
102
{ACAD_REACTORS
330
D
102
}
330
D
100
AcDbGroup
300

 70
     1
 71
     1
  0
GROUP
  5
B343
102
{ACAD_REACTORS
330
D
102
}
330
D
100
AcDbGroup
300

 70
     1
 71
     1
  0
GROUP
  5
5E6B
102
{ACAD_REACTORS
330
D
102
}
330
D
100
AcDbGroup
300

 70
     1
 71
     1
  0
GROUP
  5
10BF
102
{ACAD_REACTORS
330
D
102
}
330
D
100
AcDbGroup
300

 70
     1
 71
     1
  0
GROUP
  5
24826
102
{ACAD_REACTORS
330
D
102
}
330
D
100
AcDbGroup
300

 70
     1
 71
     1
  0
GROUP
  5
818C
102
{ACAD_REACTORS
330
D
102
}
330
D
100
AcDbGroup
300

 70
     1
 71
     1
  0
GROUP
  5
8212
102
{ACAD_REACTORS
330
D
102
}
330
D
100
AcDbGroup
300

 70
     1
 71
     1
  0
GROUP
  5
1A9E2
102
{ACAD_REACTORS
330
D
102
}
330
D
100
AcDbGroup
300

 70
     1
 71
     1
  0
GROUP
  5
880A
102
{ACAD_REACTORS
330
D
102
}
330
D
100
AcDbGroup
300

 70
     1
 71
     1
  0
GROUP
  5
A397
102
{ACAD_REACTORS
330
D
102
}
330
D
100
AcDbGroup
300

 70
     1
 71
     1
  0
GROUP
  5
18C3C
102
{ACAD_REACTORS
330
D
102
}
330
D
100
AcDbGroup
300

 70
     1
 71
     1
  0
GROUP
  5
2483F
102
{ACAD_REACTORS
330
D
102
}
330
D
100
AcDbGroup
300

 70
     1
 71
     1
  0
GROUP
  5
18C3E
102
{ACAD_REACTORS
330
D
102
}
330
D
100
AcDbGroup
300

 70
     1
 71
     1
  0
GROUP
  5
2485D
102
{ACAD_REACTORS
330
D
102
}
330
D
100
AcDbGroup
300

 70
     1
 71
     1
  0
GROUP
  5
24879
102
{ACAD_REACTORS
330
D
102
}
330
D
100
AcDbGroup
300

 70
     1
 71
     1
  0
GROUP
  5
16A65
102
{ACAD_REACTORS
330
D
102
}
330
D
100
AcDbGroup
300

 70
     1
 71
     1
  0
GROUP
  5
16A63
102
{ACAD_REACTORS
330
D
102
}
330
D
100
AcDbGroup
300

 70
     1
 71
     1
  0
GROUP
  5
249F6
102
{ACAD_REACTORS
330
D
102
}
330
D
100
AcDbGroup
300

 70
     1
 71
     1
  0
GROUP
  5
1FA91
102
{ACAD_REACTORS
330
D
102
}
330
D
100
AcDbGroup
300

 70
     1
 71
     1
  0
GROUP
  5
249FE
102
{ACAD_REACTORS
330
D
102
}
330
D
100
AcDbGroup
300

 70
     1
 71
     1
  0
GROUP
  5
24A06
102
{ACAD_REACTORS
330
D
102
}
330
D
100
AcDbGroup
300

 70
     1
 71
     1
  0
GROUP
  5
10AD
102
{ACAD_REACTORS
330
D
102
}
330
D
100
AcDbGroup
300

 70
     1
 71
     1
  0
GROUP
  5
512B
102
{ACAD_REACTORS
330
D
102
}
330
D
100
AcDbGroup
300

 70
     1
 71
     1
  0
GROUP
  5
18D1A
102
{ACAD_REACTORS
330
D
102
}
330
D
100
AcDbGroup
300

 70
     1
 71
     1
  0
GROUP
  5
24A0E
102
{ACAD_REACTORS
330
D
102
}
330
D
100
AcDbGroup
300

 70
     1
 71
     1
  0
GROUP
  5
2C9E
102
{ACAD_REACTORS
330
D
102
}
330
D
100
AcDbGroup
300

 70
     1
 71
     1
  0
GROUP
  5
18C3D
102
{ACAD_REACTORS
330
D
102
}
330
D
100
AcDbGroup
300

 70
     1
 71
     1
  0
GROUP
  5
4AAE
102
{ACAD_REACTORS
330
D
102
}
330
D
100
AcDbGroup
300

 70
     1
 71
     1
  0
GROUP
  5
18CCC
102
{ACAD_REACTORS
330
D
102
}
330
D
100
AcDbGroup
300

 70
     1
 71
     1
  0
GROUP
  5
22448
102
{ACAD_REACTORS
330
D
102
}
330
D
100
AcDbGroup
300

 70
     1
 71
     1
  0
GROUP
  5
24A29
102
{ACAD_REACTORS
330
D
102
}
330
D
100
AcDbGroup
300

 70
     1
 71
     1
  0
GROUP
  5
2513E
102
{ACAD_REACTORS
330
D
102
}
330
D
100
AcDbGroup
300

 70
     1
 71
     1
  0
GROUP
  5
212E8
102
{ACAD_REACTORS
330
D
102
}
330
D
100
AcDbGroup
300

 70
     1
 71
     1
  0
GROUP
  5
1DFCE
102
{ACAD_REACTORS
330
D
102
}
330
D
100
AcDbGroup
300

 70
     1
 71
     1
  0
GROUP
  5
2CA5
102
{ACAD_REACTORS
330
D
102
}
330
D
100
AcDbGroup
300

 70
     1
 71
     1
  0
GROUP
  5
33BD
102
{ACAD_REACTORS
330
D
102
}
330
D
100
AcDbGroup
300

 70
     1
 71
     1
  0
GROUP
  5
1F10E
102
{ACAD_REACTORS
330
D
102
}
330
D
100
AcDbGroup
300

 70
     1
 71
     1
  0
GROUP
  5
25143
102
{ACAD_REACTORS
330
D
102
}
330
D
100
AcDbGroup
300

 70
     1
 71
     1
  0
GROUP
  5
25177
102
{ACAD_REACTORS
330
D
102
}
330
D
100
AcDbGroup
300

 70
     1
 71
     1
  0
GROUP
  5
25209
102
{ACAD_REACTORS
330
D
102
}
330
D
100
AcDbGroup
300

 70
     1
 71
     1
  0
GROUP
  5
2520A
102
{ACAD_REACTORS
330
D
102
}
330
D
100
AcDbGroup
300

 70
     1
 71
     1
  0
GROUP
  5
4AB1
102
{ACAD_REACTORS
330
D
102
}
330
D
100
AcDbGroup
300

 70
     1
 71
     1
  0
GROUP
  5
3522
102
{ACAD_REACTORS
330
D
102
}
330
D
100
AcDbGroup
300

 70
     1
 71
     1
  0
GROUP
  5
277BF
102
{ACAD_REACTORS
330
D
102
}
330
D
100
AcDbGroup
300

 70
     1
 71
     1
340
277BC
340
277B7
340
277B5
340
277BE
340
277BD
340
277BB
340
277BA
340
277B9
340
277B8
  0
GROUP
  5
821D
102
{ACAD_REACTORS
330
D
102
}
330
D
100
AcDbGroup
300

 70
     1
 71
     1
  0
GROUP
  5
7AF2
102
{ACAD_REACTORS
330
D
102
}
330
D
100
AcDbGroup
300

 70
     1
 71
     1
  0
GROUP
  5
10DA
102
{ACAD_REACTORS
330
D
102
}
330
D
100
AcDbGroup
300

 70
     1
 71
     1
  0
GROUP
  5
8818
102
{ACAD_REACTORS
330
D
102
}
330
D
100
AcDbGroup
300

 70
     1
 71
     1
  0
GROUP
  5
2FE3
102
{ACAD_REACTORS
330
D
102
}
330
D
100
AcDbGroup
300

 70
     1
 71
     1
  0
GROUP
  5
18C4C
102
{ACAD_REACTORS
330
D
102
}
330
D
100
AcDbGroup
300

 70
     1
 71
     1
  0
GROUP
  5
155E0
102
{ACAD_REACTORS
330
D
102
}
330
D
100
AcDbGroup
300

 70
     1
 71
     1
  0
GROUP
  5
33A2
102
{ACAD_REACTORS
330
D
102
}
330
D
100
AcDbGroup
300

 70
     1
 71
     1
  0
GROUP
  5
239B7
102
{ACAD_REACTORS
330
D
102
}
330
D
100
AcDbGroup
300

 70
     1
 71
     1
  0
GROUP
  5
143F6
102
{ACAD_REACTORS
330
D
102
}
330
D
100
AcDbGroup
300

 70
     1
 71
     1
  0
GROUP
  5
1EB5B
102
{ACAD_REACTORS
330
D
102
}
330
D
100
AcDbGroup
300

 70
     1
 71
     1
  0
GROUP
  5
17F33
102
{ACAD_REACTORS
330
D
102
}
330
D
100
AcDbGroup
300

 70
     1
 71
     1
  0
GROUP
  5
18C39
102
{ACAD_REACTORS
330
D
102
}
330
D
100
AcDbGroup
300

 70
     1
 71
     1
  0
GROUP
  5
154E5
102
{ACAD_REACTORS
330
D
102
}
330
D
100
AcDbGroup
300

 70
     1
 71
     1
  0
GROUP
  5
17226
102
{ACAD_REACTORS
330
D
102
}
330
D
100
AcDbGroup
300

 70
     1
 71
     1
  0
GROUP
  5
965C
102
{ACAD_REACTORS
330
D
102
}
330
D
100
AcDbGroup
300

 70
     1
 71
     1
  0
GROUP
  5
1DFCD
102
{ACAD_REACTORS
330
D
102
}
330
D
100
AcDbGroup
300

 70
     1
 71
     1
  0
GROUP
  5
A387
102
{ACAD_REACTORS
330
D
102
}
330
D
100
AcDbGroup
300

 70
     1
 71
     1
  0
GROUP
  5
880E
102
{ACAD_REACTORS
330
D
102
}
330
D
100
AcDbGroup
300

 70
     1
 71
     1
  0
GROUP
  5
1721F
102
{ACAD_REACTORS
330
D
102
}
330
D
100
AcDbGroup
300

 70
     1
 71
     1
  0
GROUP
  5
15347
102
{ACAD_REACTORS
330
D
102
}
330
D
100
AcDbGroup
300

 70
     1
 71
     1
  0
GROUP
  5
15361
102
{ACAD_REACTORS
330
D
102
}
330
D
100
AcDbGroup
300

 70
     1
 71
     1
  0
GROUP
  5
49A1
102
{ACAD_REACTORS
330
D
102
}
330
D
100
AcDbGroup
300

 70
     1
 71
     1
  0
GROUP
  5
1089
102
{ACAD_REACTORS
330
D
102
}
330
D
100
AcDbGroup
300

 70
     1
 71
     1
  0
GROUP
  5
6221
102
{ACAD_REACTORS
330
D
102
}
330
D
100
AcDbGroup
300

 70
     1
 71
     1
  0
GROUP
  5
F193
102
{ACAD_REACTORS
330
D
102
}
330
D
100
AcDbGroup
300

 70
     1
 71
     1
  0
GROUP
  5
5F9C
102
{ACAD_REACTORS
330
D
102
}
330
D
100
AcDbGroup
300

 70
     1
 71
     1
  0
GROUP
  5
18C82
102
{ACAD_REACTORS
330
D
102
}
330
D
100
AcDbGroup
300

 70
     1
 71
     1
  0
GROUP
  5
1EF87
102
{ACAD_REACTORS
330
D
102
}
330
D
100
AcDbGroup
300

 70
     1
 71
     1
  0
GROUP
  5
5E55
102
{ACAD_REACTORS
330
D
102
}
330
D
100
AcDbGroup
300

 70
     1
 71
     1
  0
GROUP
  5
33BA
102
{ACAD_REACTORS
330
D
102
}
330
D
100
AcDbGroup
300

 70
     1
 71
     1
  0
GROUP
  5
155D6
102
{ACAD_REACTORS
330
D
102
}
330
D
100
AcDbGroup
300

 70
     1
 71
     1
  0
GROUP
  5
1EF88
102
{ACAD_REACTORS
330
D
102
}
330
D
100
AcDbGroup
300

 70
     1
 71
     1
  0
GROUP
  5
154E6
102
{ACAD_REACTORS
330
D
102
}
330
D
100
AcDbGroup
300

 70
     1
 71
     1
  0
GROUP
  5
5128
102
{ACAD_REACTORS
330
D
102
}
330
D
100
AcDbGroup
300

 70
     1
 71
     1
  0
GROUP
  5
8819
102
{ACAD_REACTORS
330
D
102
}
330
D
100
AcDbGroup
300

 70
     1
 71
     1
  0
GROUP
  5
31CE
102
{ACAD_REACTORS
330
D
102
}
330
D
100
AcDbGroup
300

 70
     1
 71
     1
  0
GROUP
  5
1122
102
{ACAD_REACTORS
330
D
102
}
330
D
100
AcDbGroup
300

 70
     1
 71
     1
  0
GROUP
  5
83B2
102
{ACAD_REACTORS
330
D
102
}
330
D
100
AcDbGroup
300

 70
     1
 71
     1
  0
GROUP
  5
339E
102
{ACAD_REACTORS
330
D
102
}
330
D
100
AcDbGroup
300

 70
     1
 71
     1
  0
GROUP
  5
6400
102
{ACAD_REACTORS
330
D
102
}
330
D
100
AcDbGroup
300

 70
     1
 71
     1
  0
GROUP
  5
4F1D
102
{ACAD_REACTORS
330
D
102
}
330
D
100
AcDbGroup
300

 70
     1
 71
     1
  0
GROUP
  5
820E
102
{ACAD_REACTORS
330
D
102
}
330
D
100
AcDbGroup
300

 70
     1
 71
     1
  0
GROUP
  5
57BC
102
{ACAD_REACTORS
330
D
102
}
330
D
100
AcDbGroup
300

 70
     1
 71
     1
  0
GROUP
  5
239DB
102
{ACAD_REACTORS
330
D
102
}
330
D
100
AcDbGroup
300

 70
     1
 71
     1
  0
GROUP
  5
1F937
102
{ACAD_REACTORS
330
D
102
}
330
D
100
AcDbGroup
300

 70
     1
 71
     1
  0
GROUP
  5
818B
102
{ACAD_REACTORS
330
D
102
}
330
D
100
AcDbGroup
300

 70
     1
 71
     1
  0
GROUP
  5
33B9
102
{ACAD_REACTORS
330
D
102
}
330
D
100
AcDbGroup
300

 70
     1
 71
     1
  0
GROUP
  5
49C4
102
{ACAD_REACTORS
330
D
102
}
330
D
100
AcDbGroup
300

 70
     1
 71
     1
  0
GROUP
  5
18C5B
102
{ACAD_REACTORS
330
D
102
}
330
D
100
AcDbGroup
300

 70
     1
 71
     1
  0
GROUP
  5
806F
102
{ACAD_REACTORS
330
D
102
}
330
D
100
AcDbGroup
300

 70
     1
 71
     1
  0
GROUP
  5
605A
102
{ACAD_REACTORS
330
D
102
}
330
D
100
AcDbGroup
300

 70
     1
 71
     1
  0
GROUP
  5
881D
102
{ACAD_REACTORS
330
D
102
}
330
D
100
AcDbGroup
300

 70
     1
 71
     1
  0
GROUP
  5
16A66
102
{ACAD_REACTORS
330
D
102
}
330
D
100
AcDbGroup
300

 70
     1
 71
     1
  0
GROUP
  5
5E29
102
{ACAD_REACTORS
330
D
102
}
330
D
100
AcDbGroup
300

 70
     1
 71
     1
  0
GROUP
  5
18D08
102
{ACAD_REACTORS
330
D
102
}
330
D
100
AcDbGroup
300

 70
     1
 71
     1
  0
GROUP
  5
17F40
102
{ACAD_REACTORS
330
D
102
}
330
D
100
AcDbGroup
300

 70
     1
 71
     1
  0
GROUP
  5
17227
102
{ACAD_REACTORS
330
D
102
}
330
D
100
AcDbGroup
300

 70
     1
 71
     1
  0
GROUP
  5
E02F
102
{ACAD_REACTORS
330
D
102
}
330
D
100
AcDbGroup
300

 70
     1
 71
     1
  0
GROUP
  5
A38F
102
{ACAD_REACTORS
330
D
102
}
330
D
100
AcDbGroup
300

 70
     1
 71
     1
  0
GROUP
  5
1D8AC
102
{ACAD_REACTORS
330
D
102
}
330
D
100
AcDbGroup
300

 70
     1
 71
     1
  0
GROUP
  5
1FA94
102
{ACAD_REACTORS
330
D
102
}
330
D
100
AcDbGroup
300

 70
     1
 71
     1
  0
GROUP
  5
B34F
102
{ACAD_REACTORS
330
D
102
}
330
D
100
AcDbGroup
300

 70
     1
 71
     1
  0
GROUP
  5
42BF
102
{ACAD_REACTORS
330
D
102
}
330
D
100
AcDbGroup
300

 70
     1
 71
     1
  0
GROUP
  5
4992
102
{ACAD_REACTORS
330
D
102
}
330
D
100
AcDbGroup
300

 70
     1
 71
     1
  0
GROUP
  5
A3B5
102
{ACAD_REACTORS
330
D
102
}
330
D
100
AcDbGroup
300

 70
     1
 71
     1
  0
GROUP
  5
17F38
102
{ACAD_REACTORS
330
D
102
}
330
D
100
AcDbGroup
300

 70
     1
 71
     1
  0
GROUP
  5
18C40
102
{ACAD_REACTORS
330
D
102
}
330
D
100
AcDbGroup
300

 70
     1
 71
     1
  0
GROUP
  5
1E944
102
{ACAD_REACTORS
330
D
102
}
330
D
100
AcDbGroup
300

 70
     1
 71
     1
  0
GROUP
  5
9808
102
{ACAD_REACTORS
330
D
102
}
330
D
100
AcDbGroup
300

 70
     1
 71
     1
  0
GROUP
  5
212B8
102
{ACAD_REACTORS
330
D
102
}
330
D
100
AcDbGroup
300

 70
     1
 71
     1
  0
GROUP
  5
18D20
102
{ACAD_REACTORS
330
D
102
}
330
D
100
AcDbGroup
300

 70
     1
 71
     1
  0
GROUP
  5
106E
102
{ACAD_REACTORS
330
D
102
}
330
D
100
AcDbGroup
300

 70
     1
 71
     1
  0
GROUP
  5
18C90
102
{ACAD_REACTORS
330
D
102
}
330
D
100
AcDbGroup
300

 70
     1
 71
     1
  0
GROUP
  5
1F933
102
{ACAD_REACTORS
330
D
102
}
330
D
100
AcDbGroup
300

 70
     1
 71
     1
  0
GROUP
  5
A9D2
102
{ACAD_REACTORS
330
D
102
}
330
D
100
AcDbGroup
300

 70
     1
 71
     1
  0
GROUP
  5
113D
102
{ACAD_REACTORS
330
D
102
}
330
D
100
AcDbGroup
300

 70
     1
 71
     1
  0
GROUP
  5
22162
102
{ACAD_REACTORS
330
D
102
}
330
D
100
AcDbGroup
300

 70
     1
 71
     1
  0
GROUP
  5
18CCA
102
{ACAD_REACTORS
330
D
102
}
330
D
100
AcDbGroup
300

 70
     1
 71
     1
  0
GROUP
  5
1FA93
102
{ACAD_REACTORS
330
D
102
}
330
D
100
AcDbGroup
300

 70
     1
 71
     1
  0
GROUP
  5
1F110
102
{ACAD_REACTORS
330
D
102
}
330
D
100
AcDbGroup
300

 70
     1
 71
     1
  0
GROUP
  5
7C2A
102
{ACAD_REACTORS
330
D
102
}
330
D
100
AcDbGroup
300

 70
     1
 71
     1
  0
GROUP
  5
A3EB
102
{ACAD_REACTORS
330
D
102
}
330
D
100
AcDbGroup
300

 70
     1
 71
     1
  0
GROUP
  5
2046B
102
{ACAD_REACTORS
330
D
102
}
330
D
100
AcDbGroup
300

 70
     1
 71
     1
  0
GROUP
  5
A623
102
{ACAD_REACTORS
330
D
102
}
330
D
100
AcDbGroup
300

 70
     1
 71
     1
  0
GROUP
  5
4998
102
{ACAD_REACTORS
330
D
102
}
330
D
100
AcDbGroup
300

 70
     1
 71
     1
  0
GROUP
  5
15366
102
{ACAD_REACTORS
330
D
102
}
330
D
100
AcDbGroup
300

 70
     1
 71
     1
  0
GROUP
  5
A37F
102
{ACAD_REACTORS
330
D
102
}
330
D
100
AcDbGroup
300

 70
     1
 71
     1
  0
GROUP
  5
5C9F
102
{ACAD_REACTORS
330
D
102
}
330
D
100
AcDbGroup
300

 70
     1
 71
     1
  0
GROUP
  5
1535B
102
{ACAD_REACTORS
330
D
102
}
330
D
100
AcDbGroup
300

 70
     1
 71
     1
  0
GROUP
  5
A3C9
102
{ACAD_REACTORS
330
D
102
}
330
D
100
AcDbGroup
300

 70
     1
 71
     1
  0
GROUP
  5
21409
102
{ACAD_REACTORS
330
D
102
}
330
D
100
AcDbGroup
300

 70
     1
 71
     1
  0
GROUP
  5
10D1
102
{ACAD_REACTORS
330
D
102
}
330
D
100
AcDbGroup
300

 70
     1
 71
     1
  0
GROUP
  5
5133
102
{ACAD_REACTORS
330
D
102
}
330
D
100
AcDbGroup
300

 70
     1
 71
     1
  0
GROUP
  5
16A64
102
{ACAD_REACTORS
330
D
102
}
330
D
100
AcDbGroup
300

 70
     1
 71
     1
  0
GROUP
  5
49C7
102
{ACAD_REACTORS
330
D
102
}
330
D
100
AcDbGroup
300

 70
     1
 71
     1
  0
GROUP
  5
83DB
102
{ACAD_REACTORS
330
D
102
}
330
D
100
AcDbGroup
300

 70
     1
 71
     1
  0
GROUP
  5
18D0E
102
{ACAD_REACTORS
330
D
102
}
330
D
100
AcDbGroup
300

 70
     1
 71
     1
  0
GROUP
  5
1EC9C
102
{ACAD_REACTORS
330
D
102
}
330
D
100
AcDbGroup
300

 70
     1
 71
     1
  0
GROUP
  5
116A
102
{ACAD_REACTORS
330
D
102
}
330
D
100
AcDbGroup
300

 70
     1
 71
     1
  0
GROUP
  5
1F101
102
{ACAD_REACTORS
330
D
102
}
330
D
100
AcDbGroup
300

 70
     1
 71
     1
  0
GROUP
  5
A38B
102
{ACAD_REACTORS
330
D
102
}
330
D
100
AcDbGroup
300

 70
     1
 71
     1
  0
GROUP
  5
4A96
102
{ACAD_REACTORS
330
D
102
}
330
D
100
AcDbGroup
300

 70
     1
 71
     1
  0
GROUP
  5
18C3F
102
{ACAD_REACTORS
330
D
102
}
330
D
100
AcDbGroup
300

 70
     1
 71
     1
  0
GROUP
  5
7AD2
102
{ACAD_REACTORS
330
D
102
}
330
D
100
AcDbGroup
300

 70
     1
 71
     1
  0
GROUP
  5
339B
102
{ACAD_REACTORS
330
D
102
}
330
D
100
AcDbGroup
300

 70
     1
 71
     1
  0
GROUP
  5
328C
102
{ACAD_REACTORS
330
D
102
}
330
D
100
AcDbGroup
300

 70
     1
 71
     1
  0
GROUP
  5
B34C
102
{ACAD_REACTORS
330
D
102
}
330
D
100
AcDbGroup
300

 70
     1
 71
     1
  0
GROUP
  5
2FF1
102
{ACAD_REACTORS
330
D
102
}
330
D
100
AcDbGroup
300

 70
     1
 71
     1
  0
GROUP
  5
4989
102
{ACAD_REACTORS
330
D
102
}
330
D
100
AcDbGroup
300

 70
     1
 71
     1
  0
GROUP
  5
49CA
102
{ACAD_REACTORS
330
D
102
}
330
D
100
AcDbGroup
300

 70
     1
 71
     1
  0
GROUP
  5
1107
102
{ACAD_REACTORS
330
D
102
}
330
D
100
AcDbGroup
300

 70
     1
 71
     1
  0
GROUP
  5
4A14
102
{ACAD_REACTORS
330
D
102
}
330
D
100
AcDbGroup
300

 70
     1
 71
     1
  0
GROUP
  5
1119
102
{ACAD_REACTORS
330
D
102
}
330
D
100
AcDbGroup
300

 70
     1
 71
     1
  0
GROUP
  5
3398
102
{ACAD_REACTORS
330
D
102
}
330
D
100
AcDbGroup
300

 70
     1
 71
     1
  0
GROUP
  5
E028
102
{ACAD_REACTORS
330
D
102
}
330
D
100
AcDbGroup
300

 70
     1
 71
     1
  0
GROUP
  5
6F78
102
{ACAD_REACTORS
330
D
102
}
330
D
100
AcDbGroup
300

 70
     1
 71
     1
  0
GROUP
  5
4986
102
{ACAD_REACTORS
330
D
102
}
330
D
100
AcDbGroup
300

 70
     1
 71
     1
  0
GROUP
  5
8814
102
{ACAD_REACTORS
330
D
102
}
330
D
100
AcDbGroup
300

 70
     1
 71
     1
  0
GROUP
  5
2389C
102
{ACAD_REACTORS
330
D
102
}
330
D
100
AcDbGroup
300

 70
     1
 71
     1
  0
GROUP
  5
317D
102
{ACAD_REACTORS
330
D
102
}
330
D
100
AcDbGroup
300

 70
     1
 71
     1
  0
GROUP
  5
5E4A
102
{ACAD_REACTORS
330
D
102
}
330
D
100
AcDbGroup
300

 70
     1
 71
     1
  0
GROUP
  5
5E34
102
{ACAD_REACTORS
330
D
102
}
330
D
100
AcDbGroup
300

 70
     1
 71
     1
  0
GROUP
  5
18CF3
102
{ACAD_REACTORS
330
D
102
}
330
D
100
AcDbGroup
300

 70
     1
 71
     1
  0
GROUP
  5
5E62
102
{ACAD_REACTORS
330
D
102
}
330
D
100
AcDbGroup
300

 70
     1
 71
     1
  0
GROUP
  5
16A6C
102
{ACAD_REACTORS
330
D
102
}
330
D
100
AcDbGroup
300

 70
     1
 71
     1
  0
GROUP
  5
18C8F
102
{ACAD_REACTORS
330
D
102
}
330
D
100
AcDbGroup
300

 70
     1
 71
     1
  0
GROUP
  5
10E3
102
{ACAD_REACTORS
330
D
102
}
330
D
100
AcDbGroup
300

 70
     1
 71
     1
  0
GROUP
  5
FEDD
102
{ACAD_REACTORS
330
D
102
}
330
D
100
AcDbGroup
300

 70
     1
 71
     1
  0
GROUP
  5
3487
102
{ACAD_REACTORS
330
D
102
}
330
D
100
AcDbGroup
300

 70
     1
 71
     1
  0
GROUP
  5
160EB
102
{ACAD_REACTORS
330
D
102
}
330
D
100
AcDbGroup
300

 70
     1
 71
     1
  0
GROUP
  5
2FE8
102
{ACAD_REACTORS
330
D
102
}
330
D
100
AcDbGroup
300

 70
     1
 71
     1
  0
GROUP
  5
4ABC
102
{ACAD_REACTORS
330
D
102
}
330
D
100
AcDbGroup
300

 70
     1
 71
     1
  0
GROUP
  5
1F934
102
{ACAD_REACTORS
330
D
102
}
330
D
100
AcDbGroup
300

 70
     1
 71
     1
  0
GROUP
  5
57BF
102
{ACAD_REACTORS
330
D
102
}
330
D
100
AcDbGroup
300

 70
     1
 71
     1
  0
GROUP
  5
42D2
102
{ACAD_REACTORS
330
D
102
}
330
D
100
AcDbGroup
300

 70
     1
 71
     1
  0
GROUP
  5
18C42
102
{ACAD_REACTORS
330
D
102
}
330
D
100
AcDbGroup
300

 70
     1
 71
     1
  0
GROUP
  5
A628
102
{ACAD_REACTORS
330
D
102
}
330
D
100
AcDbGroup
300

 70
     1
 71
     1
  0
GROUP
  5
17220
102
{ACAD_REACTORS
330
D
102
}
330
D
100
AcDbGroup
300

 70
     1
 71
     1
  0
GROUP
  5
A3BD
102
{ACAD_REACTORS
330
D
102
}
330
D
100
AcDbGroup
300

 70
     1
 71
     1
  0
GROUP
  5
B349
102
{ACAD_REACTORS
330
D
102
}
330
D
100
AcDbGroup
300

 70
     1
 71
     1
  0
GROUP
  5
E711
102
{ACAD_REACTORS
330
D
102
}
330
D
100
AcDbGroup
300

 70
     1
 71
     1
  0
GROUP
  5
1EC89
102
{ACAD_REACTORS
330
D
102
}
330
D
100
AcDbGroup
300

 70
     1
 71
     1
  0
GROUP
  5
17F36
102
{ACAD_REACTORS
330
D
102
}
330
D
100
AcDbGroup
300

 70
     1
 71
     1
  0
GROUP
  5
18C56
102
{ACAD_REACTORS
330
D
102
}
330
D
100
AcDbGroup
300

 70
     1
 71
     1
  0
GROUP
  5
20B03
102
{ACAD_REACTORS
330
D
102
}
330
D
100
AcDbGroup
300

 70
     1
 71
     1
  0
GROUP
  5
A3C5
102
{ACAD_REACTORS
330
D
102
}
330
D
100
AcDbGroup
300

 70
     1
 71
     1
  0
GROUP
  5
6F77
102
{ACAD_REACTORS
330
D
102
}
330
D
100
AcDbGroup
300

 70
     1
 71
     1
  0
GROUP
  5
B352
102
{ACAD_REACTORS
330
D
102
}
330
D
100
AcDbGroup
300

 70
     1
 71
     1
  0
GROUP
  5
220E0
102
{ACAD_REACTORS
330
D
102
}
330
D
100
AcDbGroup
300

 70
     1
 71
     1
  0
GROUP
  5
18CCB
102
{ACAD_REACTORS
330
D
102
}
330
D
100
AcDbGroup
300

 70
     1
 71
     1
  0
GROUP
  5
1EC76
102
{ACAD_REACTORS
330
D
102
}
330
D
100
AcDbGroup
300

 70
     1
 71
     1
  0
GROUP
  5
18C81
102
{ACAD_REACTORS
330
D
102
}
330
D
100
AcDbGroup
300

 70
     1
 71
     1
  0
GROUP
  5
1FA92
102
{ACAD_REACTORS
330
D
102
}
330
D
100
AcDbGroup
300

 70
     1
 71
     1
  0
GROUP
  5
4F1E
102
{ACAD_REACTORS
330
D
102
}
330
D
100
AcDbGroup
300

 70
     1
 71
     1
  0
GROUP
  5
18CB6
102
{ACAD_REACTORS
330
D
102
}
330
D
100
AcDbGroup
300

 70
     1
 71
     1
  0
GROUP
  5
1EB00
102
{ACAD_REACTORS
330
D
102
}
330
D
100
AcDbGroup
300

 70
     1
 71
     1
  0
GROUP
  5
4A97
102
{ACAD_REACTORS
330
D
102
}
330
D
100
AcDbGroup
300

 70
     1
 71
     1
  0
GROUP
  5
17F3F
102
{ACAD_REACTORS
330
D
102
}
330
D
100
AcDbGroup
300

 70
     1
 71
     1
  0
GROUP
  5
10F5
102
{ACAD_REACTORS
330
D
102
}
330
D
100
AcDbGroup
300

 70
     1
 71
     1
  0
GROUP
  5
18C38
102
{ACAD_REACTORS
330
D
102
}
330
D
100
AcDbGroup
300

 70
     1
 71
     1
  0
GROUP
  5
E70E
102
{ACAD_REACTORS
330
D
102
}
330
D
100
AcDbGroup
300

 70
     1
 71
     1
  0
GROUP
  5
26601
102
{ACAD_REACTORS
330
D
102
}
330
D
100
AcDbGroup
300

 70
     1
 71
     1
340
265FA
340
265FB
340
265FC
340
265FD
340
265FE
340
265FF
340
26600
  0
GROUP
  5
5129
102
{ACAD_REACTORS
330
D
102
}
330
D
100
AcDbGroup
300

 70
     1
 71
     1
  0
GROUP
  5
4214
102
{ACAD_REACTORS
330
D
102
}
330
D
100
AcDbGroup
300

 70
     1
 71
     1
  0
GROUP
  5
8218
102
{ACAD_REACTORS
330
D
102
}
330
D
100
AcDbGroup
300

 70
     1
 71
     1
  0
GROUP
  5
65A8
102
{ACAD_REACTORS
330
D
102
}
330
D
100
AcDbGroup
300

 70
     1
 71
     1
  0
GROUP
  5
155AE
102
{ACAD_REACTORS
330
D
102
}
330
D
100
AcDbGroup
300

 70
     1
 71
     1
  0
GROUP
  5
1110
102
{ACAD_REACTORS
330
D
102
}
330
D
100
AcDbGroup
300

 70
     1
 71
     1
  0
GROUP
  5
109B
102
{ACAD_REACTORS
330
D
102
}
330
D
100
AcDbGroup
300

 70
     1
 71
     1
  0
GROUP
  5
57BD
102
{ACAD_REACTORS
330
D
102
}
330
D
100
AcDbGroup
300

 70
     1
 71
     1
  0
GROUP
  5
1065
102
{ACAD_REACTORS
330
D
102
}
330
D
100
AcDbGroup
300

 70
     1
 71
     1
  0
GROUP
  5
1F531
102
{ACAD_REACTORS
330
D
102
}
330
D
100
AcDbGroup
300

 70
     1
 71
     1
  0
GROUP
  5
17F3B
102
{ACAD_REACTORS
330
D
102
}
330
D
100
AcDbGroup
300

 70
     1
 71
     1
  0
GROUP
  5
26609
102
{ACAD_REACTORS
330
D
102
}
330
D
100
AcDbGroup
300

 70
     1
 71
     1
340
26602
340
26603
340
26604
340
26605
340
26606
340
26607
340
26608
  0
GROUP
  5
18C78
102
{ACAD_REACTORS
330
D
102
}
330
D
100
AcDbGroup
300

 70
     1
 71
     1
  0
GROUP
  5
18CFD
102
{ACAD_REACTORS
330
D
102
}
330
D
100
AcDbGroup
300

 70
     1
 71
     1
  0
GROUP
  5
881E
102
{ACAD_REACTORS
330
D
102
}
330
D
100
AcDbGroup
300

 70
     1
 71
     1
  0
GROUP
  5
22465
102
{ACAD_REACTORS
330
D
102
}
330
D
100
AcDbGroup
300

 70
     1
 71
     1
  0
GROUP
  5
964C
102
{ACAD_REACTORS
330
D
102
}
330
D
100
AcDbGroup
300

 70
     1
 71
     1
  0
GROUP
  5
4995
102
{ACAD_REACTORS
330
D
102
}
330
D
100
AcDbGroup
300

 70
     1
 71
     1
  0
GROUP
  5
18C91
102
{ACAD_REACTORS
330
D
102
}
330
D
100
AcDbGroup
300

 70
     1
 71
     1
  0
GROUP
  5
22458
102
{ACAD_REACTORS
330
D
102
}
330
D
100
AcDbGroup
300

 70
     1
 71
     1
  0
GROUP
  5
9807
102
{ACAD_REACTORS
330
D
102
}
330
D
100
AcDbGroup
300

 70
     1
 71
     1
  0
GROUP
  5
7C28
102
{ACAD_REACTORS
330
D
102
}
330
D
100
AcDbGroup
300

 70
     1
 71
     1
  0
GROUP
  5
17F3A
102
{ACAD_REACTORS
330
D
102
}
330
D
100
AcDbGroup
300

 70
     1
 71
     1
  0
GROUP
  5
26611
102
{ACAD_REACTORS
330
D
102
}
330
D
100
AcDbGroup
300

 70
     1
 71
     1
340
2660A
340
2660B
340
2660C
340
2660D
340
2660E
340
2660F
340
26610
  0
GROUP
  5
57BA
102
{ACAD_REACTORS
330
D
102
}
330
D
100
AcDbGroup
300

 70
     1
 71
     1
  0
GROUP
  5
A393
102
{ACAD_REACTORS
330
D
102
}
330
D
100
AcDbGroup
300

 70
     1
 71
     1
  0
GROUP
  5
16A68
102
{ACAD_REACTORS
330
D
102
}
330
D
100
AcDbGroup
300

 70
     1
 71
     1
  0
GROUP
  5
154EB
102
{ACAD_REACTORS
330
D
102
}
330
D
100
AcDbGroup
300

 70
     1
 71
     1
  0
GROUP
  5
7AE6
102
{ACAD_REACTORS
330
D
102
}
330
D
100
AcDbGroup
300

 70
     1
 71
     1
  0
GROUP
  5
64A9
102
{ACAD_REACTORS
330
D
102
}
330
D
100
AcDbGroup
300

 70
     1
 71
     1
  0
GROUP
  5
18C3A
102
{ACAD_REACTORS
330
D
102
}
330
D
100
AcDbGroup
300

 70
     1
 71
     1
  0
GROUP
  5
818A
102
{ACAD_REACTORS
330
D
102
}
330
D
100
AcDbGroup
300

 70
     1
 71
     1
  0
GROUP
  5
3289
102
{ACAD_REACTORS
330
D
102
}
330
D
100
AcDbGroup
300

 70
     1
 71
     1
  0
GROUP
  5
822C
102
{ACAD_REACTORS
330
D
102
}
330
D
100
AcDbGroup
300

 70
     1
 71
     1
  0
GROUP
  5
3286
102
{ACAD_REACTORS
330
D
102
}
330
D
100
AcDbGroup
300

 70
     1
 71
     1
  0
GROUP
  5
26619
102
{ACAD_REACTORS
330
D
102
}
330
D
100
AcDbGroup
300

 70
     1
 71
     1
340
26612
340
26613
340
26614
340
26615
340
26616
340
26617
340
26618
  0
GROUP
  5
212B9
102
{ACAD_REACTORS
330
D
102
}
330
D
100
AcDbGroup
300

 70
     1
 71
     1
  0
GROUP
  5
8213
102
{ACAD_REACTORS
330
D
102
}
330
D
100
AcDbGroup
300

 70
     1
 71
     1
  0
GROUP
  5
2C9A
102
{ACAD_REACTORS
330
D
102
}
330
D
100
AcDbGroup
300

 70
     1
 71
     1
  0
GROUP
  5
8226
102
{ACAD_REACTORS
330
D
102
}
330
D
100
AcDbGroup
300

 70
     1
 71
     1
  0
GROUP
  5
42D1
102
{ACAD_REACTORS
330
D
102
}
330
D
100
AcDbGroup
300

 70
     1
 71
     1
  0
GROUP
  5
6062
102
{ACAD_REACTORS
330
D
102
}
330
D
100
AcDbGroup
300

 70
     1
 71
     1
  0
GROUP
  5
17F3C
102
{ACAD_REACTORS
330
D
102
}
330
D
100
AcDbGroup
300

 70
     1
 71
     1
  0
GROUP
  5
1E293
102
{ACAD_REACTORS
330
D
102
}
330
D
100
AcDbGroup
300

 70
     1
 71
     1
  0
GROUP
  5
A9D3
102
{ACAD_REACTORS
330
D
102
}
330
D
100
AcDbGroup
300

 70
     1
 71
     1
  0
GROUP
  5
1F935
102
{ACAD_REACTORS
330
D
102
}
330
D
100
AcDbGroup
300

 70
     1
 71
     1
  0
GROUP
  5
1134
102
{ACAD_REACTORS
330
D
102
}
330
D
100
AcDbGroup
300

 70
     1
 71
     1
  0
GROUP
  5
1534C
102
{ACAD_REACTORS
330
D
102
}
330
D
100
AcDbGroup
300

 70
     1
 71
     1
  0
GROUP
  5
E719
102
{ACAD_REACTORS
330
D
102
}
330
D
100
AcDbGroup
300

 70
     1
 71
     1
  0
GROUP
  5
16A69
102
{ACAD_REACTORS
330
D
102
}
330
D
100
AcDbGroup
300

 70
     1
 71
     1
  0
GROUP
  5
2A28
102
{ACAD_REACTORS
330
D
102
}
330
D
100
AcDbGroup
300

 70
     1
 71
     1
  0
GROUP
  5
81E1
102
{ACAD_REACTORS
330
D
102
}
330
D
100
AcDbGroup
300

 70
     1
 71
     1
  0
GROUP
  5
8813
102
{ACAD_REACTORS
330
D
102
}
330
D
100
AcDbGroup
300

 70
     1
 71
     1
  0
GROUP
  5
1721D
102
{ACAD_REACTORS
330
D
102
}
330
D
100
AcDbGroup
300

 70
     1
 71
     1
  0
GROUP
  5
2FE9
102
{ACAD_REACTORS
330
D
102
}
330
D
100
AcDbGroup
300

 70
     1
 71
     1
  0
GROUP
  5
18C51
102
{ACAD_REACTORS
330
D
102
}
330
D
100
AcDbGroup
300

 70
     1
 71
     1
  0
GROUP
  5
8043
102
{ACAD_REACTORS
330
D
102
}
330
D
100
AcDbGroup
300

 70
     1
 71
     1
  0
GROUP
  5
2664A
102
{ACAD_REACTORS
330
D
102
}
330
D
100
AcDbGroup
300

 70
     1
 71
     1
340
26642
340
26647
  0
GROUP
  5
1158
102
{ACAD_REACTORS
330
D
102
}
330
D
100
AcDbGroup
300

 70
     1
 71
     1
  0
GROUP
  5
880F
102
{ACAD_REACTORS
330
D
102
}
330
D
100
AcDbGroup
300

 70
     1
 71
     1
  0
GROUP
  5
A636
102
{ACAD_REACTORS
330
D
102
}
330
D
100
AcDbGroup
300

 70
     1
 71
     1
  0
GROUP
  5
8804
102
{ACAD_REACTORS
330
D
102
}
330
D
100
AcDbGroup
300

 70
     1
 71
     1
  0
GROUP
  5
212CC
102
{ACAD_REACTORS
330
D
102
}
330
D
100
AcDbGroup
300

 70
     1
 71
     1
  0
GROUP
  5
22395
102
{ACAD_REACTORS
330
D
102
}
330
D
100
AcDbGroup
300

 70
     1
 71
     1
  0
GROUP
  5
1146
102
{ACAD_REACTORS
330
D
102
}
330
D
100
AcDbGroup
300

 70
     1
 71
     1
  0
GROUP
  5
18C73
102
{ACAD_REACTORS
330
D
102
}
330
D
100
AcDbGroup
300

 70
     1
 71
     1
  0
GROUP
  5
3305
102
{ACAD_REACTORS
330
D
102
}
330
D
100
AcDbGroup
300

 70
     1
 71
     1
  0
GROUP
  5
5CA6
102
{ACAD_REACTORS
330
D
102
}
330
D
100
AcDbGroup
300

 70
     1
 71
     1
  0
GROUP
  5
49C1
102
{ACAD_REACTORS
330
D
102
}
330
D
100
AcDbGroup
300

 70
     1
 71
     1
  0
GROUP
  5
4ABD
102
{ACAD_REACTORS
330
D
102
}
330
D
100
AcDbGroup
300

 70
     1
 71
     1
  0
GROUP
  5
10C8
102
{ACAD_REACTORS
330
D
102
}
330
D
100
AcDbGroup
300

 70
     1
 71
     1
  0
GROUP
  5
18D14
102
{ACAD_REACTORS
330
D
102
}
330
D
100
AcDbGroup
300

 70
     1
 71
     1
  0
GROUP
  5
8805
102
{ACAD_REACTORS
330
D
102
}
330
D
100
AcDbGroup
300

 70
     1
 71
     1
  0
GROUP
  5
5134
102
{ACAD_REACTORS
330
D
102
}
330
D
100
AcDbGroup
300

 70
     1
 71
     1
  0
GROUP
  5
8822
102
{ACAD_REACTORS
330
D
102
}
330
D
100
AcDbGroup
300

 70
     1
 71
     1
  0
GROUP
  5
821C
102
{ACAD_REACTORS
330
D
102
}
330
D
100
AcDbGroup
300

 70
     1
 71
     1
  0
GROUP
  5
A3C1
102
{ACAD_REACTORS
330
D
102
}
330
D
100
AcDbGroup
300

 70
     1
 71
     1
  0
GROUP
  5
2CA6
102
{ACAD_REACTORS
330
D
102
}
330
D
100
AcDbGroup
300

 70
     1
 71
     1
  0
GROUP
  5
E70D
102
{ACAD_REACTORS
330
D
102
}
330
D
100
AcDbGroup
300

 70
     1
 71
     1
  0
GROUP
  5
8221
102
{ACAD_REACTORS
330
D
102
}
330
D
100
AcDbGroup
300

 70
     1
 71
     1
  0
GROUP
  5
A61E
102
{ACAD_REACTORS
330
D
102
}
330
D
100
AcDbGroup
300

 70
     1
 71
     1
  0
GROUP
  5
8187
102
{ACAD_REACTORS
330
D
102
}
330
D
100
AcDbGroup
300

 70
     1
 71
     1
  0
GROUP
  5
15356
102
{ACAD_REACTORS
330
D
102
}
330
D
100
AcDbGroup
300

 70
     1
 71
     1
  0
GROUP
  5
18CE0
102
{ACAD_REACTORS
330
D
102
}
330
D
100
AcDbGroup
300

 70
     1
 71
     1
  0
GROUP
  5
7C29
102
{ACAD_REACTORS
330
D
102
}
330
D
100
AcDbGroup
300

 70
     1
 71
     1
  0
GROUP
  5
18CE1
102
{ACAD_REACTORS
330
D
102
}
330
D
100
AcDbGroup
300

 70
     1
 71
     1
  0
GROUP
  5
5D38
102
{ACAD_REACTORS
330
D
102
}
330
D
100
AcDbGroup
300

 70
     1
 71
     1
  0
GROUP
  5
154F6
102
{ACAD_REACTORS
330
D
102
}
330
D
100
AcDbGroup
300

 70
     1
 71
     1
  0
GROUP
  5
A383
102
{ACAD_REACTORS
330
D
102
}
330
D
100
AcDbGroup
300

 70
     1
 71
     1
  0
GROUP
  5
8809
102
{ACAD_REACTORS
330
D
102
}
330
D
100
AcDbGroup
300

 70
     1
 71
     1
  0
GROUP
  5
5E04
102
{ACAD_REACTORS
330
D
102
}
330
D
100
AcDbGroup
300

 70
     1
 71
     1
  0
GROUP
  5
49E1
102
{ACAD_REACTORS
330
D
102
}
330
D
100
AcDbGroup
300

 70
     1
 71
     1
  0
GROUP
  5
154E9
102
{ACAD_REACTORS
330
D
102
}
330
D
100
AcDbGroup
300

 70
     1
 71
     1
  0
GROUP
  5
B358
102
{ACAD_REACTORS
330
D
102
}
330
D
100
AcDbGroup
300

 70
     1
 71
     1
  0
GROUP
  5
7AC6
102
{ACAD_REACTORS
330
D
102
}
330
D
100
AcDbGroup
300

 70
     1
 71
     1
  0
GROUP
  5
154E8
102
{ACAD_REACTORS
330
D
102
}
330
D
100
AcDbGroup
300

 70
     1
 71
     1
  0
GROUP
  5
17223
102
{ACAD_REACTORS
330
D
102
}
330
D
100
AcDbGroup
300

 70
     1
 71
     1
  0
GROUP
  5
1EF85
102
{ACAD_REACTORS
330
D
102
}
330
D
100
AcDbGroup
300

 70
     1
 71
     1
  0
GROUP
  5
A635
102
{ACAD_REACTORS
330
D
102
}
330
D
100
AcDbGroup
300

 70
     1
 71
     1
  0
GROUP
  5
1489F
102
{ACAD_REACTORS
330
D
102
}
330
D
100
AcDbGroup
300

 70
     1
 71
     1
  0
GROUP
  5
1E9A4
102
{ACAD_REACTORS
330
D
102
}
330
D
100
AcDbGroup
300

 70
     1
 71
     1
  0
GROUP
  5
1EA8C
102
{ACAD_REACTORS
330
D
102
}
330
D
100
AcDbGroup
300

 70
     1
 71
     1
  0
GROUP
  5
F198
102
{ACAD_REACTORS
330
D
102
}
330
D
100
AcDbGroup
300

 70
     1
 71
     1
  0
GROUP
  5
1EF89
102
{ACAD_REACTORS
330
D
102
}
330
D
100
AcDbGroup
300

 70
     1
 71
     1
  0
MLINESTYLE
  5
1C
102
{ACAD_REACTORS
330
1B
102
}
330
1B
100
AcDbMlineStyle
  2
STANDARD
 70
     0
  3

 62
   256
 51
90.0
 52
90.0
 71
     2
 49
0.5
 62
   256
  6
BYLAYER
 49
-0.5
 62
   256
  6
BYLAYER
  0
ACDBPLACEHOLDER
  5
73E
102
{ACAD_REACTORS
330
73D
102
}
330
73D
100
AcDbPlaceHolder
280
     0
  0
XRECORD
  5
277EE
102
{ACAD_REACTORS
330
277E4
102
}
330
277E4
100
AcDbXrecord
 90
        0
  0
XRECORD
  5
277F2
102
{ACAD_REACTORS
330
277E4
102
}
330
277E4
100
AcDbXrecord
1000
DSTYLE
1002
{
1070
   179
 70
     4
1070
   341
340
89E
1070
   342
340
89E
1070
   371
 70
    13
1070
   372
 70
    13
1002
}
  0
XRECORD
  5
277EF
102
{ACAD_REACTORS
330
277E4
102
}
330
277E4
100
AcDbXrecord
  1
{6B368F64-F7EB-11D4-BFBA-00004C030E53}
  0
XRECORD
  5
277E7
102
{ACAD_REACTORS
330
277E4
102
}
330
277E4
100
AcDbXrecord
  1

  0
XRECORD
  5
277ED
102
{ACAD_REACTORS
330
277E4
102
}
330
277E4
100
AcDbXrecord
 90
        0
  0
XRECORD
  5
277E9
102
{ACAD_REACTORS
330
277E4
102
}
330
277E4
100
AcDbXrecord
340
73F
  0
XRECORD
  5
277EC
102
{ACAD_REACTORS
330
277E4
102
}
330
277E4
100
AcDbXrecord
 90
    10781
  0
XRECORD
  5
277EA
102
{ACAD_REACTORS
330
277E4
102
}
330
277E4
100
AcDbXrecord
340
740
  0
XRECORD
  5
277EB
102
{ACAD_REACTORS
330
277E4
102
}
330
277E4
100
AcDbXrecord
340
73D
  0
XRECORD
  5
277F1
102
{ACAD_REACTORS
330
277E4
102
}
330
277E4
100
AcDbXrecord
 40
0.0
  0
XRECORD
  5
277F5
102
{ACAD_REACTORS
330
277E4
102
}
330
277E4
100
AcDbXrecord
340
0
  0
XRECORD
  5
277FB
102
{ACAD_REACTORS
330
277E4
102
}
330
277E4
100
AcDbXrecord
 10
0.0
 20
0.0
 30
0.0
  0
XRECORD
  5
277F7
102
{ACAD_REACTORS
330
277E4
102
}
330
277E4
100
AcDbXrecord
 10
0.0
 20
0.0
 30
0.0
  0
XRECORD
  5
277FA
102
{ACAD_REACTORS
330
277E4
102
}
330
277E4
100
AcDbXrecord
 10
0.0
 20
0.0
 30
0.0
  0
XRECORD
  5
277F8
102
{ACAD_REACTORS
330
277E4
102
}
330
277E4
100
AcDbXrecord
 10
0.0
 20
0.0
 30
0.0
  0
XRECORD
  5
277F9
102
{ACAD_REACTORS
330
277E4
102
}
330
277E4
100
AcDbXrecord
 10
0.0
 20
0.0
 30
0.0
  0
XRECORD
  5
277F6
102
{ACAD_REACTORS
330
277E4
102
}
330
277E4
100
AcDbXrecord
 10
0.0
 20
0.0
 30
0.0
  0
XRECORD
  5
277F3
102
{ACAD_REACTORS
330
277E4
102
}
330
277E4
100
AcDbXrecord
340
0
  0
XRECORD
  5
277F4
102
{ACAD_REACTORS
330
277E4
102
}
330
277E4
100
AcDbXrecord
 70
     0
  0
XRECORD
  5
277E8
102
{ACAD_REACTORS
330
277E4
102
}
330
277E4
100
AcDbXrecord
  1
MONOCHROME.CTB
  0
XRECORD
  5
277E5
102
{ACAD_REACTORS
330
277E4
102
}
330
277E4
100
AcDbXrecord
 90
        1
  0
XRECORD
  5
277E6
102
{ACAD_REACTORS
330
277E4
102
}
330
277E4
100
AcDbXrecord
 90
       70
  0
XRECORD
  5
277FE
102
{ACAD_REACTORS
330
277E4
102
}
330
277E4
100
AcDbXrecord
340
0
  0
XRECORD
  5
27804
102
{ACAD_REACTORS
330
277E4
102
}
330
277E4
100
AcDbXrecord
 10
0.0
 20
0.0
 30
0.0
  0
XRECORD
  5
27800
102
{ACAD_REACTORS
330
277E4
102
}
330
277E4
100
AcDbXrecord
 10
0.0
 20
0.0
 30
0.0
  0
XRECORD
  5
27803
102
{ACAD_REACTORS
330
277E4
102
}
330
277E4
100
AcDbXrecord
 10
0.0
 20
0.0
 30
0.0
  0
XRECORD
  5
27801
102
{ACAD_REACTORS
330
277E4
102
}
330
277E4
100
AcDbXrecord
 10
0.0
 20
0.0
 30
0.0
  0
XRECORD
  5
27802
102
{ACAD_REACTORS
330
277E4
102
}
330
277E4
100
AcDbXrecord
 10
0.0
 20
0.0
 30
0.0
  0
XRECORD
  5
277FF
102
{ACAD_REACTORS
330
277E4
102
}
330
277E4
100
AcDbXrecord
 10
0.0
 20
0.0
 30
0.0
  0
XRECORD
  5
277FC
102
{ACAD_REACTORS
330
277E4
102
}
330
277E4
100
AcDbXrecord
340
0
  0
XRECORD
  5
277FD
102
{ACAD_REACTORS
330
277E4
102
}
330
277E4
100
AcDbXrecord
 70
     0
  0
XRECORD
  5
277F0
102
{ACAD_REACTORS
330
277E4
102
}
330
277E4
100
AcDbXrecord
  1
{25E29D6E-5CDB-4FC5-8FE5-FA5D050E34EA}
  0
DICTIONARYVAR
  5
11AD
102
{ACAD_REACTORS
330
11AC
102
}
330
11AC
100
DictionaryVariables
280
     0
  1
1
  0
DICTIONARYVAR
  5
B4C6
102
{ACAD_REACTORS
330
11AC
102
}
330
11AC
100
DictionaryVariables
280
     0
  1
96
  0
XRECORD
  5
2258B
102
{ACAD_REACTORS
330
2258A
102
}
330
2258A
100
AcDbXrecord
  1
0
  1
*0
  1
*
  1
*
 70
     0
  1
*
  1
*
  0
XRECORD
  5
2258C
102
{ACAD_REACTORS
330
2258A
102
}
330
2258A
100
AcDbXrecord
  1
11
  1
*11
  1
*
  1
*
 70
     0
  1
*
  1
*
  0
XRECORD
  5
2258D
102
{ACAD_REACTORS
330
2258A
102
}
330
2258A
100
AcDbXrecord
  1
150_
  1
150_*
  1
*
  1
*
 70
     0
  1
*
  1
*
  0
XRECORD
  5
2258E
102
{ACAD_REACTORS
330
2258A
102
}
330
2258A
100
AcDbXrecord
  1
160_
  1
160_*
  1
*
  1
*
 70
     0
  1
*
  1
*
  0
XRECORD
  5
2258F
102
{ACAD_REACTORS
330
2258A
102
}
330
2258A
100
AcDbXrecord
  1
170_
  1
170_*
  1
*
  1
*
 70
     0
  1
*
  1
*
  0
XRECORD
  5
22590
102
{ACAD_REACTORS
330
2258A
102
}
330
2258A
100
AcDbXrecord
  1
171_
  1
171_*
  1
*
  1
*
 70
     0
  1
*
  1
*
  0
XRECORD
  5
22591
102
{ACAD_REACTORS
330
2258A
102
}
330
2258A
100
AcDbXrecord
  1
350_
  1
350_*
  1
*
  1
*
 70
     0
  1
*
  1
*
  0
XRECORD
  5
22592
102
{ACAD_REACTORS
330
2258A
102
}
330
2258A
100
AcDbXrecord
  1
4
  1
*4
  1
*
  1
*
 70
     0
  1
*
  1
*
  0
XRECORD
  5
22593
102
{ACAD_REACTORS
330
2258A
102
}
330
2258A
100
AcDbXrecord
  1
5
  1
*5
  1
*
  1
*
 70
     0
  1
*
  1
*
  0
XRECORD
  5
22594
102
{ACAD_REACTORS
330
2258A
102
}
330
2258A
100
AcDbXrecord
  1
7
  1
*7
  1
*
  1
*
 70
     0
  1
*
  1
*
  0
XRECORD
  5
22595
102
{ACAD_REACTORS
330
2258A
102
}
330
2258A
100
AcDbXrecord
  1
kiseki
  1
kiseki*
  1
*
  1
*
 70
     0
  1
*
  1
*
  0
ENDSEC
  0
EOF
