  0
SECTION
  2
HEADER
  9
$ACADVER
  1
AC1015
  9
$ACADMAINTVER
 70
     6
  9
$DWGCODEPAGE
  3
ANSI_932
  9
$INSBASE
 10
0.0
 20
0.0
 30
0.0
  9
$EXTMIN
 10
1593.736933067938
 20
-2320.832659669243
 30
0.0
  9
$EXTMAX
 10
1781.409188234494
 20
-2204.079061704969
 30
0.0
  9
$LIMMIN
 10
0.0
 20
0.0
  9
$LIMMAX
 10
420.0
 20
297.0
  9
$ORTHOMODE
 70
     1
  9
$REGENMODE
 70
     1
  9
$FILLMODE
 70
     1
  9
$QTEXTMODE
 70
     0
  9
$MIRRTEXT
 70
     0
  9
$LTSCALE
 40
20.0
  9
$ATTMODE
 70
     2
  9
$TEXTSIZE
 40
10.0
  9
$TRACEWID
 40
1.0
  9
$TEXTSTYLE
  7
ｽﾀｲﾙ3
  9
$CLAYER
  8
0
  9
$CELTYPE
  6
BYLAYER
  9
$CECOLOR
 62
   256
  9
$CELTSCALE
 40
1.0
  9
$DISPSILH
 70
     0
  9
$DIMSCALE
 40
1.5
  9
$DIMASZ
 40
2.5
  9
$DIMEXO
 40
0.8
  9
$DIMDLI
 40
0.38
  9
$DIMRND
 40
0.0
  9
$DIMDLE
 40
0.0
  9
$DIMEXE
 40
0.18
  9
$DIMTP
 40
0.0
  9
$DIMTM
 40
0.0
  9
$DIMTXT
 40
3.0
  9
$DIMCEN
 40
0.0
  9
$DIMTSZ
 40
0.0
  9
$DIMTOL
 70
     0
  9
$DIMLIM
 70
     0
  9
$DIMTIH
 70
     0
  9
$DIMTOH
 70
     0
  9
$DIMSE1
 70
     0
  9
$DIMSE2
 70
     0
  9
$DIMTAD
 70
     3
  9
$DIMZIN
 70
     8
  9
$DIMBLK
  1
Open30
  9
$DIMASO
 70
     1
  9
$DIMSHO
 70
     1
  9
$DIMPOST
  1

  9
$DIMAPOST
  1

  9
$DIMALT
 70
     0
  9
$DIMALTD
 70
     2
  9
$DIMALTF
 40
25.4
  9
$DIMLFAC
 40
1.0
  9
$DIMTOFL
 70
     0
  9
$DIMTVP
 40
0.0
  9
$DIMTIX
 70
     0
  9
$DIMSOXD
 70
     0
  9
$DIMSAH
 70
     0
  9
$DIMBLK1
  1

  9
$DIMBLK2
  1

  9
$DIMSTYLE
  2
まこ
  9
$DIMCLRD
 70
     4
  9
$DIMCLRE
 70
     4
  9
$DIMCLRT
 70
   256
  9
$DIMTFAC
 40
1.0
  9
$DIMGAP
 40
0.5
  9
$DIMJUST
 70
     0
  9
$DIMSD1
 70
     0
  9
$DIMSD2
 70
     0
  9
$DIMTOLJ
 70
     1
  9
$DIMTZIN
 70
     0
  9
$DIMALTZ
 70
     0
  9
$DIMALTTZ
 70
     0
  9
$DIMUPT
 70
     0
  9
$DIMDEC
 70
     8
  9
$DIMTDEC
 70
     8
  9
$DIMALTU
 70
     2
  9
$DIMALTTD
 70
     2
  9
$DIMTXSTY
  7
まこ
  9
$DIMAUNIT
 70
     0
  9
$DIMADEC
 70
     0
  9
$DIMALTRND
 40
0.0
  9
$DIMAZIN
 70
     0
  9
$DIMDSEP
 70
    46
  9
$DIMATFIT
 70
     1
  9
$DIMFRAC
 70
     0
  9
$DIMLDRBLK
  1
Open30
  9
$DIMLUNIT
 70
     2
  9
$DIMLWD
 70
    13
  9
$DIMLWE
 70
    13
  9
$DIMTMOVE
 70
     0
  9
$LUNITS
 70
     2
  9
$LUPREC
 70
     4
  9
$SKETCHINC
 40
1.0
  9
$FILLETRAD
 40
2.0
  9
$AUNITS
 70
     0
  9
$AUPREC
 70
     0
  9
$MENU
  1
.
  9
$ELEVATION
 40
0.0
  9
$PELEVATION
 40
0.0
  9
$THICKNESS
 40
0.0
  9
$LIMCHECK
 70
     0
  9
$CHAMFERA
 40
1.0
  9
$CHAMFERB
 40
1.0
  9
$CHAMFERC
 40
20.0
  9
$CHAMFERD
 40
0.0
  9
$SKPOLY
 70
     0
  9
$TDCREATE
 40
2451224.660162384
  9
$TDUCREATE
 40
2451224.285162384
  9
$TDUPDATE
 40
2457472.482588611
  9
$TDUUPDATE
 40
2457472.107588611
  9
$TDINDWG
 40
17.7549134375
  9
$TDUSRTIMER
 40
2457472.10701985
  9
$USRTIMER
 70
     1
  9
$ANGBASE
 50
0.0
  9
$ANGDIR
 70
     0
  9
$PDMODE
 70
     0
  9
$PDSIZE
 40
0.0
  9
$PLINEWID
 40
0.0
  9
$SPLFRAME
 70
     0
  9
$SPLINETYPE
 70
     6
  9
$SPLINESEGS
 70
     8
  9
$HANDSEED
  5
2BCAF
  9
$SURFTAB1
 70
     6
  9
$SURFTAB2
 70
     6
  9
$SURFTYPE
 70
     6
  9
$SURFU
 70
     6
  9
$SURFV
 70
     6
  9
$UCSBASE
  2

  9
$UCSNAME
  2

  9
$UCSORG
 10
0.0
 20
0.0
 30
0.0
  9
$UCSXDIR
 10
1.0
 20
0.0
 30
0.0
  9
$UCSYDIR
 10
0.0
 20
1.0
 30
0.0
  9
$UCSORTHOREF
  2

  9
$UCSORTHOVIEW
 70
     0
  9
$UCSORGTOP
 10
0.0
 20
0.0
 30
0.0
  9
$UCSORGBOTTOM
 10
0.0
 20
0.0
 30
0.0
  9
$UCSORGLEFT
 10
0.0
 20
0.0
 30
0.0
  9
$UCSORGRIGHT
 10
0.0
 20
0.0
 30
0.0
  9
$UCSORGFRONT
 10
0.0
 20
0.0
 30
0.0
  9
$UCSORGBACK
 10
0.0
 20
0.0
 30
0.0
  9
$PUCSBASE
  2

  9
$PUCSNAME
  2

  9
$PUCSORG
 10
0.0
 20
0.0
 30
0.0
  9
$PUCSXDIR
 10
1.0
 20
0.0
 30
0.0
  9
$PUCSYDIR
 10
0.0
 20
1.0
 30
0.0
  9
$PUCSORTHOREF
  2

  9
$PUCSORTHOVIEW
 70
     0
  9
$PUCSORGTOP
 10
0.0
 20
0.0
 30
0.0
  9
$PUCSORGBOTTOM
 10
0.0
 20
0.0
 30
0.0
  9
$PUCSORGLEFT
 10
0.0
 20
0.0
 30
0.0
  9
$PUCSORGRIGHT
 10
0.0
 20
0.0
 30
0.0
  9
$PUCSORGFRONT
 10
0.0
 20
0.0
 30
0.0
  9
$PUCSORGBACK
 10
0.0
 20
0.0
 30
0.0
  9
$USERI1
 70
     0
  9
$USERI2
 70
     0
  9
$USERI3
 70
     0
  9
$USERI4
 70
     0
  9
$USERI5
 70
     0
  9
$USERR1
 40
245.9999999999999
  9
$USERR2
 40
0.0
  9
$USERR3
 40
0.0
  9
$USERR4
 40
0.0
  9
$USERR5
 40
0.0
  9
$WORLDVIEW
 70
     1
  9
$SHADEDGE
 70
     3
  9
$SHADEDIF
 70
    70
  9
$TILEMODE
 70
     0
  9
$MAXACTVP
 70
    48
  9
$PINSBASE
 10
0.0
 20
0.0
 30
0.0
  9
$PLIMCHECK
 70
     0
  9
$PEXTMIN
 10
0.0
 20
0.0
 30
0.0
  9
$PEXTMAX
 10
400.0
 20
288.0
 30
0.0
  9
$PLIMMIN
 10
-5.193323039737265
 20
-3.427438357051055
  9
$PLIMMAX
 10
414.9650021555752
 20
293.6043914769333
  9
$UNITMODE
 70
     0
  9
$VISRETAIN
 70
     1
  9
$PLINEGEN
 70
     0
  9
$PSLTSCALE
 70
     0
  9
$TREEDEPTH
 70
  3020
  9
$CMLSTYLE
  2
STANDARD
  9
$CMLJUST
 70
     0
  9
$CMLSCALE
 40
20.0
  9
$PROXYGRAPHICS
 70
     1
  9
$MEASUREMENT
 70
     0
  9
$CELWEIGHT
370
    -1
  9
$ENDCAPS
280
     0
  9
$JOINSTYLE
280
     0
  9
$LWDISPLAY
290
     0
  9
$INSUNITS
 70
     0
  9
$HYPERLINKBASE
  1

  9
$STYLESHEET
  1
monochrome.ctb
  9
$XEDIT
290
     1
  9
$CEPSNTYPE
380
     0
  9
$PSTYLEMODE
290
     1
  9
$FINGERPRINTGUID
  2
{D14EE3FF-941A-415A-9907-344E0A80D794}
  9
$VERSIONGUID
  2
{C0919C91-72D5-458A-8DD1-E6E444E1713F}
  9
$EXTNAMES
290
     1
  9
$PSVPSCALE
 40
0.0
  9
$OLESTARTUP
290
     0
  0
ENDSEC
  0
SECTION
  2
CLASSES
  0
CLASS
  1
HATCH
  2
AcDbHatch
  3
ObjectDBX Classes
 90
        0
280
     0
281
     1
  0
CLASS
  1
LWPOLYLINE
  2
AcDbPolyline
  3
ObjectDBX Classes
 90
        0
280
     0
281
     1
  0
CLASS
  1
ACDBDICTIONARYWDFLT
  2
AcDbDictionaryWithDefault
  3
ObjectDBX Classes
 90
        0
280
     0
281
     0
  0
CLASS
  1
ACDBPLACEHOLDER
  2
AcDbPlaceHolder
  3
ObjectDBX Classes
 90
        0
280
     0
281
     0
  0
CLASS
  1
LAYOUT
  2
AcDbLayout
  3
ObjectDBX Classes
 90
        0
280
     0
281
     0
  0
CLASS
  1
LONG_TRANSACTION
  2
AcDbLongTransaction
  3
ObjectDBX Classes
 90
        0
280
     0
281
     0
  0
CLASS
  1
LWPOLYLINE
  2
AcDbPolyline
  3
ObjectDBX Classes
 90
        0
280
     0
281
     1
  0
CLASS
  1
HATCH
  2
AcDbHatch
  3
ObjectDBX Classes
 90
        0
280
     0
281
     1
  0
CLASS
  1
XRECORD
  2
AcDbXrecord
  3
ObjectDBX Classes
 90
        0
280
     0
281
     0
  0
CLASS
  1
DICTIONARYVAR
  2
AcDbDictionaryVar
  3
ObjectDBX Classes
 90
        0
280
     0
281
     0
  0
CLASS
  1
VISUALSTYLE
  2
AcDbVisualStyle
  3
ObjectDBX Classes
 90
     4095
280
     0
281
     0
  0
CLASS
  1
SCALE
  2
AcDbScale
  3
ObjectDBX Classes
 90
     1153
280
     0
281
     0
  0
CLASS
  1
MATERIAL
  2
AcDbMaterial
  3
ObjectDBX Classes
 90
     1153
280
     0
281
     0
  0
CLASS
  1
TABLESTYLE
  2
AcDbTableStyle
  3
ObjectDBX Classes
 90
     4095
280
     0
281
     0
  0
CLASS
  1
MLEADERSTYLE
  2
AcDbMLeaderStyle
  3
ACDB_MLEADERSTYLE_CLASS
 90
     4095
280
     0
281
     0
  0
CLASS
  1
SUN
  2
AcDbSun
  3
SCENEOE
 90
     1153
280
     0
281
     0
  0
CLASS
  1
RASTERVARIABLES
  2
AcDbRasterVariables
  3
ISM
 90
        0
280
     0
281
     0
  0
ENDSEC
  0
SECTION
  2
TABLES
  0
TABLE
  2
VPORT
  5
8
330
0
100
AcDbSymbolTable
 70
     1
  0
VPORT
  5
2BB1E
330
8
100
AcDbSymbolTableRecord
100
AcDbViewportTableRecord
  2
*Active
 70
     0
 10
0.0
 20
0.0
 11
1.0
 21
1.0
 12
1687.573060651216
 22
-2262.455860687106
 13
0.0
 23
0.0
 14
10.0
 24
10.0
 15
10.0
 25
10.0
 16
0.0
 26
0.0
 36
1.0
 17
0.0
 27
0.0
 37
0.0
 40
119.0886699235589
 41
1.814955640050697
 42
50.0
 43
0.0
 44
0.0
 50
0.0
 51
0.0
 71
    16
 72
   100
 73
     1
 74
     0
 75
     0
 76
     0
 77
     0
 78
     0
281
     0
 65
     1
110
0.0
120
0.0
130
0.0
111
1.0
121
0.0
131
0.0
112
0.0
122
1.0
132
0.0
 79
     0
146
0.0
  0
ENDTAB
  0
TABLE
  2
LTYPE
  5
5
330
0
100
AcDbSymbolTable
 70
     7
  0
LTYPE
  5
12
330
5
100
AcDbSymbolTableRecord
100
AcDbLinetypeTableRecord
  2
BYBLOCK
 70
     0
  3

 72
    65
 73
     0
 40
0.0
  0
LTYPE
  5
13
330
5
100
AcDbSymbolTableRecord
100
AcDbLinetypeTableRecord
  2
BYLAYER
 70
     0
  3

 72
    65
 73
     0
 40
0.0
  0
LTYPE
  5
14
330
5
100
AcDbSymbolTableRecord
100
AcDbLinetypeTableRecord
  2
CONTINUOUS
 70
     0
  3
Solid line
 72
    65
 73
     0
 40
0.0
  0
LTYPE
  5
126C
330
5
100
AcDbSymbolTableRecord
100
AcDbLinetypeTableRecord
  2
CENTER
 70
     0
  3
____ _ ____ _ ____ _ ____ _ ____ _ ____ _ ____
 72
    65
 73
     4
 40
2.0
 49
1.25
 74
     0
 49
-0.25
 74
     0
 49
0.25
 74
     0
 49
-0.25
 74
     0
  0
LTYPE
  5
126E
330
5
100
AcDbSymbolTableRecord
100
AcDbLinetypeTableRecord
  2
DASHDOT
 70
     0
  3
__ . __ . __ . __ . __ . __ . __ . __ . __ . __
 72
    65
 73
     4
 40
1.0
 49
0.5
 74
     0
 49
-0.25
 74
     0
 49
0.0
 74
     0
 49
-0.25
 74
     0
  0
LTYPE
  5
1541F
330
5
100
AcDbSymbolTableRecord
100
AcDbLinetypeTableRecord
  2
HIDDEN
 70
     0
  3
_ _ _ _ _ _ _ _ _ _ _ _ _ _ _ _ _ _ _ _ _ _ _
 72
    65
 73
     2
 40
0.375
 49
0.25
 74
     0
 49
-0.125
 74
     0
  0
LTYPE
  5
15421
330
5
100
AcDbSymbolTableRecord
100
AcDbLinetypeTableRecord
  2
PHANTOM2
 70
     0
  3
Phantom (.5x) ___ _ _ ___ _ _ ___ _ _ ___ _ _
 72
    65
 73
     6
 40
1.25
 49
0.625
 74
     0
 49
-0.125
 74
     0
 49
0.125
 74
     0
 49
-0.125
 74
     0
 49
0.125
 74
     0
 49
-0.125
 74
     0
  0
ENDTAB
  0
TABLE
  2
LAYER
  5
2
102
{ACAD_XDICTIONARY
360
25084
102
}
330
0
100
AcDbSymbolTable
 70
    11
  0
LAYER
  5
E
330
2
100
AcDbSymbolTableRecord
100
AcDbLayerTableRecord
  2
0
 70
     2
 62
     7
  6
CONTINUOUS
370
    35
390
FB5C
  0
LAYER
  5
2C
330
2
100
AcDbSymbolTableRecord
100
AcDbLayerTableRecord
  2
M_VIEW
 70
     4
 62
    -1
  6
CONTINUOUS
370
    -3
390
FB5C
  0
LAYER
  5
30
330
2
100
AcDbSymbolTableRecord
100
AcDbLayerTableRecord
  2
FRAME025
 70
     0
 62
     7
  6
CONTINUOUS
370
    -3
390
FB5C
  0
LAYER
  5
651
330
2
100
AcDbSymbolTableRecord
100
AcDbLayerTableRecord
  2
FRAME020
 70
     0
 62
    -7
  6
CONTINUOUS
370
    -3
390
FB5C
  0
LAYER
  5
A9BB
330
2
100
AcDbSymbolTableRecord
100
AcDbLayerTableRecord
  2
文字
 70
     0
 62
     2
  6
CONTINUOUS
370
    30
390
FB5C
  0
LAYER
  5
122DE
330
2
100
AcDbSymbolTableRecord
100
AcDbLayerTableRecord
  2
dimension
 70
     0
 62
    -4
  6
CONTINUOUS
370
    13
390
FB5C
  0
ENDTAB
  0
TABLE
  2
STYLE
  5
3
330
0
100
AcDbSymbolTable
 70
     8
  0
STYLE
  5
F
330
3
100
AcDbSymbolTableRecord
100
AcDbTextStyleTableRecord
  2
STANDARD
 70
     0
 40
0.0
 41
1.0
 50
0.0
 71
     0
 42
2.5
  3
isocp.shx
  4
bigfont.shx
  0
STYLE
  5
35
330
3
100
AcDbSymbolTableRecord
100
AcDbTextStyleTableRecord
  2
MSｺﾞｼｯｸ
 70
     0
 40
0.0
 41
1.0
 50
0.0
 71
     0
 42
5.0
  3
MS Gothic.ttf
  4

1001
ACAD
1000
MS Gothic
1071
    32817
  0
STYLE
  5
1275
330
3
100
AcDbSymbolTableRecord
100
AcDbTextStyleTableRecord
  2
BIGFONT
 70
     0
 40
2.0
 41
1.0
 50
0.0
 71
     0
 42
2.0
  3
txt.shx
  4
bigfont.shx
  0
STYLE
  5
1A849
330
3
100
AcDbSymbolTableRecord
100
AcDbTextStyleTableRecord
  2
まこ
 70
     0
 40
0.0
 41
1.0
 50
0.0
 71
     0
 42
2.5
  3
simplex.shx
  4
bigfont.shx
  0
STYLE
  5
1A84A
330
3
100
AcDbSymbolTableRecord
100
AcDbTextStyleTableRecord
  2
ｽﾀｲﾙ3
 70
     0
 40
10.0
 41
1.0
 50
0.0
 71
     0
 42
10.0
  3
isocp.shx
  4
extfont.shx
  0
ENDTAB
  0
TABLE
  2
VIEW
  5
6
330
0
100
AcDbSymbolTable
 70
     0
  0
ENDTAB
  0
TABLE
  2
UCS
  5
7
330
0
100
AcDbSymbolTable
 70
     0
  0
ENDTAB
  0
TABLE
  2
APPID
  5
9
330
0
100
AcDbSymbolTable
 70
     5
  0
APPID
  5
10
330
9
100
AcDbSymbolTableRecord
100
AcDbRegAppTableRecord
  2
ACAD
 70
     0
  0
APPID
  5
F013
330
9
100
AcDbSymbolTableRecord
100
AcDbRegAppTableRecord
  2
CONTENTBLOCKDESCRIPTION
 70
     0
  0
APPID
  5
F014
330
9
100
AcDbSymbolTableRecord
100
AcDbRegAppTableRecord
  2
CONTENTBLOCKICON
 70
     0
  0
APPID
  5
1A9A0
330
9
100
AcDbSymbolTableRecord
100
AcDbRegAppTableRecord
  2
DCO15
 70
     0
  0
APPID
  5
2BBE5
330
9
100
AcDbSymbolTableRecord
100
AcDbRegAppTableRecord
  2
PE_CLOUD
 70
     0
  0
ENDTAB
  0
TABLE
  2
DIMSTYLE
  5
A
330
0
100
AcDbSymbolTable
 70
     4
100
AcDbDimStyleTable
  0
DIMSTYLE
105
1D
330
A
100
AcDbSymbolTableRecord
100
AcDbDimStyleTableRecord
  2
STANDARD
 70
     0
178
     0
340
F
  0
DIMSTYLE
105
1A84D
330
A
100
AcDbSymbolTableRecord
100
AcDbDimStyleTableRecord
  2
まこ
 70
     0
 40
1.5
 41
2.5
 42
0.8
 73
     0
 74
     0
 77
     3
 78
     8
140
3.0
141
0.0
147
0.5
176
     4
177
     4
271
     8
178
   256
271
     8
272
     8
289
     1
340
1A849
341
1215D
342
1215D
371
    13
372
    13
  0
ENDTAB
  0
TABLE
  2
BLOCK_RECORD
  5
1
330
0
100
AcDbSymbolTable
 70
     3
  0
BLOCK_RECORD
  5
18
330
1
100
AcDbSymbolTableRecord
100
AcDbBlockTableRecord
  2
*MODEL_SPACE
340
FB5D
  0
BLOCK_RECORD
  5
29D03
330
1
100
AcDbSymbolTableRecord
100
AcDbBlockTableRecord
  2
*PAPER_SPACE
340
29E1F
  0
BLOCK_RECORD
  5
115C
330
1
100
AcDbSymbolTableRecord
100
AcDbBlockTableRecord
  2
機械A4横_LBP
340
0
102
{BLKREFS
331
187D7
331
29DAA
102
}
  0
BLOCK_RECORD
  5
1215D
330
1
100
AcDbSymbolTableRecord
100
AcDbBlockTableRecord
  2
_Open30
340
0
  0
ENDTAB
  0
ENDSEC
  0
SECTION
  2
BLOCKS
  0
BLOCK
  5
19
330
18
100
AcDbEntity
  8
0
100
AcDbBlockBegin
  2
*MODEL_SPACE
 70
     0
 10
0.0
 20
0.0
 30
0.0
  3
*MODEL_SPACE
  1
*MODEL_SPACE
  0
ENDBLK
  5
1A
330
18
100
AcDbEntity
  8
0
100
AcDbBlockEnd
  0
BLOCK
  5
29E1D
330
29D03
100
AcDbEntity
 67
     1
  8
0
100
AcDbBlockBegin
  2
*PAPER_SPACE
 70
     0
 10
0.0
 20
0.0
 30
0.0
  3
*PAPER_SPACE
  1
*PAPER_SPACE
  0
ENDBLK
  5
29E1E
330
29D03
100
AcDbEntity
 67
     1
  8
0
100
AcDbBlockEnd
  0
BLOCK
  5
115D
330
115C
100
AcDbEntity
  8
0
100
AcDbBlockBegin
  2
機械A4横_LBP
 70
     0
 10
0.0
 20
0.0
 30
0.0
  3
機械A4横_LBP
  1
機械A4横_LBP
  0
ENDBLK
  5
115E
330
115C
100
AcDbEntity
  8
0
100
AcDbBlockEnd
  0
BLOCK
  5
12161
330
1215D
100
AcDbEntity
  8
0
100
AcDbBlockBegin
  2
_Open30
 70
     0
 10
0.0
 20
0.0
 30
0.0
  3
_Open30
  1
_Open30
  0
LINE
  5
1215E
330
1215D
100
AcDbEntity
  8
0
  6
ByBlock
 62
     0
370
    -2
100
AcDbLine
 10
-1.0
 20
0.26794919
 30
0.0
 11
0.0
 21
0.0
 31
0.0
  0
LINE
  5
1215F
330
1215D
100
AcDbEntity
  8
0
  6
ByBlock
 62
     0
370
    -2
100
AcDbLine
 10
0.0
 20
0.0
 30
0.0
 11
-1.0
 21
-0.26794919
 31
0.0
  0
LINE
  5
12160
330
1215D
100
AcDbEntity
  8
0
  6
ByBlock
 62
     0
370
    -2
100
AcDbLine
 10
0.0
 20
0.0
 30
0.0
 11
-1.0
 21
0.0
 31
0.0
  0
ENDBLK
  5
12162
330
1215D
100
AcDbEntity
  8
0
100
AcDbBlockEnd
  0
ENDSEC
  0
SECTION
  2
ENTITIES
  0
MTEXT
  5
176FC
330
18
100
AcDbEntity
  8
dimension
 62
     2
100
AcDbMText
 10
-100.7823601383244
 20
171.6213144128391
 30
0.0
 40
8.0
 41
0.0
 71
     4
 72
     1
  1

 73
     1
 44
1.0
  0
MTEXT
  5
187CB
330
18
100
AcDbEntity
  8
0
  6
ByBlock
100
AcDbMText
 10
325.4874764241681
 20
2232.511722574347
 30
0.0
 40
2.0
 41
0.0
 71
     4
 72
     5
  1

 11
-2.000000000000000E-16
 21
-1.0
 31
0.0
 73
     1
 44
1.0
  0
MTEXT
  5
187CC
330
18
100
AcDbEntity
  8
0
  6
ByBlock
100
AcDbMText
 10
360.9528647873209
 20
2221.718414215929
 30
0.0
 40
2.0
 41
0.0
 71
     7
 72
     5
  1

 11
1.000000000000000E-16
 21
1.0
 31
0.0
 73
     1
 44
1.0
  0
MTEXT
  5
187CD
330
18
100
AcDbEntity
  8
0
100
AcDbMText
 10
325.1733668026533
 20
2146.93890367364
 30
0.0
 40
2.0
 41
10.1453
 71
     1
 72
     5
  1

 11
-2.000000000000000E-16
 21
-1.0
 31
0.0
 73
     1
 44
1.0
  0
MTEXT
  5
187CE
330
18
100
AcDbEntity
  8
0
100
AcDbMText
 10
280.7738750495033
 20
2115.30742008065
 30
0.0
 40
2.0
 41
0.0
 71
     1
 72
     5
  1

 73
     1
 44
1.0
  0
MTEXT
  5
187CF
330
18
100
AcDbEntity
  8
0
  6
CENTER
100
AcDbMText
 10
606.3621522332663
 20
2216.239946825076
 30
0.0
 40
2.0
 41
15.6417
 71
     1
 72
     5
  1

  7
BIGFONT
 73
     1
 44
1.0
  0
MTEXT
  5
187D0
330
18
100
AcDbEntity
  8
0
  6
DASHDOT
100
AcDbMText
 10
368.6842112890945
 20
2323.029441652852
 30
0.0
 40
1.0
 41
2.0
 71
     1
 72
     5
  1

  7
BIGFONT
 73
     1
 44
1.0
  0
MTEXT
  5
187D1
330
18
100
AcDbEntity
  8
0
  6
ByBlock
100
AcDbMText
 10
325.4873894192178
 20
2232.511722574347
 30
0.0
 40
2.0
 41
0.0
 71
     4
 72
     5
  1

 11
-2.000000000000000E-16
 21
-1.0
 31
0.0
 73
     1
 44
1.0
  0
MTEXT
  5
187D2
330
18
100
AcDbEntity
  8
0
  6
ByBlock
100
AcDbMText
 10
360.9527777823707
 20
2221.718414215929
 30
0.0
 40
2.0
 41
0.0
 71
     7
 72
     5
  1

 11
1.000000000000000E-16
 21
1.0
 31
0.0
 73
     1
 44
1.0
  0
MTEXT
  5
187D3
330
18
100
AcDbEntity
  8
0
100
AcDbMText
 10
325.1732797977029
 20
2146.93890367364
 30
0.0
 40
2.0
 41
10.1453
 71
     1
 72
     5
  1

 11
-2.000000000000000E-16
 21
-1.0
 31
0.0
 73
     1
 44
1.0
  0
MTEXT
  5
187D4
330
18
100
AcDbEntity
  8
0
100
AcDbMText
 10
280.773788044553
 20
2115.30742008065
 30
0.0
 40
2.0
 41
0.0
 71
     1
 72
     5
  1

 73
     1
 44
1.0
  0
MTEXT
  5
187D5
330
18
100
AcDbEntity
  8
0
  6
CENTER
100
AcDbMText
 10
606.3620652283159
 20
2216.239946825076
 30
0.0
 40
2.0
 41
15.6417
 71
     1
 72
     5
  1

  7
BIGFONT
 73
     1
 44
1.0
  0
MTEXT
  5
187D6
330
18
100
AcDbEntity
  8
0
  6
DASHDOT
100
AcDbMText
 10
368.6841242841443
 20
2323.029441652852
 30
0.0
 40
1.0
 41
2.0
 71
     1
 72
     5
  1

  7
BIGFONT
 73
     1
 44
1.0
  0
INSERT
  5
187D7
330
18
100
AcDbEntity
  8
FRAME025
100
AcDbBlockReference
  2
機械A4横_LBP
 10
271.0019941658661
 20
2006.88884056487
 30
0.0
  0
TEXT
  5
216E7
330
18
100
AcDbEntity
  8
FRAME020
  6
Continuous
100
AcDbText
 10
1272.84444499335
 20
-2736.187561819854
 30
0.0
 40
3.0
  1

 50
270.0
100
AcDbText
  0
MTEXT
  5
21ACC
330
18
100
AcDbEntity
  8
0
100
AcDbMText
 10
62.91095225984049
 20
-1280.130762802908
 30
0.0
 40
2.5
 41
0.625
 71
     9
 72
     1
  1

 73
     1
 44
1.0
  0
LINE
  5
2A3DF
330
18
100
AcDbEntity
  8
0
 48
0.3
370
    30
100
AcDbLine
 10
1594.736933067938
 20
-2284.579061704969
 30
0.0
 11
1656.736933067938
 21
-2284.579061704969
 31
0.0
  0
LINE
  5
2A3E0
330
18
100
AcDbEntity
  8
0
 48
0.3
370
    30
100
AcDbLine
 10
1594.736933067938
 20
-2204.579061704969
 30
0.0
 11
1656.736933067938
 21
-2204.579061704969
 31
0.0
  0
LWPOLYLINE
  5
2A3E1
330
18
100
AcDbEntity
  8
0
 48
0.3
370
    30
100
AcDbPolyline
 90
        4
 70
     1
 43
0.0
 10
1609.605156274633
 20
-2219.83858750641
 10
1607.860181439509
 20
-2269.808128857364
 10
1593.868709861241
 20
-2269.319535903529
 10
1595.613684696366
 20
-2219.349994552575
  0
LINE
  5
2A3E4
330
18
100
AcDbEntity
  8
0
 48
0.3
370
    30
100
AcDbLine
 10
1593.736933067938
 20
-2205.579061704969
 30
0.0
 11
1593.736933067938
 21
-2283.579061704969
 31
0.0
  0
LINE
  5
2A3E6
330
18
100
AcDbEntity
  8
0
 48
0.3
370
    30
100
AcDbLine
 10
1593.736933067938
 20
-2283.579061704969
 30
0.0
 11
1594.736933067938
 21
-2284.579061704969
 31
0.0
  0
LINE
  5
2A3E7
330
18
100
AcDbEntity
  8
0
 48
0.3
370
    30
100
AcDbLine
 10
1594.736933067938
 20
-2204.579061704969
 30
0.0
 11
1593.736933067938
 21
-2205.579061704969
 31
0.0
  0
LINE
  5
2A3E8
330
18
100
AcDbEntity
  8
0
 48
0.3
370
    18
100
AcDbLine
 10
1601.191235698051
 20
-2231.552081457019
 30
0.0
 11
1599.969753313463
 21
-2266.530760402689
 31
0.0
  0
LINE
  5
2A3EB
330
18
100
AcDbEntity
  8
0
 48
0.3
370
    18
100
AcDbLine
 10
1606.982938850948
 20
-2266.275361466096
 30
0.0
 11
1608.169521738833
 21
-2232.296073347446
 31
0.0
  0
LINE
  5
2A3EC
330
18
100
AcDbEntity
  8
0
 48
0.3
370
    18
100
AcDbLine
 10
1596.176831814604
 20
-2231.877279387016
 30
0.0
 11
1594.990248926719
 21
-2265.856567505665
 31
0.0
  0
LWPOLYLINE
  5
2A3F9
330
18
100
AcDbEntity
  8
0
 48
0.3
370
    30
100
AcDbPolyline
 90
        4
 70
     1
 43
0.0
 10
1641.605156274633
 20
-2219.83858750641
 10
1639.860181439509
 20
-2269.808128857364
 10
1625.868709861241
 20
-2269.319535903529
 10
1627.613684696366
 20
-2219.349994552575
  0
LWPOLYLINE
  5
2A3FB
330
18
100
AcDbEntity
  8
0
 48
0.3
370
    30
100
AcDbPolyline
 90
        4
 70
     1
 43
0.0
 10
1625.605156274633
 20
-2219.83858750641
 10
1623.860181439509
 20
-2269.808128857364
 10
1609.868709861241
 20
-2269.319535903529
 10
1611.613684696366
 20
-2219.349994552575
  0
LINE
  5
2A3FC
330
18
100
AcDbEntity
  8
0
  6
CENTER
 48
0.3
370
    13
100
AcDbLine
 10
1617.236933067938
 20
-2277.079061704969
 30
0.0
 11
1634.236933067938
 21
-2277.079061704969
 31
0.0
  0
ARC
  5
2A3FD
330
18
100
AcDbEntity
  8
0
 48
0.3
370
    30
100
AcDbCircle
 10
1625.236933067938
 20
-2277.079061704969
 30
0.0
 40
3.0
100
AcDbArc
 50
90.0
 51
270.0
  0
LINE
  5
2A3FE
330
18
100
AcDbEntity
  8
0
  6
CENTER
 48
0.3
370
    13
100
AcDbLine
 10
1625.736933067938
 20
-2269.079061704969
 30
0.0
 11
1625.736933067938
 21
-2285.079061704969
 31
0.0
  0
LINE
  5
2A3FF
330
18
100
AcDbEntity
  8
0
 48
0.3
370
    30
100
AcDbLine
 10
1625.236933067938
 20
-2280.079061704969
 30
0.0
 11
1626.236933067938
 21
-2280.079061704969
 31
0.0
  0
LINE
  5
2A400
330
18
100
AcDbEntity
  8
0
 48
0.3
370
    30
100
AcDbLine
 10
1625.236933067938
 20
-2274.079061704969
 30
0.0
 11
1626.236933067938
 21
-2274.079061704969
 31
0.0
  0
ARC
  5
2A401
330
18
100
AcDbEntity
  8
0
 48
0.3
370
    30
100
AcDbCircle
 10
1626.236933067938
 20
-2277.079061704969
 30
0.0
 40
3.0
100
AcDbArc
 50
270.0
 51
90.0
  0
LINE
  5
2A422
330
18
100
AcDbEntity
  8
0
  6
CENTER
 48
0.3
370
    13
100
AcDbLine
 10
1617.236933067938
 20
-2212.079061704969
 30
0.0
 11
1634.236933067938
 21
-2212.079061704969
 31
0.0
  0
LINE
  5
2A425
330
18
100
AcDbEntity
  8
0
  6
CENTER
 48
0.3
370
    13
100
AcDbLine
 10
1625.736933067938
 20
-2204.079061704969
 30
0.0
 11
1625.736933067938
 21
-2220.079061704969
 31
0.0
  0
ARC
  5
2A426
330
18
100
AcDbEntity
  8
0
 48
0.3
370
    30
100
AcDbCircle
 10
1625.236933067938
 20
-2212.079061704969
 30
0.0
 40
3.0
100
AcDbArc
 50
90.0
 51
270.0
  0
ARC
  5
2A427
330
18
100
AcDbEntity
  8
0
 48
0.3
370
    30
100
AcDbCircle
 10
1626.236933067938
 20
-2212.079061704969
 30
0.0
 40
3.0
100
AcDbArc
 50
270.0
 51
90.0
  0
LINE
  5
2A428
330
18
100
AcDbEntity
  8
0
 48
0.3
370
    30
100
AcDbLine
 10
1625.236933067938
 20
-2209.079061704969
 30
0.0
 11
1626.236933067938
 21
-2209.079061704969
 31
0.0
  0
LINE
  5
2A429
330
18
100
AcDbEntity
  8
0
 48
0.3
370
    30
100
AcDbLine
 10
1625.236933067938
 20
-2215.079061704969
 30
0.0
 11
1626.236933067938
 21
-2215.079061704969
 31
0.0
  0
ARC
  5
2A42A
330
18
100
AcDbEntity
  8
0
 48
0.3
370
    18
100
AcDbCircle
 10
1595.489944340228
 20
-2265.874017254017
 30
0.0
 40
0.5
100
AcDbArc
 50
177.9999999999995
 51
267.9999999999994
  0
ARC
  5
2A42B
330
18
100
AcDbEntity
  8
0
 48
0.3
370
    18
100
AcDbCircle
 10
1606.483243437438
 20
-2266.257911717744
 30
0.0
 40
0.5
100
AcDbArc
 50
267.9999999999994
 51
357.9999999999994
  0
LINE
  5
2A42C
330
18
100
AcDbEntity
  8
0
 48
0.3
370
    18
100
AcDbLine
 10
1595.472494591877
 20
-2266.373712667526
 30
0.0
 11
1606.465793689087
 21
-2266.757607131254
 31
0.0
  0
ARC
  5
2A44C
330
18
100
AcDbEntity
  8
0
 48
0.3
370
    18
100
AcDbCircle
 10
1596.676527228113
 20
-2231.894729135367
 30
0.0
 40
0.5
100
AcDbArc
 50
87.99999999999947
 51
177.9999999999995
  0
ARC
  5
2A44D
330
18
100
AcDbEntity
  8
0
 48
0.3
370
    18
100
AcDbCircle
 10
1607.669826325323
 20
-2232.278623599095
 30
0.0
 40
0.5
100
AcDbArc
 50
357.9999999999994
 51
87.99999999999947
  0
LINE
  5
2A44E
330
18
100
AcDbEntity
  8
0
 48
0.3
370
    18
100
AcDbLine
 10
1607.687276073675
 20
-2231.778928185585
 30
0.0
 11
1596.693976976465
 21
-2231.395033721858
 31
0.0
  0
LINE
  5
2A467
330
18
100
AcDbEntity
  8
0
 48
0.3
370
    30
100
AcDbLine
 10
1657.736933067938
 20
-2205.579061704969
 30
0.0
 11
1657.736933067938
 21
-2283.579061704969
 31
0.0
  0
LINE
  5
2A46E
330
18
100
AcDbEntity
  8
0
 48
0.3
370
    30
100
AcDbLine
 10
1657.736933067938
 20
-2283.579061704969
 30
0.0
 11
1656.736933067938
 21
-2284.579061704969
 31
0.0
  0
LINE
  5
2A475
330
18
100
AcDbEntity
  8
0
 48
0.3
370
    30
100
AcDbLine
 10
1656.736933067938
 20
-2204.579061704969
 30
0.0
 11
1657.736933067938
 21
-2205.579061704969
 31
0.0
  0
LINE
  5
2A47C
330
18
100
AcDbEntity
  8
0
  6
PHANTOM2
 48
0.3
370
     5
100
AcDbLine
 10
1722.409188234494
 20
-2204.579061704969
 30
0.0
 11
1762.409188234494
 21
-2204.579061704969
 31
0.0
  0
LINE
  5
2A47D
330
18
100
AcDbEntity
  8
0
  6
PHANTOM2
 48
0.3
370
     5
100
AcDbLine
 10
1762.409188234494
 20
-2284.579052469075
 30
0.0
 11
1722.409188234494
 21
-2284.579052469075
 31
0.0
  0
LINE
  5
2A47E
330
18
100
AcDbEntity
  8
0
  6
PHANTOM2
 48
0.3
370
     5
100
AcDbLine
 10
1722.909188234494
 20
-2222.590262983021
 30
0.0
 11
1722.909188234494
 21
-2266.595807326768
 31
0.0
  0
LINE
  5
2A47F
330
18
100
AcDbEntity
  8
0
  6
PHANTOM2
 48
0.3
370
     5
100
AcDbLine
 10
1724.409179449968
 20
-2208.607017840714
 30
0.0
 11
1724.409179449968
 21
-2280.607017840714
 31
0.0
  0
LINE
  5
2A480
330
18
100
AcDbEntity
  8
0
  6
CENTER
 48
0.3
370
    13
100
AcDbLine
 10
1730.409188234494
 20
-2274.591144879543
 30
0.0
 11
1730.409188234494
 21
-2236.826301006635
 31
0.0
  0
LINE
  5
2A481
330
18
100
AcDbEntity
  8
0
  6
PHANTOM2
 48
0.3
370
     5
100
AcDbLine
 10
1736.409179449968
 20
-2280.607017840714
 30
0.0
 11
1736.409179449968
 21
-2208.607017840714
 31
0.0
  0
CIRCLE
  5
2A483
330
18
100
AcDbEntity
  8
0
  6
PHANTOM2
 48
0.3
370
     5
100
AcDbCircle
 10
1730.408808043826
 20
-2274.591144879543
 30
0.0
 40
4.0
  0
CIRCLE
  5
2A484
330
18
100
AcDbEntity
  8
0
  6
PHANTOM2
 48
0.3
370
     5
100
AcDbCircle
 10
1730.409559640637
 20
-2267.579052469075
 30
0.0
 40
2.0
  0
CIRCLE
  5
2A485
330
18
100
AcDbEntity
  8
0
  6
PHANTOM2
 48
0.3
370
     5
100
AcDbCircle
 10
1730.409188234494
 20
-2267.579052469075
 30
0.0
 40
1.6
  0
LINE
  5
2A486
330
18
100
AcDbEntity
  8
0
  6
PHANTOM2
 48
0.3
370
     5
100
AcDbLine
 10
1743.293071710978
 20
-2274.079052469075
 30
0.0
 11
1745.510219671924
 21
-2271.861904508128
 31
0.0
  0
LINE
  5
2A487
330
18
100
AcDbEntity
  8
0
  6
PHANTOM2
 48
0.3
370
     5
100
AcDbLine
 10
1744.176955187461
 20
-2274.079052469075
 30
0.0
 11
1745.82544996804
 21
-2272.430557688495
 31
0.0
  0
LINE
  5
2A488
330
18
100
AcDbEntity
  8
0
  6
CENTER
 48
0.3
370
    13
100
AcDbLine
 10
1742.409188234494
 20
-2268.212646965743
 30
0.0
 11
1742.409188234494
 21
-2279.692646965742
 31
0.0
  0
LINE
  5
2A489
330
18
100
AcDbEntity
  8
0
  6
PHANTOM2
 48
0.3
370
     5
100
AcDbLine
 10
1740.887098957247
 20
-2277.368908699288
 30
0.0
 11
1742.409188234494
 21
-2275.846819422041
 31
0.0
  0
LINE
  5
2A48A
330
18
100
AcDbEntity
  8
0
  6
PHANTOM2
 48
0.3
370
     5
100
AcDbLine
 10
1740.31844577688
 20
-2277.053678403173
 30
0.0
 11
1742.409188234494
 21
-2274.962935945558
 31
0.0
  0
LINE
  5
2A48B
330
18
100
AcDbEntity
  8
0
  6
PHANTOM2
 48
0.3
370
     5
100
AcDbLine
 10
1739.828566973072
 20
-2276.659673730497
 30
0.0
 11
1742.409188234494
 21
-2274.079052469075
 31
0.0
  0
LINE
  5
2A48C
330
18
100
AcDbEntity
  8
0
  6
PHANTOM2
 48
0.3
370
     5
100
AcDbLine
 10
1739.413130623822
 20
-2276.191226603265
 30
0.0
 11
1741.525304758012
 21
-2274.079052469075
 31
0.0
  0
LINE
  5
2A48D
330
18
100
AcDbEntity
  8
0
  6
PHANTOM2
 48
0.3
370
     5
100
AcDbLine
 10
1739.074490177216
 20
-2275.645983573386
 30
0.0
 11
1740.641421281529
 21
-2274.079052469074
 31
0.0
  0
LINE
  5
2A48E
330
18
100
AcDbEntity
  8
0
  6
PHANTOM2
 48
0.3
370
     5
100
AcDbLine
 10
1742.409188234494
 20
-2270.543518563141
 30
0.0
 11
1742.726568860246
 21
-2270.226137937389
 31
0.0
  0
LINE
  5
2A48F
330
18
100
AcDbEntity
  8
0
  6
PHANTOM2
 48
0.3
370
     5
100
AcDbLine
 10
1741.54779372753
 20
-2277.592097405489
 30
0.0
 11
1742.409188234494
 21
-2276.730702898524
 31
0.0
  0
CIRCLE
  5
2A490
330
18
100
AcDbEntity
  8
0
  6
PHANTOM2
 48
0.3
370
     5
100
AcDbCircle
 10
1742.409188234494
 20
-2273.952646965743
 30
0.0
 40
3.74
  0
LINE
  5
2A491
330
18
100
AcDbEntity
  8
0
  6
PHANTOM2
 48
0.3
370
     5
100
AcDbLine
 10
1742.409188234494
 20
-2273.195168992592
 30
0.0
 11
1744.647767872017
 21
-2270.95658935507
 31
0.0
  0
LINE
  5
2A492
330
18
100
AcDbEntity
  8
0
  6
PHANTOM2
 48
0.3
370
     5
100
AcDbLine
 10
1742.409188234494
 20
-2274.079052469075
 30
0.0
 11
1745.116214999249
 21
-2271.372025704321
 31
0.0
  0
LINE
  5
2A493
330
18
100
AcDbEntity
  8
0
  6
PHANTOM2
 48
0.3
370
     5
100
AcDbLine
 10
1742.409188234494
 20
-2272.311285516108
 30
0.0
 11
1744.102524842138
 21
-2270.617948908464
 31
0.0
  0
LINE
  5
2A494
330
18
100
AcDbEntity
  8
0
  6
PHANTOM2
 48
0.3
370
     5
100
AcDbLine
 10
1742.409188234494
 20
-2271.427402039625
 30
0.0
 11
1743.470266379469
 21
-2270.366323894649
 31
0.0
  0
LINE
  5
2A495
330
18
100
AcDbEntity
  8
0
  6
CENTER
 48
0.3
370
    13
100
AcDbLine
 10
1748.14779622326
 20
-2274.079052469074
 30
0.0
 11
1736.670580245729
 21
-2274.079052469075
 31
0.0
  0
LINE
  5
2A496
330
18
100
AcDbEntity
  8
0
  6
PHANTOM2
 48
0.3
370
     5
100
AcDbLine
 10
1722.909188234494
 20
-2266.595807326768
 30
0.0
 11
1722.409188234494
 21
-2266.595807326768
 31
0.0
  0
LINE
  5
2A497
330
18
100
AcDbEntity
  8
0
  6
PHANTOM2
 48
0.3
370
     5
100
AcDbLine
 10
1722.409188234494
 20
-2284.579052469075
 30
0.0
 11
1722.409188234494
 21
-2266.595807326768
 31
0.0
  0
LINE
  5
2A498
330
18
100
AcDbEntity
  8
0
  6
PHANTOM2
 48
0.3
370
     5
100
AcDbLine
 10
1724.409179449968
 20
-2280.607017840714
 30
0.0
 11
1736.409179449968
 21
-2280.607017840714
 31
0.0
  0
LINE
  5
2A499
330
18
100
AcDbEntity
  8
0
  6
CENTER
 48
0.3
370
    13
100
AcDbLine
 10
1724.409559640637
 20
-2267.579052469075
 30
0.0
 11
1736.409559640637
 21
-2267.579052469075
 31
0.0
  0
CIRCLE
  5
2A49A
330
18
100
AcDbEntity
  8
0
  6
PHANTOM2
 48
0.3
370
     5
100
AcDbCircle
 10
1730.408808043826
 20
-2214.591144879543
 30
0.0
 40
4.0
  0
CIRCLE
  5
2A49B
330
18
100
AcDbEntity
  8
0
  6
PHANTOM2
 48
0.3
370
     5
100
AcDbCircle
 10
1730.409188234494
 20
-2243.579052469075
 30
0.0
 40
1.6
  0
CIRCLE
  5
2A49C
330
18
100
AcDbEntity
  8
0
  6
PHANTOM2
 48
0.3
370
     5
100
AcDbCircle
 10
1730.409559640637
 20
-2243.579052469075
 30
0.0
 40
2.0
  0
LINE
  5
2A49D
330
18
100
AcDbEntity
  8
0
  6
PHANTOM2
 48
0.3
370
     5
100
AcDbLine
 10
1722.409188234494
 20
-2222.590262983021
 30
0.0
 11
1722.909188234494
 21
-2222.590262983021
 31
0.0
  0
LINE
  5
2A49E
330
18
100
AcDbEntity
  8
0
  6
PHANTOM2
 48
0.3
370
     5
100
AcDbLine
 10
1722.409188234494
 20
-2222.590262983021
 30
0.0
 11
1722.409188234494
 21
-2204.579061704969
 31
0.0
  0
LINE
  5
2A49F
330
18
100
AcDbEntity
  8
0
  6
PHANTOM2
 48
0.3
370
     5
100
AcDbLine
 10
1736.409179449968
 20
-2208.607017840714
 30
0.0
 11
1724.409179449968
 21
-2208.607017840714
 31
0.0
  0
LINE
  5
2A4A0
330
18
100
AcDbEntity
  8
0
  6
CENTER
 48
0.3
370
    13
100
AcDbLine
 10
1724.409559640637
 20
-2243.579052469075
 30
0.0
 11
1736.409559640637
 21
-2243.579052469075
 31
0.0
  0
LINE
  5
2A4A1
330
18
100
AcDbEntity
  8
0
  6
PHANTOM2
 48
0.3
370
     5
100
AcDbLine
 10
1762.409188234494
 20
-2204.579061704969
 30
0.0
 11
1762.409188234494
 21
-2284.579052469075
 31
0.0
  0
LINE
  5
2A4A2
330
18
100
AcDbEntity
  8
0
 48
0.3
370
    30
100
AcDbLine
 10
1776.409188234494
 20
-2205.579061704969
 30
0.0
 11
1776.409188234494
 21
-2284.579061704969
 31
0.0
  0
LINE
  5
2A4A3
330
18
100
AcDbEntity
  8
0
 48
0.3
370
    30
100
AcDbLine
 10
1768.609188234494
 20
-2205.579061704969
 30
0.0
 11
1768.609188234494
 21
-2284.579061704969
 31
0.0
  0
LINE
  5
2A4A4
330
18
100
AcDbEntity
  8
0
 48
0.3
370
    30
100
AcDbLine
 10
1763.609188234494
 20
-2219.349994552575
 30
0.0
 11
1763.609188234494
 21
-2269.808128857364
 31
0.0
  0
LINE
  5
2A4A5
330
18
100
AcDbEntity
  8
0
 48
0.3
370
    30
100
AcDbLine
 10
1768.609188234494
 20
-2219.349994552575
 30
0.0
 11
1768.609188234494
 21
-2269.808128857364
 31
0.0
  0
LINE
  5
2A4A6
330
18
100
AcDbEntity
  8
0
 48
0.3
370
    30
100
AcDbLine
 10
1768.609188234494
 20
-2284.579061704969
 30
0.0
 11
1776.409188234494
 21
-2284.579061704969
 31
0.0
  0
LINE
  5
2A4A7
330
18
100
AcDbEntity
  8
0
  6
HIDDEN
 48
0.3
370
    13
100
AcDbLine
 10
1768.609188234494
 20
-2280.079061704969
 30
0.0
 11
1776.409188234494
 21
-2280.079061704969
 31
0.0
  0
LINE
  5
2A4A8
330
18
100
AcDbEntity
  8
0
  6
HIDDEN
 48
0.3
370
    13
100
AcDbLine
 10
1768.609188234494
 20
-2274.079061704969
 30
0.0
 11
1776.409188234494
 21
-2274.079061704969
 31
0.0
  0
LINE
  5
2A4A9
330
18
100
AcDbEntity
  8
0
  6
CENTER
 48
0.3
370
    13
100
AcDbLine
 10
1763.609188234494
 20
-2277.079061704969
 30
0.0
 11
1781.409188234494
 21
-2277.079061704969
 31
0.0
  0
LINE
  5
2A4AA
330
18
100
AcDbEntity
  8
0
 48
0.3
370
    30
100
AcDbLine
 10
1763.609188234494
 20
-2269.808128857364
 30
0.0
 11
1768.609188234494
 21
-2269.808128857364
 31
0.0
  0
LINE
  5
2A4AE
330
18
100
AcDbEntity
  8
0
 48
0.3
370
    30
100
AcDbLine
 10
1775.409188234494
 20
-2204.579061704969
 30
0.0
 11
1776.409188234494
 21
-2205.579061704969
 31
0.0
  0
LINE
  5
2A4AF
330
18
100
AcDbEntity
  8
0
 48
0.3
370
    30
100
AcDbLine
 10
1768.609188234494
 20
-2205.579061704969
 30
0.0
 11
1769.609188234494
 21
-2204.579061704969
 31
0.0
  0
LINE
  5
2A4B0
330
18
100
AcDbEntity
  8
0
  6
HIDDEN
 48
0.3
370
    13
100
AcDbLine
 10
1768.609188234494
 20
-2215.079061704969
 30
0.0
 11
1776.409188234494
 21
-2215.079061704969
 31
0.0
  0
LINE
  5
2A4B1
330
18
100
AcDbEntity
  8
0
  6
HIDDEN
 48
0.3
370
    13
100
AcDbLine
 10
1768.609188234494
 20
-2209.079061704969
 30
0.0
 11
1776.409188234494
 21
-2209.079061704969
 31
0.0
  0
LINE
  5
2A4B2
330
18
100
AcDbEntity
  8
0
 48
0.3
370
    30
100
AcDbLine
 10
1769.609188234494
 20
-2204.579061704969
 30
0.0
 11
1775.409188234494
 21
-2204.579061704969
 31
0.0
  0
LINE
  5
2A4B4
330
18
100
AcDbEntity
  8
0
  6
CENTER
 48
0.3
370
    13
100
AcDbLine
 10
1763.609188234494
 20
-2212.079061704969
 30
0.0
 11
1781.409188234494
 21
-2212.079061704969
 31
0.0
  0
LINE
  5
2A4B5
330
18
100
AcDbEntity
  8
0
 48
0.3
370
    30
100
AcDbLine
 10
1763.609188234494
 20
-2219.349994552575
 30
0.0
 11
1768.609188234494
 21
-2219.349994552575
 31
0.0
  0
LWPOLYLINE
  5
2A784
330
18
100
AcDbEntity
  8
0
 48
0.3
370
    30
100
AcDbPolyline
 90
        4
 70
     1
 43
0.0
 10
1657.605156274633
 20
-2219.83858750641
 10
1655.860181439509
 20
-2269.808128857364
 10
1641.868709861241
 20
-2269.319535903529
 10
1643.613684696366
 20
-2219.349994552575
  0
LWPOLYLINE
  5
2A812
330
18
100
AcDbEntity
  8
0
 48
0.3
370
    18
100
AcDbPolyline
 90
        8
 70
     1
 43
0.0
 10
1638.82089858524
 20
-2282.727122057025
 10
1652.82089858524
 20
-2282.727122057026
 42
0.414213562373095
 10
1653.32089858524
 20
-2282.227122057026
 10
1653.32089858524
 20
-2273.227122057026
 42
0.414213562373095
 10
1652.82089858524
 20
-2272.727122057026
 10
1638.82089858524
 20
-2272.727122057026
 42
0.4142135623730996
 10
1638.32089858524
 20
-2273.227122057026
 10
1638.32089858524
 20
-2282.227122057025
 42
0.4142135623730904
  0
LINE
  5
2A814
330
18
100
AcDbEntity
  8
0
 48
0.3
370
    18
100
AcDbLine
 10
1638.32089858524
 20
-2276.727122057025
 30
0.0
 11
1653.32089858524
 21
-2276.727122057025
 31
0.0
  0
LINE
  5
2BC27
330
18
100
AcDbEntity
  8
0
 48
0.3
370
    18
100
AcDbLine
 10
1616.346933067938
 20
-2280.051761704969
 30
0.0
 11
1596.346933067938
 21
-2280.051761704969
 31
0.0
  0
LINE
  5
2BC28
330
18
100
AcDbEntity
  8
0
 48
0.3
370
    18
100
AcDbLine
 10
1616.346933067938
 20
-2274.051761704969
 30
0.0
 11
1616.346933067938
 21
-2280.051761704969
 31
0.0
  0
LINE
  5
2BC29
330
18
100
AcDbEntity
  8
0
 48
0.3
370
    18
100
AcDbLine
 10
1596.346933067938
 20
-2280.051761704969
 30
0.0
 11
1596.346933067938
 21
-2274.051761704969
 31
0.0
  0
LINE
  5
2BC2C
330
18
100
AcDbEntity
  8
0
 48
0.3
370
    18
100
AcDbLine
 10
1596.346933067938
 20
-2274.051761704969
 30
0.0
 11
1616.346933067938
 21
-2274.051761704969
 31
0.0
  0
MTEXT
  5
2BCAA
330
18
100
AcDbEntity
  8
0
 48
0.3
370
    18
100
AcDbMText
 10
1729.590448010897
 20
-2312.988909669243
 30
0.0
 40
3.0
 41
54.32884562737641
 71
     1
 72
     5
  1
{ＮＬＡシリーズ ＭＢＭＡ６４Ａ\PSE-55350C}
  7
ｽﾀｲﾙ3
 73
     1
 44
1.0
1001
ACAD
1000
ACAD_MTEXT_DEFINED_HEIGHT_BEGIN
1070
    46
1040
8.0
1000
ACAD_MTEXT_DEFINED_HEIGHT_END
  0
VIEWPORT
  5
29D04
330
29D03
100
AcDbEntity
 67
     1
  8
0
100
AcDbViewport
 10
0.0
 20
0.0
 30
0.0
 40
426.5290950570342
 41
374.0942166357665
 68
     1
 69
     1
 12
199.1187415391383
 22
153.3082924928511
 13
0.0
 23
0.0
 14
10.0
 24
10.0
 15
10.0
 25
10.0
 16
0.0
 26
0.0
 36
1.0
 17
0.0
 27
0.0
 37
0.0
 42
50.0
 43
0.0
 44
0.0
 45
374.0942166357665
 50
0.0
 51
0.0
 72
   100
 90
    32784
  1

281
     0
 71
     1
 74
     0
110
0.0
120
0.0
130
0.0
111
1.0
121
0.0
131
0.0
112
0.0
122
1.0
132
0.0
 79
     0
146
0.0
  0
VIEWPORT
  5
29D05
330
29D03
100
AcDbEntity
 67
     1
  8
M_VIEW
100
AcDbViewport
 10
200.0
 20
144.0
 30
0.0
 40
400.0
 41
288.0
 68
     2
 69
     2
 12
1677.939701482499
 22
-2265.396643110906
 13
0.0
 23
0.0
 14
10.0
 24
10.0
 15
10.0
 25
10.0
 16
0.0
 26
0.0
 36
1.0
 17
0.0
 27
0.0
 37
0.0
 42
50.0
 43
0.0
 44
0.0
 45
288.0
 50
0.0
 51
0.0
 72
   100
 90
    32768
  1

281
     0
 71
     1
 74
     0
110
0.0
120
0.0
130
0.0
111
1.0
121
0.0
131
0.0
112
0.0
122
1.0
132
0.0
 79
     0
146
0.0
  0
TEXT
  5
29D7B
330
29D03
100
AcDbEntity
 67
     1
  8
FRAME020
  6
Continuous
 62
     0
100
AcDbText
 10
235.0371299708803
 20
39.45424892526989
 30
0.0
 40
3.0
  1
File name／SE-37961.dwg
 41
0.8
100
AcDbText
  0
INSERT
  5
29DAA
330
29D03
100
AcDbEntity
 67
     1
  8
FRAME025
100
AcDbBlockReference
  2
機械A4横_LBP
 10
82.74908858651452
 20
152.0309590792271
 30
0.0
  0
TEXT
  5
29DAB
330
29D03
100
AcDbEntity
 67
     1
  8
文字
  6
ByBlock
 62
     0
100
AcDbText
 10
32.81885892396519
 20
73.01882819621747
 30
0.0
 40
3.2
  1

 50
90.0
 41
0.625
  7
MSｺﾞｼｯｸ
100
AcDbText
  0
TEXT
  5
29DAC
330
29D03
100
AcDbEntity
 67
     1
  8
文字
  6
ByBlock
 62
     0
100
AcDbText
 10
37.25020936743055
 20
73.01882819621747
 30
0.0
 40
3.2
  1

 50
90.0
 41
0.625
  7
MSｺﾞｼｯｸ
100
AcDbText
  0
TEXT
  5
29DAD
330
29D03
100
AcDbEntity
 67
     1
  8
FRAME020
  6
Continuous
100
AcDbText
 10
126.6213117262079
 20
29.63926951973459
 30
0.0
 40
2.5
  1

 41
0.625
  7
MSｺﾞｼｯｸ
100
AcDbText
  0
ENDSEC
  0
SECTION
  2
OBJECTS
  0
DICTIONARY
  5
C
330
0
100
AcDbDictionary
281
     1
  3
ACAD_DETAILVIEWSTYLE
350
2BBD7
  3
ACAD_GROUP
350
D
  3
ACAD_IMAGE_VARS
350
2BBC7
  3
ACAD_LAYOUT
350
DB2
  3
ACAD_MLINESTYLE
350
1B
  3
ACAD_PLOTSETTINGS
350
DB3
  3
ACAD_PLOTSTYLENAME
350
FB5B
  3
ACAD_SCALELIST
350
2BB9B
  3
ACAD_SECTIONVIEWSTYLE
350
2BBD8
  3
AcadDim
350
2A25C
  3
AcDbVariableDictionary
350
106A6
  3
APPDATA
350
2BBC5
  3
ASE_INDEX_DICTIONARY
350
1A99F
  3
DWGPROPS
350
2BCAE
1001
ACAD
1000
TREAT_AS_HARD
1070
     0
  0
DICTIONARY
  5
25084
330
2
100
AcDbDictionary
280
     1
281
     1
  3
ACAD_LAYERFILTERS
360
25085
  3
ACAD_LAYERSTATES
360
25092
  0
DICTIONARY
  5
2BBD7
102
{ACAD_REACTORS
330
C
102
}
330
C
100
AcDbDictionary
281
     1
  0
DICTIONARY
  5
D
102
{ACAD_REACTORS
330
C
102
}
330
C
100
AcDbDictionary
281
     1
1001
ACAD
1000
TREAT_AS_HARD
1070
     0
  0
RASTERVARIABLES
  5
2BBC7
102
{ACAD_REACTORS
330
C
102
}
330
C
100
AcDbRasterVariables
 90
        0
 70
     1
 71
     1
 72
     0
  0
DICTIONARY
  5
DB2
102
{ACAD_REACTORS
330
C
102
}
330
C
100
AcDbDictionary
281
     1
  3
Model
350
FB5D
  3
Sheet1
350
29E1F
1001
ACAD
1000
TREAT_AS_HARD
1070
     0
  0
DICTIONARY
  5
1B
102
{ACAD_REACTORS
330
C
102
}
330
C
100
AcDbDictionary
281
     1
  3
STANDARD
350
1C
1001
ACAD
1000
TREAT_AS_HARD
1070
     0
  0
DICTIONARY
  5
DB3
102
{ACAD_REACTORS
330
C
102
}
330
C
100
AcDbDictionary
281
     1
1001
ACAD
1000
TREAT_AS_HARD
1070
     0
  0
ACDBDICTIONARYWDFLT
  5
FB5B
102
{ACAD_REACTORS
330
C
102
}
330
C
100
AcDbDictionary
281
     1
  3
Normal
350
FB5C
100
AcDbDictionaryWithDefault
340
FB5C
  0
DICTIONARY
  5
2BB9B
102
{ACAD_REACTORS
330
C
102
}
330
C
100
AcDbDictionary
281
     1
  3
A0
350
2BB9C
  3
A1
350
2BB9D
  3
A2
350
2BB9E
  3
A3
350
2BB9F
  3
A4
350
2BBA0
  3
A5
350
2BBA1
  3
A6
350
2BBA2
  3
A7
350
2BBA3
  3
A8
350
2BBA4
  3
A9
350
2BBA5
  3
B0
350
2BBA6
  3
B1
350
2BBA7
  3
B2
350
2BBA8
  3
B3
350
2BBA9
  3
B4
350
2BBAA
  3
B5
350
2BBAB
  3
B6
350
2BBAC
  3
B7
350
2BBAD
  3
B8
350
2BBAE
  3
B9
350
2BBAF
  3
C0
350
2BBB0
  3
C1
350
2BBB1
  3
C2
350
2BBB2
  3
C3
350
2BBB3
  3
C4
350
2BBB4
  3
C5
350
2BBB5
  3
C6
350
2BBB6
  3
C7
350
2BBB7
  3
C8
350
2BBB8
  3
C9
350
2BBB9
  3
D0
350
2BBBA
  3
D1
350
2BBBB
  3
D2
350
2BBBC
  0
DICTIONARY
  5
2BBD8
102
{ACAD_REACTORS
330
C
102
}
330
C
100
AcDbDictionary
281
     1
  0
XRECORD
  5
2A25C
102
{ACAD_REACTORS
330
C
102
}
330
C
100
AcDbXrecord
280
     1
 90
   990106
  3

 60
     0
 61
     0
 62
     4
 63
     4
 64
     1
 65
     0
 66
     0
 67
     3
 68
     1
 69
     0
 70
     0
 71
     0
 72
     0
 40
0.0
170
     2
340
0
  0
DICTIONARY
  5
106A6
102
{ACAD_REACTORS
330
C
102
}
330
C
100
AcDbDictionary
281
     1
  3
SORTENTS
350
106A7
  0
DICTIONARY
  5
2BBC5
102
{ACAD_REACTORS
330
C
102
}
330
C
100
AcDbDictionary
281
     1
  0
DICTIONARY
  5
1A99F
102
{ACAD_REACTORS
330
C
102
}
330
C
100
AcDbDictionary
281
     1
  3
ASEBlockHierarchyIndexRecord
350
1A9A1
1001
DCO15
1040
1464612067.17
  0
XRECORD
  5
2BCAE
102
{ACAD_REACTORS
330
C
102
}
330
C
100
AcDbXrecord
280
     1
  1
DWGPROPS COOKIE
  2

  3

  4

  6

  7

  8
nishikawa
  9

300
=
301
=
302
=
303
=
304
=
305
=
306
=
307
=
308
=
309
=
 40
0.0
 41
2451224.285162384
 42
2457472.107588611
  1

 90
        0
  0
DICTIONARY
  5
25085
102
{ACAD_REACTORS
330
25084
102
}
330
25084
100
AcDbDictionary
280
     1
281
     1
  3
0
360
2BB1F
  3
11
360
2BB20
  3
150_
360
2BB21
  3
160_
360
2BB22
  3
170_
360
2BB23
  3
171_
360
2BB24
  3
350_
360
2BB25
  3
4
360
2BB26
  3
5
360
2BB27
  3
7
360
2BB28
  3
kiseki
360
2BB29
  0
DICTIONARY
  5
25092
102
{ACAD_REACTORS
330
25084
102
}
330
25084
100
AcDbDictionary
281
     1
  3
ARGON_LAYERP_1
350
2BC7A
  0
LAYOUT
  5
FB5D
102
{ACAD_REACTORS
330
DB2
102
}
330
DB2
100
AcDbPlotSettings
  1

  2
\\HONAMI\LBP-910
  4
A3
  6

 40
5.873749732971191
 41
5.873747825622559
 42
5.873748779296875
 43
5.873748779296875
 44
296.9259948730469
 45
419.9466552734375
 46
0.0
 47
0.0
 48
-134.0496161171159
 49
-116.2294073187234
140
1105.745250909008
141
633.2284101676228
142
1.0
143
2.866823569012709
 70
 11952
 72
     1
 73
     1
 74
     1
  7
monochrome.ctb
 75
     0
147
0.3488181173089717
148
98.7130430422485
149
74.96499340265336
100
AcDbLayout
  1
Model
 70
     1
 71
     0
 10
0.0
 20
0.0
 11
12.0
 21
9.0
 12
0.0
 22
0.0
 32
0.0
 14
1593.736933067938
 24
-2320.832659669243
 34
0.0
 15
1781.409188234494
 25
-2204.079061704969
 35
0.0
146
0.0
 13
0.0
 23
0.0
 33
0.0
 16
1.0
 26
0.0
 36
0.0
 17
0.0
 27
1.0
 37
0.0
 76
     0
330
18
331
2BB1E
  0
LAYOUT
  5
29E1F
102
{ACAD_REACTORS
330
DB2
102
}
330
DB2
100
AcDbPlotSettings
  1

  2
Adobe PDF.pc3
  4
A3
  6

 40
3.174999952316284
 41
3.174999952316284
 42
3.17498779296875
 43
3.17498779296875
 44
420.1583251953125
 45
297.0318298339844
 46
2.0
 47
-1.27
 48
0.0
 49
0.0
140
0.0
141
0.0
142
1.0
143
1.0
 70
   688
 72
     1
 73
     0
 74
     1
  7
monochrome.ctb
 75
    16
147
1.0
148
0.0183230874209812
149
1.522438404734771
100
AcDbLayout
  1
Sheet1
 70
     0
 71
     1
 10
-5.193323039737265
 20
-3.427438357051055
 11
414.9650021555752
 21
293.6043914769333
 12
0.0
 22
0.0
 32
0.0
 14
0.0
 24
0.0
 34
0.0
 15
400.0
 25
288.0
 35
0.0
146
0.0
 13
0.0
 23
0.0
 33
0.0
 16
1.0
 26
0.0
 36
0.0
 17
0.0
 27
1.0
 37
0.0
 76
     0
330
29D03
331
29D04
  0
MLINESTYLE
  5
1C
102
{ACAD_REACTORS
330
1B
102
}
330
1B
100
AcDbMlineStyle
  2
STANDARD
 70
     0
  3

 62
   256
 51
90.0
 52
90.0
 71
     2
 49
0.5
 62
   256
  6
BYLAYER
 49
-0.5
 62
   256
  6
BYLAYER
  0
ACDBPLACEHOLDER
  5
FB5C
102
{ACAD_REACTORS
330
FB5B
102
}
330
FB5B
  0
SCALE
  5
2BB9C
102
{ACAD_REACTORS
330
2BB9B
102
}
330
2BB9B
100
AcDbScale
 70
     0
300
1:1
140
1.0
141
1.0
290
     1
  0
SCALE
  5
2BB9D
102
{ACAD_REACTORS
330
2BB9B
102
}
330
2BB9B
100
AcDbScale
 70
     0
300
1:2
140
1.0
141
2.0
290
     0
  0
SCALE
  5
2BB9E
102
{ACAD_REACTORS
330
2BB9B
102
}
330
2BB9B
100
AcDbScale
 70
     0
300
1:4
140
1.0
141
4.0
290
     0
  0
SCALE
  5
2BB9F
102
{ACAD_REACTORS
330
2BB9B
102
}
330
2BB9B
100
AcDbScale
 70
     0
300
1:5
140
1.0
141
5.0
290
     0
  0
SCALE
  5
2BBA0
102
{ACAD_REACTORS
330
2BB9B
102
}
330
2BB9B
100
AcDbScale
 70
     0
300
1:8
140
1.0
141
8.0
290
     0
  0
SCALE
  5
2BBA1
102
{ACAD_REACTORS
330
2BB9B
102
}
330
2BB9B
100
AcDbScale
 70
     0
300
1:10
140
1.0
141
10.0
290
     0
  0
SCALE
  5
2BBA2
102
{ACAD_REACTORS
330
2BB9B
102
}
330
2BB9B
100
AcDbScale
 70
     0
300
1:16
140
1.0
141
16.0
290
     0
  0
SCALE
  5
2BBA3
102
{ACAD_REACTORS
330
2BB9B
102
}
330
2BB9B
100
AcDbScale
 70
     0
300
1:20
140
1.0
141
20.0
290
     0
  0
SCALE
  5
2BBA4
102
{ACAD_REACTORS
330
2BB9B
102
}
330
2BB9B
100
AcDbScale
 70
     0
300
1:30
140
1.0
141
30.0
290
     0
  0
SCALE
  5
2BBA5
102
{ACAD_REACTORS
330
2BB9B
102
}
330
2BB9B
100
AcDbScale
 70
     0
300
1:40
140
1.0
141
40.0
290
     0
  0
SCALE
  5
2BBA6
102
{ACAD_REACTORS
330
2BB9B
102
}
330
2BB9B
100
AcDbScale
 70
     0
300
1:50
140
1.0
141
50.0
290
     0
  0
SCALE
  5
2BBA7
102
{ACAD_REACTORS
330
2BB9B
102
}
330
2BB9B
100
AcDbScale
 70
     0
300
1:100
140
1.0
141
100.0
290
     0
  0
SCALE
  5
2BBA8
102
{ACAD_REACTORS
330
2BB9B
102
}
330
2BB9B
100
AcDbScale
 70
     0
300
2:1
140
2.0
141
1.0
290
     0
  0
SCALE
  5
2BBA9
102
{ACAD_REACTORS
330
2BB9B
102
}
330
2BB9B
100
AcDbScale
 70
     0
300
4:1
140
4.0
141
1.0
290
     0
  0
SCALE
  5
2BBAA
102
{ACAD_REACTORS
330
2BB9B
102
}
330
2BB9B
100
AcDbScale
 70
     0
300
8:1
140
8.0
141
1.0
290
     0
  0
SCALE
  5
2BBAB
102
{ACAD_REACTORS
330
2BB9B
102
}
330
2BB9B
100
AcDbScale
 70
     0
300
10:1
140
10.0
141
1.0
290
     0
  0
SCALE
  5
2BBAC
102
{ACAD_REACTORS
330
2BB9B
102
}
330
2BB9B
100
AcDbScale
 70
     0
300
100:1
140
100.0
141
1.0
290
     0
  0
SCALE
  5
2BBAD
102
{ACAD_REACTORS
330
2BB9B
102
}
330
2BB9B
100
AcDbScale
 70
     0
300
1/128" = 1'-0"
140
0.0078125
141
12.0
290
     0
  0
SCALE
  5
2BBAE
102
{ACAD_REACTORS
330
2BB9B
102
}
330
2BB9B
100
AcDbScale
 70
     0
300
1/64" = 1'-0"
140
0.015625
141
12.0
290
     0
  0
SCALE
  5
2BBAF
102
{ACAD_REACTORS
330
2BB9B
102
}
330
2BB9B
100
AcDbScale
 70
     0
300
1/32" = 1'-0"
140
0.03125
141
12.0
290
     0
  0
SCALE
  5
2BBB0
102
{ACAD_REACTORS
330
2BB9B
102
}
330
2BB9B
100
AcDbScale
 70
     0
300
1/16" = 1'-0"
140
0.0625
141
12.0
290
     0
  0
SCALE
  5
2BBB1
102
{ACAD_REACTORS
330
2BB9B
102
}
330
2BB9B
100
AcDbScale
 70
     0
300
3/32" = 1'-0"
140
0.09375
141
12.0
290
     0
  0
SCALE
  5
2BBB2
102
{ACAD_REACTORS
330
2BB9B
102
}
330
2BB9B
100
AcDbScale
 70
     0
300
1/8" = 1'-0"
140
0.125
141
12.0
290
     0
  0
SCALE
  5
2BBB3
102
{ACAD_REACTORS
330
2BB9B
102
}
330
2BB9B
100
AcDbScale
 70
     0
300
3/16" = 1'-0"
140
0.1875
141
12.0
290
     0
  0
SCALE
  5
2BBB4
102
{ACAD_REACTORS
330
2BB9B
102
}
330
2BB9B
100
AcDbScale
 70
     0
300
1/4" = 1'-0"
140
0.25
141
12.0
290
     0
  0
SCALE
  5
2BBB5
102
{ACAD_REACTORS
330
2BB9B
102
}
330
2BB9B
100
AcDbScale
 70
     0
300
3/8" = 1'-0"
140
0.375
141
12.0
290
     0
  0
SCALE
  5
2BBB6
102
{ACAD_REACTORS
330
2BB9B
102
}
330
2BB9B
100
AcDbScale
 70
     0
300
1/2" = 1'-0"
140
0.5
141
12.0
290
     0
  0
SCALE
  5
2BBB7
102
{ACAD_REACTORS
330
2BB9B
102
}
330
2BB9B
100
AcDbScale
 70
     0
300
3/4" = 1'-0"
140
0.75
141
12.0
290
     0
  0
SCALE
  5
2BBB8
102
{ACAD_REACTORS
330
2BB9B
102
}
330
2BB9B
100
AcDbScale
 70
     0
300
1" = 1'-0"
140
1.0
141
12.0
290
     0
  0
SCALE
  5
2BBB9
102
{ACAD_REACTORS
330
2BB9B
102
}
330
2BB9B
100
AcDbScale
 70
     0
300
1-1/2" = 1'-0"
140
1.5
141
12.0
290
     0
  0
SCALE
  5
2BBBA
102
{ACAD_REACTORS
330
2BB9B
102
}
330
2BB9B
100
AcDbScale
 70
     0
300
3" = 1'-0"
140
3.0
141
12.0
290
     0
  0
SCALE
  5
2BBBB
102
{ACAD_REACTORS
330
2BB9B
102
}
330
2BB9B
100
AcDbScale
 70
     0
300
6" = 1'-0"
140
6.0
141
12.0
290
     0
  0
SCALE
  5
2BBBC
102
{ACAD_REACTORS
330
2BB9B
102
}
330
2BB9B
100
AcDbScale
 70
     0
300
1'-0" = 1'-0"
140
12.0
141
12.0
290
     0
  0
DICTIONARYVAR
  5
106A7
102
{ACAD_REACTORS
330
106A6
102
}
330
106A6
100
DictionaryVariables
280
     0
  1
96
  0
XRECORD
  5
1A9A1
102
{ACAD_REACTORS
330
1A99F
102
}
330
1A99F
100
AcDbXrecord
280
     1
330
187D7
330
0
330
0
330
0
330
0
330
0
330
0
330
0
330
0
330
0
330
0
330
0
330
0
330
0
330
0
330
0
330
0
330
0
330
0
330
0
330
0
330
0
330
0
330
0
330
0
330
0
330
0
330
0
330
0
330
0
330
0
330
0
330
0
330
0
330
0
330
0
330
0
330
0
330
0
330
0
330
0
330
0
330
0
330
0
  0
XRECORD
  5
2BB1F
102
{ACAD_REACTORS
330
25085
102
}
330
25085
100
AcDbXrecord
280
     1
  1
0
  1
*0
  1
*
  1
*
 70
     0
  1
*
  1
*
  0
XRECORD
  5
2BB20
102
{ACAD_REACTORS
330
25085
102
}
330
25085
100
AcDbXrecord
280
     1
  1
11
  1
*11
  1
*
  1
*
 70
     0
  1
*
  1
*
  0
XRECORD
  5
2BB21
102
{ACAD_REACTORS
330
25085
102
}
330
25085
100
AcDbXrecord
280
     1
  1
150_
  1
150_*
  1
*
  1
*
 70
     0
  1
*
  1
*
  0
XRECORD
  5
2BB22
102
{ACAD_REACTORS
330
25085
102
}
330
25085
100
AcDbXrecord
280
     1
  1
160_
  1
160_*
  1
*
  1
*
 70
     0
  1
*
  1
*
  0
XRECORD
  5
2BB23
102
{ACAD_REACTORS
330
25085
102
}
330
25085
100
AcDbXrecord
280
     1
  1
170_
  1
170_*
  1
*
  1
*
 70
     0
  1
*
  1
*
  0
XRECORD
  5
2BB24
102
{ACAD_REACTORS
330
25085
102
}
330
25085
100
AcDbXrecord
280
     1
  1
171_
  1
171_*
  1
*
  1
*
 70
     0
  1
*
  1
*
  0
XRECORD
  5
2BB25
102
{ACAD_REACTORS
330
25085
102
}
330
25085
100
AcDbXrecord
280
     1
  1
350_
  1
350_*
  1
*
  1
*
 70
     0
  1
*
  1
*
  0
XRECORD
  5
2BB26
102
{ACAD_REACTORS
330
25085
102
}
330
25085
100
AcDbXrecord
280
     1
  1
4
  1
*4
  1
*
  1
*
 70
     0
  1
*
  1
*
  0
XRECORD
  5
2BB27
102
{ACAD_REACTORS
330
25085
102
}
330
25085
100
AcDbXrecord
280
     1
  1
5
  1
*5
  1
*
  1
*
 70
     0
  1
*
  1
*
  0
XRECORD
  5
2BB28
102
{ACAD_REACTORS
330
25085
102
}
330
25085
100
AcDbXrecord
280
     1
  1
7
  1
*7
  1
*
  1
*
 70
     0
  1
*
  1
*
  0
XRECORD
  5
2BB29
102
{ACAD_REACTORS
330
25085
102
}
330
25085
100
AcDbXrecord
280
     1
  1
kiseki
  1
kiseki*
  1
*
  1
*
 70
     0
  1
*
  1
*
  0
XRECORD
  5
2BC7A
102
{ACAD_REACTORS
330
25092
102
}
330
25092
100
AcDbXrecord
280
     1
 91
     1023
301

290
     0
302
A
330
E
 90
       24
 62
     7
370
    35
331
14
  1
Color_7
330
2C
 90
       13
 62
     1
370
    -3
331
14
  1
Color_1
330
30
 90
        8
 62
     7
370
    -3
331
14
  1
Color_7
330
651
 90
        9
 62
     7
370
    -3
331
14
  1
Color_7
330
0
 90
        8
 62
     7
370
    -3
331
14
  1
Color_7
330
A9BB
 90
        8
 62
     2
370
    30
331
14
  1
Color_2
330
122DE
 90
        9
 62
     4
370
    13
331
14
  1
Color_4
  0
ENDSEC
  0
EOF
