  0
SECTION
  2
HEADER
  9
$ACADVER
  1
AC1014
  9
$ACADMAINTVER
 70
     9
  9
$DWGCODEPAGE
  3
ANSI_932
  9
$INSBASE
 10
0.0
 20
0.0
 30
0.0
  9
$EXTMIN
 10
598.7291005496722
 20
-2285.079061704969
 30
0.0
  9
$EXTMAX
 10
979.1085681374058
 20
-2204.079061704969
 30
0.0
  9
$LIMMIN
 10
0.0
 20
0.0
  9
$LIMMAX
 10
420.0
 20
297.0
  9
$ORTHOMODE
 70
     1
  9
$REGENMODE
 70
     1
  9
$FILLMODE
 70
     1
  9
$QTEXTMODE
 70
     0
  9
$MIRRTEXT
 70
     0
  9
$DRAGMODE
 70
     2
  9
$LTSCALE
 40
20.0
  9
$OSMODE
 70
   959
  9
$ATTMODE
 70
     2
  9
$TEXTSIZE
 40
10.0
  9
$TRACEWID
 40
1.0
  9
$TEXTSTYLE
  7
ｽﾀｲﾙ3
  9
$CLAYER
  8
A
  9
$CELTYPE
  6
BYLAYER
  9
$CECOLOR
 62
   256
  9
$CELTSCALE
 40
1.0
  9
$DELOBJ
 70
     1
  9
$DISPSILH
 70
     0
  9
$DIMSCALE
 40
1.5
  9
$DIMASZ
 40
2.5
  9
$DIMEXO
 40
0.8
  9
$DIMDLI
 40
0.38
  9
$DIMRND
 40
0.0
  9
$DIMDLE
 40
0.0
  9
$DIMEXE
 40
0.18
  9
$DIMTP
 40
0.0
  9
$DIMTM
 40
0.0
  9
$DIMTXT
 40
3.0
  9
$DIMCEN
 40
0.0
  9
$DIMTSZ
 40
0.0
  9
$DIMTOL
 70
     0
  9
$DIMLIM
 70
     0
  9
$DIMTIH
 70
     0
  9
$DIMTOH
 70
     0
  9
$DIMSE1
 70
     0
  9
$DIMSE2
 70
     0
  9
$DIMTAD
 70
     3
  9
$DIMZIN
 70
     8
  9
$DIMBLK
  1
OPEN30
  9
$DIMASO
 70
     1
  9
$DIMSHO
 70
     1
  9
$DIMPOST
  1

  9
$DIMAPOST
  1

  9
$DIMALT
 70
     0
  9
$DIMALTD
 70
     2
  9
$DIMALTF
 40
25.4
  9
$DIMLFAC
 40
1.0
  9
$DIMTOFL
 70
     0
  9
$DIMTVP
 40
0.0
  9
$DIMTIX
 70
     0
  9
$DIMSOXD
 70
     0
  9
$DIMSAH
 70
     0
  9
$DIMBLK1
  1

  9
$DIMBLK2
  1

  9
$DIMSTYLE
  2
まこ
  9
$DIMCLRD
 70
     4
  9
$DIMCLRE
 70
     4
  9
$DIMCLRT
 70
   256
  9
$DIMTFAC
 40
1.0
  9
$DIMGAP
 40
0.5
  9
$DIMJUST
 70
     0
  9
$DIMSD1
 70
     0
  9
$DIMSD2
 70
     0
  9
$DIMTOLJ
 70
     1
  9
$DIMTZIN
 70
     0
  9
$DIMALTZ
 70
     0
  9
$DIMALTTZ
 70
     0
  9
$DIMFIT
 70
     1
  9
$DIMUPT
 70
     0
  9
$DIMUNIT
 70
     2
  9
$DIMDEC
 70
     8
  9
$DIMTDEC
 70
     8
  9
$DIMALTU
 70
     2
  9
$DIMALTTD
 70
     2
  9
$DIMTXSTY
  7
まこ
  9
$DIMAUNIT
 70
     0
  9
$LUNITS
 70
     2
  9
$LUPREC
 70
     4
  9
$SKETCHINC
 40
1.0
  9
$FILLETRAD
 40
2.0
  9
$AUNITS
 70
     0
  9
$AUPREC
 70
     0
  9
$MENU
  1
.
  9
$ELEVATION
 40
0.0
  9
$PELEVATION
 40
0.0
  9
$THICKNESS
 40
0.0
  9
$LIMCHECK
 70
     0
  9
$BLIPMODE
 70
     0
  9
$CHAMFERA
 40
1.0
  9
$CHAMFERB
 40
1.0
  9
$CHAMFERC
 40
20.0
  9
$CHAMFERD
 40
0.0
  9
$SKPOLY
 70
     0
  9
$TDCREATE
 40
2451224.660162384
  9
$TDUPDATE
 40
2455601.646569189
  9
$TDINDWG
 40
17.5404901505
  9
$TDUSRTIMER
 40
17.5404901505
  9
$USRTIMER
 70
     1
  9
$ANGBASE
 50
0.0
  9
$ANGDIR
 70
     0
  9
$PDMODE
 70
     0
  9
$PDSIZE
 40
0.0
  9
$PLINEWID
 40
0.0
  9
$COORDS
 70
     1
  9
$SPLFRAME
 70
     0
  9
$SPLINETYPE
 70
     6
  9
$SPLINESEGS
 70
     8
  9
$ATTDIA
 70
     0
  9
$ATTREQ
 70
     1
  9
$HANDLING
 70
-16383
  9
$HANDSEED
  5
2BB9A
  9
$SURFTAB1
 70
     6
  9
$SURFTAB2
 70
     6
  9
$SURFTYPE
 70
     6
  9
$SURFU
 70
     6
  9
$SURFV
 70
     6
  9
$UCSNAME
  2

  9
$UCSORG
 10
0.0
 20
0.0
 30
0.0
  9
$UCSXDIR
 10
1.0
 20
0.0
 30
0.0
  9
$UCSYDIR
 10
0.0
 20
1.0
 30
0.0
  9
$PUCSNAME
  2

  9
$PUCSORG
 10
0.0
 20
0.0
 30
0.0
  9
$PUCSXDIR
 10
1.0
 20
0.0
 30
0.0
  9
$PUCSYDIR
 10
0.0
 20
1.0
 30
0.0
  9
$USERI1
 70
     0
  9
$USERI2
 70
     0
  9
$USERI3
 70
     0
  9
$USERI4
 70
     0
  9
$USERI5
 70
     0
  9
$USERR1
 40
245.9999999999999
  9
$USERR2
 40
0.0
  9
$USERR3
 40
0.0
  9
$USERR4
 40
0.0
  9
$USERR5
 40
0.0
  9
$WORLDVIEW
 70
     1
  9
$SHADEDGE
 70
     3
  9
$SHADEDIF
 70
    70
  9
$TILEMODE
 70
     0
  9
$MAXACTVP
 70
    48
  9
$PINSBASE
 10
0.0
 20
0.0
 30
0.0
  9
$PLIMCHECK
 70
     0
  9
$PEXTMIN
 10
-0.0183230874209812
 20
-0.0046434767826895
 30
-0.0015258207003583
  9
$PEXTMAX
 10
400.0254648642733
 20
288.013933998193
 30
0.0000000349246037
  9
$PLIMMIN
 10
-7.791079397212115
 20
-6.021455106387161
  9
$PLIMMAX
 10
412.1555758762253
 20
290.9045397666596
  9
$UNITMODE
 70
     0
  9
$VISRETAIN
 70
     1
  9
$PLINEGEN
 70
     0
  9
$PSLTSCALE
 70
     0
  9
$TREEDEPTH
 70
  3020
  9
$PICKSTYLE
 70
     0
  9
$CMLSTYLE
  2
STANDARD
  9
$CMLJUST
 70
     0
  9
$CMLSCALE
 40
20.0
  9
$PROXYGRAPHICS
 70
     1
  9
$MEASUREMENT
 70
     0
  0
ENDSEC
  0
SECTION
  2
CLASSES
  0
CLASS
  1
HATCH
  2
AcDbHatch
  3
AutoCAD 2000
 90
        0
280
     0
281
     1
  0
CLASS
  1
LWPOLYLINE
  2
AcDbPolyline
  3
AutoCAD 2000
 90
        0
280
     0
281
     1
  0
CLASS
  1
ACDBDICTIONARYWDFLT
  2
AcDbDictionaryWithDefault
  3
AutoCAD 2000
 90
        0
280
     0
281
     0
  0
CLASS
  1
ACDBPLACEHOLDER
  2
AcDbPlaceHolder
  3
AutoCAD 2000
 90
        0
280
     0
281
     0
  0
CLASS
  1
LAYOUT
  2
AcDbLayout
  3
AutoCAD 2000
 90
        0
280
     0
281
     0
  0
CLASS
  1
LONG_TRANSACTION
  2
AcDbLongTransaction
  3
AutoCAD 2000
 90
        0
280
     0
281
     0
  0
CLASS
  1
LWPOLYLINE
  2
AcDbPolyline
  3
AutoCAD 2000
 90
        0
280
     0
281
     1
  0
CLASS
  1
HATCH
  2
AcDbHatch
  3
AutoCAD 2000
 90
        0
280
     0
281
     1
  0
CLASS
  1
XRECORD
  2
AcDbXrecord
  3
AutoCAD 2000
 90
        0
280
     0
281
     0
  0
CLASS
  1
DICTIONARYVAR
  2
AcDbDictionaryVar
  3
AutoCAD 2000
 90
        0
280
     0
281
     0
  0
CLASS
  1
LONG_TRANSACTION
  2
AcDbLongTransaction
  3
AutoCAD 2000
 90
        0
280
     0
281
     0
  0
CLASS
  1
LWPOLYLINE
  2
AcDbPolyline
  3
AutoCAD 2000
 90
        0
280
     0
281
     1
  0
CLASS
  1
HATCH
  2
AcDbHatch
  3
AutoCAD 2000
 90
        0
280
     0
281
     1
  0
CLASS
  1
XRECORD
  2
AcDbXrecord
  3
AutoCAD 2000
 90
        0
280
     0
281
     0
  0
ENDSEC
  0
SECTION
  2
TABLES
  0
TABLE
  2
VPORT
  5
8
330
0
100
AcDbSymbolTable
 70
     2
  0
VPORT
  5
2BB75
330
8
100
AcDbSymbolTableRecord
100
AcDbViewportTableRecord
  2
*ACTIVE
 70
     0
 10
0.0
 20
0.0
 11
1.0
 21
1.0
 12
788.9216327504664
 22
-2244.59605462227
 13
0.0
 23
0.0
 14
10.0
 24
10.0
 15
10.0
 25
10.0
 16
0.0
 26
0.0
 36
1.0
 17
0.0
 27
0.0
 37
0.0
 40
174.6984527736512
 41
2.184834123222748
 42
50.0
 43
0.0
 44
0.0
 50
0.0
 51
0.0
 71
     0
 72
   100
 73
     1
 74
     0
 75
     0
 76
     0
 77
     0
 78
     0
  0
ENDTAB
  0
TABLE
  2
LTYPE
  5
5
330
0
100
AcDbSymbolTable
 70
     6
  0
LTYPE
  5
12
330
5
100
AcDbSymbolTableRecord
100
AcDbLinetypeTableRecord
  2
BYBLOCK
 70
     0
  3

 72
    65
 73
     0
 40
0.0
  0
LTYPE
  5
13
330
5
100
AcDbSymbolTableRecord
100
AcDbLinetypeTableRecord
  2
BYLAYER
 70
     0
  3

 72
    65
 73
     0
 40
0.0
  0
LTYPE
  5
14
330
5
100
AcDbSymbolTableRecord
100
AcDbLinetypeTableRecord
  2
CONTINUOUS
 70
     0
  3
Solid line
 72
    65
 73
     0
 40
0.0
  0
LTYPE
  5
126C
330
5
100
AcDbSymbolTableRecord
100
AcDbLinetypeTableRecord
  2
CENTER
 70
     0
  3
____ _ ____ _ ____ _ ____ _ ____ _ ____ _ ____
 72
    65
 73
     4
 40
2.0
 49
1.25
 74
     0
 49
-0.25
 74
     0
 49
0.25
 74
     0
 49
-0.25
 74
     0
  0
LTYPE
  5
126E
330
5
100
AcDbSymbolTableRecord
100
AcDbLinetypeTableRecord
  2
DASHDOT
 70
     0
  3
__ . __ . __ . __ . __ . __ . __ . __ . __ . __
 72
    65
 73
     4
 40
1.0
 49
0.5
 74
     0
 49
-0.25
 74
     0
 49
0.0
 74
     0
 49
-0.25
 74
     0
  0
LTYPE
  5
1541F
330
5
100
AcDbSymbolTableRecord
100
AcDbLinetypeTableRecord
  2
HIDDEN
 70
     0
  3
_ _ _ _ _ _ _ _ _ _ _ _ _ _ _ _ _ _ _ _ _ _ _
 72
    65
 73
     2
 40
0.375
 49
0.25
 74
     0
 49
-0.125
 74
     0
  0
LTYPE
  5
15420
330
5
100
AcDbSymbolTableRecord
100
AcDbLinetypeTableRecord
  2
CENTER2
 70
     0
  3
Center (.5x) ___ _ ___ _ ___ _ ___ _ ___ _ ___
 72
    65
 73
     4
 40
1.125
 49
0.75
 74
     0
 49
-0.125
 74
     0
 49
0.125
 74
     0
 49
-0.125
 74
     0
  0
LTYPE
  5
15421
330
5
100
AcDbSymbolTableRecord
100
AcDbLinetypeTableRecord
  2
PHANTOM2
 70
     0
  3
Phantom (.5x) ___ _ _ ___ _ _ ___ _ _ ___ _ _
 72
    65
 73
     6
 40
1.25
 49
0.625
 74
     0
 49
-0.125
 74
     0
 49
0.125
 74
     0
 49
-0.125
 74
     0
 49
0.125
 74
     0
 49
-0.125
 74
     0
  0
ENDTAB
  0
TABLE
  2
LAYER
  5
2
102
{ACAD_XDICTIONARY
360
25084
102
}
330
0
100
AcDbSymbolTable
 70
    15
  0
LAYER
  5
E
330
2
100
AcDbSymbolTableRecord
100
AcDbLayerTableRecord
  2
0
 70
     2
 62
     7
  6
CONTINUOUS
  0
LAYER
  5
2C
330
2
100
AcDbSymbolTableRecord
100
AcDbLayerTableRecord
  2
M_VIEW
 70
     4
 62
    -1
  6
CONTINUOUS
  0
LAYER
  5
30
330
2
100
AcDbSymbolTableRecord
100
AcDbLayerTableRecord
  2
FRAME025
 70
     0
 62
     7
  6
CONTINUOUS
  0
LAYER
  5
12B
330
2
100
AcDbSymbolTableRecord
100
AcDbLayerTableRecord
  2
DEFPOINTS
 70
     4
 62
    -7
  6
CONTINUOUS
  0
LAYER
  5
651
330
2
100
AcDbSymbolTableRecord
100
AcDbLayerTableRecord
  2
FRAME020
 70
     0
 62
    -7
  6
CONTINUOUS
  0
LAYER
  5
1271
330
2
100
AcDbSymbolTableRecord
100
AcDbLayerTableRecord
  2
A
 70
     0
 62
     7
  6
CONTINUOUS
  0
LAYER
  5
A9BB
330
2
100
AcDbSymbolTableRecord
100
AcDbLayerTableRecord
  2
文字
 70
     0
 62
     7
  6
CONTINUOUS
  0
LAYER
  5
122DE
330
2
100
AcDbSymbolTableRecord
100
AcDbLayerTableRecord
  2
DIMENSION
 70
     0
 62
    -4
  6
CONTINUOUS
  0
LAYER
  5
15425
330
2
100
AcDbSymbolTableRecord
100
AcDbLayerTableRecord
  2
中心線
 70
     0
 62
     7
  6
CENTER2
  0
LAYER
  5
15426
330
2
100
AcDbSymbolTableRecord
100
AcDbLayerTableRecord
  2
仮想線
 70
     0
 62
     7
  6
PHANTOM2
  0
LAYER
  5
1A846
330
2
100
AcDbSymbolTableRecord
100
AcDbLayerTableRecord
  2
実線
 70
     0
 62
     7
  6
CONTINUOUS
  0
LAYER
  5
1BB55
330
2
100
AcDbSymbolTableRecord
100
AcDbLayerTableRecord
  2
ﾊｯﾁﾝｸ_
 70
     0
 62
     7
  6
CONTINUOUS
  0
LAYER
  5
25148
330
2
100
AcDbSymbolTableRecord
100
AcDbLayerTableRecord
  2
破線
 70
     0
 62
     7
  6
HIDDEN
  0
ENDTAB
  0
TABLE
  2
STYLE
  5
3
330
0
100
AcDbSymbolTable
 70
     9
  0
STYLE
  5
F
330
3
100
AcDbSymbolTableRecord
100
AcDbTextStyleTableRecord
  2
STANDARD
 70
     0
 40
0.0
 41
1.0
 50
0.0
 71
     0
 42
2.5
  3
isocp.shx
  4
bigfont.shx
  0
STYLE
  5
35
330
3
100
AcDbSymbolTableRecord
100
AcDbTextStyleTableRecord
  2
MSｺ_ｼｯｸ
 70
     0
 40
0.0
 41
1.0
 50
0.0
 71
     0
 42
5.0
  3
MS Gothic.ttf
  4

1001
ACAD
1000
MS Gothic
1071
    32817
  0
STYLE
  5
1275
330
3
100
AcDbSymbolTableRecord
100
AcDbTextStyleTableRecord
  2
BIGFONT
 70
     0
 40
2.0
 41
1.0
 50
0.0
 71
     0
 42
2.0
  3
txt.shx
  4
bigfont.shx
  0
STYLE
  5
1A849
330
3
100
AcDbSymbolTableRecord
100
AcDbTextStyleTableRecord
  2
まこ
 70
     0
 40
0.0
 41
1.0
 50
0.0
 71
     0
 42
2.5
  3
simplex.shx
  4
bigfont.shx
  0
STYLE
  5
1A84A
330
3
100
AcDbSymbolTableRecord
100
AcDbTextStyleTableRecord
  2
ｽﾀｲﾙ3
 70
     0
 40
10.0
 41
1.0
 50
0.0
 71
     0
 42
10.0
  3
isocp.shx
  4
extfont.shx
  0
ENDTAB
  0
TABLE
  2
VIEW
  5
6
330
0
100
AcDbSymbolTable
 70
     0
  0
ENDTAB
  0
TABLE
  2
UCS
  5
7
330
0
100
AcDbSymbolTable
 70
     0
  0
ENDTAB
  0
TABLE
  2
APPID
  5
9
330
0
100
AcDbSymbolTable
 70
     4
  0
APPID
  5
10
330
9
100
AcDbSymbolTableRecord
100
AcDbRegAppTableRecord
  2
ACAD
 70
     0
  0
APPID
  5
F013
330
9
100
AcDbSymbolTableRecord
100
AcDbRegAppTableRecord
  2
CONTENTBLOCKDESCRIPTION
 70
     0
  0
APPID
  5
F014
330
9
100
AcDbSymbolTableRecord
100
AcDbRegAppTableRecord
  2
CONTENTBLOCKICON
 70
     0
  0
APPID
  5
1A9A0
330
9
100
AcDbSymbolTableRecord
100
AcDbRegAppTableRecord
  2
DCO15
 70
     0
  0
ENDTAB
  0
TABLE
  2
DIMSTYLE
  5
A
330
0
100
AcDbSymbolTable
 70
     2
  0
DIMSTYLE
105
1D
330
A
100
AcDbSymbolTableRecord
100
AcDbDimStyleTableRecord
  2
STANDARD
 70
     0
  3

  4

  5

  6

  7

 40
1.0
 41
0.18
 42
0.0625
 43
0.38
 44
0.18
 45
0.0
 46
0.0
 47
0.0
 48
0.0
140
0.18
141
0.09
142
0.0
143
25.4
144
1.0
145
0.0
146
1.0
147
0.09
 71
     0
 72
     0
 73
     1
 74
     1
 75
     0
 76
     0
 77
     0
 78
     0
170
     0
171
     2
172
     0
173
     0
174
     0
175
     0
176
     0
177
     0
178
     0
270
     2
271
     4
272
     4
273
     2
274
     2
340
F
275
     0
280
     0
281
     0
282
     0
283
     1
284
     0
285
     0
286
     0
287
     3
288
     0
  0
DIMSTYLE
105
1A84D
330
A
100
AcDbSymbolTableRecord
100
AcDbDimStyleTableRecord
  2
まこ
 70
     0
  3

  4

  5
OPEN30
  6

  7

 40
1.5
 41
2.5
 42
0.8
 43
0.38
 44
0.18
 45
0.0
 46
0.0
 47
0.0
 48
0.0
140
3.0
141
0.0
142
0.0
143
25.4
144
1.0
145
0.0
146
1.0
147
0.5
 71
     0
 72
     0
 73
     0
 74
     0
 75
     0
 76
     0
 77
     3
 78
     8
170
     0
171
     2
172
     0
173
     0
174
     0
175
     0
176
     4
177
     4
178
   256
270
     2
271
     8
272
     8
273
     2
274
     2
340
1A849
275
     0
280
     0
281
     0
282
     0
283
     1
284
     0
285
     0
286
     0
287
     1
288
     0
  0
ENDTAB
  0
TABLE
  2
BLOCK_RECORD
  5
1
330
0
100
AcDbSymbolTable
 70
    17
  0
BLOCK_RECORD
  5
18
102
{ACAD_XDICTIONARY
360
EFC6
102
}
330
1
100
AcDbSymbolTableRecord
100
AcDbBlockTableRecord
  2
*MODEL_SPACE
  0
BLOCK_RECORD
  5
2A8DE
102
{ACAD_XDICTIONARY
360
2A9CC
102
}
330
1
100
AcDbSymbolTableRecord
100
AcDbBlockTableRecord
  2
*PAPER_SPACE
  0
BLOCK_RECORD
  5
115C
330
1
100
AcDbSymbolTableRecord
100
AcDbBlockTableRecord
  2
機械A4横_LBP
  0
BLOCK_RECORD
  5
1215D
330
1
100
AcDbSymbolTableRecord
100
AcDbBlockTableRecord
  2
_OPEN30
  0
ENDTAB
  0
ENDSEC
  0
SECTION
  2
BLOCKS
  0
BLOCK
  5
19
330
18
100
AcDbEntity
  8
0
100
AcDbBlockBegin
  2
*MODEL_SPACE
 70
     0
 10
0.0
 20
0.0
 30
0.0
  3
*MODEL_SPACE
  1

  0
ENDBLK
  5
1A
330
18
100
AcDbEntity
  8
0
100
AcDbBlockEnd
  0
BLOCK
  5
2A9CD
330
2A8DE
100
AcDbEntity
 67
     1
  8
0
100
AcDbBlockBegin
  2
*PAPER_SPACE
 70
     0
 10
0.0
 20
0.0
 30
0.0
  3
*PAPER_SPACE
  1

  0
ENDBLK
  5
2A9CE
330
2A8DE
100
AcDbEntity
 67
     1
  8
0
100
AcDbBlockEnd
  0
BLOCK
  5
115D
330
115C
100
AcDbEntity
  8
0
100
AcDbBlockBegin
  2
機械A4横_LBP
 70
     0
 10
0.0
 20
0.0
 30
0.0
  3
機械A4横_LBP
  1

  0
ENDBLK
  5
115E
330
115C
100
AcDbEntity
  8
0
100
AcDbBlockEnd
  0
BLOCK
  5
12161
330
1215D
100
AcDbEntity
  8
0
100
AcDbBlockBegin
  2
_OPEN30
 70
     0
 10
0.0
 20
0.0
 30
0.0
  3
_OPEN30
  1

  0
LINE
  5
1215E
330
1215D
100
AcDbEntity
  8
0
  6
BYBLOCK
 62
     0
100
AcDbLine
 10
-1.0
 20
0.26794919
 30
0.0
 11
0.0
 21
0.0
 31
0.0
  0
LINE
  5
1215F
330
1215D
100
AcDbEntity
  8
0
  6
BYBLOCK
 62
     0
100
AcDbLine
 10
0.0
 20
0.0
 30
0.0
 11
-1.0
 21
-0.26794919
 31
0.0
  0
LINE
  5
12160
330
1215D
100
AcDbEntity
  8
0
  6
BYBLOCK
 62
     0
100
AcDbLine
 10
0.0
 20
0.0
 30
0.0
 11
-1.0
 21
0.0
 31
0.0
  0
ENDBLK
  5
12162
330
1215D
100
AcDbEntity
  8
0
100
AcDbBlockEnd
  0
ENDSEC
  0
SECTION
  2
ENTITIES
  0
MTEXT
  5
176FC
330
18
100
AcDbEntity
  8
DIMENSION
 62
     2
100
AcDbMText
 10
-100.7823601383244
 20
171.621314412839
 30
0.0
 40
8.0
 41
0.0
 71
     4
 72
     1
  1

1001
ACAD
1000
MTEXTBEGIN
1070
    73
1070
     1
1070
    44
1040
1.0
1070
    74
1070
     0
1000
MTEXTEND
  0
MTEXT
  5
187CB
330
18
100
AcDbEntity
  8
0
  6
BYBLOCK
100
AcDbMText
 10
325.4874764241681
 20
2232.511722574347
 30
0.0
 40
2.0
 41
0.0
 71
     4
 72
     5
  1

 11
-0.0000000000000002
 21
-1.0
 31
0.0
1001
ACAD
1000
MTEXTBEGIN
1070
    73
1070
     1
1070
    44
1040
1.0
1070
    74
1070
     0
1000
MTEXTEND
1000
MTEXTBEGIN
1070
    73
1070
     1
1070
    44
1040
1.0
1070
    74
1070
     0
1000
MTEXTEND
  0
MTEXT
  5
187CC
330
18
100
AcDbEntity
  8
0
  6
BYBLOCK
100
AcDbMText
 10
360.9528647873208
 20
2221.718414215929
 30
0.0
 40
2.0
 41
0.0
 71
     7
 72
     5
  1

 11
0.0000000000000001
 21
1.0
 31
0.0
1001
ACAD
1000
MTEXTBEGIN
1070
    73
1070
     1
1070
    44
1040
1.0
1070
    74
1070
     0
1000
MTEXTEND
1000
MTEXTBEGIN
1070
    73
1070
     1
1070
    44
1040
1.0
1070
    74
1070
     0
1000
MTEXTEND
  0
MTEXT
  5
187CD
330
18
100
AcDbEntity
  8
0
100
AcDbMText
 10
325.1733668026532
 20
2146.93890367364
 30
0.0
 40
2.0
 41
10.1453
 71
     1
 72
     5
  1

 11
-0.0000000000000002
 21
-1.0
 31
0.0
1001
ACAD
1000
MTEXTBEGIN
1070
    73
1070
     1
1070
    44
1040
1.0
1070
    74
1070
     0
1000
MTEXTEND
1000
MTEXTBEGIN
1070
    73
1070
     1
1070
    44
1040
1.0
1070
    74
1070
     0
1000
MTEXTEND
  0
MTEXT
  5
187CE
330
18
100
AcDbEntity
  8
0
100
AcDbMText
 10
280.7738750495033
 20
2115.30742008065
 30
0.0
 40
2.0
 41
0.0
 71
     1
 72
     5
  1

1001
ACAD
1000
MTEXTBEGIN
1070
    73
1070
     1
1070
    44
1040
1.0
1070
    74
1070
     0
1000
MTEXTEND
1000
MTEXTBEGIN
1070
    73
1070
     1
1070
    44
1040
1.0
1070
    74
1070
     0
1000
MTEXTEND
  0
MTEXT
  5
187CF
330
18
100
AcDbEntity
  8
0
  6
CENTER
100
AcDbMText
 10
606.3621522332663
 20
2216.239946825076
 30
0.0
 40
2.0
 41
15.6417
 71
     1
 72
     5
  1

  7
BIGFONT
1001
ACAD
1000
MTEXTBEGIN
1070
    73
1070
     1
1070
    44
1040
1.0
1070
    74
1070
     0
1000
MTEXTEND
1000
MTEXTBEGIN
1070
    73
1070
     1
1070
    44
1040
1.0
1070
    74
1070
     0
1000
MTEXTEND
  0
MTEXT
  5
187D0
330
18
100
AcDbEntity
  8
0
  6
DASHDOT
100
AcDbMText
 10
368.6842112890944
 20
2323.029441652852
 30
0.0
 40
1.0
 41
2.0
 71
     1
 72
     5
  1

  7
BIGFONT
1001
ACAD
1000
MTEXTBEGIN
1070
    73
1070
     1
1070
    44
1040
1.0
1070
    74
1070
     0
1000
MTEXTEND
1000
MTEXTBEGIN
1070
    73
1070
     1
1070
    44
1040
1.0
1070
    74
1070
     0
1000
MTEXTEND
  0
MTEXT
  5
187D1
330
18
100
AcDbEntity
  8
0
  6
BYBLOCK
100
AcDbMText
 10
325.4873894192178
 20
2232.511722574347
 30
0.0
 40
2.0
 41
0.0
 71
     4
 72
     5
  1

 11
-0.0000000000000002
 21
-1.0
 31
0.0
1001
ACAD
1000
MTEXTBEGIN
1070
    73
1070
     1
1070
    44
1040
1.0
1070
    74
1070
     0
1000
MTEXTEND
1000
MTEXTBEGIN
1070
    73
1070
     1
1070
    44
1040
1.0
1070
    74
1070
     0
1000
MTEXTEND
  0
MTEXT
  5
187D2
330
18
100
AcDbEntity
  8
0
  6
BYBLOCK
100
AcDbMText
 10
360.9527777823707
 20
2221.718414215929
 30
0.0
 40
2.0
 41
0.0
 71
     7
 72
     5
  1

 11
0.0000000000000001
 21
1.0
 31
0.0
1001
ACAD
1000
MTEXTBEGIN
1070
    73
1070
     1
1070
    44
1040
1.0
1070
    74
1070
     0
1000
MTEXTEND
1000
MTEXTBEGIN
1070
    73
1070
     1
1070
    44
1040
1.0
1070
    74
1070
     0
1000
MTEXTEND
  0
MTEXT
  5
187D3
330
18
100
AcDbEntity
  8
0
100
AcDbMText
 10
325.1732797977028
 20
2146.93890367364
 30
0.0
 40
2.0
 41
10.1453
 71
     1
 72
     5
  1

 11
-0.0000000000000002
 21
-1.0
 31
0.0
1001
ACAD
1000
MTEXTBEGIN
1070
    73
1070
     1
1070
    44
1040
1.0
1070
    74
1070
     0
1000
MTEXTEND
1000
MTEXTBEGIN
1070
    73
1070
     1
1070
    44
1040
1.0
1070
    74
1070
     0
1000
MTEXTEND
  0
MTEXT
  5
187D4
330
18
100
AcDbEntity
  8
0
100
AcDbMText
 10
280.773788044553
 20
2115.30742008065
 30
0.0
 40
2.0
 41
0.0
 71
     1
 72
     5
  1

1001
ACAD
1000
MTEXTBEGIN
1070
    73
1070
     1
1070
    44
1040
1.0
1070
    74
1070
     0
1000
MTEXTEND
1000
MTEXTBEGIN
1070
    73
1070
     1
1070
    44
1040
1.0
1070
    74
1070
     0
1000
MTEXTEND
  0
MTEXT
  5
187D5
330
18
100
AcDbEntity
  8
0
  6
CENTER
100
AcDbMText
 10
606.3620652283159
 20
2216.239946825076
 30
0.0
 40
2.0
 41
15.6417
 71
     1
 72
     5
  1

  7
BIGFONT
1001
ACAD
1000
MTEXTBEGIN
1070
    73
1070
     1
1070
    44
1040
1.0
1070
    74
1070
     0
1000
MTEXTEND
1000
MTEXTBEGIN
1070
    73
1070
     1
1070
    44
1040
1.0
1070
    74
1070
     0
1000
MTEXTEND
  0
MTEXT
  5
187D6
330
18
100
AcDbEntity
  8
0
  6
DASHDOT
100
AcDbMText
 10
368.6841242841443
 20
2323.029441652852
 30
0.0
 40
1.0
 41
2.0
 71
     1
 72
     5
  1

  7
BIGFONT
1001
ACAD
1000
MTEXTBEGIN
1070
    73
1070
     1
1070
    44
1040
1.0
1070
    74
1070
     0
1000
MTEXTEND
1000
MTEXTBEGIN
1070
    73
1070
     1
1070
    44
1040
1.0
1070
    74
1070
     0
1000
MTEXTEND
  0
INSERT
  5
187D7
330
18
100
AcDbEntity
  8
FRAME025
100
AcDbBlockReference
  2
機械A4横_LBP
 10
271.0019941658661
 20
2006.88884056487
 30
0.0
  0
TEXT
  5
216E7
330
18
100
AcDbEntity
  8
FRAME020
  6
CONTINUOUS
100
AcDbText
 10
1272.84444499335
 20
-2736.187561819853
 30
0.0
 40
3.0
  1

 50
270.0
100
AcDbText
  0
MTEXT
  5
21ACC
330
18
100
AcDbEntity
  8
0
100
AcDbMText
 10
62.91095225984048
 20
-1280.130762802907
 30
0.0
 40
2.5
 41
0.625
 71
     9
 72
     1
  1

1001
ACAD
1000
MTEXTBEGIN
1070
    73
1070
     1
1070
    44
1040
1.0
1070
    74
1070
     0
1000
MTEXTEND
1000
MTEXTBEGIN
1070
    73
1070
     1
1070
    44
1040
1.0
1070
    74
1070
     0
1000
MTEXTEND
1000
MTEXTBEGIN
1070
    73
1070
     1
1070
    44
1040
1.0
1070
    74
1070
     0
1000
MTEXTEND
1000
MTEXTBEGIN
1070
    73
1070
     1
1070
    44
1040
1.0
1070
    74
1070
     0
1000
MTEXTEND
1000
MTEXTBEGIN
1070
    73
1070
     1
1070
    44
1040
1.0
1070
    74
1070
     0
1000
MTEXTEND
1000
MTEXTBEGIN
1070
    73
1070
     1
1070
    44
1040
1.0
1070
    74
1070
     0
1000
MTEXTEND
1000
MTEXTBEGIN
1070
    73
1070
     1
1070
    44
1040
1.0
1070
    74
1070
     0
1000
MTEXTEND
  0
ARC
  5
287D9
330
18
100
AcDbEntity
  8
実線
100
AcDbCircle
 10
695.2291005496722
 20
-2277.079061704969
 30
0.0
 40
3.0
100
AcDbArc
 50
270.0
 51
90.0
  0
LINE
  5
287DA
330
18
100
AcDbEntity
  8
中心線
 48
0.5
100
AcDbLine
 10
686.2291005496722
 20
-2277.079061704969
 30
0.0
 11
703.2291005496722
 21
-2277.079061704969
 31
0.0
  0
ARC
  5
287DB
330
18
100
AcDbEntity
  8
実線
100
AcDbCircle
 10
695.2291005496722
 20
-2212.079061704969
 30
0.0
 40
3.0
100
AcDbArc
 50
270.0
 51
90.0
  0
LINE
  5
287DC
330
18
100
AcDbEntity
  8
中心線
 48
0.5
100
AcDbLine
 10
686.2291005496722
 20
-2212.079061704969
 30
0.0
 11
703.2291005496722
 21
-2212.079061704969
 31
0.0
  0
LINE
  5
287DD
330
18
100
AcDbEntity
  8
実線
100
AcDbLine
 10
599.7291005496722
 20
-2204.579061704968
 30
0.0
 11
853.7291005496722
 21
-2204.579061704969
 31
0.0
  0
LINE
  5
287DE
330
18
100
AcDbEntity
  8
実線
100
AcDbLine
 10
599.7291005496722
 20
-2284.579061704969
 30
0.0
 11
853.7291005496722
 21
-2284.579061704969
 31
0.0
  0
LWPOLYLINE
  5
287E7
330
18
100
AcDbEntity
  8
実線
 48
10.0
100
AcDbPolyline
 90
        4
 70
     1
 43
0.0
 10
630.5973237563675
 20
-2219.83858750641
 10
628.8523489212429
 20
-2269.808128857364
 10
614.8608773429749
 20
-2269.319535903529
 10
616.6058521781004
 20
-2219.349994552575
  0
LINE
  5
287E9
330
18
100
AcDbEntity
  8
実線
100
AcDbLine
 10
598.7291005496722
 20
-2205.579061704968
 30
0.0
 11
598.7291005496722
 21
-2283.579061704969
 31
0.0
  0
LWPOLYLINE
  5
287EA
330
18
100
AcDbEntity
  8
実線
 48
10.0
100
AcDbPolyline
 90
        4
 70
     1
 43
0.0
 10
614.5973237563675
 20
-2219.83858750641
 10
612.8523489212429
 20
-2269.808128857364
 10
598.8608773429749
 20
-2269.319535903529
 10
600.6058521781004
 20
-2219.349994552575
  0
LINE
  5
287EB
330
18
100
AcDbEntity
  8
実線
100
AcDbLine
 10
598.7291005496722
 20
-2283.579061704969
 30
0.0
 11
599.7291005496722
 21
-2284.579061704969
 31
0.0
  0
LINE
  5
287EC
330
18
100
AcDbEntity
  8
実線
100
AcDbLine
 10
599.7291005496722
 20
-2204.579061704968
 30
0.0
 11
598.7291005496722
 21
-2205.579061704968
 31
0.0
  0
LWPOLYLINE
  5
287EF
330
18
100
AcDbEntity
  8
実線
 48
10.0
100
AcDbPolyline
 90
        4
 70
     1
 43
0.0
 10
662.5973237563674
 20
-2219.83858750641
 10
660.8523489212428
 20
-2269.808128857364
 10
646.860877342975
 20
-2269.319535903529
 10
648.6058521781004
 20
-2219.349994552575
  0
LINE
  5
287F7
102
{ACAD_REACTORS
330
28AEF
102
}
330
18
100
AcDbEntity
  8
0
100
AcDbLine
 10
679.7369015700442
 20
-2271.054417840714
 30
0.0
 11
645.7369015700442
 21
-2271.054417840714
 31
0.0
  0
LINE
  5
287F8
102
{ACAD_REACTORS
330
28AEF
102
}
330
18
100
AcDbEntity
  8
0
100
AcDbLine
 10
645.2369015700441
 20
-2278.054417840714
 30
0.0
 11
680.2369015700442
 21
-2278.054417840714
 31
0.0
  0
LINE
  5
287F9
102
{ACAD_REACTORS
330
28AEF
102
}
330
18
100
AcDbEntity
  8
0
100
AcDbLine
 10
645.7369015700442
 20
-2283.054417840714
 30
0.0
 11
679.7369015700442
 21
-2283.054417840714
 31
0.0
  0
LINE
  5
287FA
102
{ACAD_REACTORS
330
28AEF
102
}
330
18
100
AcDbEntity
  8
0
100
AcDbLine
 10
679.7369015700442
 20
-2271.054417840714
 30
0.0
 11
645.7369015700442
 21
-2271.054417840714
 31
0.0
  0
LINE
  5
287FB
102
{ACAD_REACTORS
330
28AEF
102
}
330
18
100
AcDbEntity
  8
0
100
AcDbLine
 10
645.7369015700442
 20
-2283.054417840714
 30
0.0
 11
679.7369015700442
 21
-2283.054417840714
 31
0.0
  0
LINE
  5
287FC
102
{ACAD_REACTORS
330
28AEF
102
}
330
18
100
AcDbEntity
  8
0
100
AcDbLine
 10
645.2369015700441
 20
-2278.054417840714
 30
0.0
 11
680.2369015700442
 21
-2278.054417840714
 31
0.0
  0
LWPOLYLINE
  5
287FD
330
18
100
AcDbEntity
  8
実線
 48
10.0
100
AcDbPolyline
 90
        4
 70
     1
 43
0.0
 10
646.5973237563674
 20
-2219.83858750641
 10
644.8523489212428
 20
-2269.808128857364
 10
630.860877342975
 20
-2269.319535903529
 10
632.6058521781004
 20
-2219.349994552575
  0
LINE
  5
287FE
330
18
100
AcDbEntity
  8
中心線
 48
0.5
100
AcDbLine
 10
622.2291005496722
 20
-2277.079061704969
 30
0.0
 11
639.2291005496722
 21
-2277.079061704969
 31
0.0
  0
ARC
  5
287FF
330
18
100
AcDbEntity
  8
実線
100
AcDbCircle
 10
631.2291005496722
 20
-2277.079061704969
 30
0.0
 40
3.0
100
AcDbArc
 50
270.0
 51
90.0
  0
LINE
  5
28800
330
18
100
AcDbEntity
  8
実線
100
AcDbLine
 10
630.2291005496722
 20
-2274.079061704969
 30
0.0
 11
631.2291005496722
 21
-2274.079061704969
 31
0.0
  0
LINE
  5
28801
330
18
100
AcDbEntity
  8
実線
100
AcDbLine
 10
630.2291005496722
 20
-2280.079061704969
 30
0.0
 11
631.2291005496722
 21
-2280.079061704969
 31
0.0
  0
LINE
  5
28802
330
18
100
AcDbEntity
  8
中心線
 48
0.5
100
AcDbLine
 10
630.7291005496717
 20
-2269.079061704969
 30
0.0
 11
630.7291005496717
 21
-2285.079061704969
 31
0.0
  0
ARC
  5
28803
330
18
100
AcDbEntity
  8
実線
100
AcDbCircle
 10
630.2291005496722
 20
-2277.079061704969
 30
0.0
 40
3.0
100
AcDbArc
 50
90.0
 51
270.0
  0
LINE
  5
2880C
102
{ACAD_REACTORS
330
28AEF
102
}
330
18
100
AcDbEntity
  8
0
100
AcDbLine
 10
645.2369015700441
 20
-2271.554417840714
 30
0.0
 11
645.2369015700441
 21
-2282.554417840714
 31
0.0
  0
LINE
  5
2880D
102
{ACAD_REACTORS
330
28AEF
102
}
330
18
100
AcDbEntity
  8
0
100
AcDbLine
 10
645.2369015700441
 20
-2271.554417840714
 30
0.0
 11
645.2369015700441
 21
-2282.554417840714
 31
0.0
  0
ARC
  5
2880E
102
{ACAD_REACTORS
330
28AEF
102
}
330
18
100
AcDbEntity
  8
0
100
AcDbCircle
 10
645.7369015700442
 20
-2282.554417840714
 30
0.0
 40
0.5
100
AcDbArc
 50
180.0
 51
270.0
  0
ARC
  5
2880F
102
{ACAD_REACTORS
330
28AEF
102
}
330
18
100
AcDbEntity
  8
0
100
AcDbCircle
 10
645.7369015700442
 20
-2282.554417840714
 30
0.0
 40
0.5
100
AcDbArc
 50
180.0
 51
270.0
  0
ARC
  5
28810
102
{ACAD_REACTORS
330
28AEF
102
}
330
18
100
AcDbEntity
  8
0
100
AcDbCircle
 10
645.7369015700442
 20
-2271.554417840714
 30
0.0
 40
0.5
100
AcDbArc
 50
90.0
 51
180.0
  0
ARC
  5
28811
102
{ACAD_REACTORS
330
28AEF
102
}
330
18
100
AcDbEntity
  8
0
100
AcDbCircle
 10
645.7369015700442
 20
-2271.554417840714
 30
0.0
 40
0.5
100
AcDbArc
 50
90.0
 51
180.0
  0
LINE
  5
2881F
330
18
100
AcDbEntity
  8
中心線
 48
0.5
100
AcDbLine
 10
622.2291005496722
 20
-2212.079061704969
 30
0.0
 11
639.2291005496722
 21
-2212.079061704969
 31
0.0
  0
LINE
  5
28820
330
18
100
AcDbEntity
  8
実線
100
AcDbLine
 10
630.2291005496722
 20
-2215.079061704969
 30
0.0
 11
631.2291005496722
 21
-2215.079061704969
 31
0.0
  0
LINE
  5
28821
330
18
100
AcDbEntity
  8
実線
100
AcDbLine
 10
630.2291005496722
 20
-2209.079061704969
 30
0.0
 11
631.2291005496722
 21
-2209.079061704969
 31
0.0
  0
ARC
  5
28822
330
18
100
AcDbEntity
  8
実線
100
AcDbCircle
 10
631.2291005496722
 20
-2212.079061704969
 30
0.0
 40
3.0
100
AcDbArc
 50
270.0
 51
90.0
  0
ARC
  5
28823
330
18
100
AcDbEntity
  8
実線
100
AcDbCircle
 10
630.2291005496722
 20
-2212.079061704969
 30
0.0
 40
3.0
100
AcDbArc
 50
90.0
 51
270.0
  0
LINE
  5
28824
330
18
100
AcDbEntity
  8
中心線
 48
0.5
100
AcDbLine
 10
630.7291005496717
 20
-2204.079061704969
 30
0.0
 11
630.7291005496717
 21
-2220.079061704969
 31
0.0
  0
LWPOLYLINE
  5
28825
330
18
100
AcDbEntity
  8
実線
 48
10.0
100
AcDbPolyline
 90
        4
 70
     1
 43
0.0
 10
694.5973237563674
 20
-2219.83858750641
 10
692.8523489212428
 20
-2269.808128857364
 10
678.8608773429749
 20
-2269.319535903529
 10
680.6058521781004
 20
-2219.349994552575
  0
LWPOLYLINE
  5
28826
330
18
100
AcDbEntity
  8
実線
 48
10.0
100
AcDbPolyline
 90
        4
 70
     1
 43
0.0
 10
678.5973237563674
 20
-2219.83858750641
 10
676.8523489212428
 20
-2269.808128857364
 10
662.8608773429749
 20
-2269.319535903529
 10
664.6058521781005
 20
-2219.349994552575
  0
LINE
  5
28829
330
18
100
AcDbEntity
  8
実線
100
AcDbLine
 10
694.2291005496722
 20
-2274.079061704969
 30
0.0
 11
695.2291005496722
 21
-2274.079061704969
 31
0.0
  0
LINE
  5
2882A
330
18
100
AcDbEntity
  8
実線
100
AcDbLine
 10
694.2291005496722
 20
-2280.079061704969
 30
0.0
 11
695.2291005496722
 21
-2280.079061704969
 31
0.0
  0
LINE
  5
2882B
330
18
100
AcDbEntity
  8
中心線
 48
0.5
100
AcDbLine
 10
694.7291005496717
 20
-2269.079061704969
 30
0.0
 11
694.7291005496717
 21
-2285.079061704969
 31
0.0
  0
ARC
  5
2882C
330
18
100
AcDbEntity
  8
実線
100
AcDbCircle
 10
694.2291005496722
 20
-2277.079061704969
 30
0.0
 40
3.0
100
AcDbArc
 50
90.0
 51
270.0
  0
LINE
  5
2882D
102
{ACAD_REACTORS
330
28AEF
102
}
330
18
100
AcDbEntity
  8
0
100
AcDbLine
 10
680.2369015700442
 20
-2282.554417840714
 30
0.0
 11
680.2369015700442
 21
-2271.554417840714
 31
0.0
  0
LINE
  5
2882E
102
{ACAD_REACTORS
330
28AEF
102
}
330
18
100
AcDbEntity
  8
0
100
AcDbLine
 10
680.2369015700442
 20
-2282.554417840714
 30
0.0
 11
680.2369015700442
 21
-2271.554417840714
 31
0.0
  0
ARC
  5
2882F
102
{ACAD_REACTORS
330
28AEF
102
}
330
18
100
AcDbEntity
  8
0
100
AcDbCircle
 10
679.7369015700442
 20
-2282.554417840714
 30
0.0
 40
0.5
100
AcDbArc
 50
270.0
 51
0.0
  0
ARC
  5
28830
102
{ACAD_REACTORS
330
28AEF
102
}
330
18
100
AcDbEntity
  8
0
100
AcDbCircle
 10
679.7369015700442
 20
-2282.554417840714
 30
0.0
 40
0.5
100
AcDbArc
 50
270.0
 51
0.0
  0
ARC
  5
28831
102
{ACAD_REACTORS
330
28AEF
102
}
330
18
100
AcDbEntity
  8
0
100
AcDbCircle
 10
679.7369015700442
 20
-2271.554417840714
 30
0.0
 40
0.5
100
AcDbArc
 50
0.0
 51
90.0
  0
ARC
  5
28832
102
{ACAD_REACTORS
330
28AEF
102
}
330
18
100
AcDbEntity
  8
0
100
AcDbCircle
 10
679.7369015700442
 20
-2271.554417840714
 30
0.0
 40
0.5
100
AcDbArc
 50
0.0
 51
90.0
  0
LINE
  5
28833
330
18
100
AcDbEntity
  8
実線
100
AcDbLine
 10
694.2291005496722
 20
-2209.079061704969
 30
0.0
 11
695.2291005496722
 21
-2209.079061704969
 31
0.0
  0
LINE
  5
28834
330
18
100
AcDbEntity
  8
実線
100
AcDbLine
 10
694.2291005496722
 20
-2215.079061704969
 30
0.0
 11
695.2291005496722
 21
-2215.079061704969
 31
0.0
  0
LINE
  5
28835
330
18
100
AcDbEntity
  8
中心線
 48
0.5
100
AcDbLine
 10
694.7291005496717
 20
-2204.079061704969
 30
0.0
 11
694.7291005496717
 21
-2220.079061704969
 31
0.0
  0
ARC
  5
28836
330
18
100
AcDbEntity
  8
実線
100
AcDbCircle
 10
694.2291005496722
 20
-2212.079061704969
 30
0.0
 40
3.0
100
AcDbArc
 50
90.0
 51
270.0
  0
ARC
  5
28842
330
18
100
AcDbEntity
  8
実線
100
AcDbCircle
 10
758.2291005496722
 20
-2277.079061704969
 30
0.0
 40
3.0
100
AcDbArc
 50
90.0
 51
270.0
  0
LINE
  5
28843
330
18
100
AcDbEntity
  8
中心線
 48
0.5
100
AcDbLine
 10
750.2291005496722
 20
-2277.079061704969
 30
0.0
 11
767.2291005496722
 21
-2277.079061704969
 31
0.0
  0
ARC
  5
28847
330
18
100
AcDbEntity
  8
実線
100
AcDbCircle
 10
759.2291005496722
 20
-2277.079061704969
 30
0.0
 40
3.0
100
AcDbArc
 50
270.0
 51
90.0
  0
LINE
  5
28848
330
18
100
AcDbEntity
  8
実線
100
AcDbLine
 10
758.2291005496722
 20
-2274.079061704969
 30
0.0
 11
759.2291005496722
 21
-2274.079061704969
 31
0.0
  0
LINE
  5
28849
330
18
100
AcDbEntity
  8
実線
100
AcDbLine
 10
758.2291005496722
 20
-2280.079061704969
 30
0.0
 11
759.2291005496722
 21
-2280.079061704969
 31
0.0
  0
LINE
  5
2884A
330
18
100
AcDbEntity
  8
中心線
 48
0.5
100
AcDbLine
 10
758.7291005496719
 20
-2269.079061704969
 30
0.0
 11
758.7291005496719
 21
-2285.079061704969
 31
0.0
  0
ARC
  5
2884B
330
18
100
AcDbEntity
  8
実線
100
AcDbCircle
 10
758.2291005496722
 20
-2212.079061704969
 30
0.0
 40
3.0
100
AcDbArc
 50
90.0
 51
270.0
  0
LINE
  5
2884C
330
18
100
AcDbEntity
  8
中心線
 48
0.5
100
AcDbLine
 10
750.2291005496722
 20
-2212.079061704969
 30
0.0
 11
767.2291005496722
 21
-2212.079061704969
 31
0.0
  0
ARC
  5
28850
330
18
100
AcDbEntity
  8
実線
100
AcDbCircle
 10
759.2291005496722
 20
-2212.079061704969
 30
0.0
 40
3.0
100
AcDbArc
 50
270.0
 51
90.0
  0
LINE
  5
28851
330
18
100
AcDbEntity
  8
実線
100
AcDbLine
 10
758.2291005496722
 20
-2209.079061704969
 30
0.0
 11
759.2291005496722
 21
-2209.079061704969
 31
0.0
  0
LINE
  5
28852
330
18
100
AcDbEntity
  8
実線
100
AcDbLine
 10
758.2291005496722
 20
-2215.079061704969
 30
0.0
 11
759.2291005496722
 21
-2215.079061704969
 31
0.0
  0
LINE
  5
28853
330
18
100
AcDbEntity
  8
中心線
 48
0.5
100
AcDbLine
 10
758.7291005496719
 20
-2204.079061704969
 30
0.0
 11
758.7291005496719
 21
-2220.079061704969
 31
0.0
  0
LINE
  5
28855
330
18
100
AcDbEntity
  8
中心線
 48
0.5
100
AcDbLine
 10
814.2291005496725
 20
-2277.079061704969
 30
0.0
 11
831.2291005496724
 21
-2277.079061704969
 31
0.0
  0
LINE
  5
28856
330
18
100
AcDbEntity
  8
中心線
 48
0.5
100
AcDbLine
 10
814.2291005496725
 20
-2212.079061704969
 30
0.0
 11
831.2291005496724
 21
-2212.079061704969
 31
0.0
  0
LINE
  5
28861
330
18
100
AcDbEntity
  8
実線
100
AcDbLine
 10
854.7291005496722
 20
-2205.579061704969
 30
0.0
 11
854.7291005496722
 21
-2283.579061704969
 31
0.0
  0
ARC
  5
28862
330
18
100
AcDbEntity
  8
実線
100
AcDbCircle
 10
823.2291005496724
 20
-2277.079061704969
 30
0.0
 40
3.0
100
AcDbArc
 50
270.0
 51
90.0
  0
LINE
  5
28863
330
18
100
AcDbEntity
  8
実線
100
AcDbLine
 10
822.2291005496725
 20
-2274.079061704969
 30
0.0
 11
823.2291005496724
 21
-2274.079061704969
 31
0.0
  0
LINE
  5
28864
330
18
100
AcDbEntity
  8
実線
100
AcDbLine
 10
822.2291005496725
 20
-2280.079061704969
 30
0.0
 11
823.2291005496724
 21
-2280.079061704969
 31
0.0
  0
LINE
  5
28865
330
18
100
AcDbEntity
  8
中心線
 48
0.5
100
AcDbLine
 10
822.729100549672
 20
-2269.079061704969
 30
0.0
 11
822.729100549672
 21
-2285.079061704969
 31
0.0
  0
ARC
  5
28866
330
18
100
AcDbEntity
  8
実線
100
AcDbCircle
 10
822.2291005496725
 20
-2277.079061704969
 30
0.0
 40
3.0
100
AcDbArc
 50
90.0
 51
270.0
  0
LINE
  5
28867
330
18
100
AcDbEntity
  8
実線
100
AcDbLine
 10
854.7291005496722
 20
-2283.579061704969
 30
0.0
 11
853.7291005496722
 21
-2284.579061704969
 31
0.0
  0
ARC
  5
28868
330
18
100
AcDbEntity
  8
実線
100
AcDbCircle
 10
823.2291005496724
 20
-2212.079061704969
 30
0.0
 40
3.0
100
AcDbArc
 50
270.0
 51
90.0
  0
LINE
  5
28869
330
18
100
AcDbEntity
  8
実線
100
AcDbLine
 10
822.2291005496725
 20
-2209.079061704969
 30
0.0
 11
823.2291005496724
 21
-2209.079061704969
 31
0.0
  0
LINE
  5
2886A
330
18
100
AcDbEntity
  8
実線
100
AcDbLine
 10
822.2291005496725
 20
-2215.079061704969
 30
0.0
 11
823.2291005496724
 21
-2215.079061704969
 31
0.0
  0
LINE
  5
2886B
330
18
100
AcDbEntity
  8
中心線
 48
0.5
100
AcDbLine
 10
822.729100549672
 20
-2204.079061704969
 30
0.0
 11
822.729100549672
 21
-2220.079061704969
 31
0.0
  0
ARC
  5
2886C
330
18
100
AcDbEntity
  8
実線
100
AcDbCircle
 10
822.2291005496725
 20
-2212.079061704969
 30
0.0
 40
3.0
100
AcDbArc
 50
90.0
 51
270.0
  0
LINE
  5
2886D
330
18
100
AcDbEntity
  8
実線
100
AcDbLine
 10
853.7291005496722
 20
-2204.579061704969
 30
0.0
 11
854.7291005496722
 21
-2205.579061704969
 31
0.0
  0
LINE
  5
288C1
330
18
100
AcDbEntity
  8
仮想線
 48
0.8
100
AcDbLine
 10
960.1085681374058
 20
-2284.579052469074
 30
0.0
 11
920.1085681374058
 21
-2284.579052469074
 31
0.0
  0
LINE
  5
288C2
330
18
100
AcDbEntity
  8
仮想線
 48
0.8
100
AcDbLine
 10
920.1085681374058
 20
-2204.579061704969
 30
0.0
 11
960.1085681374058
 21
-2204.579061704969
 31
0.0
  0
LINE
  5
288C3
330
18
100
AcDbEntity
  8
仮想線
 48
0.8
100
AcDbLine
 10
934.1085593528797
 20
-2280.607017840714
 30
0.0
 11
934.1085593528797
 21
-2208.607017840714
 31
0.0
  0
LINE
  5
288C4
330
18
100
AcDbEntity
  8
中心線
 48
0.45
100
AcDbLine
 10
928.1085681374058
 20
-2274.591144879543
 30
0.0
 11
928.1085681374058
 21
-2236.826301006634
 31
0.0
  0
LINE
  5
288C5
330
18
100
AcDbEntity
  8
仮想線
 48
0.8
100
AcDbLine
 10
922.1085593528798
 20
-2208.607017840714
 30
0.0
 11
922.1085593528798
 21
-2280.607017840714
 31
0.0
  0
LINE
  5
288C6
330
18
100
AcDbEntity
  8
仮想線
 48
0.8
100
AcDbLine
 10
920.6085681374059
 20
-2222.590262983021
 30
0.0
 11
920.6085681374059
 21
-2266.595807326768
 31
0.0
  0
LINE
  5
288C7
330
18
100
AcDbEntity
  8
中心線
 48
0.45
100
AcDbLine
 10
922.1089395435486
 20
-2267.579052469074
 30
0.0
 11
934.1089395435487
 21
-2267.579052469074
 31
0.0
  0
LINE
  5
288C8
330
18
100
AcDbEntity
  8
仮想線
 48
0.8
100
AcDbLine
 10
922.1085593528798
 20
-2280.607017840714
 30
0.0
 11
934.1085593528797
 21
-2280.607017840714
 31
0.0
  0
LINE
  5
288C9
330
18
100
AcDbEntity
  8
仮想線
 48
0.8
100
AcDbLine
 10
920.1085681374058
 20
-2284.579052469074
 30
0.0
 11
920.1085681374058
 21
-2266.595807326768
 31
0.0
  0
LINE
  5
288CA
330
18
100
AcDbEntity
  8
仮想線
 48
0.8
100
AcDbLine
 10
920.6085681374059
 20
-2266.595807326768
 30
0.0
 11
920.1085681374058
 21
-2266.595807326768
 31
0.0
  0
LINE
  5
288CB
330
18
100
AcDbEntity
  8
中心線
 48
0.45
100
AcDbLine
 10
945.8471761261717
 20
-2274.079052469074
 30
0.0
 11
934.3699601486401
 21
-2274.079052469074
 31
0.0
  0
LINE
  5
288CC
330
18
100
AcDbEntity
  8
ﾊｯﾁﾝｸ_
100
AcDbLine
 10
940.1085681374059
 20
-2271.427402039624
 30
0.0
 11
941.1696462823806
 21
-2270.366323894649
 31
0.0
  0
LINE
  5
288CD
330
18
100
AcDbEntity
  8
ﾊｯﾁﾝｸ_
100
AcDbLine
 10
940.1085681374059
 20
-2272.311285516108
 30
0.0
 11
941.801904745049
 21
-2270.617948908464
 31
0.0
  0
LINE
  5
288CE
330
18
100
AcDbEntity
  8
ﾊｯﾁﾝｸ_
100
AcDbLine
 10
940.1085681374059
 20
-2274.079052469074
 30
0.0
 11
942.8155949021602
 21
-2271.37202570432
 31
0.0
  0
LINE
  5
288CF
330
18
100
AcDbEntity
  8
ﾊｯﾁﾝｸ_
100
AcDbLine
 10
940.1085681374059
 20
-2273.195168992591
 30
0.0
 11
942.3471477749279
 21
-2270.95658935507
 31
0.0
  0
CIRCLE
  5
288D0
330
18
100
AcDbEntity
  8
仮想線
 48
0.8
100
AcDbCircle
 10
940.1085681374059
 20
-2273.952646965742
 30
0.0
 40
3.74
  0
LINE
  5
288D1
330
18
100
AcDbEntity
  8
ﾊｯﾁﾝｸ_
100
AcDbLine
 10
939.2471736304413
 20
-2277.592097405488
 30
0.0
 11
940.1085681374059
 21
-2276.730702898524
 31
0.0
  0
LINE
  5
288D2
330
18
100
AcDbEntity
  8
ﾊｯﾁﾝｸ_
100
AcDbLine
 10
940.1085681374059
 20
-2270.543518563141
 30
0.0
 11
940.425948763157
 21
-2270.226137937389
 31
0.0
  0
LINE
  5
288D3
330
18
100
AcDbEntity
  8
ﾊｯﾁﾝｸ_
100
AcDbLine
 10
936.7738700801277
 20
-2275.645983573386
 30
0.0
 11
938.3408011844402
 21
-2274.079052469073
 31
0.0
  0
LINE
  5
288D4
330
18
100
AcDbEntity
  8
ﾊｯﾁﾝｸ_
100
AcDbLine
 10
937.1125105267331
 20
-2276.191226603264
 30
0.0
 11
939.224684660923
 21
-2274.079052469074
 31
0.0
  0
LINE
  5
288D5
330
18
100
AcDbEntity
  8
ﾊｯﾁﾝｸ_
100
AcDbLine
 10
937.5279468759837
 20
-2276.659673730497
 30
0.0
 11
940.1085681374059
 21
-2274.079052469074
 31
0.0
  0
LINE
  5
288D6
330
18
100
AcDbEntity
  8
ﾊｯﾁﾝｸ_
100
AcDbLine
 10
938.0178256797917
 20
-2277.053678403173
 30
0.0
 11
940.1085681374059
 21
-2274.962935945558
 31
0.0
  0
LINE
  5
288D7
330
18
100
AcDbEntity
  8
ﾊｯﾁﾝｸ_
100
AcDbLine
 10
938.5864788601587
 20
-2277.368908699288
 30
0.0
 11
940.1085681374059
 21
-2275.846819422041
 31
0.0
  0
LINE
  5
288D8
330
18
100
AcDbEntity
  8
中心線
 48
0.45
100
AcDbLine
 10
940.1085681374059
 20
-2268.212646965742
 30
0.0
 11
940.1085681374059
 21
-2279.692646965742
 31
0.0
  0
LINE
  5
288D9
330
18
100
AcDbEntity
  8
ﾊｯﾁﾝｸ_
100
AcDbLine
 10
941.8763350903729
 20
-2274.079052469074
 30
0.0
 11
943.5248298709513
 21
-2272.430557688494
 31
0.0
  0
LINE
  5
288DA
330
18
100
AcDbEntity
  8
ﾊｯﾁﾝｸ_
100
AcDbLine
 10
940.9924516138893
 20
-2274.079052469074
 30
0.0
 11
943.2095995748358
 21
-2271.861904508128
 31
0.0
  0
CIRCLE
  5
288DB
330
18
100
AcDbEntity
  8
仮想線
100
AcDbCircle
 10
928.1085681374058
 20
-2267.579052469074
 30
0.0
 40
1.6
  0
CIRCLE
  5
288DC
330
18
100
AcDbEntity
  8
仮想線
100
AcDbCircle
 10
928.1089395435486
 20
-2267.579052469074
 30
0.0
 40
2.0
  0
CIRCLE
  5
288DE
330
18
100
AcDbEntity
  8
仮想線
 48
0.8
100
AcDbCircle
 10
928.108187946737
 20
-2274.591144879543
 30
0.0
 40
4.0
  0
LINE
  5
288DF
330
18
100
AcDbEntity
  8
中心線
 48
0.45
100
AcDbLine
 10
922.1089395435486
 20
-2243.579052469074
 30
0.0
 11
934.1089395435487
 21
-2243.579052469074
 31
0.0
  0
LINE
  5
288E0
330
18
100
AcDbEntity
  8
仮想線
 48
0.8
100
AcDbLine
 10
934.1085593528797
 20
-2208.607017840714
 30
0.0
 11
922.1085593528798
 21
-2208.607017840714
 31
0.0
  0
LINE
  5
288E1
330
18
100
AcDbEntity
  8
仮想線
 48
0.8
100
AcDbLine
 10
920.1085681374058
 20
-2222.590262983021
 30
0.0
 11
920.1085681374058
 21
-2204.579061704969
 31
0.0
  0
LINE
  5
288E2
330
18
100
AcDbEntity
  8
仮想線
 48
0.8
100
AcDbLine
 10
920.1085681374058
 20
-2222.590262983021
 30
0.0
 11
920.6085681374059
 21
-2222.590262983021
 31
0.0
  0
CIRCLE
  5
288E3
330
18
100
AcDbEntity
  8
仮想線
100
AcDbCircle
 10
928.1089395435486
 20
-2243.579052469074
 30
0.0
 40
2.0
  0
CIRCLE
  5
288E4
330
18
100
AcDbEntity
  8
仮想線
100
AcDbCircle
 10
928.1085681374058
 20
-2243.579052469074
 30
0.0
 40
1.6
  0
CIRCLE
  5
288E5
330
18
100
AcDbEntity
  8
仮想線
 48
0.8
100
AcDbCircle
 10
928.108187946737
 20
-2214.591144879543
 30
0.0
 40
4.0
  0
LINE
  5
288E6
102
{ACAD_REACTORS
330
28AF0
102
}
330
18
100
AcDbEntity
  8
実線
100
AcDbLine
 10
966.3085681374059
 20
-2219.349994552575
 30
0.0
 11
966.3085681374056
 21
-2269.808128857364
 31
0.0
  0
LINE
  5
288E7
102
{ACAD_REACTORS
330
28AF0
102
}
330
18
100
AcDbEntity
  8
実線
100
AcDbLine
 10
961.3085681374059
 20
-2219.349994552575
 30
0.0
 11
961.3085681374057
 21
-2269.808128857364
 31
0.0
  0
LINE
  5
288E8
102
{ACAD_REACTORS
330
28AEE
102
}
330
18
100
AcDbEntity
  8
実線
100
AcDbLine
 10
966.3085681374056
 20
-2205.579061704969
 30
0.0
 11
966.3085681374056
 21
-2284.579061704969
 31
0.0
  0
LINE
  5
288E9
102
{ACAD_REACTORS
330
28AEE
102
}
330
18
100
AcDbEntity
  8
実線
100
AcDbLine
 10
974.1085681374057
 20
-2205.579061704969
 30
0.0
 11
974.1085681374057
 21
-2284.579061704969
 31
0.0
  0
LINE
  5
288EA
330
18
100
AcDbEntity
  8
仮想線
 48
0.8
100
AcDbLine
 10
960.1085681374058
 20
-2204.579061704969
 30
0.0
 11
960.1085681374058
 21
-2284.579052469074
 31
0.0
  0
LINE
  5
288EB
102
{ACAD_REACTORS
330
28AF0
102
}
330
18
100
AcDbEntity
  8
実線
100
AcDbLine
 10
961.3085681374057
 20
-2269.808128857364
 30
0.0
 11
966.3085681374056
 21
-2269.808128857364
 31
0.0
  0
LINE
  5
288EC
102
{ACAD_REACTORS
330
28AEE
102
}
330
18
100
AcDbEntity
  8
中心線
 48
0.3
100
AcDbLine
 10
961.3085681374057
 20
-2277.079061704969
 30
0.0
 11
979.1085681374058
 21
-2277.079061704969
 31
0.0
  0
LINE
  5
288ED
102
{ACAD_REACTORS
330
28AEE
102
}
330
18
100
AcDbEntity
  8
破線
 48
0.7
100
AcDbLine
 10
966.3085681374058
 20
-2274.079061704969
 30
0.0
 11
974.1085681374057
 21
-2274.079061704969
 31
0.0
  0
LINE
  5
288EE
102
{ACAD_REACTORS
330
28AEE
102
}
330
18
100
AcDbEntity
  8
破線
 48
0.7
100
AcDbLine
 10
966.3085681374056
 20
-2280.079061704969
 30
0.0
 11
974.1085681374057
 21
-2280.079061704969
 31
0.0
  0
LINE
  5
288EF
102
{ACAD_REACTORS
330
28AEE
102
}
330
18
100
AcDbEntity
  8
実線
100
AcDbLine
 10
966.3085681374056
 20
-2284.579061704969
 30
0.0
 11
974.1085681374057
 21
-2284.579061704969
 31
0.0
  0
LINE
  5
288F0
102
{ACAD_REACTORS
330
28AF0
102
}
330
18
100
AcDbEntity
  8
実線
100
AcDbLine
 10
961.3085681374059
 20
-2219.349994552575
 30
0.0
 11
966.3085681374059
 21
-2219.349994552575
 31
0.0
  0
LINE
  5
288F1
102
{ACAD_REACTORS
330
28AEE
102
}
330
18
100
AcDbEntity
  8
中心線
 48
0.3
100
AcDbLine
 10
961.3085681374059
 20
-2212.079061704969
 30
0.0
 11
979.1085681374058
 21
-2212.079061704969
 31
0.0
  0
LINE
  5
288F3
102
{ACAD_REACTORS
330
28AEE
102
}
330
18
100
AcDbEntity
  8
実線
100
AcDbLine
 10
967.3085681374057
 20
-2204.579061704969
 30
0.0
 11
973.1085681374057
 21
-2204.579061704969
 31
0.0
  0
LINE
  5
288F4
102
{ACAD_REACTORS
330
28AEE
102
}
330
18
100
AcDbEntity
  8
破線
 48
0.7
100
AcDbLine
 10
966.3085681374059
 20
-2209.079061704969
 30
0.0
 11
974.1085681374059
 21
-2209.079061704969
 31
0.0
  0
LINE
  5
288F5
102
{ACAD_REACTORS
330
28AEE
102
}
330
18
100
AcDbEntity
  8
破線
 48
0.7
100
AcDbLine
 10
966.3085681374059
 20
-2215.079061704969
 30
0.0
 11
974.1085681374059
 21
-2215.079061704969
 31
0.0
  0
LWPOLYLINE
  5
28E1E
330
18
100
AcDbEntity
  8
実線
 48
10.0
100
AcDbPolyline
 90
        4
 70
     1
 43
0.0
 10
710.5973237563675
 20
-2219.83858750641
 10
708.8523489212429
 20
-2269.808128857364
 10
694.8608773429749
 20
-2269.319535903529
 10
696.6058521781004
 20
-2219.349994552575
  0
LWPOLYLINE
  5
28E1F
330
18
100
AcDbEntity
  8
実線
 48
10.0
100
AcDbPolyline
 90
        4
 70
     1
 43
0.0
 10
726.5973237563675
 20
-2219.83858750641
 10
724.8523489212429
 20
-2269.808128857364
 10
710.8608773429749
 20
-2269.319535903529
 10
712.6058521781004
 20
-2219.349994552575
  0
LWPOLYLINE
  5
28E20
330
18
100
AcDbEntity
  8
実線
 48
10.0
100
AcDbPolyline
 90
        4
 70
     1
 43
0.0
 10
742.5973237563674
 20
-2219.83858750641
 10
740.8523489212428
 20
-2269.808128857364
 10
726.8608773429749
 20
-2269.319535903529
 10
728.6058521781004
 20
-2219.349994552575
  0
LWPOLYLINE
  5
28E21
330
18
100
AcDbEntity
  8
実線
 48
10.0
100
AcDbPolyline
 90
        4
 70
     1
 43
0.0
 10
758.5973237563674
 20
-2219.83858750641
 10
756.8523489212428
 20
-2269.808128857364
 10
742.860877342975
 20
-2269.319535903529
 10
744.6058521781004
 20
-2219.349994552575
  0
LWPOLYLINE
  5
28E22
330
18
100
AcDbEntity
  8
実線
 48
10.0
100
AcDbPolyline
 90
        4
 70
     1
 43
0.0
 10
774.5973237563674
 20
-2219.83858750641
 10
772.8523489212428
 20
-2269.808128857364
 10
758.8608773429749
 20
-2269.319535903529
 10
760.6058521781005
 20
-2219.349994552575
  0
LWPOLYLINE
  5
28E23
330
18
100
AcDbEntity
  8
実線
 48
10.0
100
AcDbPolyline
 90
        4
 70
     1
 43
0.0
 10
790.5973237563674
 20
-2219.83858750641
 10
788.8523489212428
 20
-2269.808128857364
 10
774.8608773429749
 20
-2269.319535903529
 10
776.6058521781005
 20
-2219.349994552575
  0
LWPOLYLINE
  5
28E24
330
18
100
AcDbEntity
  8
実線
 48
10.0
100
AcDbPolyline
 90
        4
 70
     1
 43
0.0
 10
806.5973237563675
 20
-2219.83858750641
 10
804.8523489212428
 20
-2269.808128857364
 10
790.8608773429749
 20
-2269.319535903529
 10
792.6058521781004
 20
-2219.349994552575
  0
LWPOLYLINE
  5
28E25
330
18
100
AcDbEntity
  8
実線
 48
10.0
100
AcDbPolyline
 90
        4
 70
     1
 43
0.0
 10
822.5973237563675
 20
-2219.83858750641
 10
820.8523489212428
 20
-2269.808128857364
 10
806.8608773429749
 20
-2269.319535903529
 10
808.6058521781005
 20
-2219.349994552575
  0
LWPOLYLINE
  5
28E26
330
18
100
AcDbEntity
  8
実線
 48
10.0
100
AcDbPolyline
 90
        4
 70
     1
 43
0.0
 10
838.5973237563675
 20
-2219.83858750641
 10
836.8523489212428
 20
-2269.808128857364
 10
822.8608773429749
 20
-2269.319535903529
 10
824.6058521781005
 20
-2219.349994552575
  0
LWPOLYLINE
  5
28E27
330
18
100
AcDbEntity
  8
実線
 48
10.0
100
AcDbPolyline
 90
        4
 70
     1
 43
0.0
 10
854.5973237563675
 20
-2219.83858750641
 10
852.8523489212428
 20
-2269.808128857364
 10
838.860877342975
 20
-2269.319535903529
 10
840.6058521781003
 20
-2219.349994552575
  0
LINE
  5
28E3A
102
{ACAD_REACTORS
330
28E67
102
}
330
18
100
AcDbEntity
  8
0
 48
10.0
100
AcDbLine
 10
679.7369015700442
 20
-2205.883383521392
 30
0.0
 11
645.7369015700442
 21
-2205.883383521392
 31
0.0
  0
LINE
  5
28E3B
102
{ACAD_REACTORS
330
28E67
102
}
330
18
100
AcDbEntity
  8
0
 48
10.0
100
AcDbLine
 10
645.7369015700442
 20
-2217.883383521392
 30
0.0
 11
679.7369015700442
 21
-2217.883383521392
 31
0.0
  0
LINE
  5
28E3E
102
{ACAD_REACTORS
330
28E67
102
}
330
18
100
AcDbEntity
  8
0
 48
10.0
100
AcDbLine
 10
680.2369015700442
 20
-2210.883383521391
 30
0.0
 11
645.2369015700424
 21
-2210.883383521391
 31
0.0
  0
LINE
  5
28E3F
102
{ACAD_REACTORS
330
28E67
102
}
330
18
100
AcDbEntity
  8
0
 48
10.0
100
AcDbLine
 10
645.2369015700441
 20
-2206.383383521392
 30
0.0
 11
645.2369015700441
 21
-2217.383383521391
 31
0.0
  0
ARC
  5
28E40
102
{ACAD_REACTORS
330
28E67
102
}
330
18
100
AcDbEntity
  8
0
 48
10.0
100
AcDbCircle
 10
645.7369015700442
 20
-2217.38338352139
 30
0.0
 40
0.5
100
AcDbArc
 50
180.0
 51
270.0
  0
ARC
  5
28E41
102
{ACAD_REACTORS
330
28E67
102
}
330
18
100
AcDbEntity
  8
0
 48
10.0
100
AcDbCircle
 10
645.7369015700442
 20
-2206.38338352139
 30
0.0
 40
0.5
100
AcDbArc
 50
90.0
 51
180.0
  0
LINE
  5
28E42
102
{ACAD_REACTORS
330
28E67
102
}
330
18
100
AcDbEntity
  8
0
 48
10.0
100
AcDbLine
 10
680.2369015700442
 20
-2217.383383521391
 30
0.0
 11
680.2369015700442
 21
-2206.383383521392
 31
0.0
  0
ARC
  5
28E43
102
{ACAD_REACTORS
330
28E67
102
}
330
18
100
AcDbEntity
  8
0
 48
10.0
100
AcDbCircle
 10
679.7369015700442
 20
-2217.38338352139
 30
0.0
 40
0.5
100
AcDbArc
 50
270.0
 51
0.0
  0
ARC
  5
28E44
102
{ACAD_REACTORS
330
28E67
102
}
330
18
100
AcDbEntity
  8
0
 48
10.0
100
AcDbCircle
 10
679.7369015700442
 20
-2206.38338352139
 30
0.0
 40
0.5
100
AcDbArc
 50
0.0
 51
90.0
  0
LINE
  5
28E58
102
{ACAD_REACTORS
330
28E7F
102
}
330
18
100
AcDbEntity
  8
0
 48
10.0
100
AcDbLine
 10
710.2369015700442
 20
-2276.727122057025
 30
0.0
 11
725.2369015700442
 21
-2276.727122057025
 31
0.0
  0
LWPOLYLINE
  5
28E5A
102
{ACAD_REACTORS
330
28E7F
102
}
330
18
100
AcDbEntity
  8
0
 48
10.0
100
AcDbPolyline
 90
        8
 70
     1
 43
0.0
 10
710.7369015700442
 20
-2282.727122057024
 10
724.7369015700442
 20
-2282.727122057026
 42
0.4142135623730951
 10
725.2369015700442
 20
-2282.227122057026
 10
725.2369015700442
 20
-2273.227122057026
 42
0.4142135623730951
 10
724.7369015700442
 20
-2272.727122057025
 10
710.7369015700442
 20
-2272.727122057025
 42
0.4142135623730996
 10
710.2369015700442
 20
-2273.227122057026
 10
710.2369015700442
 20
-2282.227122057025
 42
0.4142135623730904
  0
LINE
  5
2A258
330
18
100
AcDbEntity
  8
実線
100
AcDbLine
 10
966.3085681374056
 20
-2205.579061704969
 30
0.0
 11
967.3085681374057
 21
-2204.579061704969
 31
0.0
  0
LINE
  5
2A259
330
18
100
AcDbEntity
  8
実線
100
AcDbLine
 10
973.1085681374057
 20
-2204.579061704969
 30
0.0
 11
974.1085681374057
 21
-2205.579061704969
 31
0.0
  0
VIEWPORT
  5
2A8DF
330
2A8DE
100
AcDbEntity
 67
     1
  8
0
100
AcDbViewport
 10
202.1822482395066
 20
142.4415423301362
 30
0.0
 40
653.3404412610555
 41
299.0343451325004
 68
     1
 69
     1
1001
ACAD
1000
MVIEW
1002
{
1070
    16
1010
0.0
1020
0.0
1030
0.0
1010
0.0
1020
0.0
1030
1.0
1040
0.0
1040
299.0343451325004
1040
202.1822482395066
1040
142.4415423301362
1040
50.0
1040
0.0
1040
0.0
1070
     0
1070
   100
1070
     1
1070
     0
1070
     0
1070
     0
1070
     0
1070
     0
1040
0.0
1040
0.0
1040
0.0
1040
10.0
1040
10.0
1040
10.0
1040
10.0
1070
     0
1002
{
1002
}
1002
}
  0
VIEWPORT
  5
2A8E0
330
2A8DE
100
AcDbEntity
 67
     1
  8
M_VIEW
100
AcDbViewport
 10
200.0
 20
144.0
 30
0.0
 40
400.0
 41
288.0
 68
     2
 69
     2
1001
ACAD
1000
MVIEW
1002
{
1070
    16
1010
0.0
1020
0.0
1030
0.0
1010
0.0
1020
0.0
1030
1.0
1040
0.0
1040
432.0
1040
783.420968905208
1040
-2242.520403368291
1040
50.0
1040
0.0
1040
0.0
1070
     0
1070
   100
1070
     1
1070
     0
1070
     0
1070
     0
1070
     0
1070
     0
1040
0.0
1040
0.0
1040
0.0
1040
10.0
1040
10.0
1040
10.0
1040
10.0
1070
     0
1002
{
1002
}
1002
}
  0
TEXT
  5
2A956
330
2A8DE
100
AcDbEntity
 67
     1
  8
FRAME020
  6
CONTINUOUS
 62
     0
100
AcDbText
 10
235.0371299708803
 20
39.45424892526988
 30
0.0
 40
3.0
  1
File name／SE-37961.dwg
 41
0.8
100
AcDbText
  0
INSERT
  5
2A985
330
2A8DE
100
AcDbEntity
 67
     1
  8
FRAME025
100
AcDbBlockReference
  2
機械A4横_LBP
 10
82.74908858651452
 20
152.030959079227
 30
0.0
  0
TEXT
  5
2A986
330
2A8DE
100
AcDbEntity
 67
     1
  8
文字
  6
BYBLOCK
 62
     0
100
AcDbText
 10
32.81885892396519
 20
73.01882819621747
 30
0.0
 40
3.2
  1

 50
90.0
 41
0.625
  7
MSｺ_ｼｯｸ
100
AcDbText
  0
TEXT
  5
2A987
330
2A8DE
100
AcDbEntity
 67
     1
  8
文字
  6
BYBLOCK
 62
     0
100
AcDbText
 10
37.25020936743055
 20
73.01882819621747
 30
0.0
 40
3.2
  1

 50
90.0
 41
0.625
  7
MSｺ_ｼｯｸ
100
AcDbText
  0
TEXT
  5
2A988
330
2A8DE
100
AcDbEntity
 67
     1
  8
FRAME020
  6
CONTINUOUS
100
AcDbText
 10
126.6213117262079
 20
29.63926951973459
 30
0.0
 40
2.5
  1

 41
0.625
  7
MSｺ_ｼｯｸ
100
AcDbText
  0
TEXT
  5
2A98A
330
2A8DE
100
AcDbEntity
 67
     1
  8
0
100
AcDbText
 10
324.703280378293
 20
10.6316829925787
 30
0.0
 40
6.0
  1
ＳＥ－５５３６０Ａ
 41
1.1
100
AcDbText
  0
MTEXT
  5
2BB66
330
2A8DE
100
AcDbEntity
 67
     1
  8
A
100
AcDbMText
 10
204.450462339998
 20
26.46294220499907
 30
0.0
 40
6.0
 41
195.9263262061552
 71
     1
 72
     5
  1
τﾘﾆｱﾓｰﾀ ｺｱ付M NLA-MA MGﾍﾞｰｽ MBMA256MA (256mm)
  7
ｽﾀｲﾙ3
1001
ACAD
1000
MTEXTBEGIN
1070
    73
1070
     1
1070
    44
1040
1.0
1070
    74
1070
     0
1000
MTEXTEND
  0
ENDSEC
  0
SECTION
  2
OBJECTS
  0
DICTIONARY
  5
C
330
0
100
AcDbDictionary
  3
ACAD_GROUP
350
D
  3
ACAD_LAYOUT
350
DB2
  3
ACAD_MLINESTYLE
350
1B
  3
ACAD_PLOTSETTINGS
350
DB3
  3
ACAD_PLOTSTYLENAME
350
FB5B
  3
ACADDIM
350
2A25C
  3
ACDBHEADERROUNDTRIPXREC
350
2BB77
  3
ACDBVARIABLEDICTIONARY
350
106A6
  3
ASE_INDEX_DICTIONARY
350
1A99F
  3
DWGPROPS
350
2BB76
1001
ACAD
1000
TREAT_AS_HARD
1070
     0
  0
DICTIONARY
  5
25084
330
2
100
AcDbDictionary
280
     1
  3
ACAD_LAYERFILTERS
360
25085
  3
ACAD_LAYERSTATES
360
25092
  0
DICTIONARY
  5
EFC6
330
18
100
AcDbDictionary
280
     1
  3
ACAD_LAYOUTSELFREF
360
2BB98
  0
DICTIONARY
  5
2A9CC
330
2A8DE
100
AcDbDictionary
280
     1
  3
ACAD_LAYOUTSELFREF
360
2BB99
  0
DICTIONARY
  5
D
102
{ACAD_REACTORS
330
C
102
}
330
C
100
AcDbDictionary
  3
*A1
350
AC8A
  3
*A10
350
24723
  3
*A100
350
1738B
  3
*A101
350
24A4A
  3
*A102
350
29241
  3
*A103
350
24A62
  3
*A104
350
242AE
  3
*A105
350
1B729
  3
*A106
350
2956F
  3
*A107
350
18FA6
  3
*A108
350
240EF
  3
*A109
350
1A695
  3
*A11
350
1D710
  3
*A110
350
24AFE
  3
*A111
350
274AA
  3
*A112
350
1AA94
  3
*A113
350
29572
  3
*A114
350
2693F
  3
*A115
350
1D6FC
  3
*A116
350
173BE
  3
*A117
350
22498
  3
*A118
350
16068
  3
*A119
350
25E7E
  3
*A12
350
19A51
  3
*A120
350
28E19
  3
*A121
350
24B0A
  3
*A122
350
24A17
  3
*A123
350
25282
  3
*A124
350
23A77
  3
*A125
350
274AD
  3
*A126
350
1D6DE
  3
*A127
350
18F1F
  3
*A128
350
24722
  3
*A129
350
24A9E
  3
*A13
350
1EB7F
  3
*A130
350
1B73B
  3
*A131
350
25510
  3
*A132
350
2A803
  3
*A133
350
24A80
  3
*A134
350
2471D
  3
*A135
350
2022C
  3
*A136
350
2A89F
  3
*A137
350
24A86
  3
*A138
350
2A8A6
  3
*A139
350
224D1
  3
*A14
350
2698A
  3
*A140
350
252FF
  3
*A141
350
24724
  3
*A142
350
FCB8
  3
*A143
350
24913
  3
*A144
350
25E81
  3
*A145
350
FB6C
  3
*A146
350
2471E
  3
*A147
350
26989
  3
*A148
350
17B11
  3
*A149
350
1F8F5
  3
*A15
350
28101
  3
*A150
350
24721
  3
*A151
350
24A44
  3
*A152
350
24A49
  3
*A153
350
274FD
  3
*A154
350
29240
  3
*A155
350
29245
  3
*A156
350
17901
  3
*A157
350
24AF8
  3
*A158
350
2471F
  3
*A159
350
1B756
  3
*A16
350
ACBD
  3
*A160
350
2002B
  3
*A161
350
24B44
  3
*A162
350
1F8FA
  3
*A163
350
267CB
  3
*A164
350
2A738
  3
*A165
350
28E67
  3
*A166
350
24AE0
  3
*A167
350
1D6F2
  3
*A168
350
20222
  3
*A169
350
ACB4
  3
*A17
350
19F99
  3
*A170
350
1D6A2
  3
*A171
350
1D698
  3
*A172
350
198F1
  3
*A173
350
26FD6
  3
*A174
350
24AEC
  3
*A175
350
28AF1
  3
*A176
350
24A02
  3
*A177
350
19881
  3
*A178
350
1F8FF
  3
*A179
350
18F20
  3
*A18
350
24A10
  3
*A180
350
20227
  3
*A181
350
1F909
  3
*A182
350
16059
  3
*A183
350
24A6E
  3
*A184
350
2698B
  3
*A185
350
1A691
  3
*A186
350
242E0
  3
*A187
350
2472A
  3
*A188
350
224AC
  3
*A189
350
24A50
  3
*A19
350
24AA4
  3
*A190
350
232CA
  3
*A191
350
1F913
  3
*A192
350
1F904
  3
*A193
350
1B732
  3
*A194
350
23CC2
  3
*A195
350
24A43
  3
*A196
350
24AD4
  3
*A197
350
20209
  3
*A198
350
28E17
  3
*A199
350
242AF
  3
*A2
350
24A98
  3
*A20
350
106C7
  3
*A200
350
242D2
  3
*A201
350
23BB2
  3
*A202
350
20218
  3
*A203
350
28AEE
  3
*A204
350
19989
  3
*A205
350
25B65
  3
*A206
350
242C3
  3
*A207
350
26FD7
  3
*A208
350
24728
  3
*A209
350
252FE
  3
*A21
350
25346
  3
*A210
350
295C8
  3
*A211
350
28E13
  3
*A212
350
24AB0
  3
*A213
350
25E82
  3
*A214
350
2472D
  3
*A215
350
24ADA
  3
*A216
350
16058
  3
*A217
350
1B720
  3
*A218
350
24A7A
  3
*A219
350
1D6CA
  3
*A22
350
2A73C
  3
*A220
350
20010
  3
*A221
350
2A73E
  3
*A222
350
20231
  3
*A223
350
24A5C
  3
*A224
350
24A46
  3
*A225
350
2923F
  3
*A226
350
1606B
  3
*A227
350
19256
  3
*A228
350
240F2
  3
*A229
350
18FA7
  3
*A23
350
242A7
  3
*A230
350
227B2
  3
*A231
350
1D68E
  3
*A232
350
1EB80
  3
*A233
350
20019
  3
*A234
350
1EB7C
  3
*A235
350
227B1
  3
*A236
350
242A8
  3
*A237
350
240ED
  3
*A238
350
242D9
  3
*A239
350
24B32
  3
*A24
350
25388
  3
*A240
350
28AF3
  3
*A241
350
19861
  3
*A242
350
27F12
  3
*A243
350
24B56
  3
*A244
350
1F90E
  3
*A245
350
1EB7D
  3
*A246
350
249F2
  3
*A247
350
24A48
  3
*A248
350
24727
  3
*A249
350
25BC1
  3
*A25
350
26FD5
  3
*A250
350
1738A
  3
*A251
350
17BFF
  3
*A252
350
27F1A
  3
*A253
350
29573
  3
*A254
350
1B74D
  3
*A255
350
24729
  3
*A256
350
2471B
  3
*A257
350
24725
  3
*A258
350
274FB
  3
*A259
350
28AEF
  3
*A26
350
FBFF
  3
*A260
350
28AF4
  3
*A261
350
24B10
  3
*A262
350
251F4
  3
*A263
350
19988
  3
*A264
350
20016
  3
*A265
350
242CA
  3
*A266
350
24A4C
  3
*A267
350
274A8
  3
*A268
350
106A5
  3
*A269
350
18F23
  3
*A27
350
24A11
  3
*A270
350
1F91D
  3
*A271
350
240EE
  3
*A272
350
29571
  3
*A273
350
23BB3
  3
*A274
350
2694C
  3
*A275
350
24A4F
  3
*A276
350
24719
  3
*A277
350
24730
  3
*A278
350
25E83
  3
*A279
350
173BF
  3
*A28
350
242D1
  3
*A280
350
19729
  3
*A281
350
24AC2
  3
*A282
350
19AA4
  3
*A283
350
24A74
  3
*A284
350
23BB4
  3
*A285
350
28E1A
  3
*A286
350
26901
  3
*A287
350
249F3
  3
*A288
350
2020E
  3
*A289
350
274AB
  3
*A29
350
28E14
  3
*A290
350
19F87
  3
*A291
350
2472C
  3
*A292
350
25300
  3
*A293
350
27F1B
  3
*A294
350
20022
  3
*A295
350
27F13
  3
*A296
350
196C2
  3
*A297
350
19F55
  3
*A298
350
1EB7E
  3
*A299
350
24A92
  3
*A3
350
106C6
  3
*A30
350
16069
  3
*A300
350
24ABC
  3
*A301
350
27BB7
  3
*A302
350
24A8C
  3
*A303
350
2001F
  3
*A304
350
1A692
  3
*A305
350
19259
  3
*A306
350
19A52
  3
*A307
350
2A739
  3
*A308
350
1F8F0
  3
*A309
350
18F22
  3
*A31
350
242B6
  3
*A310
350
24A4B
  3
*A311
350
24A68
  3
*A312
350
20028
  3
*A313
350
242D8
  3
*A314
350
29244
  3
*A315
350
249FB
  3
*A316
350
242B5
  3
*A317
350
24B04
  3
*A318
350
25E84
  3
*A319
350
24AB6
  3
*A32
350
1A09A
  3
*A320
350
26964
  3
*A321
350
27F10
  3
*A322
350
240F0
  3
*A323
350
2471C
  3
*A324
350
19794
  3
*A325
350
2A73A
  3
*A326
350
274AC
  3
*A327
350
25F19
  3
*A328
350
27F14
  3
*A329
350
274FC
  3
*A33
350
215A2
  3
*A330
350
29603
  3
*A331
350
1B744
  3
*A332
350
19FAB
  3
*A333
350
ACA1
  3
*A334
350
24914
  3
*A335
350
1D6AC
  3
*A336
350
22AAC
  3
*A337
350
24A47
  3
*A338
350
24A03
  3
*A339
350
FC9A
  3
*A34
350
24A18
  3
*A340
350
20013
  3
*A341
350
240F1
  3
*A342
350
20CA2
  3
*A343
350
18FA8
  3
*A344
350
242DF
  3
*A345
350
24AF2
  3
*A346
350
20213
  3
*A347
350
24A0A
  3
*A348
350
1D670
  3
*A349
350
AC9A
  3
*A35
350
2471A
  3
*A350
350
FC91
  3
*A351
350
106B3
  3
*A352
350
249FA
  3
*A353
350
242BC
  3
*A354
350
242E7
  3
*A355
350
2472B
  3
*A356
350
27F0F
  3
*A357
350
173BD
  3
*A358
350
1D6D4
  3
*A359
350
24AC8
  3
*A36
350
20236
  3
*A360
350
27F19
  3
*A361
350
242CB
  3
*A362
350
2A73B
  3
*A363
350
2001C
  3
*A37
350
1D67A
  3
*A38
350
28E7F
  3
*A39
350
22E4B
  3
*A4
350
24A1E
  3
*A40
350
242BD
  3
*A41
350
29574
  3
*A42
350
24717
  3
*A43
350
19A5A
  3
*A44
350
FB6B
  3
*A45
350
19A86
  3
*A46
350
242C4
  3
*A47
350
26FD9
  3
*A48
350
23CC3
  3
*A49
350
FC9B
  3
*A5
350
20025
  3
*A50
350
1998A
  3
*A51
350
1D6C0
  3
*A52
350
19255
  3
*A53
350
28AF0
  3
*A54
350
1D6E8
  3
*A55
350
2A73F
  3
*A56
350
25E80
  3
*A57
350
19786
  3
*A58
350
2472F
  3
*A59
350
2A73D
  3
*A6
350
24718
  3
*A60
350
24A4D
  3
*A61
350
2812F
  3
*A62
350
20CA6
  3
*A63
350
270B1
  3
*A64
350
28E16
  3
*A65
350
29576
  3
*A66
350
26962
  3
*A67
350
24ACE
  3
*A68
350
19F67
  3
*A69
350
24726
  3
*A7
350
24A4E
  3
*A70
350
1D706
  3
*A71
350
2867F
  3
*A72
350
254C6
  3
*A73
350
24A45
  3
*A74
350
26FD8
  3
*A75
350
2A740
  3
*A76
350
28680
  3
*A77
350
1D6B6
  3
*A78
350
2244A
  3
*A79
350
25E7F
  3
*A8
350
1F918
  3
*A80
350
2472E
  3
*A81
350
1606A
  3
*A82
350
1D684
  3
*A83
350
ACA2
  3
*A84
350
18F21
  3
*A85
350
242E6
  3
*A86
350
2A815
  3
*A87
350
17389
  3
*A88
350
FC95
  3
*A89
350
2021D
  3
*A9
350
274A9
  3
*A90
350
24AE6
  3
*A91
350
23CC4
  3
*A92
350
ACAB
  3
*A93
350
24A1F
  3
*A94
350
27F11
  3
*A95
350
19787
  3
*A96
350
24A09
  3
*A97
350
24720
  3
*A98
350
169DA
  3
*A99
350
24AAA
1001
ACAD
1000
TREAT_AS_HARD
1070
     0
  0
DICTIONARY
  5
DB2
102
{ACAD_REACTORS
330
C
102
}
330
C
100
AcDbDictionary
1001
ACAD
1000
TREAT_AS_HARD
1070
     0
  0
DICTIONARY
  5
1B
102
{ACAD_REACTORS
330
C
102
}
330
C
100
AcDbDictionary
  3
STANDARD
350
1C
1001
ACAD
1000
TREAT_AS_HARD
1070
     0
  0
DICTIONARY
  5
DB3
102
{ACAD_REACTORS
330
C
102
}
330
C
100
AcDbDictionary
1001
ACAD
1000
TREAT_AS_HARD
1070
     0
  0
ACDBDICTIONARYWDFLT
  5
FB5B
102
{ACAD_REACTORS
330
C
102
}
330
C
100
AcDbDictionary
281
     1
  3
Normal
350
FB5C
100
AcDbDictionaryWithDefault
340
FB5C
  0
XRECORD
  5
2A25C
102
{ACAD_REACTORS
330
C
102
}
330
C
100
AcDbXrecord
 90
   990106
  3

 60
     0
 61
     0
 62
     4
 63
     4
 64
     1
 65
     0
 66
     0
 67
     3
 68
     1
 69
     0
 70
     0
 71
     0
 72
     0
 40
0.0
170
     2
340
0
  0
DICTIONARY
  5
2BB77
102
{ACAD_REACTORS
330
C
102
}
330
C
100
AcDbDictionary
  3
CEPSNTYPE
350
2BB81
  3
DIMSTYLEDATA
350
2BB85
  3
FINGERPRINTGUID
350
2BB82
  3
HYPERLINKBASE
350
2BB7A
  3
INSUNITS
350
2BB80
  3
LAYOUTDICT
350
2BB7C
  3
LWETCUNION
350
2BB7F
  3
PLOTSETDICT
350
2BB7D
  3
PLOTSTYLNAMDICT
350
2BB7E
  3
PSVPSCALE
350
2BB84
  3
PUCSBASE
350
2BB88
  3
PUCSORGBACK
350
2BB8E
  3
PUCSORGBOTTOM
350
2BB8A
  3
PUCSORGFRONT
350
2BB8D
  3
PUCSORGLEFT
350
2BB8B
  3
PUCSORGRIGHT
350
2BB8C
  3
PUCSORGTOP
350
2BB89
  3
PUCSORTHOREF
350
2BB86
  3
PUCSORTHOVIEW
350
2BB87
  3
STYLESHEET
350
2BB7B
  3
TSTACKALIGN
350
2BB78
  3
TSTACKSIZE
350
2BB79
  3
UCSBASE
350
2BB91
  3
UCSORGBACK
350
2BB97
  3
UCSORGBOTTOM
350
2BB93
  3
UCSORGFRONT
350
2BB96
  3
UCSORGLEFT
350
2BB94
  3
UCSORGRIGHT
350
2BB95
  3
UCSORGTOP
350
2BB92
  3
UCSORTHOREF
350
2BB8F
  3
UCSORTHOVIEW
350
2BB90
  3
VERSIONGUID
350
2BB83
  0
DICTIONARY
  5
106A6
102
{ACAD_REACTORS
330
C
102
}
330
C
100
AcDbDictionary
  3
SORTENTS
350
106A7
  0
DICTIONARY
  5
1A99F
102
{ACAD_REACTORS
330
C
102
}
330
C
100
AcDbDictionary
  3
ASEBLOCKHIERARCHYINDEXRECORD
350
1A9A1
1001
DCO15
1040
1464612067.17
  0
XRECORD
  5
2BB76
102
{ACAD_REACTORS
330
C
102
}
330
C
100
AcDbXrecord
  1
DWGPROPS COOKIE
  2

  3

  4

  6

  7

  8

  9

300
=
301
=
302
=
303
=
304
=
305
=
306
=
307
=
308
=
309
=
 40
17.54048997685185
 41
2451224.660162384
 42
2455601.646569189
  1

 90
        0
  0
DICTIONARY
  5
25085
102
{ACAD_REACTORS
330
25084
102
}
330
25084
100
AcDbDictionary
280
     1
  3
0
360
2BB21
  3
11
360
2BB22
  3
150_
360
2BB23
  3
160_
360
2BB24
  3
170_
360
2BB25
  3
171_
360
2BB26
  3
350_
360
2BB27
  3
4
360
2BB28
  3
5
360
2BB29
  3
7
360
2BB2A
  3
KISEKI
360
2BB2B
  0
DICTIONARY
  5
25092
102
{ACAD_REACTORS
330
25084
102
}
330
25084
100
AcDbDictionary
  0
XRECORD
  5
2BB98
102
{ACAD_REACTORS
330
EFC6
102
}
330
EFC6
100
AcDbXrecord
340
18
  0
XRECORD
  5
2BB99
102
{ACAD_REACTORS
330
2A9CC
102
}
330
2A9CC
100
AcDbXrecord
340
2A8DE
  0
GROUP
  5
AC8A
102
{ACAD_REACTORS
330
D
102
}
330
D
100
AcDbGroup
300

 70
     1
 71
     1
  0
GROUP
  5
24723
102
{ACAD_REACTORS
330
D
102
}
330
D
100
AcDbGroup
300

 70
     1
 71
     1
  0
GROUP
  5
1738B
102
{ACAD_REACTORS
330
D
102
}
330
D
100
AcDbGroup
300

 70
     1
 71
     1
  0
GROUP
  5
24A4A
102
{ACAD_REACTORS
330
D
102
}
330
D
100
AcDbGroup
300

 70
     1
 71
     1
  0
GROUP
  5
29241
102
{ACAD_REACTORS
330
D
102
}
330
D
100
AcDbGroup
300

 70
     1
 71
     1
  0
GROUP
  5
24A62
102
{ACAD_REACTORS
330
D
102
}
330
D
100
AcDbGroup
300

 70
     1
 71
     1
  0
GROUP
  5
242AE
102
{ACAD_REACTORS
330
D
102
}
330
D
100
AcDbGroup
300

 70
     1
 71
     1
  0
GROUP
  5
1B729
102
{ACAD_REACTORS
330
D
102
}
330
D
100
AcDbGroup
300

 70
     1
 71
     1
  0
GROUP
  5
2956F
102
{ACAD_REACTORS
330
D
102
}
330
D
100
AcDbGroup
300

 70
     1
 71
     1
  0
GROUP
  5
18FA6
102
{ACAD_REACTORS
330
D
102
}
330
D
100
AcDbGroup
300

 70
     1
 71
     1
  0
GROUP
  5
240EF
102
{ACAD_REACTORS
330
D
102
}
330
D
100
AcDbGroup
300

 70
     1
 71
     1
  0
GROUP
  5
1A695
102
{ACAD_REACTORS
330
D
102
}
330
D
100
AcDbGroup
300

 70
     1
 71
     1
  0
GROUP
  5
1D710
102
{ACAD_REACTORS
330
D
102
}
330
D
100
AcDbGroup
300

 70
     1
 71
     1
  0
GROUP
  5
24AFE
102
{ACAD_REACTORS
330
D
102
}
330
D
100
AcDbGroup
300

 70
     1
 71
     1
  0
GROUP
  5
274AA
102
{ACAD_REACTORS
330
D
102
}
330
D
100
AcDbGroup
300

 70
     1
 71
     1
  0
GROUP
  5
1AA94
102
{ACAD_REACTORS
330
D
102
}
330
D
100
AcDbGroup
300

 70
     1
 71
     1
  0
GROUP
  5
29572
102
{ACAD_REACTORS
330
D
102
}
330
D
100
AcDbGroup
300

 70
     1
 71
     1
  0
GROUP
  5
2693F
102
{ACAD_REACTORS
330
D
102
}
330
D
100
AcDbGroup
300

 70
     1
 71
     1
  0
GROUP
  5
1D6FC
102
{ACAD_REACTORS
330
D
102
}
330
D
100
AcDbGroup
300

 70
     1
 71
     1
  0
GROUP
  5
173BE
102
{ACAD_REACTORS
330
D
102
}
330
D
100
AcDbGroup
300

 70
     1
 71
     1
  0
GROUP
  5
22498
102
{ACAD_REACTORS
330
D
102
}
330
D
100
AcDbGroup
300

 70
     1
 71
     1
  0
GROUP
  5
16068
102
{ACAD_REACTORS
330
D
102
}
330
D
100
AcDbGroup
300

 70
     1
 71
     1
  0
GROUP
  5
25E7E
102
{ACAD_REACTORS
330
D
102
}
330
D
100
AcDbGroup
300

 70
     1
 71
     1
  0
GROUP
  5
19A51
102
{ACAD_REACTORS
330
D
102
}
330
D
100
AcDbGroup
300

 70
     1
 71
     1
  0
GROUP
  5
28E19
102
{ACAD_REACTORS
330
D
102
}
330
D
100
AcDbGroup
300

 70
     1
 71
     1
  0
GROUP
  5
24B0A
102
{ACAD_REACTORS
330
D
102
}
330
D
100
AcDbGroup
300

 70
     1
 71
     1
  0
GROUP
  5
24A17
102
{ACAD_REACTORS
330
D
102
}
330
D
100
AcDbGroup
300

 70
     1
 71
     1
  0
GROUP
  5
25282
102
{ACAD_REACTORS
330
D
102
}
330
D
100
AcDbGroup
300

 70
     1
 71
     1
  0
GROUP
  5
23A77
102
{ACAD_REACTORS
330
D
102
}
330
D
100
AcDbGroup
300

 70
     1
 71
     1
  0
GROUP
  5
274AD
102
{ACAD_REACTORS
330
D
102
}
330
D
100
AcDbGroup
300

 70
     1
 71
     1
  0
GROUP
  5
1D6DE
102
{ACAD_REACTORS
330
D
102
}
330
D
100
AcDbGroup
300

 70
     1
 71
     1
  0
GROUP
  5
18F1F
102
{ACAD_REACTORS
330
D
102
}
330
D
100
AcDbGroup
300

 70
     1
 71
     1
  0
GROUP
  5
24722
102
{ACAD_REACTORS
330
D
102
}
330
D
100
AcDbGroup
300

 70
     1
 71
     1
  0
GROUP
  5
24A9E
102
{ACAD_REACTORS
330
D
102
}
330
D
100
AcDbGroup
300

 70
     1
 71
     1
  0
GROUP
  5
1EB7F
102
{ACAD_REACTORS
330
D
102
}
330
D
100
AcDbGroup
300

 70
     1
 71
     1
  0
GROUP
  5
1B73B
102
{ACAD_REACTORS
330
D
102
}
330
D
100
AcDbGroup
300

 70
     1
 71
     1
  0
GROUP
  5
25510
102
{ACAD_REACTORS
330
D
102
}
330
D
100
AcDbGroup
300

 70
     1
 71
     1
  0
GROUP
  5
2A803
102
{ACAD_REACTORS
330
D
102
}
330
D
100
AcDbGroup
300

 70
     1
 71
     1
  0
GROUP
  5
24A80
102
{ACAD_REACTORS
330
D
102
}
330
D
100
AcDbGroup
300

 70
     1
 71
     1
  0
GROUP
  5
2471D
102
{ACAD_REACTORS
330
D
102
}
330
D
100
AcDbGroup
300

 70
     1
 71
     1
  0
GROUP
  5
2022C
102
{ACAD_REACTORS
330
D
102
}
330
D
100
AcDbGroup
300

 70
     1
 71
     1
  0
GROUP
  5
2A89F
102
{ACAD_REACTORS
330
D
102
}
330
D
100
AcDbGroup
300

 70
     1
 71
     1
  0
GROUP
  5
24A86
102
{ACAD_REACTORS
330
D
102
}
330
D
100
AcDbGroup
300

 70
     1
 71
     1
  0
GROUP
  5
2A8A6
102
{ACAD_REACTORS
330
D
102
}
330
D
100
AcDbGroup
300

 70
     1
 71
     1
  0
GROUP
  5
224D1
102
{ACAD_REACTORS
330
D
102
}
330
D
100
AcDbGroup
300

 70
     1
 71
     1
  0
GROUP
  5
2698A
102
{ACAD_REACTORS
330
D
102
}
330
D
100
AcDbGroup
300

 70
     1
 71
     1
  0
GROUP
  5
252FF
102
{ACAD_REACTORS
330
D
102
}
330
D
100
AcDbGroup
300

 70
     1
 71
     1
  0
GROUP
  5
24724
102
{ACAD_REACTORS
330
D
102
}
330
D
100
AcDbGroup
300

 70
     1
 71
     1
  0
GROUP
  5
FCB8
102
{ACAD_REACTORS
330
D
102
}
330
D
100
AcDbGroup
300

 70
     1
 71
     1
  0
GROUP
  5
24913
102
{ACAD_REACTORS
330
D
102
}
330
D
100
AcDbGroup
300

 70
     1
 71
     1
  0
GROUP
  5
25E81
102
{ACAD_REACTORS
330
D
102
}
330
D
100
AcDbGroup
300

 70
     1
 71
     1
  0
GROUP
  5
FB6C
102
{ACAD_REACTORS
330
D
102
}
330
D
100
AcDbGroup
300

 70
     1
 71
     1
  0
GROUP
  5
2471E
102
{ACAD_REACTORS
330
D
102
}
330
D
100
AcDbGroup
300

 70
     1
 71
     1
  0
GROUP
  5
26989
102
{ACAD_REACTORS
330
D
102
}
330
D
100
AcDbGroup
300

 70
     1
 71
     1
  0
GROUP
  5
17B11
102
{ACAD_REACTORS
330
D
102
}
330
D
100
AcDbGroup
300

 70
     1
 71
     1
  0
GROUP
  5
1F8F5
102
{ACAD_REACTORS
330
D
102
}
330
D
100
AcDbGroup
300

 70
     1
 71
     1
  0
GROUP
  5
28101
102
{ACAD_REACTORS
330
D
102
}
330
D
100
AcDbGroup
300

 70
     1
 71
     1
  0
GROUP
  5
24721
102
{ACAD_REACTORS
330
D
102
}
330
D
100
AcDbGroup
300

 70
     1
 71
     1
  0
GROUP
  5
24A44
102
{ACAD_REACTORS
330
D
102
}
330
D
100
AcDbGroup
300

 70
     1
 71
     1
  0
GROUP
  5
24A49
102
{ACAD_REACTORS
330
D
102
}
330
D
100
AcDbGroup
300

 70
     1
 71
     1
  0
GROUP
  5
274FD
102
{ACAD_REACTORS
330
D
102
}
330
D
100
AcDbGroup
300

 70
     1
 71
     1
  0
GROUP
  5
29240
102
{ACAD_REACTORS
330
D
102
}
330
D
100
AcDbGroup
300

 70
     1
 71
     1
  0
GROUP
  5
29245
102
{ACAD_REACTORS
330
D
102
}
330
D
100
AcDbGroup
300

 70
     1
 71
     1
  0
GROUP
  5
17901
102
{ACAD_REACTORS
330
D
102
}
330
D
100
AcDbGroup
300

 70
     1
 71
     1
  0
GROUP
  5
24AF8
102
{ACAD_REACTORS
330
D
102
}
330
D
100
AcDbGroup
300

 70
     1
 71
     1
  0
GROUP
  5
2471F
102
{ACAD_REACTORS
330
D
102
}
330
D
100
AcDbGroup
300

 70
     1
 71
     1
  0
GROUP
  5
1B756
102
{ACAD_REACTORS
330
D
102
}
330
D
100
AcDbGroup
300

 70
     1
 71
     1
  0
GROUP
  5
ACBD
102
{ACAD_REACTORS
330
D
102
}
330
D
100
AcDbGroup
300

 70
     1
 71
     1
  0
GROUP
  5
2002B
102
{ACAD_REACTORS
330
D
102
}
330
D
100
AcDbGroup
300

 70
     1
 71
     1
  0
GROUP
  5
24B44
102
{ACAD_REACTORS
330
D
102
}
330
D
100
AcDbGroup
300

 70
     1
 71
     1
  0
GROUP
  5
1F8FA
102
{ACAD_REACTORS
330
D
102
}
330
D
100
AcDbGroup
300

 70
     1
 71
     1
  0
GROUP
  5
267CB
102
{ACAD_REACTORS
330
D
102
}
330
D
100
AcDbGroup
300

 70
     1
 71
     1
  0
GROUP
  5
2A738
102
{ACAD_REACTORS
330
D
102
}
330
D
100
AcDbGroup
300

 70
     1
 71
     1
  0
GROUP
  5
28E67
102
{ACAD_REACTORS
330
D
102
}
330
D
100
AcDbGroup
300

 70
     1
 71
     1
340
28E3E
340
28E3B
340
28E3A
340
28E41
340
28E40
340
28E3F
340
28E44
340
28E43
340
28E42
  0
GROUP
  5
24AE0
102
{ACAD_REACTORS
330
D
102
}
330
D
100
AcDbGroup
300

 70
     1
 71
     1
  0
GROUP
  5
1D6F2
102
{ACAD_REACTORS
330
D
102
}
330
D
100
AcDbGroup
300

 70
     1
 71
     1
  0
GROUP
  5
20222
102
{ACAD_REACTORS
330
D
102
}
330
D
100
AcDbGroup
300

 70
     1
 71
     1
  0
GROUP
  5
ACB4
102
{ACAD_REACTORS
330
D
102
}
330
D
100
AcDbGroup
300

 70
     1
 71
     1
  0
GROUP
  5
19F99
102
{ACAD_REACTORS
330
D
102
}
330
D
100
AcDbGroup
300

 70
     1
 71
     1
  0
GROUP
  5
1D6A2
102
{ACAD_REACTORS
330
D
102
}
330
D
100
AcDbGroup
300

 70
     1
 71
     1
  0
GROUP
  5
1D698
102
{ACAD_REACTORS
330
D
102
}
330
D
100
AcDbGroup
300

 70
     1
 71
     1
  0
GROUP
  5
198F1
102
{ACAD_REACTORS
330
D
102
}
330
D
100
AcDbGroup
300

 70
     1
 71
     1
  0
GROUP
  5
26FD6
102
{ACAD_REACTORS
330
D
102
}
330
D
100
AcDbGroup
300

 70
     1
 71
     1
  0
GROUP
  5
24AEC
102
{ACAD_REACTORS
330
D
102
}
330
D
100
AcDbGroup
300

 70
     1
 71
     1
  0
GROUP
  5
28AF1
102
{ACAD_REACTORS
330
D
102
}
330
D
100
AcDbGroup
300

 70
     1
 71
     1
  0
GROUP
  5
24A02
102
{ACAD_REACTORS
330
D
102
}
330
D
100
AcDbGroup
300

 70
     1
 71
     1
  0
GROUP
  5
19881
102
{ACAD_REACTORS
330
D
102
}
330
D
100
AcDbGroup
300

 70
     1
 71
     1
  0
GROUP
  5
1F8FF
102
{ACAD_REACTORS
330
D
102
}
330
D
100
AcDbGroup
300

 70
     1
 71
     1
  0
GROUP
  5
18F20
102
{ACAD_REACTORS
330
D
102
}
330
D
100
AcDbGroup
300

 70
     1
 71
     1
  0
GROUP
  5
24A10
102
{ACAD_REACTORS
330
D
102
}
330
D
100
AcDbGroup
300

 70
     1
 71
     1
  0
GROUP
  5
20227
102
{ACAD_REACTORS
330
D
102
}
330
D
100
AcDbGroup
300

 70
     1
 71
     1
  0
GROUP
  5
1F909
102
{ACAD_REACTORS
330
D
102
}
330
D
100
AcDbGroup
300

 70
     1
 71
     1
  0
GROUP
  5
16059
102
{ACAD_REACTORS
330
D
102
}
330
D
100
AcDbGroup
300

 70
     1
 71
     1
  0
GROUP
  5
24A6E
102
{ACAD_REACTORS
330
D
102
}
330
D
100
AcDbGroup
300

 70
     1
 71
     1
  0
GROUP
  5
2698B
102
{ACAD_REACTORS
330
D
102
}
330
D
100
AcDbGroup
300

 70
     1
 71
     1
  0
GROUP
  5
1A691
102
{ACAD_REACTORS
330
D
102
}
330
D
100
AcDbGroup
300

 70
     1
 71
     1
  0
GROUP
  5
242E0
102
{ACAD_REACTORS
330
D
102
}
330
D
100
AcDbGroup
300

 70
     1
 71
     1
  0
GROUP
  5
2472A
102
{ACAD_REACTORS
330
D
102
}
330
D
100
AcDbGroup
300

 70
     1
 71
     1
  0
GROUP
  5
224AC
102
{ACAD_REACTORS
330
D
102
}
330
D
100
AcDbGroup
300

 70
     1
 71
     1
  0
GROUP
  5
24A50
102
{ACAD_REACTORS
330
D
102
}
330
D
100
AcDbGroup
300

 70
     1
 71
     1
  0
GROUP
  5
24AA4
102
{ACAD_REACTORS
330
D
102
}
330
D
100
AcDbGroup
300

 70
     1
 71
     1
  0
GROUP
  5
232CA
102
{ACAD_REACTORS
330
D
102
}
330
D
100
AcDbGroup
300

 70
     1
 71
     1
  0
GROUP
  5
1F913
102
{ACAD_REACTORS
330
D
102
}
330
D
100
AcDbGroup
300

 70
     1
 71
     1
  0
GROUP
  5
1F904
102
{ACAD_REACTORS
330
D
102
}
330
D
100
AcDbGroup
300

 70
     1
 71
     1
  0
GROUP
  5
1B732
102
{ACAD_REACTORS
330
D
102
}
330
D
100
AcDbGroup
300

 70
     1
 71
     1
  0
GROUP
  5
23CC2
102
{ACAD_REACTORS
330
D
102
}
330
D
100
AcDbGroup
300

 70
     1
 71
     1
  0
GROUP
  5
24A43
102
{ACAD_REACTORS
330
D
102
}
330
D
100
AcDbGroup
300

 70
     1
 71
     1
  0
GROUP
  5
24AD4
102
{ACAD_REACTORS
330
D
102
}
330
D
100
AcDbGroup
300

 70
     1
 71
     1
  0
GROUP
  5
20209
102
{ACAD_REACTORS
330
D
102
}
330
D
100
AcDbGroup
300

 70
     1
 71
     1
  0
GROUP
  5
28E17
102
{ACAD_REACTORS
330
D
102
}
330
D
100
AcDbGroup
300

 70
     1
 71
     1
  0
GROUP
  5
242AF
102
{ACAD_REACTORS
330
D
102
}
330
D
100
AcDbGroup
300

 70
     1
 71
     1
  0
GROUP
  5
24A98
102
{ACAD_REACTORS
330
D
102
}
330
D
100
AcDbGroup
300

 70
     1
 71
     1
  0
GROUP
  5
106C7
102
{ACAD_REACTORS
330
D
102
}
330
D
100
AcDbGroup
300

 70
     1
 71
     1
  0
GROUP
  5
242D2
102
{ACAD_REACTORS
330
D
102
}
330
D
100
AcDbGroup
300

 70
     1
 71
     1
  0
GROUP
  5
23BB2
102
{ACAD_REACTORS
330
D
102
}
330
D
100
AcDbGroup
300

 70
     1
 71
     1
  0
GROUP
  5
20218
102
{ACAD_REACTORS
330
D
102
}
330
D
100
AcDbGroup
300

 70
     1
 71
     1
  0
GROUP
  5
28AEE
102
{ACAD_REACTORS
330
D
102
}
330
D
100
AcDbGroup
300

 70
     1
 71
     1
340
288F3
340
288EF
340
288F4
340
288F1
340
288F5
340
288ED
340
288EE
340
288EC
340
288E8
340
288E9
  0
GROUP
  5
19989
102
{ACAD_REACTORS
330
D
102
}
330
D
100
AcDbGroup
300

 70
     1
 71
     1
  0
GROUP
  5
25B65
102
{ACAD_REACTORS
330
D
102
}
330
D
100
AcDbGroup
300

 70
     1
 71
     1
  0
GROUP
  5
242C3
102
{ACAD_REACTORS
330
D
102
}
330
D
100
AcDbGroup
300

 70
     1
 71
     1
  0
GROUP
  5
26FD7
102
{ACAD_REACTORS
330
D
102
}
330
D
100
AcDbGroup
300

 70
     1
 71
     1
  0
GROUP
  5
24728
102
{ACAD_REACTORS
330
D
102
}
330
D
100
AcDbGroup
300

 70
     1
 71
     1
  0
GROUP
  5
252FE
102
{ACAD_REACTORS
330
D
102
}
330
D
100
AcDbGroup
300

 70
     1
 71
     1
  0
GROUP
  5
25346
102
{ACAD_REACTORS
330
D
102
}
330
D
100
AcDbGroup
300

 70
     1
 71
     1
  0
GROUP
  5
295C8
102
{ACAD_REACTORS
330
D
102
}
330
D
100
AcDbGroup
300

 70
     1
 71
     1
  0
GROUP
  5
28E13
102
{ACAD_REACTORS
330
D
102
}
330
D
100
AcDbGroup
300

 70
     1
 71
     1
  0
GROUP
  5
24AB0
102
{ACAD_REACTORS
330
D
102
}
330
D
100
AcDbGroup
300

 70
     1
 71
     1
  0
GROUP
  5
25E82
102
{ACAD_REACTORS
330
D
102
}
330
D
100
AcDbGroup
300

 70
     1
 71
     1
  0
GROUP
  5
2472D
102
{ACAD_REACTORS
330
D
102
}
330
D
100
AcDbGroup
300

 70
     1
 71
     1
  0
GROUP
  5
24ADA
102
{ACAD_REACTORS
330
D
102
}
330
D
100
AcDbGroup
300

 70
     1
 71
     1
  0
GROUP
  5
16058
102
{ACAD_REACTORS
330
D
102
}
330
D
100
AcDbGroup
300

 70
     1
 71
     1
  0
GROUP
  5
1B720
102
{ACAD_REACTORS
330
D
102
}
330
D
100
AcDbGroup
300

 70
     1
 71
     1
  0
GROUP
  5
24A7A
102
{ACAD_REACTORS
330
D
102
}
330
D
100
AcDbGroup
300

 70
     1
 71
     1
  0
GROUP
  5
1D6CA
102
{ACAD_REACTORS
330
D
102
}
330
D
100
AcDbGroup
300

 70
     1
 71
     1
  0
GROUP
  5
2A73C
102
{ACAD_REACTORS
330
D
102
}
330
D
100
AcDbGroup
300

 70
     1
 71
     1
  0
GROUP
  5
20010
102
{ACAD_REACTORS
330
D
102
}
330
D
100
AcDbGroup
300

 70
     1
 71
     1
  0
GROUP
  5
2A73E
102
{ACAD_REACTORS
330
D
102
}
330
D
100
AcDbGroup
300

 70
     1
 71
     1
  0
GROUP
  5
20231
102
{ACAD_REACTORS
330
D
102
}
330
D
100
AcDbGroup
300

 70
     1
 71
     1
  0
GROUP
  5
24A5C
102
{ACAD_REACTORS
330
D
102
}
330
D
100
AcDbGroup
300

 70
     1
 71
     1
  0
GROUP
  5
24A46
102
{ACAD_REACTORS
330
D
102
}
330
D
100
AcDbGroup
300

 70
     1
 71
     1
  0
GROUP
  5
2923F
102
{ACAD_REACTORS
330
D
102
}
330
D
100
AcDbGroup
300

 70
     1
 71
     1
  0
GROUP
  5
1606B
102
{ACAD_REACTORS
330
D
102
}
330
D
100
AcDbGroup
300

 70
     1
 71
     1
  0
GROUP
  5
19256
102
{ACAD_REACTORS
330
D
102
}
330
D
100
AcDbGroup
300

 70
     1
 71
     1
  0
GROUP
  5
240F2
102
{ACAD_REACTORS
330
D
102
}
330
D
100
AcDbGroup
300

 70
     1
 71
     1
  0
GROUP
  5
18FA7
102
{ACAD_REACTORS
330
D
102
}
330
D
100
AcDbGroup
300

 70
     1
 71
     1
  0
GROUP
  5
242A7
102
{ACAD_REACTORS
330
D
102
}
330
D
100
AcDbGroup
300

 70
     1
 71
     1
  0
GROUP
  5
227B2
102
{ACAD_REACTORS
330
D
102
}
330
D
100
AcDbGroup
300

 70
     1
 71
     1
  0
GROUP
  5
1D68E
102
{ACAD_REACTORS
330
D
102
}
330
D
100
AcDbGroup
300

 70
     1
 71
     1
  0
GROUP
  5
1EB80
102
{ACAD_REACTORS
330
D
102
}
330
D
100
AcDbGroup
300

 70
     1
 71
     1
  0
GROUP
  5
20019
102
{ACAD_REACTORS
330
D
102
}
330
D
100
AcDbGroup
300

 70
     1
 71
     1
  0
GROUP
  5
1EB7C
102
{ACAD_REACTORS
330
D
102
}
330
D
100
AcDbGroup
300

 70
     1
 71
     1
  0
GROUP
  5
227B1
102
{ACAD_REACTORS
330
D
102
}
330
D
100
AcDbGroup
300

 70
     1
 71
     1
  0
GROUP
  5
242A8
102
{ACAD_REACTORS
330
D
102
}
330
D
100
AcDbGroup
300

 70
     1
 71
     1
  0
GROUP
  5
240ED
102
{ACAD_REACTORS
330
D
102
}
330
D
100
AcDbGroup
300

 70
     1
 71
     1
  0
GROUP
  5
242D9
102
{ACAD_REACTORS
330
D
102
}
330
D
100
AcDbGroup
300

 70
     1
 71
     1
  0
GROUP
  5
24B32
102
{ACAD_REACTORS
330
D
102
}
330
D
100
AcDbGroup
300

 70
     1
 71
     1
  0
GROUP
  5
25388
102
{ACAD_REACTORS
330
D
102
}
330
D
100
AcDbGroup
300

 70
     1
 71
     1
  0
GROUP
  5
28AF3
102
{ACAD_REACTORS
330
D
102
}
330
D
100
AcDbGroup
300

 70
     1
 71
     1
  0
GROUP
  5
19861
102
{ACAD_REACTORS
330
D
102
}
330
D
100
AcDbGroup
300

 70
     1
 71
     1
  0
GROUP
  5
27F12
102
{ACAD_REACTORS
330
D
102
}
330
D
100
AcDbGroup
300

 70
     1
 71
     1
  0
GROUP
  5
24B56
102
{ACAD_REACTORS
330
D
102
}
330
D
100
AcDbGroup
300

 70
     1
 71
     1
  0
GROUP
  5
1F90E
102
{ACAD_REACTORS
330
D
102
}
330
D
100
AcDbGroup
300

 70
     1
 71
     1
  0
GROUP
  5
1EB7D
102
{ACAD_REACTORS
330
D
102
}
330
D
100
AcDbGroup
300

 70
     1
 71
     1
  0
GROUP
  5
249F2
102
{ACAD_REACTORS
330
D
102
}
330
D
100
AcDbGroup
300

 70
     1
 71
     1
  0
GROUP
  5
24A48
102
{ACAD_REACTORS
330
D
102
}
330
D
100
AcDbGroup
300

 70
     1
 71
     1
  0
GROUP
  5
24727
102
{ACAD_REACTORS
330
D
102
}
330
D
100
AcDbGroup
300

 70
     1
 71
     1
  0
GROUP
  5
25BC1
102
{ACAD_REACTORS
330
D
102
}
330
D
100
AcDbGroup
300

 70
     1
 71
     1
  0
GROUP
  5
26FD5
102
{ACAD_REACTORS
330
D
102
}
330
D
100
AcDbGroup
300

 70
     1
 71
     1
  0
GROUP
  5
1738A
102
{ACAD_REACTORS
330
D
102
}
330
D
100
AcDbGroup
300

 70
     1
 71
     1
  0
GROUP
  5
17BFF
102
{ACAD_REACTORS
330
D
102
}
330
D
100
AcDbGroup
300

 70
     1
 71
     1
  0
GROUP
  5
27F1A
102
{ACAD_REACTORS
330
D
102
}
330
D
100
AcDbGroup
300

 70
     1
 71
     1
  0
GROUP
  5
29573
102
{ACAD_REACTORS
330
D
102
}
330
D
100
AcDbGroup
300

 70
     1
 71
     1
  0
GROUP
  5
1B74D
102
{ACAD_REACTORS
330
D
102
}
330
D
100
AcDbGroup
300

 70
     1
 71
     1
  0
GROUP
  5
24729
102
{ACAD_REACTORS
330
D
102
}
330
D
100
AcDbGroup
300

 70
     1
 71
     1
  0
GROUP
  5
2471B
102
{ACAD_REACTORS
330
D
102
}
330
D
100
AcDbGroup
300

 70
     1
 71
     1
  0
GROUP
  5
24725
102
{ACAD_REACTORS
330
D
102
}
330
D
100
AcDbGroup
300

 70
     1
 71
     1
  0
GROUP
  5
274FB
102
{ACAD_REACTORS
330
D
102
}
330
D
100
AcDbGroup
300

 70
     1
 71
     1
  0
GROUP
  5
28AEF
102
{ACAD_REACTORS
330
D
102
}
330
D
100
AcDbGroup
300

 70
     1
 71
     1
340
287F7
340
287F8
340
287F9
340
287FA
340
287FB
340
287FC
340
2880C
340
2880D
340
2880E
340
2880F
340
28810
340
28811
340
2882D
340
2882E
340
2882F
340
28830
340
28831
340
28832
  0
GROUP
  5
FBFF
102
{ACAD_REACTORS
330
D
102
}
330
D
100
AcDbGroup
300

 70
     1
 71
     1
  0
GROUP
  5
28AF4
102
{ACAD_REACTORS
330
D
102
}
330
D
100
AcDbGroup
300

 70
     1
 71
     1
  0
GROUP
  5
24B10
102
{ACAD_REACTORS
330
D
102
}
330
D
100
AcDbGroup
300

 70
     1
 71
     1
  0
GROUP
  5
251F4
102
{ACAD_REACTORS
330
D
102
}
330
D
100
AcDbGroup
300

 70
     1
 71
     1
  0
GROUP
  5
19988
102
{ACAD_REACTORS
330
D
102
}
330
D
100
AcDbGroup
300

 70
     1
 71
     1
  0
GROUP
  5
20016
102
{ACAD_REACTORS
330
D
102
}
330
D
100
AcDbGroup
300

 70
     1
 71
     1
  0
GROUP
  5
242CA
102
{ACAD_REACTORS
330
D
102
}
330
D
100
AcDbGroup
300

 70
     1
 71
     1
  0
GROUP
  5
24A4C
102
{ACAD_REACTORS
330
D
102
}
330
D
100
AcDbGroup
300

 70
     1
 71
     1
  0
GROUP
  5
274A8
102
{ACAD_REACTORS
330
D
102
}
330
D
100
AcDbGroup
300

 70
     1
 71
     1
  0
GROUP
  5
106A5
102
{ACAD_REACTORS
330
D
102
}
330
D
100
AcDbGroup
300

 70
     1
 71
     1
  0
GROUP
  5
18F23
102
{ACAD_REACTORS
330
D
102
}
330
D
100
AcDbGroup
300

 70
     1
 71
     1
  0
GROUP
  5
24A11
102
{ACAD_REACTORS
330
D
102
}
330
D
100
AcDbGroup
300

 70
     1
 71
     1
  0
GROUP
  5
1F91D
102
{ACAD_REACTORS
330
D
102
}
330
D
100
AcDbGroup
300

 70
     1
 71
     1
  0
GROUP
  5
240EE
102
{ACAD_REACTORS
330
D
102
}
330
D
100
AcDbGroup
300

 70
     1
 71
     1
  0
GROUP
  5
29571
102
{ACAD_REACTORS
330
D
102
}
330
D
100
AcDbGroup
300

 70
     1
 71
     1
  0
GROUP
  5
23BB3
102
{ACAD_REACTORS
330
D
102
}
330
D
100
AcDbGroup
300

 70
     1
 71
     1
  0
GROUP
  5
2694C
102
{ACAD_REACTORS
330
D
102
}
330
D
100
AcDbGroup
300

 70
     1
 71
     1
  0
GROUP
  5
24A4F
102
{ACAD_REACTORS
330
D
102
}
330
D
100
AcDbGroup
300

 70
     1
 71
     1
  0
GROUP
  5
24719
102
{ACAD_REACTORS
330
D
102
}
330
D
100
AcDbGroup
300

 70
     1
 71
     1
  0
GROUP
  5
24730
102
{ACAD_REACTORS
330
D
102
}
330
D
100
AcDbGroup
300

 70
     1
 71
     1
  0
GROUP
  5
25E83
102
{ACAD_REACTORS
330
D
102
}
330
D
100
AcDbGroup
300

 70
     1
 71
     1
  0
GROUP
  5
173BF
102
{ACAD_REACTORS
330
D
102
}
330
D
100
AcDbGroup
300

 70
     1
 71
     1
  0
GROUP
  5
242D1
102
{ACAD_REACTORS
330
D
102
}
330
D
100
AcDbGroup
300

 70
     1
 71
     1
  0
GROUP
  5
19729
102
{ACAD_REACTORS
330
D
102
}
330
D
100
AcDbGroup
300

 70
     1
 71
     1
  0
GROUP
  5
24AC2
102
{ACAD_REACTORS
330
D
102
}
330
D
100
AcDbGroup
300

 70
     1
 71
     1
  0
GROUP
  5
19AA4
102
{ACAD_REACTORS
330
D
102
}
330
D
100
AcDbGroup
300

 70
     1
 71
     1
  0
GROUP
  5
24A74
102
{ACAD_REACTORS
330
D
102
}
330
D
100
AcDbGroup
300

 70
     1
 71
     1
  0
GROUP
  5
23BB4
102
{ACAD_REACTORS
330
D
102
}
330
D
100
AcDbGroup
300

 70
     1
 71
     1
  0
GROUP
  5
28E1A
102
{ACAD_REACTORS
330
D
102
}
330
D
100
AcDbGroup
300

 70
     1
 71
     1
  0
GROUP
  5
26901
102
{ACAD_REACTORS
330
D
102
}
330
D
100
AcDbGroup
300

 70
     1
 71
     1
  0
GROUP
  5
249F3
102
{ACAD_REACTORS
330
D
102
}
330
D
100
AcDbGroup
300

 70
     1
 71
     1
  0
GROUP
  5
2020E
102
{ACAD_REACTORS
330
D
102
}
330
D
100
AcDbGroup
300

 70
     1
 71
     1
  0
GROUP
  5
274AB
102
{ACAD_REACTORS
330
D
102
}
330
D
100
AcDbGroup
300

 70
     1
 71
     1
  0
GROUP
  5
28E14
102
{ACAD_REACTORS
330
D
102
}
330
D
100
AcDbGroup
300

 70
     1
 71
     1
  0
GROUP
  5
19F87
102
{ACAD_REACTORS
330
D
102
}
330
D
100
AcDbGroup
300

 70
     1
 71
     1
  0
GROUP
  5
2472C
102
{ACAD_REACTORS
330
D
102
}
330
D
100
AcDbGroup
300

 70
     1
 71
     1
  0
GROUP
  5
25300
102
{ACAD_REACTORS
330
D
102
}
330
D
100
AcDbGroup
300

 70
     1
 71
     1
  0
GROUP
  5
27F1B
102
{ACAD_REACTORS
330
D
102
}
330
D
100
AcDbGroup
300

 70
     1
 71
     1
  0
GROUP
  5
20022
102
{ACAD_REACTORS
330
D
102
}
330
D
100
AcDbGroup
300

 70
     1
 71
     1
  0
GROUP
  5
27F13
102
{ACAD_REACTORS
330
D
102
}
330
D
100
AcDbGroup
300

 70
     1
 71
     1
  0
GROUP
  5
196C2
102
{ACAD_REACTORS
330
D
102
}
330
D
100
AcDbGroup
300

 70
     1
 71
     1
  0
GROUP
  5
19F55
102
{ACAD_REACTORS
330
D
102
}
330
D
100
AcDbGroup
300

 70
     1
 71
     1
  0
GROUP
  5
1EB7E
102
{ACAD_REACTORS
330
D
102
}
330
D
100
AcDbGroup
300

 70
     1
 71
     1
  0
GROUP
  5
24A92
102
{ACAD_REACTORS
330
D
102
}
330
D
100
AcDbGroup
300

 70
     1
 71
     1
  0
GROUP
  5
106C6
102
{ACAD_REACTORS
330
D
102
}
330
D
100
AcDbGroup
300

 70
     1
 71
     1
  0
GROUP
  5
16069
102
{ACAD_REACTORS
330
D
102
}
330
D
100
AcDbGroup
300

 70
     1
 71
     1
  0
GROUP
  5
24ABC
102
{ACAD_REACTORS
330
D
102
}
330
D
100
AcDbGroup
300

 70
     1
 71
     1
  0
GROUP
  5
27BB7
102
{ACAD_REACTORS
330
D
102
}
330
D
100
AcDbGroup
300

 70
     1
 71
     1
  0
GROUP
  5
24A8C
102
{ACAD_REACTORS
330
D
102
}
330
D
100
AcDbGroup
300

 70
     1
 71
     1
  0
GROUP
  5
2001F
102
{ACAD_REACTORS
330
D
102
}
330
D
100
AcDbGroup
300

 70
     1
 71
     1
  0
GROUP
  5
1A692
102
{ACAD_REACTORS
330
D
102
}
330
D
100
AcDbGroup
300

 70
     1
 71
     1
  0
GROUP
  5
19259
102
{ACAD_REACTORS
330
D
102
}
330
D
100
AcDbGroup
300

 70
     1
 71
     1
  0
GROUP
  5
19A52
102
{ACAD_REACTORS
330
D
102
}
330
D
100
AcDbGroup
300

 70
     1
 71
     1
  0
GROUP
  5
2A739
102
{ACAD_REACTORS
330
D
102
}
330
D
100
AcDbGroup
300

 70
     1
 71
     1
  0
GROUP
  5
1F8F0
102
{ACAD_REACTORS
330
D
102
}
330
D
100
AcDbGroup
300

 70
     1
 71
     1
  0
GROUP
  5
18F22
102
{ACAD_REACTORS
330
D
102
}
330
D
100
AcDbGroup
300

 70
     1
 71
     1
  0
GROUP
  5
242B6
102
{ACAD_REACTORS
330
D
102
}
330
D
100
AcDbGroup
300

 70
     1
 71
     1
  0
GROUP
  5
24A4B
102
{ACAD_REACTORS
330
D
102
}
330
D
100
AcDbGroup
300

 70
     1
 71
     1
  0
GROUP
  5
24A68
102
{ACAD_REACTORS
330
D
102
}
330
D
100
AcDbGroup
300

 70
     1
 71
     1
  0
GROUP
  5
20028
102
{ACAD_REACTORS
330
D
102
}
330
D
100
AcDbGroup
300

 70
     1
 71
     1
  0
GROUP
  5
242D8
102
{ACAD_REACTORS
330
D
102
}
330
D
100
AcDbGroup
300

 70
     1
 71
     1
  0
GROUP
  5
29244
102
{ACAD_REACTORS
330
D
102
}
330
D
100
AcDbGroup
300

 70
     1
 71
     1
  0
GROUP
  5
249FB
102
{ACAD_REACTORS
330
D
102
}
330
D
100
AcDbGroup
300

 70
     1
 71
     1
  0
GROUP
  5
242B5
102
{ACAD_REACTORS
330
D
102
}
330
D
100
AcDbGroup
300

 70
     1
 71
     1
  0
GROUP
  5
24B04
102
{ACAD_REACTORS
330
D
102
}
330
D
100
AcDbGroup
300

 70
     1
 71
     1
  0
GROUP
  5
25E84
102
{ACAD_REACTORS
330
D
102
}
330
D
100
AcDbGroup
300

 70
     1
 71
     1
  0
GROUP
  5
24AB6
102
{ACAD_REACTORS
330
D
102
}
330
D
100
AcDbGroup
300

 70
     1
 71
     1
  0
GROUP
  5
1A09A
102
{ACAD_REACTORS
330
D
102
}
330
D
100
AcDbGroup
300

 70
     1
 71
     1
  0
GROUP
  5
26964
102
{ACAD_REACTORS
330
D
102
}
330
D
100
AcDbGroup
300

 70
     1
 71
     1
  0
GROUP
  5
27F10
102
{ACAD_REACTORS
330
D
102
}
330
D
100
AcDbGroup
300

 70
     1
 71
     1
  0
GROUP
  5
240F0
102
{ACAD_REACTORS
330
D
102
}
330
D
100
AcDbGroup
300

 70
     1
 71
     1
  0
GROUP
  5
2471C
102
{ACAD_REACTORS
330
D
102
}
330
D
100
AcDbGroup
300

 70
     1
 71
     1
  0
GROUP
  5
19794
102
{ACAD_REACTORS
330
D
102
}
330
D
100
AcDbGroup
300

 70
     1
 71
     1
  0
GROUP
  5
2A73A
102
{ACAD_REACTORS
330
D
102
}
330
D
100
AcDbGroup
300

 70
     1
 71
     1
  0
GROUP
  5
274AC
102
{ACAD_REACTORS
330
D
102
}
330
D
100
AcDbGroup
300

 70
     1
 71
     1
  0
GROUP
  5
25F19
102
{ACAD_REACTORS
330
D
102
}
330
D
100
AcDbGroup
300

 70
     1
 71
     1
  0
GROUP
  5
27F14
102
{ACAD_REACTORS
330
D
102
}
330
D
100
AcDbGroup
300

 70
     1
 71
     1
  0
GROUP
  5
274FC
102
{ACAD_REACTORS
330
D
102
}
330
D
100
AcDbGroup
300

 70
     1
 71
     1
  0
GROUP
  5
215A2
102
{ACAD_REACTORS
330
D
102
}
330
D
100
AcDbGroup
300

 70
     1
 71
     1
  0
GROUP
  5
29603
102
{ACAD_REACTORS
330
D
102
}
330
D
100
AcDbGroup
300

 70
     1
 71
     1
  0
GROUP
  5
1B744
102
{ACAD_REACTORS
330
D
102
}
330
D
100
AcDbGroup
300

 70
     1
 71
     1
  0
GROUP
  5
19FAB
102
{ACAD_REACTORS
330
D
102
}
330
D
100
AcDbGroup
300

 70
     1
 71
     1
  0
GROUP
  5
ACA1
102
{ACAD_REACTORS
330
D
102
}
330
D
100
AcDbGroup
300

 70
     1
 71
     1
  0
GROUP
  5
24914
102
{ACAD_REACTORS
330
D
102
}
330
D
100
AcDbGroup
300

 70
     1
 71
     1
  0
GROUP
  5
1D6AC
102
{ACAD_REACTORS
330
D
102
}
330
D
100
AcDbGroup
300

 70
     1
 71
     1
  0
GROUP
  5
22AAC
102
{ACAD_REACTORS
330
D
102
}
330
D
100
AcDbGroup
300

 70
     1
 71
     1
  0
GROUP
  5
24A47
102
{ACAD_REACTORS
330
D
102
}
330
D
100
AcDbGroup
300

 70
     1
 71
     1
  0
GROUP
  5
24A03
102
{ACAD_REACTORS
330
D
102
}
330
D
100
AcDbGroup
300

 70
     1
 71
     1
  0
GROUP
  5
FC9A
102
{ACAD_REACTORS
330
D
102
}
330
D
100
AcDbGroup
300

 70
     1
 71
     1
  0
GROUP
  5
24A18
102
{ACAD_REACTORS
330
D
102
}
330
D
100
AcDbGroup
300

 70
     1
 71
     1
  0
GROUP
  5
20013
102
{ACAD_REACTORS
330
D
102
}
330
D
100
AcDbGroup
300

 70
     1
 71
     1
  0
GROUP
  5
240F1
102
{ACAD_REACTORS
330
D
102
}
330
D
100
AcDbGroup
300

 70
     1
 71
     1
  0
GROUP
  5
20CA2
102
{ACAD_REACTORS
330
D
102
}
330
D
100
AcDbGroup
300

 70
     1
 71
     1
  0
GROUP
  5
18FA8
102
{ACAD_REACTORS
330
D
102
}
330
D
100
AcDbGroup
300

 70
     1
 71
     1
  0
GROUP
  5
242DF
102
{ACAD_REACTORS
330
D
102
}
330
D
100
AcDbGroup
300

 70
     1
 71
     1
  0
GROUP
  5
24AF2
102
{ACAD_REACTORS
330
D
102
}
330
D
100
AcDbGroup
300

 70
     1
 71
     1
  0
GROUP
  5
20213
102
{ACAD_REACTORS
330
D
102
}
330
D
100
AcDbGroup
300

 70
     1
 71
     1
  0
GROUP
  5
24A0A
102
{ACAD_REACTORS
330
D
102
}
330
D
100
AcDbGroup
300

 70
     1
 71
     1
  0
GROUP
  5
1D670
102
{ACAD_REACTORS
330
D
102
}
330
D
100
AcDbGroup
300

 70
     1
 71
     1
  0
GROUP
  5
AC9A
102
{ACAD_REACTORS
330
D
102
}
330
D
100
AcDbGroup
300

 70
     1
 71
     1
  0
GROUP
  5
2471A
102
{ACAD_REACTORS
330
D
102
}
330
D
100
AcDbGroup
300

 70
     1
 71
     1
  0
GROUP
  5
FC91
102
{ACAD_REACTORS
330
D
102
}
330
D
100
AcDbGroup
300

 70
     1
 71
     1
  0
GROUP
  5
106B3
102
{ACAD_REACTORS
330
D
102
}
330
D
100
AcDbGroup
300

 70
     1
 71
     1
  0
GROUP
  5
249FA
102
{ACAD_REACTORS
330
D
102
}
330
D
100
AcDbGroup
300

 70
     1
 71
     1
  0
GROUP
  5
242BC
102
{ACAD_REACTORS
330
D
102
}
330
D
100
AcDbGroup
300

 70
     1
 71
     1
  0
GROUP
  5
242E7
102
{ACAD_REACTORS
330
D
102
}
330
D
100
AcDbGroup
300

 70
     1
 71
     1
  0
GROUP
  5
2472B
102
{ACAD_REACTORS
330
D
102
}
330
D
100
AcDbGroup
300

 70
     1
 71
     1
  0
GROUP
  5
27F0F
102
{ACAD_REACTORS
330
D
102
}
330
D
100
AcDbGroup
300

 70
     1
 71
     1
  0
GROUP
  5
173BD
102
{ACAD_REACTORS
330
D
102
}
330
D
100
AcDbGroup
300

 70
     1
 71
     1
  0
GROUP
  5
1D6D4
102
{ACAD_REACTORS
330
D
102
}
330
D
100
AcDbGroup
300

 70
     1
 71
     1
  0
GROUP
  5
24AC8
102
{ACAD_REACTORS
330
D
102
}
330
D
100
AcDbGroup
300

 70
     1
 71
     1
  0
GROUP
  5
20236
102
{ACAD_REACTORS
330
D
102
}
330
D
100
AcDbGroup
300

 70
     1
 71
     1
  0
GROUP
  5
27F19
102
{ACAD_REACTORS
330
D
102
}
330
D
100
AcDbGroup
300

 70
     1
 71
     1
  0
GROUP
  5
242CB
102
{ACAD_REACTORS
330
D
102
}
330
D
100
AcDbGroup
300

 70
     1
 71
     1
  0
GROUP
  5
2A73B
102
{ACAD_REACTORS
330
D
102
}
330
D
100
AcDbGroup
300

 70
     1
 71
     1
  0
GROUP
  5
2001C
102
{ACAD_REACTORS
330
D
102
}
330
D
100
AcDbGroup
300

 70
     1
 71
     1
  0
GROUP
  5
1D67A
102
{ACAD_REACTORS
330
D
102
}
330
D
100
AcDbGroup
300

 70
     1
 71
     1
  0
GROUP
  5
28E7F
102
{ACAD_REACTORS
330
D
102
}
330
D
100
AcDbGroup
300

 70
     1
 71
     1
340
28E5A
340
28E58
  0
GROUP
  5
22E4B
102
{ACAD_REACTORS
330
D
102
}
330
D
100
AcDbGroup
300

 70
     1
 71
     1
  0
GROUP
  5
24A1E
102
{ACAD_REACTORS
330
D
102
}
330
D
100
AcDbGroup
300

 70
     1
 71
     1
  0
GROUP
  5
242BD
102
{ACAD_REACTORS
330
D
102
}
330
D
100
AcDbGroup
300

 70
     1
 71
     1
  0
GROUP
  5
29574
102
{ACAD_REACTORS
330
D
102
}
330
D
100
AcDbGroup
300

 70
     1
 71
     1
  0
GROUP
  5
24717
102
{ACAD_REACTORS
330
D
102
}
330
D
100
AcDbGroup
300

 70
     1
 71
     1
  0
GROUP
  5
19A5A
102
{ACAD_REACTORS
330
D
102
}
330
D
100
AcDbGroup
300

 70
     1
 71
     1
  0
GROUP
  5
FB6B
102
{ACAD_REACTORS
330
D
102
}
330
D
100
AcDbGroup
300

 70
     1
 71
     1
  0
GROUP
  5
19A86
102
{ACAD_REACTORS
330
D
102
}
330
D
100
AcDbGroup
300

 70
     1
 71
     1
  0
GROUP
  5
242C4
102
{ACAD_REACTORS
330
D
102
}
330
D
100
AcDbGroup
300

 70
     1
 71
     1
  0
GROUP
  5
26FD9
102
{ACAD_REACTORS
330
D
102
}
330
D
100
AcDbGroup
300

 70
     1
 71
     1
  0
GROUP
  5
23CC3
102
{ACAD_REACTORS
330
D
102
}
330
D
100
AcDbGroup
300

 70
     1
 71
     1
  0
GROUP
  5
FC9B
102
{ACAD_REACTORS
330
D
102
}
330
D
100
AcDbGroup
300

 70
     1
 71
     1
  0
GROUP
  5
20025
102
{ACAD_REACTORS
330
D
102
}
330
D
100
AcDbGroup
300

 70
     1
 71
     1
  0
GROUP
  5
1998A
102
{ACAD_REACTORS
330
D
102
}
330
D
100
AcDbGroup
300

 70
     1
 71
     1
  0
GROUP
  5
1D6C0
102
{ACAD_REACTORS
330
D
102
}
330
D
100
AcDbGroup
300

 70
     1
 71
     1
  0
GROUP
  5
19255
102
{ACAD_REACTORS
330
D
102
}
330
D
100
AcDbGroup
300

 70
     1
 71
     1
  0
GROUP
  5
28AF0
102
{ACAD_REACTORS
330
D
102
}
330
D
100
AcDbGroup
300

 70
     1
 71
     1
340
288E6
340
288E7
340
288EB
340
288F0
  0
GROUP
  5
1D6E8
102
{ACAD_REACTORS
330
D
102
}
330
D
100
AcDbGroup
300

 70
     1
 71
     1
  0
GROUP
  5
2A73F
102
{ACAD_REACTORS
330
D
102
}
330
D
100
AcDbGroup
300

 70
     1
 71
     1
  0
GROUP
  5
25E80
102
{ACAD_REACTORS
330
D
102
}
330
D
100
AcDbGroup
300

 70
     1
 71
     1
  0
GROUP
  5
19786
102
{ACAD_REACTORS
330
D
102
}
330
D
100
AcDbGroup
300

 70
     1
 71
     1
  0
GROUP
  5
2472F
102
{ACAD_REACTORS
330
D
102
}
330
D
100
AcDbGroup
300

 70
     1
 71
     1
  0
GROUP
  5
2A73D
102
{ACAD_REACTORS
330
D
102
}
330
D
100
AcDbGroup
300

 70
     1
 71
     1
  0
GROUP
  5
24718
102
{ACAD_REACTORS
330
D
102
}
330
D
100
AcDbGroup
300

 70
     1
 71
     1
  0
GROUP
  5
24A4D
102
{ACAD_REACTORS
330
D
102
}
330
D
100
AcDbGroup
300

 70
     1
 71
     1
  0
GROUP
  5
2812F
102
{ACAD_REACTORS
330
D
102
}
330
D
100
AcDbGroup
300

 70
     1
 71
     1
  0
GROUP
  5
20CA6
102
{ACAD_REACTORS
330
D
102
}
330
D
100
AcDbGroup
300

 70
     1
 71
     1
  0
GROUP
  5
270B1
102
{ACAD_REACTORS
330
D
102
}
330
D
100
AcDbGroup
300

 70
     1
 71
     1
  0
GROUP
  5
28E16
102
{ACAD_REACTORS
330
D
102
}
330
D
100
AcDbGroup
300

 70
     1
 71
     1
  0
GROUP
  5
29576
102
{ACAD_REACTORS
330
D
102
}
330
D
100
AcDbGroup
300

 70
     1
 71
     1
  0
GROUP
  5
26962
102
{ACAD_REACTORS
330
D
102
}
330
D
100
AcDbGroup
300

 70
     1
 71
     1
  0
GROUP
  5
24ACE
102
{ACAD_REACTORS
330
D
102
}
330
D
100
AcDbGroup
300

 70
     1
 71
     1
  0
GROUP
  5
19F67
102
{ACAD_REACTORS
330
D
102
}
330
D
100
AcDbGroup
300

 70
     1
 71
     1
  0
GROUP
  5
24726
102
{ACAD_REACTORS
330
D
102
}
330
D
100
AcDbGroup
300

 70
     1
 71
     1
  0
GROUP
  5
24A4E
102
{ACAD_REACTORS
330
D
102
}
330
D
100
AcDbGroup
300

 70
     1
 71
     1
  0
GROUP
  5
1D706
102
{ACAD_REACTORS
330
D
102
}
330
D
100
AcDbGroup
300

 70
     1
 71
     1
  0
GROUP
  5
2867F
102
{ACAD_REACTORS
330
D
102
}
330
D
100
AcDbGroup
300

 70
     1
 71
     1
  0
GROUP
  5
254C6
102
{ACAD_REACTORS
330
D
102
}
330
D
100
AcDbGroup
300

 70
     1
 71
     1
  0
GROUP
  5
24A45
102
{ACAD_REACTORS
330
D
102
}
330
D
100
AcDbGroup
300

 70
     1
 71
     1
  0
GROUP
  5
26FD8
102
{ACAD_REACTORS
330
D
102
}
330
D
100
AcDbGroup
300

 70
     1
 71
     1
  0
GROUP
  5
2A740
102
{ACAD_REACTORS
330
D
102
}
330
D
100
AcDbGroup
300

 70
     1
 71
     1
  0
GROUP
  5
28680
102
{ACAD_REACTORS
330
D
102
}
330
D
100
AcDbGroup
300

 70
     1
 71
     1
  0
GROUP
  5
1D6B6
102
{ACAD_REACTORS
330
D
102
}
330
D
100
AcDbGroup
300

 70
     1
 71
     1
  0
GROUP
  5
2244A
102
{ACAD_REACTORS
330
D
102
}
330
D
100
AcDbGroup
300

 70
     1
 71
     1
  0
GROUP
  5
25E7F
102
{ACAD_REACTORS
330
D
102
}
330
D
100
AcDbGroup
300

 70
     1
 71
     1
  0
GROUP
  5
1F918
102
{ACAD_REACTORS
330
D
102
}
330
D
100
AcDbGroup
300

 70
     1
 71
     1
  0
GROUP
  5
2472E
102
{ACAD_REACTORS
330
D
102
}
330
D
100
AcDbGroup
300

 70
     1
 71
     1
  0
GROUP
  5
1606A
102
{ACAD_REACTORS
330
D
102
}
330
D
100
AcDbGroup
300

 70
     1
 71
     1
  0
GROUP
  5
1D684
102
{ACAD_REACTORS
330
D
102
}
330
D
100
AcDbGroup
300

 70
     1
 71
     1
  0
GROUP
  5
ACA2
102
{ACAD_REACTORS
330
D
102
}
330
D
100
AcDbGroup
300

 70
     1
 71
     1
  0
GROUP
  5
18F21
102
{ACAD_REACTORS
330
D
102
}
330
D
100
AcDbGroup
300

 70
     1
 71
     1
  0
GROUP
  5
242E6
102
{ACAD_REACTORS
330
D
102
}
330
D
100
AcDbGroup
300

 70
     1
 71
     1
  0
GROUP
  5
2A815
102
{ACAD_REACTORS
330
D
102
}
330
D
100
AcDbGroup
300

 70
     1
 71
     1
  0
GROUP
  5
17389
102
{ACAD_REACTORS
330
D
102
}
330
D
100
AcDbGroup
300

 70
     1
 71
     1
  0
GROUP
  5
FC95
102
{ACAD_REACTORS
330
D
102
}
330
D
100
AcDbGroup
300

 70
     1
 71
     1
  0
GROUP
  5
2021D
102
{ACAD_REACTORS
330
D
102
}
330
D
100
AcDbGroup
300

 70
     1
 71
     1
  0
GROUP
  5
274A9
102
{ACAD_REACTORS
330
D
102
}
330
D
100
AcDbGroup
300

 70
     1
 71
     1
  0
GROUP
  5
24AE6
102
{ACAD_REACTORS
330
D
102
}
330
D
100
AcDbGroup
300

 70
     1
 71
     1
  0
GROUP
  5
23CC4
102
{ACAD_REACTORS
330
D
102
}
330
D
100
AcDbGroup
300

 70
     1
 71
     1
  0
GROUP
  5
ACAB
102
{ACAD_REACTORS
330
D
102
}
330
D
100
AcDbGroup
300

 70
     1
 71
     1
  0
GROUP
  5
24A1F
102
{ACAD_REACTORS
330
D
102
}
330
D
100
AcDbGroup
300

 70
     1
 71
     1
  0
GROUP
  5
27F11
102
{ACAD_REACTORS
330
D
102
}
330
D
100
AcDbGroup
300

 70
     1
 71
     1
  0
GROUP
  5
19787
102
{ACAD_REACTORS
330
D
102
}
330
D
100
AcDbGroup
300

 70
     1
 71
     1
  0
GROUP
  5
24A09
102
{ACAD_REACTORS
330
D
102
}
330
D
100
AcDbGroup
300

 70
     1
 71
     1
  0
GROUP
  5
24720
102
{ACAD_REACTORS
330
D
102
}
330
D
100
AcDbGroup
300

 70
     1
 71
     1
  0
GROUP
  5
169DA
102
{ACAD_REACTORS
330
D
102
}
330
D
100
AcDbGroup
300

 70
     1
 71
     1
  0
GROUP
  5
24AAA
102
{ACAD_REACTORS
330
D
102
}
330
D
100
AcDbGroup
300

 70
     1
 71
     1
  0
MLINESTYLE
  5
1C
102
{ACAD_REACTORS
330
1B
102
}
330
1B
100
AcDbMlineStyle
  2
STANDARD
 70
     0
  3

 62
   256
 51
90.0
 52
90.0
 71
     2
 49
0.5
 62
   256
  6
BYLAYER
 49
-0.5
 62
   256
  6
BYLAYER
  0
ACDBPLACEHOLDER
  5
FB5C
102
{ACAD_REACTORS
330
FB5B
102
}
330
FB5B
100
AcDbPlaceHolder
280
     0
  0
XRECORD
  5
2BB81
102
{ACAD_REACTORS
330
2BB77
102
}
330
2BB77
100
AcDbXrecord
 90
        0
  0
XRECORD
  5
2BB85
102
{ACAD_REACTORS
330
2BB77
102
}
330
2BB77
100
AcDbXrecord
1000
DSTYLE
1002
{
1070
   289
 70
     1
1070
   341
340
1215D
1070
   342
340
1215D
1070
   371
 70
    13
1070
   372
 70
    13
1002
}
  0
XRECORD
  5
2BB82
102
{ACAD_REACTORS
330
2BB77
102
}
330
2BB77
100
AcDbXrecord
  1
{D14EE3FF-941A-415A-9907-344E0A80D794}
  0
XRECORD
  5
2BB7A
102
{ACAD_REACTORS
330
2BB77
102
}
330
2BB77
100
AcDbXrecord
  1

  0
XRECORD
  5
2BB80
102
{ACAD_REACTORS
330
2BB77
102
}
330
2BB77
100
AcDbXrecord
 90
        0
  0
XRECORD
  5
2BB7C
102
{ACAD_REACTORS
330
2BB77
102
}
330
2BB77
100
AcDbXrecord
340
DB2
  0
XRECORD
  5
2BB7F
102
{ACAD_REACTORS
330
2BB77
102
}
330
2BB77
100
AcDbXrecord
 90
    10781
  0
XRECORD
  5
2BB7D
102
{ACAD_REACTORS
330
2BB77
102
}
330
2BB77
100
AcDbXrecord
340
DB3
  0
XRECORD
  5
2BB7E
102
{ACAD_REACTORS
330
2BB77
102
}
330
2BB77
100
AcDbXrecord
340
FB5B
  0
XRECORD
  5
2BB84
102
{ACAD_REACTORS
330
2BB77
102
}
330
2BB77
100
AcDbXrecord
 40
0.0
  0
XRECORD
  5
2BB88
102
{ACAD_REACTORS
330
2BB77
102
}
330
2BB77
100
AcDbXrecord
340
0
  0
XRECORD
  5
2BB8E
102
{ACAD_REACTORS
330
2BB77
102
}
330
2BB77
100
AcDbXrecord
 10
0.0
 20
0.0
 30
0.0
  0
XRECORD
  5
2BB8A
102
{ACAD_REACTORS
330
2BB77
102
}
330
2BB77
100
AcDbXrecord
 10
0.0
 20
0.0
 30
0.0
  0
XRECORD
  5
2BB8D
102
{ACAD_REACTORS
330
2BB77
102
}
330
2BB77
100
AcDbXrecord
 10
0.0
 20
0.0
 30
0.0
  0
XRECORD
  5
2BB8B
102
{ACAD_REACTORS
330
2BB77
102
}
330
2BB77
100
AcDbXrecord
 10
0.0
 20
0.0
 30
0.0
  0
XRECORD
  5
2BB8C
102
{ACAD_REACTORS
330
2BB77
102
}
330
2BB77
100
AcDbXrecord
 10
0.0
 20
0.0
 30
0.0
  0
XRECORD
  5
2BB89
102
{ACAD_REACTORS
330
2BB77
102
}
330
2BB77
100
AcDbXrecord
 10
0.0
 20
0.0
 30
0.0
  0
XRECORD
  5
2BB86
102
{ACAD_REACTORS
330
2BB77
102
}
330
2BB77
100
AcDbXrecord
340
0
  0
XRECORD
  5
2BB87
102
{ACAD_REACTORS
330
2BB77
102
}
330
2BB77
100
AcDbXrecord
 70
     0
  0
XRECORD
  5
2BB7B
102
{ACAD_REACTORS
330
2BB77
102
}
330
2BB77
100
AcDbXrecord
  1
monochrome.ctb
  0
XRECORD
  5
2BB78
102
{ACAD_REACTORS
330
2BB77
102
}
330
2BB77
100
AcDbXrecord
 90
        1
  0
XRECORD
  5
2BB79
102
{ACAD_REACTORS
330
2BB77
102
}
330
2BB77
100
AcDbXrecord
 90
       70
  0
XRECORD
  5
2BB91
102
{ACAD_REACTORS
330
2BB77
102
}
330
2BB77
100
AcDbXrecord
340
0
  0
XRECORD
  5
2BB97
102
{ACAD_REACTORS
330
2BB77
102
}
330
2BB77
100
AcDbXrecord
 10
0.0
 20
0.0
 30
0.0
  0
XRECORD
  5
2BB93
102
{ACAD_REACTORS
330
2BB77
102
}
330
2BB77
100
AcDbXrecord
 10
0.0
 20
0.0
 30
0.0
  0
XRECORD
  5
2BB96
102
{ACAD_REACTORS
330
2BB77
102
}
330
2BB77
100
AcDbXrecord
 10
0.0
 20
0.0
 30
0.0
  0
XRECORD
  5
2BB94
102
{ACAD_REACTORS
330
2BB77
102
}
330
2BB77
100
AcDbXrecord
 10
0.0
 20
0.0
 30
0.0
  0
XRECORD
  5
2BB95
102
{ACAD_REACTORS
330
2BB77
102
}
330
2BB77
100
AcDbXrecord
 10
0.0
 20
0.0
 30
0.0
  0
XRECORD
  5
2BB92
102
{ACAD_REACTORS
330
2BB77
102
}
330
2BB77
100
AcDbXrecord
 10
0.0
 20
0.0
 30
0.0
  0
XRECORD
  5
2BB8F
102
{ACAD_REACTORS
330
2BB77
102
}
330
2BB77
100
AcDbXrecord
340
0
  0
XRECORD
  5
2BB90
102
{ACAD_REACTORS
330
2BB77
102
}
330
2BB77
100
AcDbXrecord
 70
     0
  0
XRECORD
  5
2BB83
102
{ACAD_REACTORS
330
2BB77
102
}
330
2BB77
100
AcDbXrecord
  1
{49079D1B-2C88-4B1F-BB11-521841357B83}
  0
DICTIONARYVAR
  5
106A7
102
{ACAD_REACTORS
330
106A6
102
}
330
106A6
100
DictionaryVariables
280
     0
  1
96
  0
XRECORD
  5
1A9A1
102
{ACAD_REACTORS
330
1A99F
102
}
330
1A99F
100
AcDbXrecord
330
187D7
330
0
330
0
330
0
330
0
330
0
330
0
330
0
330
0
330
0
330
0
330
0
330
0
330
0
330
0
330
0
330
0
330
0
330
0
330
0
330
0
330
0
330
0
330
0
330
0
330
0
330
0
330
0
330
0
330
0
330
0
330
0
330
0
330
0
330
0
330
0
330
0
330
0
330
0
330
0
330
0
330
0
330
0
330
0
  0
XRECORD
  5
2BB21
102
{ACAD_REACTORS
330
25085
102
}
330
25085
100
AcDbXrecord
  1
0
  1
*0
  1
*
  1
*
 70
     0
  1
*
  1
*
  0
XRECORD
  5
2BB22
102
{ACAD_REACTORS
330
25085
102
}
330
25085
100
AcDbXrecord
  1
11
  1
*11
  1
*
  1
*
 70
     0
  1
*
  1
*
  0
XRECORD
  5
2BB23
102
{ACAD_REACTORS
330
25085
102
}
330
25085
100
AcDbXrecord
  1
150_
  1
150_*
  1
*
  1
*
 70
     0
  1
*
  1
*
  0
XRECORD
  5
2BB24
102
{ACAD_REACTORS
330
25085
102
}
330
25085
100
AcDbXrecord
  1
160_
  1
160_*
  1
*
  1
*
 70
     0
  1
*
  1
*
  0
XRECORD
  5
2BB25
102
{ACAD_REACTORS
330
25085
102
}
330
25085
100
AcDbXrecord
  1
170_
  1
170_*
  1
*
  1
*
 70
     0
  1
*
  1
*
  0
XRECORD
  5
2BB26
102
{ACAD_REACTORS
330
25085
102
}
330
25085
100
AcDbXrecord
  1
171_
  1
171_*
  1
*
  1
*
 70
     0
  1
*
  1
*
  0
XRECORD
  5
2BB27
102
{ACAD_REACTORS
330
25085
102
}
330
25085
100
AcDbXrecord
  1
350_
  1
350_*
  1
*
  1
*
 70
     0
  1
*
  1
*
  0
XRECORD
  5
2BB28
102
{ACAD_REACTORS
330
25085
102
}
330
25085
100
AcDbXrecord
  1
4
  1
*4
  1
*
  1
*
 70
     0
  1
*
  1
*
  0
XRECORD
  5
2BB29
102
{ACAD_REACTORS
330
25085
102
}
330
25085
100
AcDbXrecord
  1
5
  1
*5
  1
*
  1
*
 70
     0
  1
*
  1
*
  0
XRECORD
  5
2BB2A
102
{ACAD_REACTORS
330
25085
102
}
330
25085
100
AcDbXrecord
  1
7
  1
*7
  1
*
  1
*
 70
     0
  1
*
  1
*
  0
XRECORD
  5
2BB2B
102
{ACAD_REACTORS
330
25085
102
}
330
25085
100
AcDbXrecord
  1
kiseki
  1
kiseki*
  1
*
  1
*
 70
     0
  1
*
  1
*
  0
ENDSEC
  0
EOF
