  0
SECTION
  2
HEADER
  9
$ACADVER
  1
AC1015
  9
$ACADMAINTVER
 70
    10
  9
$DWGCODEPAGE
  3
ANSI_932
  9
$INSBASE
 10
0.0
 20
0.0
 30
0.0
  9
$EXTMIN
 10
1673.90913233329
 20
899.3379010133107
 30
0.0
  9
$EXTMAX
 10
1992.859743093609
 20
1129.113839038253
 30
0.0
  9
$LIMMIN
 10
0.0
 20
0.0
  9
$LIMMAX
 10
420.0
 20
297.0
  9
$ORTHOMODE
 70
     1
  9
$REGENMODE
 70
     1
  9
$FILLMODE
 70
     1
  9
$QTEXTMODE
 70
     0
  9
$MIRRTEXT
 70
     1
  9
$LTSCALE
 40
1.0
  9
$ATTMODE
 70
     1
  9
$TEXTSIZE
 40
5.0
  9
$TRACEWID
 40
1.0
  9
$TEXTSTYLE
  7
MSｺﾞｼｯｸ
  9
$CLAYER
  8
0
  9
$CELTYPE
  6
BYLAYER
  9
$CECOLOR
 62
   256
  9
$CELTSCALE
 40
0.1
  9
$DISPSILH
 70
     0
  9
$DIMSCALE
 40
1.0
  9
$DIMASZ
 40
4.0
  9
$DIMEXO
 40
1.5
  9
$DIMDLI
 40
5.0
  9
$DIMRND
 40
0.0
  9
$DIMDLE
 40
0.0
  9
$DIMEXE
 40
0.75
  9
$DIMTP
 40
0.0
  9
$DIMTM
 40
0.0
  9
$DIMTXT
 40
6.0
  9
$DIMCEN
 40
2.5
  9
$DIMTSZ
 40
0.0
  9
$DIMTOL
 70
     0
  9
$DIMLIM
 70
     0
  9
$DIMTIH
 70
     0
  9
$DIMTOH
 70
     0
  9
$DIMSE1
 70
     0
  9
$DIMSE2
 70
     0
  9
$DIMTAD
 70
     1
  9
$DIMZIN
 70
     9
  9
$DIMBLK
  1

  9
$DIMASO
 70
     1
  9
$DIMSHO
 70
     1
  9
$DIMPOST
  1

  9
$DIMAPOST
  1

  9
$DIMALT
 70
     0
  9
$DIMALTD
 70
     4
  9
$DIMALTF
 40
0.0394
  9
$DIMLFAC
 40
1.0
  9
$DIMTOFL
 70
     1
  9
$DIMTVP
 40
0.0
  9
$DIMTIX
 70
     0
  9
$DIMSOXD
 70
     0
  9
$DIMSAH
 70
     1
  9
$DIMBLK1
  1
OPEN
  9
$DIMBLK2
  1
OPEN
  9
$DIMSTYLE
  2
STANDARD
  9
$DIMCLRD
 70
     0
  9
$DIMCLRE
 70
     0
  9
$DIMCLRT
 70
     7
  9
$DIMTFAC
 40
1.0
  9
$DIMGAP
 40
1.5
  9
$DIMJUST
 70
     0
  9
$DIMSD1
 70
     0
  9
$DIMSD2
 70
     0
  9
$DIMTOLJ
 70
     1
  9
$DIMTZIN
 70
     9
  9
$DIMALTZ
 70
     0
  9
$DIMALTTZ
 70
     0
  9
$DIMUPT
 70
     0
  9
$DIMDEC
 70
     4
  9
$DIMTDEC
 70
     4
  9
$DIMALTU
 70
     8
  9
$DIMALTTD
 70
     4
  9
$DIMTXSTY
  7
STANDARD
  9
$DIMAUNIT
 70
     0
  9
$DIMADEC
 70
     0
  9
$DIMALTRND
 40
0.0
  9
$DIMAZIN
 70
     2
  9
$DIMDSEP
 70
    46
  9
$DIMATFIT
 70
     3
  9
$DIMFRAC
 70
     0
  9
$DIMLDRBLK
  1
OPEN
  9
$DIMLUNIT
 70
     2
  9
$DIMLWD
 70
    -2
  9
$DIMLWE
 70
    -2
  9
$DIMTMOVE
 70
     2
  9
$LUNITS
 70
     2
  9
$LUPREC
 70
     4
  9
$SKETCHINC
 40
1.0
  9
$FILLETRAD
 40
1.0
  9
$AUNITS
 70
     0
  9
$AUPREC
 70
     0
  9
$MENU
  1
.
  9
$ELEVATION
 40
0.0
  9
$PELEVATION
 40
0.0
  9
$THICKNESS
 40
0.0
  9
$LIMCHECK
 70
     0
  9
$CHAMFERA
 40
0.0
  9
$CHAMFERB
 40
0.0
  9
$CHAMFERC
 40
20.0
  9
$CHAMFERD
 40
0.0
  9
$SKPOLY
 70
     0
  9
$TDCREATE
 40
2451224.660162384
  9
$TDUCREATE
 40
2451224.285162384
  9
$TDUPDATE
 40
2457366.585939120
  9
$TDUUPDATE
 40
2457366.210939120
  9
$TDINDWG
 40
1.7796945139
  9
$TDUSRTIMER
 40
2457310.279262049
  9
$USRTIMER
 70
     1
  9
$ANGBASE
 50
0.0
  9
$ANGDIR
 70
     0
  9
$PDMODE
 70
     0
  9
$PDSIZE
 40
0.0
  9
$PLINEWID
 40
0.0
  9
$SPLFRAME
 70
     0
  9
$SPLINETYPE
 70
     6
  9
$SPLINESEGS
 70
     8
  9
$HANDSEED
  5
C59C
  9
$SURFTAB1
 70
     6
  9
$SURFTAB2
 70
     6
  9
$SURFTYPE
 70
     6
  9
$SURFU
 70
     6
  9
$SURFV
 70
     6
  9
$UCSBASE
  2

  9
$UCSNAME
  2

  9
$UCSORG
 10
0.0
 20
0.0
 30
0.0
  9
$UCSXDIR
 10
1.0
 20
0.0
 30
0.0
  9
$UCSYDIR
 10
0.0
 20
1.0
 30
0.0
  9
$UCSORTHOREF
  2

  9
$UCSORTHOVIEW
 70
     0
  9
$UCSORGTOP
 10
0.0
 20
0.0
 30
0.0
  9
$UCSORGBOTTOM
 10
0.0
 20
0.0
 30
0.0
  9
$UCSORGLEFT
 10
0.0
 20
0.0
 30
0.0
  9
$UCSORGRIGHT
 10
0.0
 20
0.0
 30
0.0
  9
$UCSORGFRONT
 10
0.0
 20
0.0
 30
0.0
  9
$UCSORGBACK
 10
0.0
 20
0.0
 30
0.0
  9
$PUCSBASE
  2

  9
$PUCSNAME
  2

  9
$PUCSORG
 10
0.0
 20
0.0
 30
0.0
  9
$PUCSXDIR
 10
1.0
 20
0.0
 30
0.0
  9
$PUCSYDIR
 10
0.0
 20
1.0
 30
0.0
  9
$PUCSORTHOREF
  2

  9
$PUCSORTHOVIEW
 70
     0
  9
$PUCSORGTOP
 10
0.0
 20
0.0
 30
0.0
  9
$PUCSORGBOTTOM
 10
0.0
 20
0.0
 30
0.0
  9
$PUCSORGLEFT
 10
0.0
 20
0.0
 30
0.0
  9
$PUCSORGRIGHT
 10
0.0
 20
0.0
 30
0.0
  9
$PUCSORGFRONT
 10
0.0
 20
0.0
 30
0.0
  9
$PUCSORGBACK
 10
0.0
 20
0.0
 30
0.0
  9
$USERI1
 70
     0
  9
$USERI2
 70
     0
  9
$USERI3
 70
     0
  9
$USERI4
 70
     0
  9
$USERI5
 70
     0
  9
$USERR1
 40
0.0
  9
$USERR2
 40
0.0
  9
$USERR3
 40
0.0
  9
$USERR4
 40
0.0
  9
$USERR5
 40
0.0
  9
$WORLDVIEW
 70
     1
  9
$SHADEDGE
 70
     3
  9
$SHADEDIF
 70
    70
  9
$TILEMODE
 70
     1
  9
$MAXACTVP
 70
    48
  9
$PINSBASE
 10
0.0
 20
0.0
 30
0.0
  9
$PLIMCHECK
 70
     0
  9
$PEXTMIN
 10
1.000000000000000E+20
 20
1.000000000000000E+20
 30
1.000000000000000E+20
  9
$PEXTMAX
 10
-1.000000000000000E+20
 20
-1.000000000000000E+20
 30
-1.000000000000000E+20
  9
$PLIMMIN
 10
-3.181486154070626
 20
-3.189773237481176
  9
$PLIMMAX
 10
416.7651691193666
 20
293.7362216355657
  9
$UNITMODE
 70
     0
  9
$VISRETAIN
 70
     1
  9
$PLINEGEN
 70
     0
  9
$PSLTSCALE
 70
     0
  9
$TREEDEPTH
 70
  3020
  9
$CMLSTYLE
  2
STANDARD
  9
$CMLJUST
 70
     0
  9
$CMLSCALE
 40
20.0
  9
$PROXYGRAPHICS
 70
     1
  9
$MEASUREMENT
 70
     1
  9
$CELWEIGHT
370
    -1
  9
$ENDCAPS
280
     0
  9
$JOINSTYLE
280
     0
  9
$LWDISPLAY
290
     1
  9
$INSUNITS
 70
     0
  9
$HYPERLINKBASE
  1

  9
$STYLESHEET
  1

  9
$XEDIT
290
     1
  9
$CEPSNTYPE
380
     0
  9
$PSTYLEMODE
290
     1
  9
$FINGERPRINTGUID
  2
{6B368F64-F7EB-11D4-BFBA-00004C030E53}
  9
$VERSIONGUID
  2
{4A5A3B58-376E-4FF4-AEDE-3BC4AA66AAA2}
  9
$EXTNAMES
290
     1
  9
$PSVPSCALE
 40
0.0
  9
$OLESTARTUP
290
     0
  0
ENDSEC
  0
SECTION
  2
CLASSES
  0
CLASS
  1
HATCH
  2
AcDbHatch
  3
AutoCAD 2000
 90
    32768
280
     0
281
     1
  0
CLASS
  1
LWPOLYLINE
  2
AcDbPolyline
  3
AutoCAD 2000
 90
    32768
280
     0
281
     1
  0
CLASS
  1
ACDBDICTIONARYWDFLT
  2
AcDbDictionaryWithDefault
  3
AutoCAD 2000
 90
        0
280
     0
281
     0
  0
CLASS
  1
ACDBPLACEHOLDER
  2
AcDbPlaceHolder
  3
AutoCAD 2000
 90
        0
280
     0
281
     0
  0
CLASS
  1
LAYOUT
  2
AcDbLayout
  3
AutoCAD 2000
 90
        0
280
     0
281
     0
  0
CLASS
  1
DICTIONARYVAR
  2
AcDbDictionaryVar
  3
AutoCAD 2000
 90
        0
280
     0
281
     0
  0
CLASS
  1
VISUALSTYLE
  2
AcDbVisualStyle
  3
ObjectDBX Classes
 90
    36863
280
     0
281
     0
  0
CLASS
  1
SCALE
  2
AcDbScale
  3
ObjectDBX Classes
 90
     1153
280
     0
281
     0
  0
CLASS
  1
MATERIAL
  2
AcDbMaterial
  3
ObjectDBX Classes
 90
    33921
280
     0
281
     0
  0
CLASS
  1
TABLESTYLE
  2
AcDbTableStyle
  3
ObjectDBX Classes
 90
    36863
280
     0
281
     0
  0
CLASS
  1
MLEADERSTYLE
  2
AcDbMLeaderStyle
  3
ACDB_MLEADERSTYLE_CLASS
 90
    36863
280
     0
281
     0
  0
CLASS
  1
SUN
  2
AcDbSun
  3
SCENEOE
 90
     1153
280
     0
281
     0
  0
CLASS
  1
RASTERVARIABLES
  2
AcDbRasterVariables
  3
ISM
 90
        0
280
     0
281
     0
  0
ENDSEC
  0
SECTION
  2
TABLES
  0
TABLE
  2
VPORT
  5
8
330
0
100
AcDbSymbolTable
 70
     2
  0
VPORT
  5
C59B
330
8
100
AcDbSymbolTableRecord
100
AcDbViewportTableRecord
  2
*Active
 70
     0
 10
0.0
 20
0.0
 11
1.0
 21
1.0
 12
1854.578342258649
 22
1053.457260398718
 13
0.0
 23
0.0
 14
10.0
 24
10.0
 15
10.0
 25
10.0
 16
0.0
 26
0.0
 36
1.0
 17
0.0
 27
0.0
 37
0.0
 40
391.685942115954
 41
1.562182741116751
 42
50.0
 43
0.0
 44
0.0
 50
0.0
 51
0.0
 71
    16
 72
   100
 73
     1
 74
     0
 75
     0
 76
     0
 77
     0
 78
     0
281
     0
 65
     1
110
0.0
120
0.0
130
0.0
111
1.0
121
0.0
131
0.0
112
0.0
122
1.0
132
0.0
 79
     0
146
0.0
  0
ENDTAB
  0
TABLE
  2
LTYPE
  5
5
330
0
100
AcDbSymbolTable
 70
     1
  0
LTYPE
  5
12
330
5
100
AcDbSymbolTableRecord
100
AcDbLinetypeTableRecord
  2
BYBLOCK
 70
     0
  3

 72
    65
 73
     0
 40
0.0
  0
LTYPE
  5
13
330
5
100
AcDbSymbolTableRecord
100
AcDbLinetypeTableRecord
  2
BYLAYER
 70
     0
  3

 72
    65
 73
     0
 40
0.0
  0
LTYPE
  5
14
330
5
100
AcDbSymbolTableRecord
100
AcDbLinetypeTableRecord
  2
CONTINUOUS
 70
     0
  3
Solid line
 72
    65
 73
     0
 40
0.0
  0
ENDTAB
  0
TABLE
  2
LAYER
  5
2
102
{ACAD_XDICTIONARY
360
C50C
102
}
330
0
100
AcDbSymbolTable
 70
     1
  0
LAYER
  5
E
330
2
100
AcDbSymbolTableRecord
100
AcDbLayerTableRecord
  2
0
 70
     0
 62
     7
  6
CONTINUOUS
370
    -3
390
73E
  0
ENDTAB
  0
TABLE
  2
STYLE
  5
3
330
0
100
AcDbSymbolTable
 70
     2
  0
STYLE
  5
F
330
3
100
AcDbSymbolTableRecord
100
AcDbTextStyleTableRecord
  2
STANDARD
 70
     0
 40
0.0
 41
1.0
 50
0.0
 71
     0
 42
3.0
  3
MS Gothic.ttf
  4

1001
ACAD
1000
MS Gothic
1071
    32817
  0
STYLE
  5
35
330
3
100
AcDbSymbolTableRecord
100
AcDbTextStyleTableRecord
  2
MSｺﾞｼｯｸ
 70
     0
 40
0.0
 41
1.0
 50
0.0
 71
     0
 42
5.0
  3
MS Gothic.ttf
  4

1001
ACAD
1000
MS Gothic
1071
    32817
  0
ENDTAB
  0
TABLE
  2
VIEW
  5
6
330
0
100
AcDbSymbolTable
 70
     0
  0
ENDTAB
  0
TABLE
  2
UCS
  5
7
330
0
100
AcDbSymbolTable
 70
     0
  0
ENDTAB
  0
TABLE
  2
APPID
  5
9
330
0
100
AcDbSymbolTable
 70
     1
  0
APPID
  5
10
330
9
100
AcDbSymbolTableRecord
100
AcDbRegAppTableRecord
  2
ACAD
 70
     0
  0
ENDTAB
  0
TABLE
  2
DIMSTYLE
  5
A
330
0
100
AcDbSymbolTable
 70
     1
100
AcDbDimStyleTable
 71
     0
  0
DIMSTYLE
105
1D
330
A
100
AcDbSymbolTableRecord
100
AcDbDimStyleTableRecord
  2
STANDARD
 70
     0
 78
     8
 79
     2
140
3.0
340
F
341
89E
342
89E
  0
ENDTAB
  0
TABLE
  2
BLOCK_RECORD
  5
1
330
0
100
AcDbSymbolTable
 70
     2
  0
BLOCK_RECORD
  5
18
330
1
100
AcDbSymbolTableRecord
100
AcDbBlockTableRecord
  2
*MODEL_SPACE
340
741
  0
BLOCK_RECORD
  5
15
330
1
100
AcDbSymbolTableRecord
100
AcDbBlockTableRecord
  2
*PAPER_SPACE
340
742
  0
BLOCK_RECORD
  5
24
330
1
100
AcDbSymbolTableRecord
100
AcDbBlockTableRecord
  2
_OPEN
340
0
  0
BLOCK_RECORD
  5
89E
330
1
100
AcDbSymbolTableRecord
100
AcDbBlockTableRecord
  2
_Open30
340
0
  0
ENDTAB
  0
ENDSEC
  0
SECTION
  2
BLOCKS
  0
BLOCK
  5
19
330
18
100
AcDbEntity
  8
0
100
AcDbBlockBegin
  2
*MODEL_SPACE
 70
     0
 10
0.0
 20
0.0
 30
0.0
  3
*MODEL_SPACE
  1

  0
ENDBLK
  5
1A
330
18
100
AcDbEntity
  8
0
100
AcDbBlockEnd
  0
BLOCK
  5
16
330
15
100
AcDbEntity
 67
     1
  8
0
100
AcDbBlockBegin
  2
*PAPER_SPACE
 70
     0
 10
0.0
 20
0.0
 30
0.0
  3
*PAPER_SPACE
  1

  0
ENDBLK
  5
17
330
15
100
AcDbEntity
 67
     1
  8
0
100
AcDbBlockEnd
  0
BLOCK
  5
25
330
24
100
AcDbEntity
  8
0
100
AcDbBlockBegin
  2
_OPEN
 70
     0
 10
0.0
 20
0.0
 30
0.0
  3
_OPEN
  1

  0
LINE
  5
26
330
24
100
AcDbEntity
  8
0
  6
ByBlock
 62
     0
100
AcDbLine
 10
-1.0
 20
0.1666666666666666
 30
0.0
 11
0.0
 21
0.0
 31
0.0
  0
LINE
  5
27
330
24
100
AcDbEntity
  8
0
  6
ByBlock
 62
     0
100
AcDbLine
 10
0.0
 20
0.0
 30
0.0
 11
-1.0
 21
-0.1666666666666666
 31
0.0
  0
LINE
  5
28
330
24
100
AcDbEntity
  8
0
  6
ByBlock
 62
     0
100
AcDbLine
 10
0.0
 20
0.0
 30
0.0
 11
-1.0
 21
0.0
 31
0.0
  0
ENDBLK
  5
29
330
24
100
AcDbEntity
  8
0
100
AcDbBlockEnd
  0
BLOCK
  5
8A2
330
89E
100
AcDbEntity
  8
0
100
AcDbBlockBegin
  2
_Open30
 70
     0
 10
0.0
 20
0.0
 30
0.0
  3
_Open30
  1

  0
LINE
  5
89F
330
89E
100
AcDbEntity
  8
0
  6
ByBlock
 62
     0
370
    -2
100
AcDbLine
 10
-1.0
 20
0.26794919
 30
0.0
 11
0.0
 21
0.0
 31
0.0
  0
LINE
  5
8A0
330
89E
100
AcDbEntity
  8
0
  6
ByBlock
 62
     0
370
    -2
100
AcDbLine
 10
0.0
 20
0.0
 30
0.0
 11
-1.0
 21
-0.26794919
 31
0.0
  0
LINE
  5
8A1
330
89E
100
AcDbEntity
  8
0
  6
ByBlock
 62
     0
370
    -2
100
AcDbLine
 10
0.0
 20
0.0
 30
0.0
 11
-1.0
 21
0.0
 31
0.0
  0
ENDBLK
  5
8A3
330
89E
100
AcDbEntity
  8
0
100
AcDbBlockEnd
  0
ENDSEC
  0
SECTION
  2
ENTITIES
  0
MTEXT
  5
8FAF
330
18
100
AcDbEntity
  8
0
 48
0.1
100
AcDbMText
 10
2016.570289152685
 20
-54.48178575600969
 30
0.0
 40
6.0
 41
0.0
 71
     9
 72
     1
  1

 73
     1
 44
1.0
  0
MTEXT
  5
B395
330
18
100
AcDbEntity
  8
0
100
AcDbMText
 10
2340.657041803129
 20
616.5232056728369
 30
0.0
 40
6.0
 41
0.0
 71
     1
 72
     1
  1

 73
     1
 44
1.0
  0
LINE
  5
C0CA
330
18
100
AcDbEntity
  8
0
100
AcDbLine
 10
1718.157660470712
 20
957.4067322570627
 30
0.0
 11
1718.157660470712
 21
955.8067322570623
 31
0.0
  0
LINE
  5
C0CB
330
18
100
AcDbEntity
  8
0
100
AcDbLine
 10
1718.657660470713
 20
953.4067322570626
 30
0.0
 11
1717.657660470712
 21
953.4067322570626
 31
0.0
  0
LINE
  5
C0CC
330
18
100
AcDbEntity
  8
0
100
AcDbLine
 10
1719.407660470713
 20
954.6067322570623
 30
0.0
 11
1716.907660470712
 21
954.6067322570623
 31
0.0
  0
LINE
  5
C0CD
330
18
100
AcDbEntity
  8
0
100
AcDbLine
 10
1720.157660470712
 20
955.8067322570623
 30
0.0
 11
1716.157660470712
 21
955.8067322570634
 31
0.0
  0
CIRCLE
  5
C0CE
330
18
100
AcDbEntity
  8
0
100
AcDbCircle
 10
1718.157660470712
 20
955.4067322570627
 30
0.0
 40
3.0
  0
MTEXT
  5
C0CF
330
18
100
AcDbEntity
  8
0
100
AcDbMText
 10
1705.496280432041
 20
973.5884468248086
 30
0.0
 40
2.399999999999999
 41
7.047999999999999
 71
     3
 72
     5
  1
DBC
 73
     1
 44
1.0
  0
MTEXT
  5
C0D0
330
18
100
AcDbEntity
  8
0
100
AcDbMText
 10
1705.661017805013
 20
978.5884468248086
 30
0.0
 40
2.399999999999999
 41
7.047999999999999
 71
     3
 72
     5
  1
DBK
 73
     1
 44
1.0
  0
TEXT
  5
C0D1
330
18
100
AcDbEntity
  8
0
 48
5.0
100
AcDbText
 10
1687.357755034603
 20
1096.210195203626
 30
0.0
 40
5.0
  1
TB1
 41
1.199999999999999
  7
MSｺﾞｼｯｸ
 11
1687.357755034603
 21
1098.710195203626
 31
0.0
100
AcDbText
 73
     2
  0
TEXT
  5
C0D2
330
18
100
AcDbEntity
  8
0
 48
5.0
100
AcDbText
 10
1687.357755034603
 20
983.2190925457783
 30
0.0
 40
5.0
  1
TB2
 41
1.199999999999999
  7
MSｺﾞｼｯｸ
 11
1687.357755034603
 21
985.7190925457784
 31
0.0
100
AcDbText
 73
     2
  0
TEXT
  5
C0D3
330
18
100
AcDbEntity
  8
0
 48
5.0
100
AcDbText
 10
1705.982005267295
 20
1045.212027379395
 30
0.0
 40
7.0
  1
W
 41
1.199999999999999
  7
MSｺﾞｼｯｸ
 11
1705.982005267295
 21
1048.712027379395
 31
0.0
100
AcDbText
 73
     2
  0
TEXT
  5
C0D4
330
18
100
AcDbEntity
  8
0
 48
5.0
100
AcDbText
 10
1705.982005267295
 20
982.2120273793958
 30
0.0
 40
7.0
  1
W
 41
1.199999999999999
  7
MSｺﾞｼｯｸ
 11
1705.982005267295
 21
985.7120273793958
 31
0.0
100
AcDbText
 73
     2
  0
TEXT
  5
C0D5
330
18
100
AcDbEntity
  8
0
 48
5.0
100
AcDbText
 10
1705.982005267295
 20
1003.212027379394
 30
0.0
 40
7.0
  1
V
 41
1.199999999999999
  7
MSｺﾞｼｯｸ
 11
1705.982005267295
 21
1006.712027379395
 31
0.0
100
AcDbText
 73
     2
  0
TEXT
  5
C0D6
330
18
100
AcDbEntity
  8
0
 48
5.0
100
AcDbText
 10
1705.982005267295
 20
1024.212027379395
 30
0.0
 40
7.0
  1
U
 41
1.199999999999999
  7
MSｺﾞｼｯｸ
 11
1705.982005267295
 21
1027.712027379395
 31
0.0
100
AcDbText
 73
     2
  0
TEXT
  5
C0D7
330
18
100
AcDbEntity
  8
0
 48
5.0
100
AcDbText
 10
1705.982005267295
 20
1087.212027379395
 30
0.0
 40
7.0
  1
U
 41
1.199999999999999
  7
MSｺﾞｼｯｸ
 11
1705.982005267295
 21
1090.712027379395
 31
0.0
100
AcDbText
 73
     2
  0
TEXT
  5
C0D8
330
18
100
AcDbEntity
  8
0
 48
5.0
100
AcDbText
 10
1705.982005267295
 20
1066.212027379395
 30
0.0
 40
7.0
  1
V
 41
1.199999999999999
  7
MSｺﾞｼｯｸ
 11
1705.982005267295
 21
1069.712027379395
 31
0.0
100
AcDbText
 73
     2
  0
LINE
  5
C0D9
330
18
100
AcDbEntity
  8
0
100
AcDbLine
 10
1696.257660470716
 20
970.4067322570622
 30
0.0
 11
1689.257660470715
 21
970.4067322570622
 31
0.0
  0
LINE
  5
C0DA
330
18
100
AcDbEntity
  8
0
100
AcDbLine
 10
1696.257660470716
 20
979.4067322570622
 30
0.0
 11
1696.257660470716
 21
979.1548913386522
 31
0.0
  0
LINE
  5
C0DB
330
18
100
AcDbEntity
  8
0
100
AcDbLine
 10
1689.257660470715
 20
979.4067322570622
 30
0.0
 11
1696.257660470716
 21
979.4067322570622
 31
0.0
  0
LINE
  5
C0DC
330
18
100
AcDbEntity
  8
0
100
AcDbLine
 10
1689.257660470715
 20
970.4067322570622
 30
0.0
 11
1689.257660470715
 21
970.7548913386515
 31
0.0
  0
LINE
  5
C0DE
330
18
100
AcDbEntity
  8
0
100
AcDbLine
 10
1696.257660470716
 20
970.7548913386522
 30
0.0
 11
1696.257660470716
 21
970.4067322570622
 31
0.0
  0
LINE
  5
C0DF
330
18
100
AcDbEntity
  8
0
100
AcDbLine
 10
1689.257660470715
 20
979.1548913386522
 30
0.0
 11
1689.257660470715
 21
979.4067322570622
 31
0.0
  0
LWPOLYLINE
  5
C0E0
330
18
100
AcDbEntity
  8
0
100
AcDbPolyline
 90
        4
 70
     1
 43
0.0
 10
1676.657660470719
 20
1113.906732257069
 10
1676.657660470719
 20
1107.906732257069
 10
1677.157660470719
 20
1107.906732257069
 10
1677.157660470719
 20
1113.906732257069
  0
LINE
  5
C0E1
330
18
100
AcDbEntity
  8
0
100
AcDbLine
 10
1675.357660470718
 20
1108.406732257069
 30
0.0
 11
1676.157660470718
 21
1108.406732257069
 31
0.0
  0
LINE
  5
C0E2
330
18
100
AcDbEntity
  8
0
100
AcDbLine
 10
1676.157660470718
 20
1113.406732257069
 30
0.0
 11
1675.357660470718
 21
1113.406732257069
 31
0.0
  0
LWPOLYLINE
  5
C0E3
330
18
100
AcDbEntity
  8
0
100
AcDbPolyline
 90
        4
 70
     1
 43
0.0
 10
1676.157660470718
 20
1113.406732257069
 10
1676.157660470718
 20
1108.406732257069
 10
1676.657660470719
 20
1108.406732257069
 10
1676.657660470719
 20
1113.406732257069
  0
LINE
  5
C0E4
330
18
100
AcDbEntity
  8
0
100
AcDbLine
 10
1674.157660470718
 20
1112.206732257068
 30
0.0
 11
1674.157660470718
 21
1109.606732257068
 31
0.0
  0
ARC
  5
C0E5
330
18
100
AcDbEntity
  8
0
100
AcDbCircle
 10
1675.357660470718
 20
1109.606732257068
 30
0.0
 40
1.199999999999999
100
AcDbArc
 50
180.0
 51
270.0
  0
ARC
  5
C0E6
330
18
100
AcDbEntity
  8
0
100
AcDbCircle
 10
1675.357660470718
 20
1112.206732257068
 30
0.0
 40
1.199999999999999
100
AcDbArc
 50
90.0
 51
180.0
  0
ARC
  5
C0E7
330
18
100
AcDbEntity
  8
0
100
AcDbCircle
 10
1675.357660470714
 20
955.2067322570612
 30
0.0
 40
1.199999999999999
100
AcDbArc
 50
90.0
 51
180.0
  0
ARC
  5
C0E8
330
18
100
AcDbEntity
  8
0
100
AcDbCircle
 10
1675.357660470714
 20
952.6067322570623
 30
0.0
 40
1.199999999999999
100
AcDbArc
 50
180.0
 51
270.0
  0
LINE
  5
C0E9
330
18
100
AcDbEntity
  8
0
100
AcDbLine
 10
1674.157660470713
 20
955.2067322570612
 30
0.0
 11
1674.157660470713
 21
952.6067322570623
 31
0.0
  0
LWPOLYLINE
  5
C0EA
330
18
100
AcDbEntity
  8
0
100
AcDbPolyline
 90
        4
 70
     1
 43
0.0
 10
1676.157660470713
 20
956.4067322570618
 10
1676.157660470713
 20
951.4067322570618
 10
1676.657660470713
 20
951.4067322570618
 10
1676.657660470713
 20
956.4067322570618
  0
LINE
  5
C0EB
330
18
100
AcDbEntity
  8
0
100
AcDbLine
 10
1676.157660470713
 20
956.4067322570618
 30
0.0
 11
1675.357660470714
 21
956.4067322570618
 31
0.0
  0
LINE
  5
C0EC
330
18
100
AcDbEntity
  8
0
100
AcDbLine
 10
1675.357660470714
 20
951.4067322570618
 30
0.0
 11
1676.157660470713
 21
951.4067322570618
 31
0.0
  0
LWPOLYLINE
  5
C0ED
330
18
100
AcDbEntity
  8
0
100
AcDbPolyline
 90
        4
 70
     1
 43
0.0
 10
1676.657660470713
 20
956.9067322570615
 10
1676.657660470713
 20
950.9067322570617
 10
1677.157660470713
 20
950.9067322570617
 10
1677.157660470713
 20
956.9067322570615
  0
LINE
  5
C0EE
330
18
100
AcDbEntity
  8
0
100
AcDbLine
 10
1690.990993804046
 20
956.2400655903957
 30
0.0
 11
1690.990993804046
 21
958.6342183789016
 31
0.0
  0
LINE
  5
C0EF
330
18
100
AcDbEntity
  8
0
100
AcDbLine
 10
1689.32432713738
 20
956.2400655903957
 30
0.0
 11
1689.32432713738
 21
958.6342183789016
 31
0.0
  0
CIRCLE
  5
C0F0
330
18
100
AcDbEntity
  8
0
100
AcDbCircle
 10
1690.157660470713
 20
955.4067322570627
 30
0.0
 40
4.166666666665718
  0
CIRCLE
  5
C0F1
330
18
100
AcDbEntity
  8
0
100
AcDbCircle
 10
1690.157660470713
 20
955.4067322570627
 30
0.0
 40
4.999999999998863
  0
LINE
  5
C0F2
330
18
100
AcDbEntity
  8
0
100
AcDbLine
 10
1693.385146592551
 20
956.2400655903957
 30
0.0
 11
1690.990993804046
 21
956.2400655903957
 31
0.0
  0
LINE
  5
C0F3
330
18
100
AcDbEntity
  8
0
100
AcDbLine
 10
1689.32432713738
 20
956.2400655903957
 30
0.0
 11
1686.930174348875
 21
956.2400655903957
 31
0.0
  0
LINE
  5
C0F4
330
18
100
AcDbEntity
  8
0
100
AcDbLine
 10
1693.385146592551
 20
954.5733989237294
 30
0.0
 11
1690.990993804046
 21
954.5733989237294
 31
0.0
  0
LINE
  5
C0F5
330
18
100
AcDbEntity
  8
0
100
AcDbLine
 10
1690.990993804046
 20
952.1792461352237
 30
0.0
 11
1690.990993804046
 21
954.5733989237294
 31
0.0
  0
LINE
  5
C0F6
330
18
100
AcDbEntity
  8
0
100
AcDbLine
 10
1689.32432713738
 20
954.5733989237294
 30
0.0
 11
1686.930174348875
 21
954.5733989237294
 31
0.0
  0
LINE
  5
C0F7
330
18
100
AcDbEntity
  8
0
100
AcDbLine
 10
1689.32432713738
 20
952.1792461352237
 30
0.0
 11
1689.32432713738
 21
954.5733989237294
 31
0.0
  0
ARC
  5
C0F8
330
18
100
AcDbEntity
  8
0
100
AcDbCircle
 10
1690.157660470713
 20
955.4067322570627
 30
0.0
 40
3.333333333332574
100
AcDbArc
 50
255.5224878140705
 51
284.4775121859293
  0
ARC
  5
C0F9
330
18
100
AcDbEntity
  8
0
100
AcDbCircle
 10
1690.157660470713
 20
955.4067322570627
 30
0.0
 40
3.333333333332574
100
AcDbArc
 50
165.5224878140642
 51
194.4775121859356
  0
ARC
  5
C0FA
330
18
100
AcDbEntity
  8
0
100
AcDbCircle
 10
1690.157660470713
 20
955.4067322570627
 30
0.0
 40
3.333333333332574
100
AcDbArc
 50
345.5224878140641
 51
14.47751218593576
  0
ARC
  5
C0FB
330
18
100
AcDbEntity
  8
0
100
AcDbCircle
 10
1690.157660470713
 20
955.4067322570627
 30
0.0
 40
3.333333333332574
100
AcDbArc
 50
75.52248781407055
 51
104.4775121859294
  0
LINE
  5
C0FC
330
18
100
AcDbEntity
  8
0
100
AcDbLine
 10
1705.990993804046
 20
956.2400655903957
 30
0.0
 11
1705.990993804046
 21
958.6342183789016
 31
0.0
  0
LINE
  5
C0FD
330
18
100
AcDbEntity
  8
0
100
AcDbLine
 10
1704.32432713738
 20
956.2400655903957
 30
0.0
 11
1704.32432713738
 21
958.6342183789016
 31
0.0
  0
CIRCLE
  5
C0FE
330
18
100
AcDbEntity
  8
0
100
AcDbCircle
 10
1705.157660470713
 20
955.4067322570627
 30
0.0
 40
4.166666666665718
  0
CIRCLE
  5
C0FF
330
18
100
AcDbEntity
  8
0
100
AcDbCircle
 10
1705.157660470713
 20
955.4067322570627
 30
0.0
 40
4.999999999998863
  0
LINE
  5
C100
330
18
100
AcDbEntity
  8
0
100
AcDbLine
 10
1708.385146592552
 20
956.2400655903957
 30
0.0
 11
1705.990993804046
 21
956.2400655903957
 31
0.0
  0
LINE
  5
C101
330
18
100
AcDbEntity
  8
0
100
AcDbLine
 10
1704.32432713738
 20
956.2400655903957
 30
0.0
 11
1701.930174348875
 21
956.2400655903957
 31
0.0
  0
LINE
  5
C102
330
18
100
AcDbEntity
  8
0
100
AcDbLine
 10
1708.385146592552
 20
954.5733989237294
 30
0.0
 11
1705.990993804046
 21
954.5733989237294
 31
0.0
  0
LINE
  5
C103
330
18
100
AcDbEntity
  8
0
100
AcDbLine
 10
1705.990993804046
 20
952.1792461352237
 30
0.0
 11
1705.990993804046
 21
954.5733989237294
 31
0.0
  0
LINE
  5
C104
330
18
100
AcDbEntity
  8
0
100
AcDbLine
 10
1704.32432713738
 20
954.5733989237294
 30
0.0
 11
1701.930174348875
 21
954.5733989237294
 31
0.0
  0
LINE
  5
C105
330
18
100
AcDbEntity
  8
0
100
AcDbLine
 10
1704.32432713738
 20
952.1792461352237
 30
0.0
 11
1704.32432713738
 21
954.5733989237294
 31
0.0
  0
ARC
  5
C106
330
18
100
AcDbEntity
  8
0
100
AcDbCircle
 10
1705.157660470713
 20
955.4067322570627
 30
0.0
 40
3.333333333332574
100
AcDbArc
 50
255.5224878140705
 51
284.4775121859293
  0
ARC
  5
C107
330
18
100
AcDbEntity
  8
0
100
AcDbCircle
 10
1705.157660470713
 20
955.4067322570627
 30
0.0
 40
3.333333333332574
100
AcDbArc
 50
165.5224878140642
 51
194.4775121859356
  0
ARC
  5
C108
330
18
100
AcDbEntity
  8
0
100
AcDbCircle
 10
1705.157660470713
 20
955.4067322570627
 30
0.0
 40
3.333333333332574
100
AcDbArc
 50
345.5224878140641
 51
14.47751218593576
  0
ARC
  5
C109
330
18
100
AcDbEntity
  8
0
100
AcDbCircle
 10
1705.157660470713
 20
955.4067322570627
 30
0.0
 40
3.333333333332574
100
AcDbArc
 50
75.52248781407055
 51
104.4775121859294
  0
LINE
  5
C10A
330
18
100
AcDbEntity
  8
0
100
AcDbLine
 10
1734.490993804049
 20
968.2400655904007
 30
0.0
 11
1734.490993804049
 21
970.6342183789065
 31
0.0
  0
LINE
  5
C10B
330
18
100
AcDbEntity
  8
0
100
AcDbLine
 10
1732.824327137381
 20
968.2400655904007
 30
0.0
 11
1732.824327137381
 21
970.6342183789065
 31
0.0
  0
CIRCLE
  5
C10C
330
18
100
AcDbEntity
  8
0
100
AcDbCircle
 10
1733.657660470715
 20
967.4067322570676
 30
0.0
 40
4.166666666665718
  0
CIRCLE
  5
C10D
330
18
100
AcDbEntity
  8
0
100
AcDbCircle
 10
1733.657660470715
 20
967.4067322570676
 30
0.0
 40
4.999999999998863
  0
LINE
  5
C10E
330
18
100
AcDbEntity
  8
0
100
AcDbLine
 10
1736.885146592554
 20
968.2400655904007
 30
0.0
 11
1734.490993804049
 21
968.2400655904007
 31
0.0
  0
LINE
  5
C10F
330
18
100
AcDbEntity
  8
0
100
AcDbLine
 10
1732.824327137381
 20
968.2400655904007
 30
0.0
 11
1730.430174348876
 21
968.2400655904007
 31
0.0
  0
LINE
  5
C110
330
18
100
AcDbEntity
  8
0
100
AcDbLine
 10
1736.885146592554
 20
966.5733989237347
 30
0.0
 11
1734.490993804049
 21
966.5733989237347
 31
0.0
  0
LINE
  5
C111
330
18
100
AcDbEntity
  8
0
100
AcDbLine
 10
1734.490993804049
 20
964.1792461352286
 30
0.0
 11
1734.490993804049
 21
966.5733989237347
 31
0.0
  0
LINE
  5
C112
330
18
100
AcDbEntity
  8
0
100
AcDbLine
 10
1732.824327137381
 20
966.5733989237347
 30
0.0
 11
1730.430174348876
 21
966.5733989237347
 31
0.0
  0
LINE
  5
C113
330
18
100
AcDbEntity
  8
0
100
AcDbLine
 10
1732.824327137381
 20
964.1792461352286
 30
0.0
 11
1732.824327137381
 21
966.5733989237347
 31
0.0
  0
ARC
  5
C114
330
18
100
AcDbEntity
  8
0
100
AcDbCircle
 10
1733.657660470715
 20
967.4067322570676
 30
0.0
 40
3.333333333332574
100
AcDbArc
 50
255.5224878140705
 51
284.4775121859293
  0
ARC
  5
C115
330
18
100
AcDbEntity
  8
0
100
AcDbCircle
 10
1733.657660470715
 20
967.4067322570676
 30
0.0
 40
3.333333333332574
100
AcDbArc
 50
165.5224878140642
 51
194.4775121859356
  0
ARC
  5
C116
330
18
100
AcDbEntity
  8
0
100
AcDbCircle
 10
1733.657660470715
 20
967.4067322570676
 30
0.0
 40
3.333333333332574
100
AcDbArc
 50
345.5224878140641
 51
14.47751218593576
  0
ARC
  5
C117
330
18
100
AcDbEntity
  8
0
100
AcDbCircle
 10
1733.657660470715
 20
967.4067322570676
 30
0.0
 40
3.333333333332574
100
AcDbArc
 50
75.52248781407055
 51
104.4775121859294
  0
LINE
  5
C118
330
18
100
AcDbEntity
  8
0
100
AcDbLine
 10
1734.490993804049
 20
1110.240065590399
 30
0.0
 11
1734.490993804049
 21
1112.634218378904
 31
0.0
  0
LINE
  5
C119
330
18
100
AcDbEntity
  8
0
100
AcDbLine
 10
1732.824327137381
 20
1110.240065590399
 30
0.0
 11
1732.824327137381
 21
1112.634218378904
 31
0.0
  0
CIRCLE
  5
C11A
330
18
100
AcDbEntity
  8
0
100
AcDbCircle
 10
1733.657660470715
 20
1109.406732257066
 30
0.0
 40
4.166666666665718
  0
CIRCLE
  5
C11B
330
18
100
AcDbEntity
  8
0
100
AcDbCircle
 10
1733.657660470715
 20
1109.406732257066
 30
0.0
 40
4.999999999998863
  0
LINE
  5
C11C
330
18
100
AcDbEntity
  8
0
100
AcDbLine
 10
1736.885146592554
 20
1110.240065590399
 30
0.0
 11
1734.490993804049
 21
1110.240065590399
 31
0.0
  0
LINE
  5
C11D
330
18
100
AcDbEntity
  8
0
100
AcDbLine
 10
1732.824327137381
 20
1110.240065590399
 30
0.0
 11
1730.430174348876
 21
1110.240065590399
 31
0.0
  0
LINE
  5
C11E
330
18
100
AcDbEntity
  8
0
100
AcDbLine
 10
1736.885146592554
 20
1108.573398923733
 30
0.0
 11
1734.490993804049
 21
1108.573398923733
 31
0.0
  0
LINE
  5
C11F
330
18
100
AcDbEntity
  8
0
100
AcDbLine
 10
1734.490993804049
 20
1106.179246135228
 30
0.0
 11
1734.490993804049
 21
1108.573398923733
 31
0.0
  0
LINE
  5
C120
330
18
100
AcDbEntity
  8
0
100
AcDbLine
 10
1732.824327137381
 20
1108.573398923733
 30
0.0
 11
1730.430174348876
 21
1108.573398923733
 31
0.0
  0
LINE
  5
C121
330
18
100
AcDbEntity
  8
0
100
AcDbLine
 10
1732.824327137381
 20
1106.179246135228
 30
0.0
 11
1732.824327137381
 21
1108.573398923733
 31
0.0
  0
ARC
  5
C122
330
18
100
AcDbEntity
  8
0
100
AcDbCircle
 10
1733.657660470715
 20
1109.406732257066
 30
0.0
 40
3.333333333332574
100
AcDbArc
 50
255.5224878140705
 51
284.4775121859293
  0
ARC
  5
C123
330
18
100
AcDbEntity
  8
0
100
AcDbCircle
 10
1733.657660470715
 20
1109.406732257066
 30
0.0
 40
3.333333333332574
100
AcDbArc
 50
165.5224878140642
 51
194.4775121859356
  0
ARC
  5
C124
330
18
100
AcDbEntity
  8
0
100
AcDbCircle
 10
1733.657660470715
 20
1109.406732257066
 30
0.0
 40
3.333333333332574
100
AcDbArc
 50
345.5224878140641
 51
14.47751218593576
  0
ARC
  5
C125
330
18
100
AcDbEntity
  8
0
100
AcDbCircle
 10
1733.657660470715
 20
1109.406732257066
 30
0.0
 40
3.333333333332574
100
AcDbArc
 50
75.52248781407055
 51
104.4775121859294
  0
LINE
  5
C126
330
18
100
AcDbEntity
  8
0
100
AcDbLine
 10
1741.657660470715
 20
1060.906732257067
 30
0.0
 11
1741.657660470715
 21
1078.906732257068
 31
0.0
  0
LINE
  5
C127
330
18
100
AcDbEntity
  8
0
100
AcDbLine
 10
1731.212457013787
 20
1047.168635581325
 30
0.0
 11
1731.919563794973
 21
1046.461528800139
 31
0.0
  0
LINE
  5
C128
330
18
100
AcDbEntity
  8
0
100
AcDbLine
 10
1731.919563794972
 20
1051.351935713996
 30
0.0
 11
1731.212457013785
 21
1050.644828932808
 31
0.0
  0
LINE
  5
C129
330
18
100
AcDbEntity
  8
0
100
AcDbLine
 10
1732.950553689526
 20
1048.906732257067
 30
0.0
 11
1731.212457013785
 21
1050.644828932808
 31
0.0
  0
LINE
  5
C12A
330
18
100
AcDbEntity
  8
0
100
AcDbLine
 10
1732.950553689526
 20
1048.906732257067
 30
0.0
 11
1731.212457013787
 21
1047.168635581325
 31
0.0
  0
LINE
  5
C12B
330
18
100
AcDbEntity
  8
0
100
AcDbLine
 10
1735.395757146456
 20
1051.351935713996
 30
0.0
 11
1736.102863927643
 21
1050.644828932808
 31
0.0
  0
LINE
  5
C12C
330
18
100
AcDbEntity
  8
0
100
AcDbLine
 10
1735.395757146456
 20
1046.461528800139
 30
0.0
 11
1736.102863927643
 21
1047.168635581325
 31
0.0
  0
LINE
  5
C12D
330
18
100
AcDbEntity
  8
0
100
AcDbLine
 10
1733.657660470714
 20
1049.613839038253
 30
0.0
 11
1731.919563794972
 21
1051.351935713996
 31
0.0
  0
LINE
  5
C12E
330
18
100
AcDbEntity
  8
0
100
AcDbLine
 10
1736.102863927643
 20
1047.168635581325
 30
0.0
 11
1734.3647672519
 21
1048.906732257067
 31
0.0
  0
LINE
  5
C12F
330
18
100
AcDbEntity
  8
0
100
AcDbLine
 10
1735.395757146456
 20
1051.351935713996
 30
0.0
 11
1733.657660470714
 21
1049.613839038253
 31
0.0
  0
LINE
  5
C130
330
18
100
AcDbEntity
  8
0
100
AcDbLine
 10
1735.395757146457
 20
1046.461528800139
 30
0.0
 11
1733.657660470714
 21
1048.19962547588
 31
0.0
  0
LINE
  5
C131
330
18
100
AcDbEntity
  8
0
100
AcDbLine
 10
1736.102863927643
 20
1050.644828932808
 30
0.0
 11
1734.3647672519
 21
1048.906732257067
 31
0.0
  0
LINE
  5
C132
330
18
100
AcDbEntity
  8
0
100
AcDbLine
 10
1733.657660470714
 20
1048.19962547588
 30
0.0
 11
1731.919563794973
 21
1046.461528800139
 31
0.0
  0
LINE
  5
C133
330
18
100
AcDbEntity
  8
0
100
AcDbLine
 10
1736.407660470715
 20
1115.906732257067
 30
0.0
 11
1751.157660470715
 21
1115.906732257067
 31
0.0
  0
LINE
  5
C134
330
18
100
AcDbEntity
  8
0
100
AcDbLine
 10
1736.102863927643
 20
1089.168635581325
 30
0.0
 11
1734.3647672519
 21
1090.906732257067
 31
0.0
  0
LINE
  5
C135
330
18
100
AcDbEntity
  8
0
100
AcDbLine
 10
1736.102863927643
 20
1092.644828932809
 30
0.0
 11
1734.3647672519
 21
1090.906732257067
 31
0.0
  0
LINE
  5
C136
330
18
100
AcDbEntity
  8
0
100
AcDbLine
 10
1735.395757146456
 20
1093.351935713996
 30
0.0
 11
1733.657660470714
 21
1091.613839038253
 31
0.0
  0
LINE
  5
C137
330
18
100
AcDbEntity
  8
0
100
AcDbLine
 10
1731.919563794972
 20
1093.351935713996
 30
0.0
 11
1731.212457013785
 21
1092.644828932809
 31
0.0
  0
LINE
  5
C138
330
18
100
AcDbEntity
  8
0
100
AcDbLine
 10
1735.395757146456
 20
1093.351935713996
 30
0.0
 11
1736.102863927643
 21
1092.644828932809
 31
0.0
  0
LINE
  5
C139
330
18
100
AcDbEntity
  8
0
100
AcDbLine
 10
1733.657660470714
 20
1091.613839038253
 30
0.0
 11
1731.919563794972
 21
1093.351935713996
 31
0.0
  0
LINE
  5
C13A
330
18
100
AcDbEntity
  8
0
100
AcDbLine
 10
1732.950553689526
 20
1090.906732257067
 30
0.0
 11
1731.212457013787
 21
1089.168635581325
 31
0.0
  0
LINE
  5
C13B
330
18
100
AcDbEntity
  8
0
100
AcDbLine
 10
1732.950553689526
 20
1090.906732257067
 30
0.0
 11
1731.212457013785
 21
1092.644828932809
 31
0.0
  0
LINE
  5
C13C
330
18
100
AcDbEntity
  8
0
100
AcDbLine
 10
1730.907660470715
 20
1113.582555529186
 30
0.0
 11
1730.907660470715
 21
1115.906732257067
 31
0.0
  0
LINE
  5
C13D
330
18
100
AcDbEntity
  8
0
100
AcDbLine
 10
1736.407660470715
 20
1113.582555529186
 30
0.0
 11
1736.407660470715
 21
1115.906732257067
 31
0.0
  0
LINE
  5
C13E
330
18
100
AcDbEntity
  8
0
100
AcDbLine
 10
1731.212457013787
 20
1068.168635581326
 30
0.0
 11
1731.919563794973
 21
1067.461528800139
 31
0.0
  0
LINE
  5
C13F
330
18
100
AcDbEntity
  8
0
100
AcDbLine
 10
1731.919563794972
 20
1072.351935713996
 30
0.0
 11
1731.212457013785
 21
1071.644828932808
 31
0.0
  0
LINE
  5
C140
330
18
100
AcDbEntity
  8
0
100
AcDbLine
 10
1732.950553689526
 20
1069.906732257067
 30
0.0
 11
1731.212457013785
 21
1071.644828932808
 31
0.0
  0
LINE
  5
C141
330
18
100
AcDbEntity
  8
0
100
AcDbLine
 10
1732.950553689526
 20
1069.906732257067
 30
0.0
 11
1731.212457013787
 21
1068.168635581326
 31
0.0
  0
LINE
  5
C142
330
18
100
AcDbEntity
  8
0
100
AcDbLine
 10
1735.395757146456
 20
1072.351935713996
 30
0.0
 11
1736.102863927643
 21
1071.644828932808
 31
0.0
  0
LINE
  5
C143
330
18
100
AcDbEntity
  8
0
100
AcDbLine
 10
1735.395757146456
 20
1067.461528800139
 30
0.0
 11
1736.102863927643
 21
1068.168635581326
 31
0.0
  0
LINE
  5
C144
330
18
100
AcDbEntity
  8
0
100
AcDbLine
 10
1733.657660470714
 20
1070.613839038254
 30
0.0
 11
1731.919563794972
 21
1072.351935713996
 31
0.0
  0
LINE
  5
C145
330
18
100
AcDbEntity
  8
0
100
AcDbLine
 10
1736.102863927643
 20
1068.168635581326
 30
0.0
 11
1734.3647672519
 21
1069.906732257067
 31
0.0
  0
LINE
  5
C146
330
18
100
AcDbEntity
  8
0
100
AcDbLine
 10
1735.395757146456
 20
1072.351935713996
 30
0.0
 11
1733.657660470714
 21
1070.613839038254
 31
0.0
  0
LINE
  5
C147
330
18
100
AcDbEntity
  8
0
100
AcDbLine
 10
1735.395757146457
 20
1067.461528800139
 30
0.0
 11
1733.657660470714
 21
1069.199625475881
 31
0.0
  0
LINE
  5
C148
330
18
100
AcDbEntity
  8
0
100
AcDbLine
 10
1736.102863927643
 20
1071.644828932808
 30
0.0
 11
1734.3647672519
 21
1069.906732257067
 31
0.0
  0
LINE
  5
C149
330
18
100
AcDbEntity
  8
0
100
AcDbLine
 10
1733.657660470714
 20
1069.199625475881
 30
0.0
 11
1731.919563794973
 21
1067.461528800139
 31
0.0
  0
LINE
  5
C14A
330
18
100
AcDbEntity
  8
0
100
AcDbLine
 10
1735.395757146457
 20
1088.461528800139
 30
0.0
 11
1733.657660470714
 21
1090.199625475881
 31
0.0
  0
LINE
  5
C14B
330
18
100
AcDbEntity
  8
0
100
AcDbLine
 10
1731.212457013787
 20
1089.168635581325
 30
0.0
 11
1731.919563794973
 21
1088.461528800139
 31
0.0
  0
LINE
  5
C14C
330
18
100
AcDbEntity
  8
0
100
AcDbLine
 10
1735.395757146456
 20
1088.461528800139
 30
0.0
 11
1736.102863927643
 21
1089.168635581325
 31
0.0
  0
LINE
  5
C14D
330
18
100
AcDbEntity
  8
0
100
AcDbLine
 10
1733.657660470714
 20
1090.199625475881
 30
0.0
 11
1731.919563794973
 21
1088.461528800139
 31
0.0
  0
LINE
  5
C14E
330
18
100
AcDbEntity
  8
0
100
AcDbLine
 10
1741.657660470715
 20
1081.906732257067
 30
0.0
 11
1741.657660470715
 21
1099.906732257067
 31
0.0
  0
ARC
  5
C14F
330
18
100
AcDbEntity
  8
0
100
AcDbCircle
 10
1755.157660470715
 20
1127.906732257067
 30
0.0
 40
1.0
100
AcDbArc
 50
0.0
 51
90.0
  0
LINE
  5
C150
330
18
100
AcDbEntity
  8
0
100
AcDbLine
 10
1730.907660470715
 20
1123.906732257067
 30
0.0
 11
1730.907660470715
 21
1127.906732257067
 31
0.0
  0
ARC
  5
C151
330
18
100
AcDbEntity
  8
0
100
AcDbCircle
 10
1731.907660470715
 20
1127.906732257067
 30
0.0
 40
1.0
100
AcDbArc
 50
90.0
 51
180.0
  0
LINE
  5
C152
330
18
100
AcDbEntity
  8
0
100
AcDbLine
 10
1755.157660470715
 20
1128.906732257066
 30
0.0
 11
1731.907660470715
 21
1128.906732257066
 31
0.0
  0
ARC
  5
C153
330
18
100
AcDbEntity
  8
0
100
AcDbCircle
 10
1755.157660470714
 20
1114.906732257067
 30
0.0
 40
1.0
100
AcDbArc
 50
0.0
 51
90.0
  0
LINE
  5
C154
330
18
100
AcDbEntity
  8
0
100
AcDbLine
 10
1751.157660470715
 20
960.9067322570675
 30
0.0
 11
1736.407660470715
 21
960.9067322570675
 31
0.0
  0
LINE
  5
C155
330
18
100
AcDbEntity
  8
0
100
AcDbLine
 10
1736.407660470715
 20
963.2309089849467
 30
0.0
 11
1736.407660470715
 21
960.906732257068
 31
0.0
  0
LINE
  5
C156
330
18
100
AcDbEntity
  8
0
100
AcDbLine
 10
1730.907660470715
 20
963.2309089849467
 30
0.0
 11
1730.907660470715
 21
960.906732257068
 31
0.0
  0
LINE
  5
C157
330
18
100
AcDbEntity
  8
0
100
AcDbLine
 10
1731.212457013787
 20
1026.168635581325
 30
0.0
 11
1731.919563794973
 21
1025.461528800138
 31
0.0
  0
LINE
  5
C158
330
18
100
AcDbEntity
  8
0
100
AcDbLine
 10
1731.919563794972
 20
1030.351935713996
 30
0.0
 11
1731.212457013785
 21
1029.644828932808
 31
0.0
  0
LINE
  5
C159
330
18
100
AcDbEntity
  8
0
100
AcDbLine
 10
1732.950553689526
 20
1027.906732257066
 30
0.0
 11
1731.212457013785
 21
1029.644828932808
 31
0.0
  0
LINE
  5
C15A
330
18
100
AcDbEntity
  8
0
100
AcDbLine
 10
1732.950553689526
 20
1027.906732257066
 30
0.0
 11
1731.212457013787
 21
1026.168635581325
 31
0.0
  0
LINE
  5
C15B
330
18
100
AcDbEntity
  8
0
100
AcDbLine
 10
1735.395757146456
 20
1030.351935713996
 30
0.0
 11
1736.102863927643
 21
1029.644828932808
 31
0.0
  0
LINE
  5
C15C
330
18
100
AcDbEntity
  8
0
100
AcDbLine
 10
1735.395757146456
 20
1025.461528800138
 30
0.0
 11
1736.102863927643
 21
1026.168635581325
 31
0.0
  0
LINE
  5
C15D
330
18
100
AcDbEntity
  8
0
100
AcDbLine
 10
1733.657660470714
 20
1028.613839038253
 30
0.0
 11
1731.919563794972
 21
1030.351935713996
 31
0.0
  0
LINE
  5
C15E
330
18
100
AcDbEntity
  8
0
100
AcDbLine
 10
1736.102863927643
 20
1026.168635581325
 30
0.0
 11
1734.3647672519
 21
1027.906732257066
 31
0.0
  0
LINE
  5
C15F
330
18
100
AcDbEntity
  8
0
100
AcDbLine
 10
1735.395757146456
 20
1030.351935713996
 30
0.0
 11
1733.657660470714
 21
1028.613839038253
 31
0.0
  0
LINE
  5
C160
330
18
100
AcDbEntity
  8
0
100
AcDbLine
 10
1735.395757146457
 20
1025.461528800138
 30
0.0
 11
1733.657660470714
 21
1027.199625475881
 31
0.0
  0
LINE
  5
C161
330
18
100
AcDbEntity
  8
0
100
AcDbLine
 10
1736.102863927643
 20
1029.644828932808
 30
0.0
 11
1734.3647672519
 21
1027.906732257066
 31
0.0
  0
LINE
  5
C162
330
18
100
AcDbEntity
  8
0
100
AcDbLine
 10
1733.657660470714
 20
1027.199625475881
 30
0.0
 11
1731.919563794973
 21
1025.461528800138
 31
0.0
  0
LINE
  5
C163
330
18
100
AcDbEntity
  8
0
100
AcDbLine
 10
1741.657660470715
 20
1018.906732257067
 30
0.0
 11
1741.657660470715
 21
1036.906732257067
 31
0.0
  0
LINE
  5
C164
330
18
100
AcDbEntity
  8
0
100
AcDbLine
 10
1731.212457013787
 20
1005.168635581325
 30
0.0
 11
1731.919563794973
 21
1004.461528800139
 31
0.0
  0
LINE
  5
C165
330
18
100
AcDbEntity
  8
0
100
AcDbLine
 10
1731.919563794972
 20
1009.351935713996
 30
0.0
 11
1731.212457013785
 21
1008.644828932808
 31
0.0
  0
LINE
  5
C166
330
18
100
AcDbEntity
  8
0
100
AcDbLine
 10
1732.950553689526
 20
1006.906732257067
 30
0.0
 11
1731.212457013785
 21
1008.644828932808
 31
0.0
  0
LINE
  5
C167
330
18
100
AcDbEntity
  8
0
100
AcDbLine
 10
1732.950553689526
 20
1006.906732257067
 30
0.0
 11
1731.212457013787
 21
1005.168635581325
 31
0.0
  0
LINE
  5
C168
330
18
100
AcDbEntity
  8
0
100
AcDbLine
 10
1735.395757146456
 20
1009.351935713996
 30
0.0
 11
1736.102863927643
 21
1008.644828932808
 31
0.0
  0
LINE
  5
C169
330
18
100
AcDbEntity
  8
0
100
AcDbLine
 10
1735.395757146456
 20
1004.461528800139
 30
0.0
 11
1736.102863927643
 21
1005.168635581325
 31
0.0
  0
LINE
  5
C16A
330
18
100
AcDbEntity
  8
0
100
AcDbLine
 10
1733.657660470714
 20
1007.613839038253
 30
0.0
 11
1731.919563794972
 21
1009.351935713996
 31
0.0
  0
LINE
  5
C16B
330
18
100
AcDbEntity
  8
0
100
AcDbLine
 10
1736.102863927643
 20
1005.168635581325
 30
0.0
 11
1734.3647672519
 21
1006.906732257067
 31
0.0
  0
LINE
  5
C16C
330
18
100
AcDbEntity
  8
0
100
AcDbLine
 10
1735.395757146456
 20
1009.351935713996
 30
0.0
 11
1733.657660470714
 21
1007.613839038253
 31
0.0
  0
LINE
  5
C16D
330
18
100
AcDbEntity
  8
0
100
AcDbLine
 10
1735.395757146457
 20
1004.461528800139
 30
0.0
 11
1733.657660470714
 21
1006.199625475881
 31
0.0
  0
LINE
  5
C16E
330
18
100
AcDbEntity
  8
0
100
AcDbLine
 10
1736.102863927643
 20
1008.644828932808
 30
0.0
 11
1734.3647672519
 21
1006.906732257067
 31
0.0
  0
LINE
  5
C16F
330
18
100
AcDbEntity
  8
0
100
AcDbLine
 10
1733.657660470714
 20
1006.199625475881
 30
0.0
 11
1731.919563794973
 21
1004.461528800139
 31
0.0
  0
LINE
  5
C170
330
18
100
AcDbEntity
  8
0
100
AcDbLine
 10
1741.657660470715
 20
997.9067322570676
 30
0.0
 11
1741.657660470715
 21
1015.906732257068
 31
0.0
  0
LINE
  5
C171
330
18
100
AcDbEntity
  8
0
100
AcDbLine
 10
1741.657660470715
 20
976.9067322570675
 30
0.0
 11
1741.657660470715
 21
994.9067322570682
 31
0.0
  0
LINE
  5
C172
330
18
100
AcDbEntity
  8
0
100
AcDbLine
 10
1731.212457013787
 20
984.168635581326
 30
0.0
 11
1731.919563794973
 21
983.4615288001392
 31
0.0
  0
LINE
  5
C173
330
18
100
AcDbEntity
  8
0
100
AcDbLine
 10
1731.919563794972
 20
988.3519357139959
 30
0.0
 11
1731.212457013785
 21
987.6448289328095
 31
0.0
  0
LINE
  5
C174
330
18
100
AcDbEntity
  8
0
100
AcDbLine
 10
1732.950553689526
 20
985.9067322570675
 30
0.0
 11
1731.212457013785
 21
987.6448289328095
 31
0.0
  0
LINE
  5
C175
330
18
100
AcDbEntity
  8
0
100
AcDbLine
 10
1732.950553689526
 20
985.9067322570675
 30
0.0
 11
1731.212457013787
 21
984.168635581326
 31
0.0
  0
LINE
  5
C176
330
18
100
AcDbEntity
  8
0
100
AcDbLine
 10
1735.395757146456
 20
988.3519357139959
 30
0.0
 11
1736.102863927643
 21
987.6448289328095
 31
0.0
  0
LINE
  5
C177
330
18
100
AcDbEntity
  8
0
100
AcDbLine
 10
1735.395757146456
 20
983.4615288001392
 30
0.0
 11
1736.102863927643
 21
984.168635581326
 31
0.0
  0
LINE
  5
C178
330
18
100
AcDbEntity
  8
0
100
AcDbLine
 10
1733.657660470714
 20
986.6138390382543
 30
0.0
 11
1731.919563794972
 21
988.3519357139959
 31
0.0
  0
LINE
  5
C179
330
18
100
AcDbEntity
  8
0
100
AcDbLine
 10
1736.102863927643
 20
984.168635581326
 30
0.0
 11
1734.3647672519
 21
985.9067322570675
 31
0.0
  0
LINE
  5
C17A
330
18
100
AcDbEntity
  8
0
100
AcDbLine
 10
1735.395757146456
 20
988.3519357139959
 30
0.0
 11
1733.657660470714
 21
986.6138390382543
 31
0.0
  0
LINE
  5
C17B
330
18
100
AcDbEntity
  8
0
100
AcDbLine
 10
1735.395757146457
 20
983.4615288001392
 30
0.0
 11
1733.657660470714
 21
985.1996254758812
 31
0.0
  0
LINE
  5
C17C
330
18
100
AcDbEntity
  8
0
100
AcDbLine
 10
1736.102863927643
 20
987.6448289328095
 30
0.0
 11
1734.3647672519
 21
985.9067322570675
 31
0.0
  0
LINE
  5
C17D
330
18
100
AcDbEntity
  8
0
100
AcDbLine
 10
1733.657660470714
 20
985.1996254758812
 30
0.0
 11
1731.919563794973
 21
983.4615288001392
 31
0.0
  0
LINE
  5
C17E
330
18
100
AcDbEntity
  8
0
100
AcDbLine
 10
1751.157660470715
 20
960.9067322570675
 30
0.0
 11
1751.157660470715
 21
1115.906732257067
 31
0.0
  0
LINE
  5
C17F
330
18
100
AcDbEntity
  8
0
100
AcDbLine
 10
1741.657660470715
 20
1039.906732257067
 30
0.0
 11
1741.657660470715
 21
1057.906732257068
 31
0.0
  0
LINE
  5
C180
330
18
100
AcDbEntity
  8
0
100
AcDbLine
 10
1725.657660470715
 20
1060.906732257067
 30
0.0
 11
1725.657660470715
 21
1078.906732257068
 31
0.0
  0
LINE
  5
C181
330
18
100
AcDbEntity
  8
0
100
AcDbLine
 10
1725.657660470715
 20
1081.906732257067
 30
0.0
 11
1725.657660470715
 21
1099.906732257067
 31
0.0
  0
LINE
  5
C182
330
18
100
AcDbEntity
  8
0
100
AcDbLine
 10
1725.407660470715
 20
1123.906732257067
 30
0.0
 11
1725.407660470715
 21
1127.906732257067
 31
0.0
  0
ARC
  5
C183
330
18
100
AcDbEntity
  8
0
100
AcDbCircle
 10
1724.407660470714
 20
1127.906732257067
 30
0.0
 40
1.0
100
AcDbArc
 50
0.0
 51
90.0
  0
ARC
  5
C184
330
18
100
AcDbEntity
  8
0
100
AcDbCircle
 10
1701.157660470715
 20
1127.906732257066
 30
0.0
 40
1.0
100
AcDbArc
 50
90.0
 51
179.9999999999739
  0
LINE
  5
C185
330
18
100
AcDbEntity
  8
0
100
AcDbLine
 10
1724.407660470714
 20
1128.906732257066
 30
0.0
 11
1701.157660470715
 21
1128.906732257066
 31
0.0
  0
LINE
  5
C186
330
18
100
AcDbEntity
  8
0
100
AcDbLine
 10
1700.157660470712
 20
1115.906732257067
 30
0.0
 11
1700.157660470715
 21
1127.906732257066
 31
0.0
  0
LINE
  5
C187
330
18
100
AcDbEntity
  8
0
100
AcDbLine
 10
1687.657660470716
 20
979.9067322570662
 30
0.0
 11
1698.657660470716
 21
979.9067322570662
 31
0.0
  0
LINE
  5
C188
330
18
100
AcDbEntity
  8
0
100
AcDbLine
 10
1687.657660470716
 20
969.9067322570662
 30
0.0
 11
1698.657660470716
 21
969.9067322570661
 31
0.0
  0
LINE
  5
C18A
330
18
100
AcDbEntity
  8
0
100
AcDbLine
 10
1725.657660470715
 20
1018.906732257067
 30
0.0
 11
1725.657660470715
 21
1036.906732257067
 31
0.0
  0
LINE
  5
C18B
330
18
100
AcDbEntity
  8
0
100
AcDbLine
 10
1725.657660470715
 20
997.9067322570676
 30
0.0
 11
1725.657660470715
 21
1015.906732257068
 31
0.0
  0
LINE
  5
C18C
330
18
100
AcDbEntity
  8
0
100
AcDbLine
 10
1725.657660470715
 20
976.9067322570675
 30
0.0
 11
1725.657660470715
 21
994.9067322570682
 31
0.0
  0
LINE
  5
C18D
330
18
100
AcDbEntity
  8
0
100
AcDbLine
 10
1698.657660470716
 20
979.9067322570662
 30
0.0
 11
1698.657660470715
 21
969.9067322570662
 31
0.0
  0
LINE
  5
C18E
330
18
100
AcDbEntity
  8
0
100
AcDbLine
 10
1716.157660470715
 20
960.9067322570675
 30
0.0
 11
1716.157660470715
 21
1115.906732257067
 31
0.0
  0
LINE
  5
C18F
330
18
100
AcDbEntity
  8
0
100
AcDbLine
 10
1725.657660470715
 20
1039.906732257067
 30
0.0
 11
1725.657660470715
 21
1057.906732257068
 31
0.0
  0
CIRCLE
  5
C190
330
18
100
AcDbEntity
  8
0
100
AcDbCircle
 10
1733.657660470715
 20
1048.906732257067
 30
0.0
 40
6.0
  0
LINE
  5
C191
330
18
100
AcDbEntity
  8
0
100
AcDbLine
 10
1730.907660470715
 20
960.9067322570675
 30
0.0
 11
1716.157660470715
 21
960.9067322570675
 31
0.0
  0
LINE
  5
C192
330
18
100
AcDbEntity
  8
0
100
AcDbLine
 10
1751.157660470715
 20
1015.906732257067
 30
0.0
 11
1716.157660470715
 21
1015.906732257067
 31
0.0
  0
LINE
  5
C193
330
18
100
AcDbEntity
  8
0
100
AcDbLine
 10
1751.157660470715
 20
1036.906732257067
 30
0.0
 11
1716.157660470715
 21
1036.906732257067
 31
0.0
  0
LINE
  5
C194
330
18
100
AcDbEntity
  8
0
100
AcDbLine
 10
1751.157660470715
 20
1018.906732257067
 30
0.0
 11
1716.157660470715
 21
1018.906732257067
 31
0.0
  0
LINE
  5
C195
330
18
100
AcDbEntity
  8
0
100
AcDbLine
 10
1751.157660470715
 20
1039.906732257067
 30
0.0
 11
1716.157660470715
 21
1039.906732257067
 31
0.0
  0
LINE
  5
C196
330
18
100
AcDbEntity
  8
0
100
AcDbLine
 10
1751.157660470715
 20
997.9067322570676
 30
0.0
 11
1716.157660470715
 21
997.9067322570676
 31
0.0
  0
LINE
  5
C197
330
18
100
AcDbEntity
  8
0
100
AcDbLine
 10
1751.157660470715
 20
976.9067322570675
 30
0.0
 11
1716.157660470715
 21
976.9067322570675
 31
0.0
  0
LINE
  5
C198
330
18
100
AcDbEntity
  8
0
100
AcDbLine
 10
1751.157660470715
 20
994.9067322570675
 30
0.0
 11
1716.157660470715
 21
994.9067322570675
 31
0.0
  0
CIRCLE
  5
C199
330
18
100
AcDbEntity
  8
0
100
AcDbCircle
 10
1733.657660470715
 20
1027.906732257066
 30
0.0
 40
6.0
  0
CIRCLE
  5
C19A
330
18
100
AcDbEntity
  8
0
100
AcDbCircle
 10
1733.657660470715
 20
1006.906732257067
 30
0.0
 40
6.0
  0
CIRCLE
  5
C19B
330
18
100
AcDbEntity
  8
0
100
AcDbCircle
 10
1733.657660470715
 20
985.9067322570671
 30
0.0
 40
6.0
  0
LINE
  5
C19C
330
18
100
AcDbEntity
  8
0
100
AcDbLine
 10
1677.157660470719
 20
1115.906732257067
 30
0.0
 11
1755.157660470714
 21
1115.906732257067
 31
0.0
  0
LINE
  5
C19D
330
18
100
AcDbEntity
  8
0
100
AcDbLine
 10
1716.157660470715
 20
1115.906732257067
 30
0.0
 11
1730.907660470715
 21
1115.906732257067
 31
0.0
  0
LINE
  5
C19E
330
18
100
AcDbEntity
  8
0
100
AcDbLine
 10
1751.157660470715
 20
1099.906732257067
 30
0.0
 11
1716.157660470715
 21
1099.906732257067
 31
0.0
  0
LINE
  5
C19F
330
18
100
AcDbEntity
  8
0
100
AcDbLine
 10
1751.157660470715
 20
1057.906732257067
 30
0.0
 11
1716.157660470715
 21
1057.906732257067
 31
0.0
  0
LINE
  5
C1A0
330
18
100
AcDbEntity
  8
0
100
AcDbLine
 10
1751.157660470715
 20
1060.906732257067
 30
0.0
 11
1716.157660470715
 21
1060.906732257067
 31
0.0
  0
LINE
  5
C1A1
330
18
100
AcDbEntity
  8
0
100
AcDbLine
 10
1751.157660470715
 20
1078.906732257067
 30
0.0
 11
1716.157660470715
 21
1078.906732257067
 31
0.0
  0
LINE
  5
C1A2
330
18
100
AcDbEntity
  8
0
100
AcDbLine
 10
1751.157660470715
 20
1081.906732257067
 30
0.0
 11
1716.157660470715
 21
1081.906732257067
 31
0.0
  0
CIRCLE
  5
C1A3
330
18
100
AcDbEntity
  8
0
100
AcDbCircle
 10
1733.657660470715
 20
1069.906732257067
 30
0.0
 40
6.0
  0
CIRCLE
  5
C1A4
330
18
100
AcDbEntity
  8
0
100
AcDbCircle
 10
1733.657660470715
 20
1090.906732257067
 30
0.0
 40
6.0
  0
ARC
  5
C1A5
330
18
100
AcDbEntity
  8
0
100
AcDbCircle
 10
1728.157660470715
 20
1123.906732257067
 30
0.0
 40
2.75
100
AcDbArc
 50
180.0
 51
0.0
  0
ARC
  5
C1A6
330
18
100
AcDbEntity
  8
0
100
AcDbCircle
 10
1755.157660470711
 20
949.9067322570626
 30
0.0
 40
1.0
100
AcDbArc
 50
270.0
 51
0.0
  0
ARC
  5
C1A7
330
18
100
AcDbEntity
  8
0
100
AcDbCircle
 10
1755.157660470711
 20
936.906732257063
 30
0.0
 40
1.0
100
AcDbArc
 50
270.0
 51
0.0
  0
LINE
  5
C1A8
330
18
100
AcDbEntity
  8
0
100
AcDbLine
 10
1730.907660470715
 20
940.9067322570635
 30
0.0
 11
1730.907660470714
 21
936.9067322570636
 31
0.0
  0
ARC
  5
C1A9
330
18
100
AcDbEntity
  8
0
100
AcDbCircle
 10
1731.907660470714
 20
936.9067322570636
 30
0.0
 40
1.0
100
AcDbArc
 50
180.0
 51
270.0
  0
LINE
  5
C1AA
330
18
100
AcDbEntity
  8
0
100
AcDbLine
 10
1755.157660470711
 20
935.9067322570632
 30
0.0
 11
1731.907660470714
 21
935.9067322570636
 31
0.0
  0
LINE
  5
C1AB
330
18
100
AcDbEntity
  8
0
100
AcDbLine
 10
1725.407660470715
 20
940.9067322570635
 30
0.0
 11
1725.407660470715
 21
936.9067322570636
 31
0.0
  0
ARC
  5
C1AC
330
18
100
AcDbEntity
  8
0
100
AcDbCircle
 10
1724.407660470714
 20
936.9067322570636
 30
0.0
 40
1.0
100
AcDbArc
 50
270.0
 51
0.0
  0
ARC
  5
C1AD
330
18
100
AcDbEntity
  8
0
100
AcDbCircle
 10
1701.157660470714
 20
936.9067322570636
 30
0.0
 40
1.0
100
AcDbArc
 50
180.0
 51
270.0
  0
LINE
  5
C1AE
330
18
100
AcDbEntity
  8
0
100
AcDbLine
 10
1724.407660470714
 20
935.9067322570636
 30
0.0
 11
1701.157660470714
 21
935.9067322570636
 31
0.0
  0
LINE
  5
C1AF
330
18
100
AcDbEntity
  8
0
100
AcDbLine
 10
1700.157660470712
 20
948.9067322570635
 30
0.0
 11
1700.157660470714
 21
936.9067322570636
 31
0.0
  0
LINE
  5
C1B0
330
18
100
AcDbEntity
  8
0
100
AcDbLine
 10
1677.157660470713
 20
948.9067322570626
 30
0.0
 11
1755.157660470711
 21
948.9067322570626
 31
0.0
  0
ARC
  5
C1B1
330
18
100
AcDbEntity
  8
0
100
AcDbCircle
 10
1728.157660470715
 20
940.9067322570635
 30
0.0
 40
2.75
100
AcDbArc
 50
0.0
 51
180.0
  0
LINE
  5
C1B2
330
18
100
AcDbEntity
  8
0
100
AcDbLine
 10
1756.157660470721
 20
948.9067322570635
 30
0.0
 11
1756.157660470726
 21
1115.906732257067
 31
0.0
  0
LINE
  5
C1B3
330
18
100
AcDbEntity
  8
0
100
AcDbLine
 10
1756.15766047071
 20
936.906732257063
 30
0.0
 11
1756.157660470714
 21
1127.906732257067
 31
0.0
  0
LINE
  5
C1B4
330
18
100
AcDbEntity
  8
0
100
AcDbLine
 10
1677.157660470713
 20
948.9067322570626
 30
0.0
 11
1677.157660470719
 21
1115.906732257067
 31
0.0
  0
LINE
  5
C1B5
330
18
100
AcDbEntity
  8
0
100
AcDbLine
 10
1989.859743093608
 20
1115.906732257067
 30
0.0
 11
1857.859743093609
 21
1115.906732257067
 31
0.0
  0
LINE
  5
C1B6
330
18
100
AcDbEntity
  8
0
100
AcDbLine
 10
1989.859743093602
 20
948.9067322570626
 30
0.0
 11
1857.859743093603
 21
948.9067322570626
 31
0.0
  0
LINE
  5
C1B7
330
18
100
AcDbEntity
  8
0
100
AcDbLine
 10
1988.859743093613
 20
948.9067322570631
 30
0.0
 11
1861.859743093609
 21
948.9067322570631
 31
0.0
  0
LINE
  5
C1B8
330
18
100
AcDbEntity
  8
0
100
AcDbLine
 10
1861.859743093615
 20
1115.906732257067
 30
0.0
 11
1988.859743093613
 21
1115.906732257067
 31
0.0
  0
LWPOLYLINE
  5
C1B9
330
18
100
AcDbEntity
  8
0
100
AcDbPolyline
 90
        4
 70
     1
 43
0.0
 10
1857.026409760271
 20
960.4067322570626
 10
1857.026409760271
 20
950.4067322570627
 10
1857.859743093603
 20
950.4067322570627
 10
1857.859743093603
 20
960.4067322570626
  0
LINE
  5
C1BA
330
18
100
AcDbEntity
  8
0
100
AcDbLine
 10
1854.859743093604
 20
951.240065590396
 30
0.0
 11
1856.193076426936
 21
951.240065590396
 31
0.0
  0
LINE
  5
C1BB
330
18
100
AcDbEntity
  8
0
100
AcDbLine
 10
1856.193076426936
 20
959.5733989237292
 30
0.0
 11
1854.859743093604
 21
959.5733989237292
 31
0.0
  0
LWPOLYLINE
  5
C1BC
330
18
100
AcDbEntity
  8
0
100
AcDbPolyline
 90
        4
 70
     1
 43
0.0
 10
1856.193076426936
 20
959.5733989237295
 10
1856.193076426936
 20
951.2400655903958
 10
1857.026409760271
 20
951.2400655903958
 10
1857.026409760271
 20
959.5733989237295
  0
LINE
  5
C1BD
330
18
100
AcDbEntity
  8
0
100
AcDbLine
 10
1852.859743093604
 20
957.5733989237283
 30
0.0
 11
1852.859743093604
 21
953.240065590397
 31
0.0
  0
ARC
  5
C1BE
330
18
100
AcDbEntity
  8
0
100
AcDbCircle
 10
1854.859743093604
 20
953.240065590397
 30
0.0
 40
2.0
100
AcDbArc
 50
180.0
 51
270.0
  0
ARC
  5
C1BF
330
18
100
AcDbEntity
  8
0
100
AcDbCircle
 10
1854.859743093604
 20
957.5733989237283
 30
0.0
 40
2.0
100
AcDbArc
 50
90.0
 51
180.0
  0
LINE
  5
C1C0
330
18
100
AcDbEntity
  8
0
100
AcDbLine
 10
1852.859743093609
 20
1060.906732257067
 30
0.0
 11
1852.859743093608
 21
1078.906732257067
 31
0.0
  0
LINE
  5
C1C1
330
18
100
AcDbEntity
  8
0
100
AcDbLine
 10
1852.859743093609
 20
1081.906732257067
 30
0.0
 11
1852.859743093608
 21
1099.906732257067
 31
0.0
  0
LINE
  5
C1C2
330
18
100
AcDbEntity
  8
0
100
AcDbLine
 10
1861.859743093615
 20
1115.906732257067
 30
0.0
 11
1860.859743093613
 21
1114.906732257068
 31
0.0
  0
LINE
  5
C1C3
330
18
100
AcDbEntity
  8
0
100
AcDbLine
 10
1843.859743093606
 20
1084.906732257067
 30
0.0
 11
1842.859743093608
 21
1084.906732257067
 31
0.0
  0
LINE
  5
C1C4
330
18
100
AcDbEntity
  8
0
100
AcDbLine
 10
1843.859743093606
 20
1096.906732257066
 30
0.0
 11
1842.859743093606
 21
1096.906732257066
 31
0.0
  0
LINE
  5
C1C5
330
18
100
AcDbEntity
  8
0
100
AcDbLine
 10
1839.859743093608
 20
1087.906732257067
 30
0.0
 11
1839.859743093606
 21
1093.906732257067
 31
0.0
  0
ARC
  5
C1C6
330
18
100
AcDbEntity
  8
0
100
AcDbCircle
 10
1842.859743093606
 20
1093.906732257066
 30
0.0
 40
3.0
100
AcDbArc
 50
90.0
 51
180.0
  0
LINE
  5
C1C7
330
18
100
AcDbEntity
  8
0
100
AcDbLine
 10
1843.859743093606
 20
1063.906732257067
 30
0.0
 11
1842.859743093608
 21
1063.906732257067
 31
0.0
  0
LINE
  5
C1C8
330
18
100
AcDbEntity
  8
0
100
AcDbLine
 10
1843.859743093606
 20
1075.906732257067
 30
0.0
 11
1842.859743093606
 21
1075.906732257067
 31
0.0
  0
LINE
  5
C1C9
330
18
100
AcDbEntity
  8
0
100
AcDbLine
 10
1839.859743093608
 20
1066.906732257067
 30
0.0
 11
1839.859743093606
 21
1072.906732257066
 31
0.0
  0
ARC
  5
C1CA
330
18
100
AcDbEntity
  8
0
100
AcDbCircle
 10
1842.859743093608
 20
1066.906732257066
 30
0.0
 40
3.0
100
AcDbArc
 50
180.0
 51
270.0
  0
ARC
  5
C1CB
330
18
100
AcDbEntity
  8
0
100
AcDbCircle
 10
1842.859743093606
 20
1072.906732257066
 30
0.0
 40
3.0
100
AcDbArc
 50
90.0
 51
180.0
  0
LINE
  5
C1CC
330
18
100
AcDbEntity
  8
0
100
AcDbLine
 10
1843.859743093608
 20
1060.906732257067
 30
0.0
 11
1843.859743093608
 21
1078.906732257067
 31
0.0
  0
LINE
  5
C1CD
330
18
100
AcDbEntity
  8
0
100
AcDbLine
 10
1843.859743093606
 20
1054.906732257067
 30
0.0
 11
1842.859743093606
 21
1054.906732257067
 31
0.0
  0
LINE
  5
C1CE
330
18
100
AcDbEntity
  8
0
100
AcDbLine
 10
1839.859743093608
 20
1045.906732257066
 30
0.0
 11
1839.859743093606
 21
1051.906732257066
 31
0.0
  0
ARC
  5
C1CF
330
18
100
AcDbEntity
  8
0
100
AcDbCircle
 10
1842.859743093606
 20
1051.906732257066
 30
0.0
 40
3.0
100
AcDbArc
 50
90.0
 51
180.0
  0
LINE
  5
C1D0
330
18
100
AcDbEntity
  8
0
100
AcDbLine
 10
1843.859743093608
 20
1081.906732257067
 30
0.0
 11
1843.859743093608
 21
1099.906732257067
 31
0.0
  0
ARC
  5
C1D1
330
18
100
AcDbEntity
  8
0
100
AcDbCircle
 10
1842.859743093608
 20
1087.906732257066
 30
0.0
 40
3.0
100
AcDbArc
 50
180.0
 51
270.0
  0
LINE
  5
C1D2
330
18
100
AcDbEntity
  8
0
100
AcDbLine
 10
1828.359743093609
 20
1099.906732257067
 30
0.0
 11
1828.359743093609
 21
1115.906732257067
 31
0.0
  0
LINE
  5
C1D3
330
18
100
AcDbEntity
  8
0
100
AcDbLine
 10
1828.359743093609
 20
1081.906732257067
 30
0.0
 11
1828.359743093608
 21
1078.906732257067
 31
0.0
  0
LINE
  5
C1D4
330
18
100
AcDbEntity
  8
0
100
AcDbLine
 10
1828.359743093609
 20
1060.906732257067
 30
0.0
 11
1828.359743093608
 21
1057.906732257067
 31
0.0
  0
LINE
  5
C1D5
330
18
100
AcDbEntity
  8
0
100
AcDbLine
 10
1828.359743093609
 20
1115.906732257067
 30
0.0
 11
1857.859743093609
 21
1115.906732257067
 31
0.0
  0
LINE
  5
C1D6
330
18
100
AcDbEntity
  8
0
100
AcDbLine
 10
1828.359743093608
 20
1078.906732257067
 30
0.0
 11
1857.859743093608
 21
1078.906732257066
 31
0.0
  0
LINE
  5
C1D7
330
18
100
AcDbEntity
  8
0
100
AcDbLine
 10
1857.859743093608
 20
1099.906732257067
 30
0.0
 11
1828.359743093609
 21
1099.906732257067
 31
0.0
  0
LINE
  5
C1D8
330
18
100
AcDbEntity
  8
0
100
AcDbLine
 10
1852.859743093609
 20
1081.906732257067
 30
0.0
 11
1828.359743093609
 21
1081.906732257067
 31
0.0
  0
LINE
  5
C1D9
330
18
100
AcDbEntity
  8
0
100
AcDbLine
 10
1852.859743093609
 20
1060.906732257067
 30
0.0
 11
1828.359743093609
 21
1060.906732257067
 31
0.0
  0
LINE
  5
C1DA
330
18
100
AcDbEntity
  8
0
100
AcDbLine
 10
1828.359743093608
 20
1057.906732257067
 30
0.0
 11
1857.859743093606
 21
1057.906732257066
 31
0.0
  0
LINE
  5
C1DB
330
18
100
AcDbEntity
  8
0
100
AcDbLine
 10
1852.859743093609
 20
997.9067322570672
 30
0.0
 11
1852.859743093608
 21
1015.906732257067
 31
0.0
  0
LINE
  5
C1DC
330
18
100
AcDbEntity
  8
0
100
AcDbLine
 10
1852.859743093609
 20
1018.906732257067
 30
0.0
 11
1852.859743093608
 21
1036.906732257067
 31
0.0
  0
LINE
  5
C1DD
330
18
100
AcDbEntity
  8
0
100
AcDbLine
 10
1852.859743093609
 20
976.9067322570672
 30
0.0
 11
1852.859743093608
 21
994.9067322570671
 31
0.0
  0
LINE
  5
C1DE
330
18
100
AcDbEntity
  8
0
100
AcDbLine
 10
1843.859743093606
 20
1012.906732257067
 30
0.0
 11
1842.859743093606
 21
1012.906732257067
 31
0.0
  0
ARC
  5
C1DF
330
18
100
AcDbEntity
  8
0
100
AcDbCircle
 10
1842.859743093608
 20
1003.906732257066
 30
0.0
 40
3.0
100
AcDbArc
 50
180.0
 51
270.0
  0
LINE
  5
C1E0
330
18
100
AcDbEntity
  8
0
100
AcDbLine
 10
1839.859743093608
 20
1003.906732257066
 30
0.0
 11
1839.859743093606
 21
1009.906732257067
 31
0.0
  0
LINE
  5
C1E1
330
18
100
AcDbEntity
  8
0
100
AcDbLine
 10
1843.859743093606
 20
1000.906732257067
 30
0.0
 11
1842.859743093608
 21
1000.906732257067
 31
0.0
  0
ARC
  5
C1E2
330
18
100
AcDbEntity
  8
0
100
AcDbCircle
 10
1842.859743093606
 20
1009.906732257066
 30
0.0
 40
3.0
100
AcDbArc
 50
90.0
 51
180.0
  0
LINE
  5
C1E3
330
18
100
AcDbEntity
  8
0
100
AcDbLine
 10
1843.859743093608
 20
997.9067322570672
 30
0.0
 11
1843.859743093608
 21
1015.906732257067
 31
0.0
  0
LINE
  5
C1E4
330
18
100
AcDbEntity
  8
0
100
AcDbLine
 10
1843.859743093606
 20
1042.906732257067
 30
0.0
 11
1842.859743093608
 21
1042.906732257067
 31
0.0
  0
ARC
  5
C1E5
330
18
100
AcDbEntity
  8
0
100
AcDbCircle
 10
1842.859743093606
 20
1030.906732257066
 30
0.0
 40
3.0
100
AcDbArc
 50
90.0
 51
180.0
  0
ARC
  5
C1E6
330
18
100
AcDbEntity
  8
0
100
AcDbCircle
 10
1842.859743093608
 20
1024.906732257066
 30
0.0
 40
3.0
100
AcDbArc
 50
180.0
 51
270.0
  0
LINE
  5
C1E7
330
18
100
AcDbEntity
  8
0
100
AcDbLine
 10
1839.859743093608
 20
1024.906732257067
 30
0.0
 11
1839.859743093606
 21
1030.906732257067
 31
0.0
  0
LINE
  5
C1E8
330
18
100
AcDbEntity
  8
0
100
AcDbLine
 10
1843.859743093606
 20
1033.906732257067
 30
0.0
 11
1842.859743093606
 21
1033.906732257067
 31
0.0
  0
LINE
  5
C1E9
330
18
100
AcDbEntity
  8
0
100
AcDbLine
 10
1843.859743093606
 20
1021.906732257066
 30
0.0
 11
1842.859743093608
 21
1021.906732257066
 31
0.0
  0
LINE
  5
C1EA
330
18
100
AcDbEntity
  8
0
100
AcDbLine
 10
1843.859743093608
 20
1018.906732257067
 30
0.0
 11
1843.859743093608
 21
1036.906732257067
 31
0.0
  0
LINE
  5
C1EB
330
18
100
AcDbEntity
  8
0
100
AcDbLine
 10
1828.359743093609
 20
1018.906732257067
 30
0.0
 11
1828.359743093608
 21
1015.906732257067
 31
0.0
  0
LINE
  5
C1EC
330
18
100
AcDbEntity
  8
0
100
AcDbLine
 10
1828.359743093609
 20
997.9067322570672
 30
0.0
 11
1828.359743093608
 21
994.9067322570671
 31
0.0
  0
LINE
  5
C1ED
330
18
100
AcDbEntity
  8
0
100
AcDbLine
 10
1828.359743093609
 20
1039.906732257067
 30
0.0
 11
1828.359743093608
 21
1036.906732257067
 31
0.0
  0
ARC
  5
C1EE
330
18
100
AcDbEntity
  8
0
100
AcDbCircle
 10
1842.859743093606
 20
988.9067322570667
 30
0.0
 40
3.0
100
AcDbArc
 50
90.0
 51
180.0
  0
ARC
  5
C1EF
330
18
100
AcDbEntity
  8
0
100
AcDbCircle
 10
1842.859743093608
 20
982.9067322570667
 30
0.0
 40
3.0
100
AcDbArc
 50
180.0
 51
270.0
  0
LINE
  5
C1F0
330
18
100
AcDbEntity
  8
0
100
AcDbLine
 10
1839.859743093608
 20
982.9067322570672
 30
0.0
 11
1839.859743093606
 21
988.9067322570673
 31
0.0
  0
LINE
  5
C1F1
330
18
100
AcDbEntity
  8
0
100
AcDbLine
 10
1843.859743093606
 20
991.9067322570672
 30
0.0
 11
1842.859743093606
 21
991.9067322570672
 31
0.0
  0
LINE
  5
C1F2
330
18
100
AcDbEntity
  8
0
100
AcDbLine
 10
1843.859743093606
 20
979.9067322570673
 30
0.0
 11
1842.859743093608
 21
979.9067322570673
 31
0.0
  0
LINE
  5
C1F3
330
18
100
AcDbEntity
  8
0
100
AcDbLine
 10
1828.359743093609
 20
976.9067322570672
 30
0.0
 11
1828.359743093609
 21
960.9067322570671
 31
0.0
  0
LINE
  5
C1F4
330
18
100
AcDbEntity
  8
0
100
AcDbLine
 10
1843.859743093608
 20
976.9067322570672
 30
0.0
 11
1843.859743093608
 21
994.9067322570671
 31
0.0
  0
LINE
  5
C1F5
330
18
100
AcDbEntity
  8
0
100
AcDbLine
 10
1828.359743093608
 20
1015.906732257067
 30
0.0
 11
1857.859743093606
 21
1015.906732257067
 31
0.0
  0
LINE
  5
C1F6
330
18
100
AcDbEntity
  8
0
100
AcDbLine
 10
1828.359743093608
 20
994.9067322570671
 30
0.0
 11
1857.859743093604
 21
994.9067322570671
 31
0.0
  0
LINE
  5
C1F7
330
18
100
AcDbEntity
  8
0
100
AcDbLine
 10
1852.859743093609
 20
997.9067322570672
 30
0.0
 11
1828.359743093609
 21
997.9067322570672
 31
0.0
  0
LINE
  5
C1F8
330
18
100
AcDbEntity
  8
0
100
AcDbLine
 10
1828.359743093608
 20
1036.906732257067
 30
0.0
 11
1857.859743093606
 21
1036.906732257066
 31
0.0
  0
LINE
  5
C1F9
330
18
100
AcDbEntity
  8
0
100
AcDbLine
 10
1852.859743093609
 20
1039.906732257067
 30
0.0
 11
1828.359743093609
 21
1039.906732257067
 31
0.0
  0
LINE
  5
C1FA
330
18
100
AcDbEntity
  8
0
100
AcDbLine
 10
1852.859743093609
 20
1018.906732257067
 30
0.0
 11
1828.359743093609
 21
1018.906732257067
 31
0.0
  0
LINE
  5
C1FB
330
18
100
AcDbEntity
  8
0
100
AcDbLine
 10
1852.859743093609
 20
976.9067322570672
 30
0.0
 11
1828.359743093609
 21
976.9067322570672
 31
0.0
  0
LINE
  5
C1FC
330
18
100
AcDbEntity
  8
0
100
AcDbLine
 10
1828.359743093609
 20
960.9067322570671
 30
0.0
 11
1857.859743093609
 21
960.9067322570671
 31
0.0
  0
ARC
  5
C1FD
330
18
100
AcDbEntity
  8
0
100
AcDbCircle
 10
1842.859743093608
 20
1045.906732257066
 30
0.0
 40
3.0
100
AcDbArc
 50
180.0
 51
270.0
  0
LINE
  5
C1FE
330
18
100
AcDbEntity
  8
0
100
AcDbLine
 10
1852.859743093609
 20
1039.906732257067
 30
0.0
 11
1852.859743093608
 21
1057.906732257067
 31
0.0
  0
LINE
  5
C1FF
330
18
100
AcDbEntity
  8
0
100
AcDbLine
 10
1843.859743093608
 20
1039.906732257067
 30
0.0
 11
1843.859743093608
 21
1057.906732257067
 31
0.0
  0
LINE
  5
C200
330
18
100
AcDbEntity
  8
0
100
AcDbLine
 10
1857.859743093609
 20
960.9067322570671
 30
0.0
 11
1857.859743093609
 21
1115.906732257067
 31
0.0
  0
LINE
  5
C201
330
18
100
AcDbEntity
  8
0
 48
4.0
100
AcDbLine
 10
1860.859743093609
 20
949.9067322570633
 30
0.0
 11
1861.859743093609
 21
948.9067322570631
 31
0.0
  0
LINE
  5
C202
330
18
100
AcDbEntity
  8
0
100
AcDbLine
 10
1857.859743093603
 20
948.9067322570626
 30
0.0
 11
1857.859743093609
 21
1115.906732257067
 31
0.0
  0
LINE
  5
C203
330
18
100
AcDbEntity
  8
0
100
AcDbLine
 10
1860.859743093604
 20
948.9067322570626
 30
0.0
 11
1860.859743093608
 21
1115.906732257067
 31
0.0
  0
LINE
  5
C204
330
18
100
AcDbEntity
  8
0
100
AcDbLine
 10
1860.859743093609
 20
949.9067322570633
 30
0.0
 11
1860.859743093613
 21
1114.906732257068
 31
0.0
  0
LINE
  5
C205
330
18
100
AcDbEntity
  8
0
100
AcDbLine
 10
1992.859743093609
 20
1128.906732257066
 30
0.0
 11
1989.859743093608
 21
1128.906732257066
 31
0.0
  0
LINE
  5
C206
330
18
100
AcDbEntity
  8
0
100
AcDbLine
 10
1988.859743093613
 20
1115.906732257067
 30
0.0
 11
1989.859743093614
 21
1114.906732257068
 31
0.0
  0
LINE
  5
C207
330
18
100
AcDbEntity
  8
0
100
AcDbLine
 10
1992.859743093602
 20
935.9067322570636
 30
0.0
 11
1989.859743093602
 21
935.9067322570632
 31
0.0
  0
LINE
  5
C208
330
18
100
AcDbEntity
  8
0
 48
4.0
100
AcDbLine
 10
1989.859743093612
 20
949.9067322570633
 30
0.0
 11
1988.859743093613
 21
948.9067322570631
 31
0.0
  0
LINE
  5
C209
330
18
100
AcDbEntity
  8
0
100
AcDbLine
 10
1992.859743093602
 20
935.9067322570632
 30
0.0
 11
1992.859743093609
 21
1128.906732257066
 31
0.0
  0
LINE
  5
C20A
330
18
100
AcDbEntity
  8
0
100
AcDbLine
 10
1989.859743093602
 20
935.9067322570632
 30
0.0
 11
1989.859743093608
 21
1128.906732257066
 31
0.0
  0
LINE
  5
C20B
330
18
100
AcDbEntity
  8
0
100
AcDbLine
 10
1989.859743093614
 20
1114.656732257067
 30
0.0
 11
1989.859743093606
 21
949.9067322570576
 31
0.0
  0
LINE
  5
C20C
330
18
100
AcDbEntity
  8
0
 48
0.1
100
AcDbLine
 10
1828.359743093609
 20
1099.906732257067
 30
0.0
 11
1828.359743093609
 21
976.9067322570672
 31
0.0
  0
LINE
  5
C20D
330
18
100
AcDbEntity
  8
0
 48
0.1
100
AcDbLine
 10
1830.359743093609
 20
1099.906732257067
 30
0.0
 11
1830.359743093609
 21
976.9067322570672
 31
0.0
  0
LINE
  5
C401
330
18
100
AcDbEntity
  8
0
 48
0.1
100
AcDbLine
 10
1687.657660470716
 20
979.9067322570662
 30
0.0
 11
1687.657660470716
 21
979.1548913386522
 31
0.0
  0
LINE
  5
C402
330
18
100
AcDbEntity
  8
0
 48
0.1
100
AcDbLine
 10
1687.657660470716
 20
969.9067322570662
 30
0.0
 11
1687.657660470716
 21
970.7548913386519
 31
0.0
  0
MTEXT
  5
C50A
330
18
100
AcDbEntity
  8
0
 48
0.1
100
AcDbMText
 10
1874.362485131635
 20
941.5125832444623
 30
0.0
 40
6.0
 41
0.6
 71
     1
 72
     5
  1
{ダイナミックブレーキユニット\PNCR-XABCA2B-752/113-UL}
 73
     1
 44
1.0
1001
ACAD
1000
ACAD_MTEXT_DEFINED_HEIGHT_BEGIN
1070
    46
1040
16.852
1000
ACAD_MTEXT_DEFINED_HEIGHT_END
  0
TEXT
  5
C50B
330
18
100
AcDbEntity
  8
0
100
AcDbText
 10
1874.173345270202
 20
900.6170888305694
 30
0.0
 40
7.0
  1
ＳＥ－４６９００
 41
0.9529999999999999
100
AcDbText
  0
LINE
  5
C524
330
18
100
AcDbEntity
  8
0
100
AcDbLine
 10
1687.666243179838
 20
975.3598913386522
 30
0.0
 11
1692.166243179838
 21
975.3598913386527
 31
0.0
  0
LINE
  5
C525
330
18
100
AcDbEntity
  8
0
100
AcDbLine
 10
1687.666243179838
 20
971.5498913386523
 30
0.0
 11
1692.166243179838
 21
971.5498913386523
 31
0.0
  0
LINE
  5
C526
330
18
100
AcDbEntity
  8
0
100
AcDbLine
 10
1688.166243179838
 20
978.0598913386524
 30
0.0
 11
1687.666243179838
 21
978.3598913386523
 31
0.0
  0
LINE
  5
C527
330
18
100
AcDbEntity
  8
0
100
AcDbLine
 10
1687.666243179838
 20
975.3598913386522
 30
0.0
 11
1688.166243179838
 21
975.6598913386524
 31
0.0
  0
LINE
  5
C528
330
18
100
AcDbEntity
  8
0
100
AcDbLine
 10
1687.666243179838
 20
971.5498913386523
 30
0.0
 11
1688.166243179838
 21
971.8498913386524
 31
0.0
  0
LINE
  5
C529
330
18
100
AcDbEntity
  8
0
100
AcDbLine
 10
1688.166243179838
 20
974.2498913386524
 30
0.0
 11
1687.666243179838
 21
974.5498913386523
 31
0.0
  0
LINE
  5
C52A
330
18
100
AcDbEntity
  8
0
100
AcDbLine
 10
1687.166243179838
 20
979.1548913386522
 30
0.0
 11
1687.166243179838
 21
970.7548913386522
 31
0.0
  0
LINE
  5
C52B
330
18
100
AcDbEntity
  8
0
100
AcDbLine
 10
1687.166243179838
 20
979.1548913386522
 30
0.0
 11
1698.266243179838
 21
979.1548913386522
 31
0.0
  0
LINE
  5
C52C
330
18
100
AcDbEntity
  8
0
100
AcDbLine
 10
1698.266243179838
 20
979.1548913386522
 30
0.0
 11
1698.266243179838
 21
970.7548913386526
 31
0.0
  0
LINE
  5
C52D
330
18
100
AcDbEntity
  8
0
100
AcDbLine
 10
1697.266243179838
 20
979.1548913386522
 30
0.0
 11
1697.266243179838
 21
970.7548913386526
 31
0.0
  0
LINE
  5
C52E
330
18
100
AcDbEntity
  8
0
100
AcDbLine
 10
1687.166243179838
 20
970.7548913386522
 30
0.0
 11
1698.266243179838
 21
970.7548913386526
 31
0.0
  0
LINE
  5
C52F
330
18
100
AcDbEntity
  8
0
100
AcDbLine
 10
1693.166243179838
 20
979.1548913386522
 30
0.0
 11
1693.166243179838
 21
970.7548913386522
 31
0.0
  0
LINE
  5
C530
330
18
100
AcDbEntity
  8
0
100
AcDbLine
 10
1692.166243179838
 20
979.1548913386522
 30
0.0
 11
1692.166243179838
 21
970.7548913386522
 31
0.0
  0
LINE
  5
C531
330
18
100
AcDbEntity
  8
0
100
AcDbLine
 10
1691.166243179838
 20
978.0598913386524
 30
0.0
 11
1692.166243179838
 21
978.3598913386523
 31
0.0
  0
LINE
  5
C532
330
18
100
AcDbEntity
  8
0
100
AcDbLine
 10
1691.166243179838
 20
975.6598913386524
 30
0.0
 11
1692.166243179838
 21
975.3598913386522
 31
0.0
  0
LINE
  5
C533
330
18
100
AcDbEntity
  8
0
100
AcDbLine
 10
1691.166243179838
 20
971.8498913386524
 30
0.0
 11
1692.166243179838
 21
971.5498913386523
 31
0.0
  0
LINE
  5
C534
330
18
100
AcDbEntity
  8
0
100
AcDbLine
 10
1691.166243179838
 20
974.2498913386524
 30
0.0
 11
1692.166243179838
 21
974.5498913386523
 31
0.0
  0
LINE
  5
C535
330
18
100
AcDbEntity
  8
0
100
AcDbLine
 10
1688.166243179838
 20
978.0598913386524
 30
0.0
 11
1691.166243179838
 21
978.0598913386524
 31
0.0
  0
LINE
  5
C536
330
18
100
AcDbEntity
  8
0
100
AcDbLine
 10
1688.166243179838
 20
975.6598913386524
 30
0.0
 11
1691.166243179838
 21
975.6598913386524
 31
0.0
  0
LINE
  5
C537
330
18
100
AcDbEntity
  8
0
100
AcDbLine
 10
1688.166243179838
 20
978.0598913386524
 30
0.0
 11
1688.166243179838
 21
975.6598913386524
 31
0.0
  0
LINE
  5
C538
330
18
100
AcDbEntity
  8
0
100
AcDbLine
 10
1691.166243179838
 20
978.0598913386524
 30
0.0
 11
1691.166243179838
 21
975.6598913386524
 31
0.0
  0
LINE
  5
C539
330
18
100
AcDbEntity
  8
0
100
AcDbLine
 10
1688.166243179838
 20
974.2498913386524
 30
0.0
 11
1691.166243179838
 21
974.2498913386524
 31
0.0
  0
LINE
  5
C53A
330
18
100
AcDbEntity
  8
0
100
AcDbLine
 10
1688.166243179838
 20
971.8498913386524
 30
0.0
 11
1691.166243179838
 21
971.8498913386524
 31
0.0
  0
LINE
  5
C53B
330
18
100
AcDbEntity
  8
0
100
AcDbLine
 10
1688.166243179838
 20
974.2498913386524
 30
0.0
 11
1688.166243179838
 21
971.8498913386524
 31
0.0
  0
LINE
  5
C53C
330
18
100
AcDbEntity
  8
0
100
AcDbLine
 10
1691.166243179838
 20
974.2498913386524
 30
0.0
 11
1691.166243179838
 21
971.8498913386524
 31
0.0
  0
LINE
  5
C53D
330
18
100
AcDbEntity
  8
0
100
AcDbLine
 10
1687.666243179838
 20
978.3598913386523
 30
0.0
 11
1687.666243179838
 21
975.3598913386522
 31
0.0
  0
LINE
  5
C53E
330
18
100
AcDbEntity
  8
0
100
AcDbLine
 10
1687.666243179838
 20
974.5498913386523
 30
0.0
 11
1687.666243179838
 21
971.5498913386523
 31
0.0
  0
LINE
  5
C53F
330
18
100
AcDbEntity
  8
0
100
AcDbLine
 10
1687.666243179838
 20
974.5498913386523
 30
0.0
 11
1692.166243179838
 21
974.5498913386523
 31
0.0
  0
LINE
  5
C540
330
18
100
AcDbEntity
  8
0
100
AcDbLine
 10
1687.666243179838
 20
978.3598913386523
 30
0.0
 11
1692.166243179838
 21
978.3598913386523
 31
0.0
  0
LINE
  5
C541
330
18
100
AcDbEntity
  8
0
100
AcDbLine
 10
1687.166243179838
 20
979.1548913386522
 30
0.0
 11
1687.166243179838
 21
970.7548913386522
 31
0.0
  0
LINE
  5
C542
330
18
100
AcDbEntity
  8
0
100
AcDbLine
 10
1688.166243179838
 20
974.2498913386524
 30
0.0
 11
1687.666243179838
 21
974.5498913386523
 31
0.0
  0
LINE
  5
C543
330
18
100
AcDbEntity
  8
0
100
AcDbLine
 10
1687.666243179838
 20
971.5498913386523
 30
0.0
 11
1688.166243179838
 21
971.8498913386524
 31
0.0
  0
LINE
  5
C544
330
18
100
AcDbEntity
  8
0
100
AcDbLine
 10
1687.666243179838
 20
975.3598913386522
 30
0.0
 11
1688.166243179838
 21
975.6598913386524
 31
0.0
  0
LINE
  5
C545
330
18
100
AcDbEntity
  8
0
100
AcDbLine
 10
1688.166243179838
 20
978.0598913386524
 30
0.0
 11
1687.666243179838
 21
978.3598913386523
 31
0.0
  0
LINE
  5
C546
330
18
100
AcDbEntity
  8
0
100
AcDbLine
 10
1687.666243179838
 20
971.5498913386523
 30
0.0
 11
1692.166243179838
 21
971.5498913386523
 31
0.0
  0
LINE
  5
C547
330
18
100
AcDbEntity
  8
0
100
AcDbLine
 10
1687.666243179838
 20
975.3598913386522
 30
0.0
 11
1692.166243179838
 21
975.3598913386527
 31
0.0
  0
LINE
  5
C548
330
18
100
AcDbEntity
  8
0
100
AcDbLine
 10
1687.666243179838
 20
978.3598913386523
 30
0.0
 11
1692.166243179838
 21
978.3598913386523
 31
0.0
  0
LINE
  5
C549
330
18
100
AcDbEntity
  8
0
100
AcDbLine
 10
1687.666243179838
 20
974.5498913386523
 30
0.0
 11
1692.166243179838
 21
974.5498913386523
 31
0.0
  0
LINE
  5
C54A
330
18
100
AcDbEntity
  8
0
100
AcDbLine
 10
1687.666243179838
 20
974.5498913386523
 30
0.0
 11
1687.666243179838
 21
971.5498913386523
 31
0.0
  0
LINE
  5
C54B
330
18
100
AcDbEntity
  8
0
100
AcDbLine
 10
1687.666243179838
 20
978.3598913386523
 30
0.0
 11
1687.666243179838
 21
975.3598913386522
 31
0.0
  0
LINE
  5
C54C
330
18
100
AcDbEntity
  8
0
100
AcDbLine
 10
1691.166243179838
 20
974.2498913386524
 30
0.0
 11
1691.166243179838
 21
971.8498913386524
 31
0.0
  0
LINE
  5
C54D
330
18
100
AcDbEntity
  8
0
100
AcDbLine
 10
1688.166243179838
 20
974.2498913386524
 30
0.0
 11
1688.166243179838
 21
971.8498913386524
 31
0.0
  0
LINE
  5
C54E
330
18
100
AcDbEntity
  8
0
100
AcDbLine
 10
1688.166243179838
 20
971.8498913386524
 30
0.0
 11
1691.166243179838
 21
971.8498913386524
 31
0.0
  0
LINE
  5
C54F
330
18
100
AcDbEntity
  8
0
100
AcDbLine
 10
1688.166243179838
 20
974.2498913386524
 30
0.0
 11
1691.166243179838
 21
974.2498913386524
 31
0.0
  0
LINE
  5
C550
330
18
100
AcDbEntity
  8
0
100
AcDbLine
 10
1691.166243179838
 20
978.0598913386524
 30
0.0
 11
1691.166243179838
 21
975.6598913386524
 31
0.0
  0
LINE
  5
C551
330
18
100
AcDbEntity
  8
0
100
AcDbLine
 10
1688.166243179838
 20
978.0598913386524
 30
0.0
 11
1688.166243179838
 21
975.6598913386524
 31
0.0
  0
LINE
  5
C552
330
18
100
AcDbEntity
  8
0
100
AcDbLine
 10
1688.166243179838
 20
975.6598913386524
 30
0.0
 11
1691.166243179838
 21
975.6598913386524
 31
0.0
  0
LINE
  5
C553
330
18
100
AcDbEntity
  8
0
100
AcDbLine
 10
1688.166243179838
 20
978.0598913386524
 30
0.0
 11
1691.166243179838
 21
978.0598913386524
 31
0.0
  0
LINE
  5
C554
330
18
100
AcDbEntity
  8
0
100
AcDbLine
 10
1691.166243179838
 20
974.2498913386524
 30
0.0
 11
1692.166243179838
 21
974.5498913386523
 31
0.0
  0
LINE
  5
C555
330
18
100
AcDbEntity
  8
0
100
AcDbLine
 10
1691.166243179838
 20
971.8498913386524
 30
0.0
 11
1692.166243179838
 21
971.5498913386523
 31
0.0
  0
LINE
  5
C556
330
18
100
AcDbEntity
  8
0
100
AcDbLine
 10
1691.166243179838
 20
975.6598913386524
 30
0.0
 11
1692.166243179838
 21
975.3598913386522
 31
0.0
  0
LINE
  5
C557
330
18
100
AcDbEntity
  8
0
100
AcDbLine
 10
1691.166243179838
 20
978.0598913386524
 30
0.0
 11
1692.166243179838
 21
978.3598913386523
 31
0.0
  0
LINE
  5
C558
330
18
100
AcDbEntity
  8
0
100
AcDbLine
 10
1692.166243179838
 20
979.1548913386522
 30
0.0
 11
1692.166243179838
 21
970.7548913386522
 31
0.0
  0
LINE
  5
C559
330
18
100
AcDbEntity
  8
0
100
AcDbLine
 10
1693.166243179838
 20
979.1548913386522
 30
0.0
 11
1693.166243179838
 21
970.7548913386522
 31
0.0
  0
LINE
  5
C55A
330
18
100
AcDbEntity
  8
0
100
AcDbLine
 10
1687.166243179838
 20
970.7548913386522
 30
0.0
 11
1698.266243179838
 21
970.7548913386526
 31
0.0
  0
LINE
  5
C55B
330
18
100
AcDbEntity
  8
0
100
AcDbLine
 10
1697.266243179838
 20
979.1548913386522
 30
0.0
 11
1697.266243179838
 21
970.7548913386526
 31
0.0
  0
LINE
  5
C55C
330
18
100
AcDbEntity
  8
0
100
AcDbLine
 10
1698.266243179838
 20
979.1548913386522
 30
0.0
 11
1698.266243179838
 21
970.7548913386526
 31
0.0
  0
LINE
  5
C55D
330
18
100
AcDbEntity
  8
0
100
AcDbLine
 10
1687.166243179838
 20
979.1548913386522
 30
0.0
 11
1698.266243179838
 21
979.1548913386522
 31
0.0
  0
TEXT
  5
C591
330
18
100
AcDbEntity
  8
0
100
AcDbText
 10
1874.173345270202
 20
911.4059934426128
 30
0.0
 40
6.0
  1
外形図
100
AcDbText
  0
VIEWPORT
  5
23
330
15
100
AcDbEntity
 67
     1
  8
0
100
AcDbViewport
 10
199.9994923763661
 20
144.0046201744767
 30
0.0
 40
580.5770672049531
 41
291.4473700639634
 68
     1
 69
     1
 12
199.9994923763661
 22
144.0046201744767
 13
0.0
 23
0.0
 14
10.0
 24
10.0
 15
10.0
 25
10.0
 16
0.0
 26
0.0
 36
1.0
 17
0.0
 27
0.0
 37
0.0
 42
50.0
 43
0.0
 44
0.0
 45
291.4473700639634
 50
0.0
 51
0.0
 72
   100
 90
    32768
  1

281
     0
 71
     1
 74
     0
110
0.0
120
0.0
130
0.0
111
1.0
121
0.0
131
0.0
112
0.0
122
1.0
132
0.0
 79
     0
146
0.0
  0
ENDSEC
  0
SECTION
  2
OBJECTS
  0
DICTIONARY
  5
C
330
0
100
AcDbDictionary
281
     1
  3
ACAD_DETAILVIEWSTYLE
350
C51E
  3
ACAD_GROUP
350
D
  3
ACAD_IMAGE_VARS
350
C4D3
  3
ACAD_LAYOUT
350
73F
  3
ACAD_MLINESTYLE
350
1B
  3
ACAD_PLOTSETTINGS
350
740
  3
ACAD_PLOTSTYLENAME
350
73D
  3
ACAD_SCALELIST
350
C4A7
  3
ACAD_SECTIONVIEWSTYLE
350
C51F
  3
AcadDim
350
A8FA
  3
AcDbVariableDictionary
350
7046
  3
APPDATA
350
C4D1
  3
DWGPROPS
350
C597
  0
DICTIONARY
  5
C50C
330
2
100
AcDbDictionary
280
     1
281
     1
  3
ACAD_LAYERSTATES
360
C50D
  3
ACLYDICTIONARY
360
C515
  0
DICTIONARY
  5
C51E
102
{ACAD_REACTORS
330
C
102
}
330
C
100
AcDbDictionary
281
     1
  0
DICTIONARY
  5
D
102
{ACAD_REACTORS
330
C
102
}
330
C
100
AcDbDictionary
281
     1
  0
RASTERVARIABLES
  5
C4D3
102
{ACAD_REACTORS
330
C
102
}
330
C
100
AcDbRasterVariables
 90
        0
 70
     1
 71
     1
 72
     0
  0
DICTIONARY
  5
73F
102
{ACAD_REACTORS
330
C
102
}
330
C
100
AcDbDictionary
281
     1
  3
Model
350
741
  3
ﾚｲｱｳﾄ1
350
742
  0
DICTIONARY
  5
1B
102
{ACAD_REACTORS
330
C
102
}
330
C
100
AcDbDictionary
281
     1
  3
STANDARD
350
1C
  0
DICTIONARY
  5
740
102
{ACAD_REACTORS
330
C
102
}
330
C
100
AcDbDictionary
281
     1
  0
ACDBDICTIONARYWDFLT
  5
73D
102
{ACAD_REACTORS
330
C
102
}
330
C
100
AcDbDictionary
281
     1
  3
Normal
350
73E
100
AcDbDictionaryWithDefault
340
73E
  0
DICTIONARY
  5
C4A7
102
{ACAD_REACTORS
330
C
102
}
330
C
100
AcDbDictionary
281
     1
  3
A0
350
C4A8
  3
A1
350
C4A9
  3
A2
350
C4AA
  3
A3
350
C4AB
  3
A4
350
C4AC
  3
A5
350
C4AD
  3
A6
350
C4AE
  3
A7
350
C4AF
  3
A8
350
C4B0
  3
A9
350
C4B1
  3
B0
350
C4B2
  3
B1
350
C4B3
  3
B2
350
C4B4
  3
B3
350
C4B5
  3
B4
350
C4B6
  3
B5
350
C4B7
  3
B6
350
C4B8
  3
B7
350
C4B9
  3
B8
350
C4BA
  3
B9
350
C4BB
  3
C0
350
C4BC
  3
C1
350
C4BD
  3
C2
350
C4BE
  3
C3
350
C4BF
  3
C4
350
C4C0
  3
C5
350
C4C1
  3
C6
350
C4C2
  3
C7
350
C4C3
  3
C8
350
C4C4
  3
C9
350
C4C5
  3
D0
350
C4C6
  3
D1
350
C4C7
  3
D2
350
C4C8
  0
DICTIONARY
  5
C51F
102
{ACAD_REACTORS
330
C
102
}
330
C
100
AcDbDictionary
281
     1
  0
XRECORD
  5
A8FA
102
{ACAD_REACTORS
330
C
102
}
330
C
100
AcDbXrecord
280
     1
 90
   990106
  3

 60
     0
 61
     0
 62
     1
 63
     3
 64
     0
 65
     0
 66
     0
 67
     3
 68
     1
 69
     0
 70
     0
 71
     0
 72
     0
 40
0.0
170
     0
340
0
  0
DICTIONARY
  5
7046
102
{ACAD_REACTORS
330
C
102
}
330
C
100
AcDbDictionary
281
     1
  3
DIMASSOC
350
7047
  0
DICTIONARY
  5
C4D1
102
{ACAD_REACTORS
330
C
102
}
330
C
100
AcDbDictionary
281
     1
  0
XRECORD
  5
C597
102
{ACAD_REACTORS
330
C
102
}
330
C
100
AcDbXrecord
280
     1
  1
DWGPROPS COOKIE
  2

  3

  4

  6

  7

  8
k-yoshida
  9

300
=
301
=
302
=
303
=
304
=
305
=
306
=
307
=
308
=
309
=
 40
0.0
 41
2451224.285162384
 42
2457310.280728553
  1

 90
        0
  0
DICTIONARY
  5
C50D
102
{ACAD_REACTORS
330
C50C
102
}
330
C50C
100
AcDbDictionary
281
     1
  3
ARGON_LAYERP_1
350
C50E
  3
ARGON_LAYERP_10
350
C567
  3
ARGON_LAYERP_2
350
C50F
  3
ARGON_LAYERP_3
350
C511
  3
ARGON_LAYERP_4
350
C514
  3
ARGON_LAYERP_5
350
C517
  3
ARGON_LAYERP_6
350
C519
  3
ARGON_LAYERP_7
350
C522
  3
ARGON_LAYERP_8
350
C523
  3
ARGON_LAYERP_9
350
C55E
  0
DICTIONARY
  5
C515
102
{ACAD_REACTORS
330
C50C
102
}
330
C50C
100
AcDbDictionary
281
     1
1001
ACAD
1000
<All
  0
LAYOUT
  5
741
102
{ACAD_REACTORS
330
73F
102
}
330
73F
100
AcDbPlotSettings
  1

  2
none_device
  4
ISO_A3_(420.00_x_297.00_MM)
  6

 40
7.5
 41
20.0
 42
7.5
 43
20.0
 44
420.0
 45
297.0
 46
0.0
 47
0.0
 48
0.0
 49
0.0
140
0.0
141
0.0
142
1.0
143
2.337352800152248
 70
  1712
 72
     1
 73
     0
 74
     0
  7

 75
     0
147
0.4278344287327368
148
-1370.439842739405
149
-746.489880087094
100
AcDbLayout
  1
Model
 70
     1
 71
     0
 10
0.0
 20
0.0
 11
12.0
 21
9.0
 12
0.0
 22
0.0
 32
0.0
 14
1674.157660470713
 24
900.6170888305694
 34
0.0
 15
1992.859743093609
 25
1128.906732257066
 35
0.0
146
0.0
 13
0.0
 23
0.0
 33
0.0
 16
1.0
 26
0.0
 36
0.0
 17
0.0
 27
1.0
 37
0.0
 76
     0
330
18
  0
LAYOUT
  5
742
102
{ACAD_REACTORS
330
73F
102
}
330
73F
100
AcDbPlotSettings
  1

  2
SII LP-1010_A3.pc3
  4
A3
  6

 40
3.174999952316283
 41
3.174999952316283
 42
3.17498779296875
 43
3.17498779296875
 44
296.9259948730469
 45
419.9466552734373
 46
0.0
 47
0.0
 48
0.0
 49
0.0
140
0.0
141
0.0
142
1.0
143
1.0
 70
   688
 72
     1
 73
     1
 74
     1
  7
monochrome.ctb
 75
    16
147
1.0
148
0.0064983611018761
149
0.0147732851648925
100
AcDbLayout
  1
ﾚｲｱｳﾄ1
 70
     0
 71
     1
 10
-3.181486154070626
 20
-3.189773237481176
 11
416.7651691193666
 21
293.7362216355657
 12
0.0
 22
0.0
 32
0.0
 14
1.000000000000000E+20
 24
1.000000000000000E+20
 34
1.000000000000000E+20
 15
-1.000000000000000E+20
 25
-1.000000000000000E+20
 35
-1.000000000000000E+20
146
0.0
 13
0.0
 23
0.0
 33
0.0
 16
1.0
 26
0.0
 36
0.0
 17
0.0
 27
1.0
 37
0.0
 76
     0
330
15
331
23
  0
MLINESTYLE
  5
1C
102
{ACAD_REACTORS
330
1B
102
}
330
1B
100
AcDbMlineStyle
  2
STANDARD
 70
     0
  3

 62
   256
 51
90.0
 52
90.0
 71
     2
 49
0.5
 62
   256
  6
BYLAYER
 49
-0.5
 62
   256
  6
BYLAYER
  0
ACDBPLACEHOLDER
  5
73E
102
{ACAD_REACTORS
330
73D
102
}
330
73D
  0
ACAD_PROXY_OBJECT
  5
C4A8
102
{ACAD_REACTORS
330
C4A7
102
}
330
C4A7
100
AcDbProxyObject
 90
      499
 91
      507
 95
   655383
 70
     0
 93
       41
310
903313A31581
 94
        0
  0
ACAD_PROXY_OBJECT
  5
C4A9
102
{ACAD_REACTORS
330
C4A7
102
}
330
C4A7
100
AcDbProxyObject
 90
      499
 91
      507
 95
   655383
 70
     0
 93
      105
310
903313A324000000000000004042
 94
        0
  0
ACAD_PROXY_OBJECT
  5
C4AA
102
{ACAD_REACTORS
330
C4A7
102
}
330
C4A7
100
AcDbProxyObject
 90
      499
 91
      507
 95
   655383
 70
     0
 93
      105
310
903313A344000000000000104042
 94
        0
  0
ACAD_PROXY_OBJECT
  5
C4AB
102
{ACAD_REACTORS
330
C4A7
102
}
330
C4A7
100
AcDbProxyObject
 90
      499
 91
      507
 95
   655383
 70
     0
 93
      105
310
903313A354000000000000144042
 94
        0
  0
ACAD_PROXY_OBJECT
  5
C4AC
102
{ACAD_REACTORS
330
C4A7
102
}
330
C4A7
100
AcDbProxyObject
 90
      499
 91
      507
 95
   655383
 70
     0
 93
      105
310
903313A384000000000000204042
 94
        0
  0
ACAD_PROXY_OBJECT
  5
C4AD
102
{ACAD_REACTORS
330
C4A7
102
}
330
C4A7
100
AcDbProxyObject
 90
      499
 91
      507
 95
   655383
 70
     0
 93
      113
310
904313A31304000000000000244051
 94
        0
  0
ACAD_PROXY_OBJECT
  5
C4AE
102
{ACAD_REACTORS
330
C4A7
102
}
330
C4A7
100
AcDbProxyObject
 90
      499
 91
      507
 95
   655383
 70
     0
 93
      113
310
904313A31364000000000000304051
 94
        0
  0
ACAD_PROXY_OBJECT
  5
C4AF
102
{ACAD_REACTORS
330
C4A7
102
}
330
C4A7
100
AcDbProxyObject
 90
      499
 91
      507
 95
   655383
 70
     0
 93
      113
310
904313A32304000000000000344051
 94
        0
  0
ACAD_PROXY_OBJECT
  5
C4B0
102
{ACAD_REACTORS
330
C4A7
102
}
330
C4A7
100
AcDbProxyObject
 90
      499
 91
      507
 95
   655383
 70
     0
 93
      113
310
904313A333040000000000003E4051
 94
        0
  0
ACAD_PROXY_OBJECT
  5
C4B1
102
{ACAD_REACTORS
330
C4A7
102
}
330
C4A7
100
AcDbProxyObject
 90
      499
 91
      507
 95
   655383
 70
     0
 93
      113
310
904313A34304000000000000444051
 94
        0
  0
ACAD_PROXY_OBJECT
  5
C4B2
102
{ACAD_REACTORS
330
C4A7
102
}
330
C4A7
100
AcDbProxyObject
 90
      499
 91
      507
 95
   655383
 70
     0
 93
      113
310
904313A35304000000000000494051
 94
        0
  0
ACAD_PROXY_OBJECT
  5
C4B3
102
{ACAD_REACTORS
330
C4A7
102
}
330
C4A7
100
AcDbProxyObject
 90
      499
 91
      507
 95
   655383
 70
     0
 93
      121
310
905313A3130304000000000000594072
 94
        0
  0
ACAD_PROXY_OBJECT
  5
C4B4
102
{ACAD_REACTORS
330
C4A7
102
}
330
C4A7
100
AcDbProxyObject
 90
      499
 91
      507
 95
   655383
 70
     0
 93
      105
310
903323A310000000000000010159
 94
        0
  0
ACAD_PROXY_OBJECT
  5
C4B5
102
{ACAD_REACTORS
330
C4A7
102
}
330
C4A7
100
AcDbProxyObject
 90
      499
 91
      507
 95
   655383
 70
     0
 93
      105
310
903343A310000000000000410159
 94
        0
  0
ACAD_PROXY_OBJECT
  5
C4B6
102
{ACAD_REACTORS
330
C4A7
102
}
330
C4A7
100
AcDbProxyObject
 90
      499
 91
      507
 95
   655383
 70
     0
 93
      105
310
903383A310000000000000810159
 94
        0
  0
ACAD_PROXY_OBJECT
  5
C4B7
102
{ACAD_REACTORS
330
C4A7
102
}
330
C4A7
100
AcDbProxyObject
 90
      499
 91
      507
 95
   655383
 70
     0
 93
      113
310
90431303A310000000000000910140
 94
        0
  0
ACAD_PROXY_OBJECT
  5
C4B8
102
{ACAD_REACTORS
330
C4A7
102
}
330
C4A7
100
AcDbProxyObject
 90
      499
 91
      507
 95
   655383
 70
     0
 93
      121
310
9053130303A310000000000001650172
 94
        0
  0
ACAD_PROXY_OBJECT
  5
C4B9
102
{ACAD_REACTORS
330
C4A7
102
}
330
C4A7
100
AcDbProxyObject
 90
      499
 91
      507
 95
   655383
 70
     0
 93
      257
310
90E312F31323822203D2031272D3022000000000000200FC000000000000284000
 94
        0
  0
ACAD_PROXY_OBJECT
  5
C4BA
102
{ACAD_REACTORS
330
C4A7
102
}
330
C4A7
100
AcDbProxyObject
 90
      499
 91
      507
 95
   655383
 70
     0
 93
      249
310
90D312F363422203D2031272D3022000000000000240FC000000000000284040
 94
        0
  0
ACAD_PROXY_OBJECT
  5
C4BB
102
{ACAD_REACTORS
330
C4A7
102
}
330
C4A7
100
AcDbProxyObject
 90
      499
 91
      507
 95
   655383
 70
     0
 93
      249
310
90D312F333222203D2031272D3022000000000000280FC000000000000284040
 94
        0
  0
ACAD_PROXY_OBJECT
  5
C4BC
102
{ACAD_REACTORS
330
C4A7
102
}
330
C4A7
100
AcDbProxyObject
 90
      499
 91
      507
 95
   655383
 70
     0
 93
      249
310
90D312F313622203D2031272D30220000000000002C0FC000000000000284040
 94
        0
  0
ACAD_PROXY_OBJECT
  5
C4BD
102
{ACAD_REACTORS
330
C4A7
102
}
330
C4A7
100
AcDbProxyObject
 90
      499
 91
      507
 95
   655383
 70
     0
 93
      249
310
90D332F333222203D2031272D30220000000000002E0FC000000000000284040
 94
        0
  0
ACAD_PROXY_OBJECT
  5
C4BE
102
{ACAD_REACTORS
330
C4A7
102
}
330
C4A7
100
AcDbProxyObject
 90
      499
 91
      507
 95
   655383
 70
     0
 93
      241
310
90C312F3822203D2031272D3022000000000000300FC000000000000284040
 94
        0
  0
ACAD_PROXY_OBJECT
  5
C4BF
102
{ACAD_REACTORS
330
C4A7
102
}
330
C4A7
100
AcDbProxyObject
 90
      499
 91
      507
 95
   655383
 70
     0
 93
      249
310
90D332F313622203D2031272D3022000000000000320FC000000000000284040
 94
        0
  0
ACAD_PROXY_OBJECT
  5
C4C0
102
{ACAD_REACTORS
330
C4A7
102
}
330
C4A7
100
AcDbProxyObject
 90
      499
 91
      507
 95
   655383
 70
     0
 93
      241
310
90C312F3422203D2031272D3022000000000000340FC000000000000284040
 94
        0
  0
ACAD_PROXY_OBJECT
  5
C4C1
102
{ACAD_REACTORS
330
C4A7
102
}
330
C4A7
100
AcDbProxyObject
 90
      499
 91
      507
 95
   655383
 70
     0
 93
      241
310
90C332F3822203D2031272D3022000000000000360FC000000000000284040
 94
        0
  0
ACAD_PROXY_OBJECT
  5
C4C2
102
{ACAD_REACTORS
330
C4A7
102
}
330
C4A7
100
AcDbProxyObject
 90
      499
 91
      507
 95
   655383
 70
     0
 93
      241
310
90C312F3222203D2031272D3022000000000000380FC000000000000284040
 94
        0
  0
ACAD_PROXY_OBJECT
  5
C4C3
102
{ACAD_REACTORS
330
C4A7
102
}
330
C4A7
100
AcDbProxyObject
 90
      499
 91
      507
 95
   655383
 70
     0
 93
      241
310
90C332F3422203D2031272D30220000000000003A0FC000000000000284040
 94
        0
  0
ACAD_PROXY_OBJECT
  5
C4C4
102
{ACAD_REACTORS
330
C4A7
102
}
330
C4A7
100
AcDbProxyObject
 90
      499
 91
      507
 95
   655383
 70
     0
 93
      161
310
90A3122203D2031272D30224000000000000284020
 94
        0
  0
ACAD_PROXY_OBJECT
  5
C4C5
102
{ACAD_REACTORS
330
C4A7
102
}
330
C4A7
100
AcDbProxyObject
 90
      499
 91
      507
 95
   655383
 70
     0
 93
      257
310
90E312D312F3222203D2031272D30220000000000003E0FC000000000000284000
 94
        0
  0
ACAD_PROXY_OBJECT
  5
C4C6
102
{ACAD_REACTORS
330
C4A7
102
}
330
C4A7
100
AcDbProxyObject
 90
      499
 91
      507
 95
   655383
 70
     0
 93
      225
310
90A3322203D2031272D302200000000000002100000000000000284000
 94
        0
  0
ACAD_PROXY_OBJECT
  5
C4C7
102
{ACAD_REACTORS
330
C4A7
102
}
330
C4A7
100
AcDbProxyObject
 90
      499
 91
      507
 95
   655383
 70
     0
 93
      225
310
90A3622203D2031272D302200000000000006100000000000000284000
 94
        0
  0
ACAD_PROXY_OBJECT
  5
C4C8
102
{ACAD_REACTORS
330
C4A7
102
}
330
C4A7
100
AcDbProxyObject
 90
      499
 91
      507
 95
   655383
 70
     0
 93
      249
310
90D31272D3022203D2031272D30220000000000000A100000000000000284040
 94
        0
  0
DICTIONARYVAR
  5
7047
102
{ACAD_REACTORS
330
7046
102
}
330
7046
100
DictionaryVariables
280
     0
  1
1
  0
XRECORD
  5
C50E
102
{ACAD_REACTORS
330
C50D
102
}
330
C50D
100
AcDbXrecord
280
     1
 91
     1023
301

290
     0
302
ｷｮｳﾀｲ
330
E
 90
        8
 62
     7
370
    -3
331
14
  1
Color_7
330
0
 90
        9
 62
     1
370
    -3
331
14
  1
Color_1
330
0
 90
        8
 62
     7
370
    -3
331
14
  1
Color_7
330
0
 90
        8
 62
     2
370
    -3
331
14
  1
Color_2
330
0
 90
        0
 62
     7
370
    -3
331
14
  1
Color_7
330
0
 90
        8
 62
     7
370
    -3
331
14
  1
Color_7
330
0
 90
       12
 62
     4
370
    15
331
14
  1
Color_4
330
0
 90
        8
 62
     9
370
    -3
331
14
  1
Color_9
330
0
 90
        8
 62
   211
370
    -3
331
14
  1
Color_211
330
0
 90
        8
 62
     3
370
    -3
331
14
  1
Color_3
330
0
 90
        8
 62
   120
370
    -3
331
14
  1
Color_120
330
0
 90
        8
 62
     7
370
    -3
331
14
  1
Color_7
330
0
 90
        8
 62
     7
370
    -3
331
14
  1
Color_7
330
0
 90
        8
 62
    10
370
    -3
331
14
  1
Color_10
330
0
 90
        8
 62
     9
370
    -3
331
14
  1
Color_9
  0
XRECORD
  5
C567
102
{ACAD_REACTORS
330
C50D
102
}
330
C50D
100
AcDbXrecord
280
     1
 91
     1023
301

290
     0
302
ｺﾈｸﾀ
330
E
 90
        8
 62
     7
370
    -3
331
14
  1
Color_7
330
0
 90
        8
 62
     9
370
    -3
331
14
  1
Color_9
  0
XRECORD
  5
C50F
102
{ACAD_REACTORS
330
C50D
102
}
330
C50D
100
AcDbXrecord
280
     1
 91
     1023
301

290
     0
302
0
330
E
 90
        8
 62
     7
370
    -3
331
14
  1
Color_7
330
0
 90
        9
 62
     1
370
    -3
331
14
  1
Color_1
330
0
 90
        8
 62
     7
370
    -3
331
14
  1
Color_7
330
0
 90
        8
 62
     2
370
    -3
331
14
  1
Color_2
330
0
 90
        0
 62
     7
370
    -3
331
14
  1
Color_7
330
0
 90
        8
 62
     7
370
    -3
331
14
  1
Color_7
330
0
 90
       12
 62
     4
370
    15
331
14
  1
Color_4
330
0
 90
        8
 62
     9
370
    -3
331
14
  1
Color_9
330
0
 90
        8
 62
   211
370
    -3
331
14
  1
Color_211
330
0
 90
        8
 62
     3
370
    -3
331
14
  1
Color_3
330
0
 90
        8
 62
   120
370
    -3
331
14
  1
Color_120
330
0
 90
        8
 62
     7
370
    -3
331
14
  1
Color_7
330
0
 90
        8
 62
     7
370
    -3
331
14
  1
Color_7
330
0
 90
        8
 62
    10
370
    -3
331
14
  1
Color_10
330
0
 90
        8
 62
     9
370
    -3
331
14
  1
Color_9
  0
XRECORD
  5
C511
102
{ACAD_REACTORS
330
C50D
102
}
330
C50D
100
AcDbXrecord
280
     1
 91
     1023
301

290
     0
302
0
330
E
 90
        8
 62
     7
370
    -3
331
14
  1
Color_7
330
0
 90
        9
 62
     1
370
    -3
331
14
  1
Color_1
330
0
 90
        8
 62
     7
370
    -3
331
14
  1
Color_7
330
0
 90
        8
 62
     2
370
    -3
331
14
  1
Color_2
330
0
 90
        0
 62
     7
370
    -3
331
14
  1
Color_7
330
0
 90
        8
 62
     7
370
    -3
331
14
  1
Color_7
330
0
 90
        8
 62
     4
370
    15
331
14
  1
Color_4
330
0
 90
        8
 62
     9
370
    -3
331
14
  1
Color_9
330
0
 90
        8
 62
   211
370
    -3
331
14
  1
Color_211
330
0
 90
        8
 62
     3
370
    -3
331
14
  1
Color_3
330
0
 90
        8
 62
   120
370
    -3
331
14
  1
Color_120
330
0
 90
        8
 62
     7
370
    -3
331
14
  1
Color_7
330
0
 90
        8
 62
     7
370
    -3
331
14
  1
Color_7
330
0
 90
        8
 62
    10
370
    -3
331
14
  1
Color_10
330
0
 90
        8
 62
     9
370
    -3
331
14
  1
Color_9
  0
XRECORD
  5
C514
102
{ACAD_REACTORS
330
C50D
102
}
330
C50D
100
AcDbXrecord
280
     1
 91
     1023
301

290
     0
302
0
330
E
 90
       12
 62
     7
370
    -3
331
14
  1
Color_7
330
0
 90
       12
 62
     1
370
    -3
331
14
  1
Color_1
330
0
 90
       12
 62
     7
370
    -3
331
14
  1
Color_7
330
0
 90
       12
 62
     2
370
    -3
331
14
  1
Color_2
330
0
 90
        4
 62
     7
370
    -3
331
14
  1
Color_7
330
0
 90
       12
 62
     7
370
    -3
331
14
  1
Color_7
330
0
 90
        8
 62
     4
370
    15
331
14
  1
Color_4
330
0
 90
       12
 62
     9
370
    -3
331
14
  1
Color_9
330
0
 90
       12
 62
   211
370
    -3
331
14
  1
Color_211
330
0
 90
       12
 62
     3
370
    -3
331
14
  1
Color_3
330
0
 90
       12
 62
   120
370
    -3
331
14
  1
Color_120
330
0
 90
       12
 62
     7
370
    -3
331
14
  1
Color_7
330
0
 90
       12
 62
     7
370
    -3
331
14
  1
Color_7
330
0
 90
       12
 62
    10
370
    -3
331
14
  1
Color_10
330
0
 90
       12
 62
     9
370
    -3
331
14
  1
Color_9
  0
XRECORD
  5
C517
102
{ACAD_REACTORS
330
C50D
102
}
330
C50D
100
AcDbXrecord
280
     1
 91
     1023
301

290
     0
302
0
330
E
 90
        8
 62
     7
370
    -3
331
14
  1
Color_7
330
0
 90
        8
 62
     7
370
    -3
331
14
  1
Color_7
330
0
 90
        8
 62
     9
370
    -3
331
14
  1
Color_9
  0
XRECORD
  5
C519
102
{ACAD_REACTORS
330
C50D
102
}
330
C50D
100
AcDbXrecord
280
     1
 91
     1023
301

290
     0
302
ｺﾈｸﾀ
330
E
 90
        8
 62
     7
370
    -3
331
14
  1
Color_7
330
0
 90
        8
 62
     7
370
    -3
331
14
  1
Color_7
330
0
 90
        8
 62
     9
370
    -3
331
14
  1
Color_9
  0
XRECORD
  5
C522
102
{ACAD_REACTORS
330
C50D
102
}
330
C50D
100
AcDbXrecord
280
     1
 91
     1023
301

290
     0
302
0
330
E
 90
        8
 62
     7
370
    -3
331
14
  1
Color_7
330
0
 90
        8
 62
     9
370
    -3
331
14
  1
Color_9
  0
XRECORD
  5
C523
102
{ACAD_REACTORS
330
C50D
102
}
330
C50D
100
AcDbXrecord
280
     1
 91
     1023
301

290
     0
302
ｺﾈｸﾀ
330
E
 90
        8
 62
     7
370
    -3
331
14
  1
Color_7
330
0
 90
        8
 62
     9
370
    -3
331
14
  1
Color_9
  0
XRECORD
  5
C55E
102
{ACAD_REACTORS
330
C50D
102
}
330
C50D
100
AcDbXrecord
280
     1
 91
     1023
301

290
     0
302
0
330
E
 90
        8
 62
     7
370
    -3
331
14
  1
Color_7
330
0
 90
        8
 62
     9
370
    -3
331
14
  1
Color_9
  0
ENDSEC
  0
EOF
