  0
SECTION
  2
HEADER
  9
$ACADVER
  1
AC1015
  9
$ACADMAINTVER
 70
    10
  9
$DWGCODEPAGE
  3
ANSI_932
  9
$INSBASE
 10
0.0
 20
0.0
 30
0.0
  9
$EXTMIN
 10
1687.550199133883
 20
502.2609477950888
 30
0.0
  9
$EXTMAX
 10
2005.388416957441
 20
740.6448345595235
 30
0.0
  9
$LIMMIN
 10
0.0
 20
0.0
  9
$LIMMAX
 10
420.0
 20
297.0
  9
$ORTHOMODE
 70
     1
  9
$REGENMODE
 70
     1
  9
$FILLMODE
 70
     1
  9
$QTEXTMODE
 70
     0
  9
$MIRRTEXT
 70
     1
  9
$LTSCALE
 40
1.0
  9
$ATTMODE
 70
     1
  9
$TEXTSIZE
 40
3.0
  9
$TRACEWID
 40
1.0
  9
$TEXTSTYLE
  7
STANDARD
  9
$CLAYER
  8
0
  9
$CELTYPE
  6
BYLAYER
  9
$CECOLOR
 62
   256
  9
$CELTSCALE
 40
0.1
  9
$DISPSILH
 70
     0
  9
$DIMSCALE
 40
1.0
  9
$DIMASZ
 40
4.0
  9
$DIMEXO
 40
1.5
  9
$DIMDLI
 40
5.0
  9
$DIMRND
 40
0.0
  9
$DIMDLE
 40
0.0
  9
$DIMEXE
 40
0.75
  9
$DIMTP
 40
0.0
  9
$DIMTM
 40
0.0
  9
$DIMTXT
 40
6.0
  9
$DIMCEN
 40
2.5
  9
$DIMTSZ
 40
0.0
  9
$DIMTOL
 70
     0
  9
$DIMLIM
 70
     0
  9
$DIMTIH
 70
     0
  9
$DIMTOH
 70
     0
  9
$DIMSE1
 70
     0
  9
$DIMSE2
 70
     0
  9
$DIMTAD
 70
     1
  9
$DIMZIN
 70
     9
  9
$DIMBLK
  1

  9
$DIMASO
 70
     1
  9
$DIMSHO
 70
     1
  9
$DIMPOST
  1

  9
$DIMAPOST
  1

  9
$DIMALT
 70
     0
  9
$DIMALTD
 70
     4
  9
$DIMALTF
 40
0.0394
  9
$DIMLFAC
 40
1.0
  9
$DIMTOFL
 70
     1
  9
$DIMTVP
 40
0.0
  9
$DIMTIX
 70
     0
  9
$DIMSOXD
 70
     0
  9
$DIMSAH
 70
     1
  9
$DIMBLK1
  1
OPEN
  9
$DIMBLK2
  1
OPEN
  9
$DIMSTYLE
  2
STANDARD
  9
$DIMCLRD
 70
     0
  9
$DIMCLRE
 70
     0
  9
$DIMCLRT
 70
     7
  9
$DIMTFAC
 40
1.0
  9
$DIMGAP
 40
1.5
  9
$DIMJUST
 70
     0
  9
$DIMSD1
 70
     0
  9
$DIMSD2
 70
     0
  9
$DIMTOLJ
 70
     1
  9
$DIMTZIN
 70
     9
  9
$DIMALTZ
 70
     0
  9
$DIMALTTZ
 70
     0
  9
$DIMUPT
 70
     0
  9
$DIMDEC
 70
     4
  9
$DIMTDEC
 70
     4
  9
$DIMALTU
 70
     8
  9
$DIMALTTD
 70
     4
  9
$DIMTXSTY
  7
STANDARD
  9
$DIMAUNIT
 70
     0
  9
$DIMADEC
 70
     0
  9
$DIMALTRND
 40
0.0
  9
$DIMAZIN
 70
     2
  9
$DIMDSEP
 70
    46
  9
$DIMATFIT
 70
     3
  9
$DIMFRAC
 70
     0
  9
$DIMLDRBLK
  1
OPEN
  9
$DIMLUNIT
 70
     2
  9
$DIMLWD
 70
    -2
  9
$DIMLWE
 70
    -2
  9
$DIMTMOVE
 70
     2
  9
$LUNITS
 70
     2
  9
$LUPREC
 70
     4
  9
$SKETCHINC
 40
1.0
  9
$FILLETRAD
 40
1.0
  9
$AUNITS
 70
     0
  9
$AUPREC
 70
     0
  9
$MENU
  1
.
  9
$ELEVATION
 40
0.0
  9
$PELEVATION
 40
0.0
  9
$THICKNESS
 40
0.0
  9
$LIMCHECK
 70
     0
  9
$CHAMFERA
 40
0.0
  9
$CHAMFERB
 40
0.0
  9
$CHAMFERC
 40
20.0
  9
$CHAMFERD
 40
0.0
  9
$SKPOLY
 70
     0
  9
$TDCREATE
 40
2451224.660162384
  9
$TDUCREATE
 40
2451224.285162384
  9
$TDUPDATE
 40
2457366.585810185
  9
$TDUUPDATE
 40
2457366.210810185
  9
$TDINDWG
 40
1.7369527315
  9
$TDUSRTIMER
 40
2457310.286654444
  9
$USRTIMER
 70
     1
  9
$ANGBASE
 50
0.0
  9
$ANGDIR
 70
     0
  9
$PDMODE
 70
     0
  9
$PDSIZE
 40
0.0
  9
$PLINEWID
 40
0.0
  9
$SPLFRAME
 70
     0
  9
$SPLINETYPE
 70
     6
  9
$SPLINESEGS
 70
     8
  9
$HANDSEED
  5
C57E
  9
$SURFTAB1
 70
     6
  9
$SURFTAB2
 70
     6
  9
$SURFTYPE
 70
     6
  9
$SURFU
 70
     6
  9
$SURFV
 70
     6
  9
$UCSBASE
  2

  9
$UCSNAME
  2

  9
$UCSORG
 10
0.0
 20
0.0
 30
0.0
  9
$UCSXDIR
 10
1.0
 20
0.0
 30
0.0
  9
$UCSYDIR
 10
0.0
 20
1.0
 30
0.0
  9
$UCSORTHOREF
  2

  9
$UCSORTHOVIEW
 70
     0
  9
$UCSORGTOP
 10
0.0
 20
0.0
 30
0.0
  9
$UCSORGBOTTOM
 10
0.0
 20
0.0
 30
0.0
  9
$UCSORGLEFT
 10
0.0
 20
0.0
 30
0.0
  9
$UCSORGRIGHT
 10
0.0
 20
0.0
 30
0.0
  9
$UCSORGFRONT
 10
0.0
 20
0.0
 30
0.0
  9
$UCSORGBACK
 10
0.0
 20
0.0
 30
0.0
  9
$PUCSBASE
  2

  9
$PUCSNAME
  2

  9
$PUCSORG
 10
0.0
 20
0.0
 30
0.0
  9
$PUCSXDIR
 10
1.0
 20
0.0
 30
0.0
  9
$PUCSYDIR
 10
0.0
 20
1.0
 30
0.0
  9
$PUCSORTHOREF
  2

  9
$PUCSORTHOVIEW
 70
     0
  9
$PUCSORGTOP
 10
0.0
 20
0.0
 30
0.0
  9
$PUCSORGBOTTOM
 10
0.0
 20
0.0
 30
0.0
  9
$PUCSORGLEFT
 10
0.0
 20
0.0
 30
0.0
  9
$PUCSORGRIGHT
 10
0.0
 20
0.0
 30
0.0
  9
$PUCSORGFRONT
 10
0.0
 20
0.0
 30
0.0
  9
$PUCSORGBACK
 10
0.0
 20
0.0
 30
0.0
  9
$USERI1
 70
     0
  9
$USERI2
 70
     0
  9
$USERI3
 70
     0
  9
$USERI4
 70
     0
  9
$USERI5
 70
     0
  9
$USERR1
 40
0.0
  9
$USERR2
 40
0.0
  9
$USERR3
 40
0.0
  9
$USERR4
 40
0.0
  9
$USERR5
 40
0.0
  9
$WORLDVIEW
 70
     1
  9
$SHADEDGE
 70
     3
  9
$SHADEDIF
 70
    70
  9
$TILEMODE
 70
     1
  9
$MAXACTVP
 70
    48
  9
$PINSBASE
 10
0.0
 20
0.0
 30
0.0
  9
$PLIMCHECK
 70
     0
  9
$PEXTMIN
 10
1.000000000000000E+20
 20
1.000000000000000E+20
 30
1.000000000000000E+20
  9
$PEXTMAX
 10
-1.000000000000000E+20
 20
-1.000000000000000E+20
 30
-1.000000000000000E+20
  9
$PLIMMIN
 10
-3.181719064501749
 20
-3.187329026147608
  9
$PLIMMAX
 10
416.7649362089355
 20
293.7386658468992
  9
$UNITMODE
 70
     0
  9
$VISRETAIN
 70
     1
  9
$PLINEGEN
 70
     0
  9
$PSLTSCALE
 70
     0
  9
$TREEDEPTH
 70
  3020
  9
$CMLSTYLE
  2
STANDARD
  9
$CMLJUST
 70
     0
  9
$CMLSCALE
 40
20.0
  9
$PROXYGRAPHICS
 70
     1
  9
$MEASUREMENT
 70
     1
  9
$CELWEIGHT
370
    -1
  9
$ENDCAPS
280
     0
  9
$JOINSTYLE
280
     0
  9
$LWDISPLAY
290
     1
  9
$INSUNITS
 70
     0
  9
$HYPERLINKBASE
  1

  9
$STYLESHEET
  1

  9
$XEDIT
290
     1
  9
$CEPSNTYPE
380
     0
  9
$PSTYLEMODE
290
     1
  9
$FINGERPRINTGUID
  2
{6B368F64-F7EB-11D4-BFBA-00004C030E53}
  9
$VERSIONGUID
  2
{4C8D321C-AE51-41F7-9CBD-3C125E0B5A5E}
  9
$EXTNAMES
290
     1
  9
$PSVPSCALE
 40
0.0
  9
$OLESTARTUP
290
     0
  0
ENDSEC
  0
SECTION
  2
CLASSES
  0
CLASS
  1
HATCH
  2
AcDbHatch
  3
AutoCAD 2000
 90
    32768
280
     0
281
     1
  0
CLASS
  1
LWPOLYLINE
  2
AcDbPolyline
  3
AutoCAD 2000
 90
    32768
280
     0
281
     1
  0
CLASS
  1
ACDBDICTIONARYWDFLT
  2
AcDbDictionaryWithDefault
  3
AutoCAD 2000
 90
        0
280
     0
281
     0
  0
CLASS
  1
ACDBPLACEHOLDER
  2
AcDbPlaceHolder
  3
AutoCAD 2000
 90
        0
280
     0
281
     0
  0
CLASS
  1
LAYOUT
  2
AcDbLayout
  3
AutoCAD 2000
 90
        0
280
     0
281
     0
  0
CLASS
  1
DICTIONARYVAR
  2
AcDbDictionaryVar
  3
AutoCAD 2000
 90
        0
280
     0
281
     0
  0
CLASS
  1
VISUALSTYLE
  2
AcDbVisualStyle
  3
ObjectDBX Classes
 90
    36863
280
     0
281
     0
  0
CLASS
  1
SCALE
  2
AcDbScale
  3
ObjectDBX Classes
 90
     1153
280
     0
281
     0
  0
CLASS
  1
MATERIAL
  2
AcDbMaterial
  3
ObjectDBX Classes
 90
    33921
280
     0
281
     0
  0
CLASS
  1
TABLESTYLE
  2
AcDbTableStyle
  3
ObjectDBX Classes
 90
    36863
280
     0
281
     0
  0
CLASS
  1
MLEADERSTYLE
  2
AcDbMLeaderStyle
  3
ACDB_MLEADERSTYLE_CLASS
 90
    36863
280
     0
281
     0
  0
CLASS
  1
SUN
  2
AcDbSun
  3
SCENEOE
 90
     1153
280
     0
281
     0
  0
CLASS
  1
RASTERVARIABLES
  2
AcDbRasterVariables
  3
ISM
 90
        0
280
     0
281
     0
  0
ENDSEC
  0
SECTION
  2
TABLES
  0
TABLE
  2
VPORT
  5
8
330
0
100
AcDbSymbolTable
 70
     2
  0
VPORT
  5
C57D
330
8
100
AcDbSymbolTableRecord
100
AcDbViewportTableRecord
  2
*Active
 70
     0
 10
0.0
 20
0.0
 11
1.0
 21
1.0
 12
1832.990073997569
 22
534.8652750768072
 13
0.0
 23
0.0
 14
10.0
 24
10.0
 15
10.0
 25
10.0
 16
0.0
 26
0.0
 36
1.0
 17
0.0
 27
0.0
 37
0.0
 40
624.4865611824498
 41
1.562182741116751
 42
50.0
 43
0.0
 44
0.0
 50
0.0
 51
0.0
 71
    16
 72
   100
 73
     1
 74
     0
 75
     0
 76
     0
 77
     0
 78
     0
281
     0
 65
     1
110
0.0
120
0.0
130
0.0
111
1.0
121
0.0
131
0.0
112
0.0
122
1.0
132
0.0
 79
     0
146
0.0
  0
ENDTAB
  0
TABLE
  2
LTYPE
  5
5
330
0
100
AcDbSymbolTable
 70
     1
  0
LTYPE
  5
12
330
5
100
AcDbSymbolTableRecord
100
AcDbLinetypeTableRecord
  2
BYBLOCK
 70
     0
  3

 72
    65
 73
     0
 40
0.0
  0
LTYPE
  5
13
330
5
100
AcDbSymbolTableRecord
100
AcDbLinetypeTableRecord
  2
BYLAYER
 70
     0
  3

 72
    65
 73
     0
 40
0.0
  0
LTYPE
  5
14
330
5
100
AcDbSymbolTableRecord
100
AcDbLinetypeTableRecord
  2
CONTINUOUS
 70
     0
  3
Solid line
 72
    65
 73
     0
 40
0.0
  0
ENDTAB
  0
TABLE
  2
LAYER
  5
2
102
{ACAD_XDICTIONARY
360
C4D0
102
}
330
0
100
AcDbSymbolTable
 70
     1
  0
LAYER
  5
E
330
2
100
AcDbSymbolTableRecord
100
AcDbLayerTableRecord
  2
0
 70
     0
 62
     7
  6
CONTINUOUS
370
    -3
390
73E
  0
ENDTAB
  0
TABLE
  2
STYLE
  5
3
330
0
100
AcDbSymbolTable
 70
     2
  0
STYLE
  5
F
330
3
100
AcDbSymbolTableRecord
100
AcDbTextStyleTableRecord
  2
STANDARD
 70
     0
 40
0.0
 41
1.0
 50
0.0
 71
     0
 42
3.0
  3
isocp.shx
  4
bigfont.shx
  0
STYLE
  5
35
330
3
100
AcDbSymbolTableRecord
100
AcDbTextStyleTableRecord
  2
MSｺﾞｼｯｸ
 70
     0
 40
0.0
 41
1.0
 50
0.0
 71
     0
 42
5.0
  3
MS Gothic.ttf
  4

1001
ACAD
1000
MS Gothic
1071
    32817
  0
ENDTAB
  0
TABLE
  2
VIEW
  5
6
330
0
100
AcDbSymbolTable
 70
     0
  0
ENDTAB
  0
TABLE
  2
UCS
  5
7
330
0
100
AcDbSymbolTable
 70
     0
  0
ENDTAB
  0
TABLE
  2
APPID
  5
9
330
0
100
AcDbSymbolTable
 70
     1
  0
APPID
  5
10
330
9
100
AcDbSymbolTableRecord
100
AcDbRegAppTableRecord
  2
ACAD
 70
     0
  0
ENDTAB
  0
TABLE
  2
DIMSTYLE
  5
A
330
0
100
AcDbSymbolTable
 70
     1
100
AcDbDimStyleTable
 71
     0
  0
DIMSTYLE
105
1D
330
A
100
AcDbSymbolTableRecord
100
AcDbDimStyleTableRecord
  2
STANDARD
 70
     0
 78
     8
 79
     2
140
3.0
340
F
341
89E
342
89E
  0
ENDTAB
  0
TABLE
  2
BLOCK_RECORD
  5
1
330
0
100
AcDbSymbolTable
 70
     2
  0
BLOCK_RECORD
  5
18
330
1
100
AcDbSymbolTableRecord
100
AcDbBlockTableRecord
  2
*MODEL_SPACE
340
741
  0
BLOCK_RECORD
  5
15
330
1
100
AcDbSymbolTableRecord
100
AcDbBlockTableRecord
  2
*PAPER_SPACE
340
742
  0
BLOCK_RECORD
  5
24
330
1
100
AcDbSymbolTableRecord
100
AcDbBlockTableRecord
  2
_OPEN
340
0
  0
BLOCK_RECORD
  5
89E
330
1
100
AcDbSymbolTableRecord
100
AcDbBlockTableRecord
  2
_Open30
340
0
  0
ENDTAB
  0
ENDSEC
  0
SECTION
  2
BLOCKS
  0
BLOCK
  5
19
330
18
100
AcDbEntity
  8
0
100
AcDbBlockBegin
  2
*MODEL_SPACE
 70
     0
 10
0.0
 20
0.0
 30
0.0
  3
*MODEL_SPACE
  1

  0
ENDBLK
  5
1A
330
18
100
AcDbEntity
  8
0
100
AcDbBlockEnd
  0
BLOCK
  5
16
330
15
100
AcDbEntity
 67
     1
  8
0
100
AcDbBlockBegin
  2
*PAPER_SPACE
 70
     0
 10
0.0
 20
0.0
 30
0.0
  3
*PAPER_SPACE
  1

  0
ENDBLK
  5
17
330
15
100
AcDbEntity
 67
     1
  8
0
100
AcDbBlockEnd
  0
BLOCK
  5
25
330
24
100
AcDbEntity
  8
0
100
AcDbBlockBegin
  2
_OPEN
 70
     0
 10
0.0
 20
0.0
 30
0.0
  3
_OPEN
  1

  0
LINE
  5
26
330
24
100
AcDbEntity
  8
0
  6
ByBlock
 62
     0
100
AcDbLine
 10
-1.0
 20
0.1666666666666666
 30
0.0
 11
0.0
 21
0.0
 31
0.0
  0
LINE
  5
27
330
24
100
AcDbEntity
  8
0
  6
ByBlock
 62
     0
100
AcDbLine
 10
0.0
 20
0.0
 30
0.0
 11
-1.0
 21
-0.1666666666666666
 31
0.0
  0
LINE
  5
28
330
24
100
AcDbEntity
  8
0
  6
ByBlock
 62
     0
100
AcDbLine
 10
0.0
 20
0.0
 30
0.0
 11
-1.0
 21
0.0
 31
0.0
  0
ENDBLK
  5
29
330
24
100
AcDbEntity
  8
0
100
AcDbBlockEnd
  0
BLOCK
  5
8A2
330
89E
100
AcDbEntity
  8
0
100
AcDbBlockBegin
  2
_Open30
 70
     0
 10
0.0
 20
0.0
 30
0.0
  3
_Open30
  1

  0
LINE
  5
89F
330
89E
100
AcDbEntity
  8
0
  6
ByBlock
 62
     0
370
    -2
100
AcDbLine
 10
-1.0
 20
0.26794919
 30
0.0
 11
0.0
 21
0.0
 31
0.0
  0
LINE
  5
8A0
330
89E
100
AcDbEntity
  8
0
  6
ByBlock
 62
     0
370
    -2
100
AcDbLine
 10
0.0
 20
0.0
 30
0.0
 11
-1.0
 21
-0.26794919
 31
0.0
  0
LINE
  5
8A1
330
89E
100
AcDbEntity
  8
0
  6
ByBlock
 62
     0
370
    -2
100
AcDbLine
 10
0.0
 20
0.0
 30
0.0
 11
-1.0
 21
0.0
 31
0.0
  0
ENDBLK
  5
8A3
330
89E
100
AcDbEntity
  8
0
100
AcDbBlockEnd
  0
ENDSEC
  0
SECTION
  2
ENTITIES
  0
MTEXT
  5
8FAF
330
18
100
AcDbEntity
  8
0
 48
0.1
100
AcDbMText
 10
2016.570289152685
 20
-54.48178575600969
 30
0.0
 40
6.0
 41
0.0
 71
     9
 72
     1
  1

 73
     1
 44
1.0
  0
MTEXT
  5
B395
330
18
100
AcDbEntity
  8
0
100
AcDbMText
 10
2340.657041803129
 20
616.5232056728369
 30
0.0
 40
6.0
 41
0.0
 71
     1
 72
     1
  1

 73
     1
 44
1.0
  0
LINE
  5
B882
330
18
100
AcDbEntity
  8
0
100
AcDbLine
 10
1687.550199133883
 20
560.4377277783322
 30
0.0
 11
1687.550199133887
 21
727.4377277783369
 31
0.0
  0
LINE
  5
B884
330
18
100
AcDbEntity
  8
0
100
AcDbLine
 10
1766.55019913388
 20
548.4377277783328
 30
0.0
 11
1766.550199133885
 21
739.4377277783369
 31
0.0
  0
LINE
  5
B885
330
18
100
AcDbEntity
  8
0
100
AcDbLine
 10
1980.454346727944
 20
547.4377277783328
 30
0.0
 11
1980.454346727951
 21
740.4377277783368
 31
0.0
  0
LINE
  5
B886
330
18
100
AcDbEntity
  8
0
100
AcDbLine
 10
1982.454346727945
 20
547.4377277783328
 30
0.0
 11
1982.454346727951
 21
740.4377277783368
 31
0.0
  0
LINE
  5
B887
330
18
100
AcDbEntity
  8
0
100
AcDbLine
 10
1849.454346727944
 20
560.4377277783322
 30
0.0
 11
1849.45434672795
 21
727.4377277783369
 31
0.0
  0
LINE
  5
B888
330
18
100
AcDbEntity
  8
0
100
AcDbLine
 10
1847.454346727946
 20
560.4377277783322
 30
0.0
 11
1847.454346727951
 21
727.4377277783369
 31
0.0
  0
LINE
  5
B88C
330
18
100
AcDbEntity
  8
0
100
AcDbLine
 10
1687.550199133883
 20
560.4377277783322
 30
0.0
 11
1765.550199133881
 21
560.4377277783322
 31
0.0
  0
LINE
  5
B88D
330
18
100
AcDbEntity
  8
0
100
AcDbLine
 10
1765.550199133881
 20
547.4377277783328
 30
0.0
 11
1742.300199133883
 21
547.4377277783331
 31
0.0
  0
ARC
  5
B88E
330
18
100
AcDbEntity
  8
0
100
AcDbCircle
 10
1738.550199133884
 20
552.4377277783331
 30
0.0
 40
2.75
100
AcDbArc
 50
0.0
 51
180.0
  0
LINE
  5
B88F
330
18
100
AcDbEntity
  8
0
100
AcDbLine
 10
1710.550199133883
 20
560.4377277783331
 30
0.0
 11
1710.550199133884
 21
548.4377277783335
 31
0.0
  0
LINE
  5
B890
330
18
100
AcDbEntity
  8
0
100
AcDbLine
 10
1734.800199133885
 20
547.4377277783331
 30
0.0
 11
1711.550199133884
 21
547.4377277783335
 31
0.0
  0
ARC
  5
B891
330
18
100
AcDbEntity
  8
0
100
AcDbCircle
 10
1711.550199133884
 20
548.4377277783335
 30
0.0
 40
1.0
100
AcDbArc
 50
180.000000000013
 51
270.0
  0
ARC
  5
B892
330
18
100
AcDbEntity
  8
0
100
AcDbCircle
 10
1734.800199133885
 20
548.4377277783331
 30
0.0
 40
1.0
100
AcDbArc
 50
270.0
 51
0.0
  0
ARC
  5
B893
330
18
100
AcDbEntity
  8
0
100
AcDbCircle
 10
1742.300199133883
 20
548.4377277783331
 30
0.0
 40
1.0
100
AcDbArc
 50
180.0
 51
270.0
  0
LINE
  5
B894
330
18
100
AcDbEntity
  8
0
100
AcDbLine
 10
1741.300199133885
 20
552.4377277783331
 30
0.0
 11
1741.300199133884
 21
548.4377277783331
 31
0.0
  0
LINE
  5
B895
330
18
100
AcDbEntity
  8
0
100
AcDbLine
 10
1735.800199133884
 20
552.4377277783331
 30
0.0
 11
1735.800199133884
 21
548.4377277783331
 31
0.0
  0
LINE
  5
B89E
330
18
100
AcDbEntity
  8
0
100
AcDbLine
 10
1980.454346727945
 20
560.4377277783319
 30
0.0
 11
1847.454346727946
 21
560.4377277783322
 31
0.0
  0
ARC
  5
B89F
330
18
100
AcDbEntity
  8
0
100
AcDbCircle
 10
1765.550199133881
 20
548.4377277783328
 30
0.0
 40
1.0
100
AcDbArc
 50
270.0
 51
0.0
  0
ARC
  5
B8A0
330
18
100
AcDbEntity
  8
0
100
AcDbCircle
 10
1765.550199133881
 20
561.4377277783322
 30
0.0
 40
1.0
100
AcDbArc
 50
270.0
 51
0.0
  0
LINE
  5
B8A7
330
18
100
AcDbEntity
  8
0
100
AcDbLine
 10
1982.454346727945
 20
547.4377277783331
 30
0.0
 11
1980.454346727945
 21
547.4377277783328
 31
0.0
  0
ARC
  5
B8B9
330
18
100
AcDbEntity
  8
0
100
AcDbCircle
 10
1738.550199133884
 20
735.4377277783369
 30
0.0
 40
2.75
100
AcDbArc
 50
180.0
 51
0.0
  0
LINE
  5
B8BA
330
18
100
AcDbEntity
  8
0
100
AcDbLine
 10
1710.550199133883
 20
727.4377277783369
 30
0.0
 11
1710.550199133885
 21
739.4377277783363
 31
0.0
  0
LINE
  5
B8BB
330
18
100
AcDbEntity
  8
0
100
AcDbLine
 10
1687.550199133887
 20
727.4377277783369
 30
0.0
 11
1765.550199133884
 21
727.4377277783369
 31
0.0
  0
LINE
  5
B8C0
330
18
100
AcDbEntity
  8
0
100
AcDbLine
 10
1980.454346727951
 20
727.4377277783369
 30
0.0
 11
1847.454346727951
 21
727.4377277783369
 31
0.0
  0
ARC
  5
B8C3
330
18
100
AcDbEntity
  8
0
100
AcDbCircle
 10
1765.550199133884
 20
726.4377277783369
 30
0.0
 40
1.0
100
AcDbArc
 50
0.0
 51
90.0
  0
LINE
  5
B8C7
330
18
100
AcDbEntity
  8
0
100
AcDbLine
 10
1765.550199133884
 20
740.4377277783368
 30
0.0
 11
1742.300199133885
 21
740.4377277783368
 31
0.0
  0
LINE
  5
B8C8
330
18
100
AcDbEntity
  8
0
100
AcDbLine
 10
1734.800199133885
 20
740.4377277783368
 30
0.0
 11
1711.550199133885
 21
740.4377277783363
 31
0.0
  0
ARC
  5
B8C9
330
18
100
AcDbEntity
  8
0
100
AcDbCircle
 10
1711.550199133885
 20
739.4377277783363
 30
0.0
 40
1.0
100
AcDbArc
 50
90.0
 51
179.9999999999869
  0
ARC
  5
B8CA
330
18
100
AcDbEntity
  8
0
100
AcDbCircle
 10
1742.300199133885
 20
739.4377277783369
 30
0.0
 40
1.0
100
AcDbArc
 50
90.0
 51
180.0
  0
ARC
  5
B8CB
330
18
100
AcDbEntity
  8
0
100
AcDbCircle
 10
1734.800199133885
 20
739.4377277783369
 30
0.0
 40
1.0
100
AcDbArc
 50
0.0
 51
90.0
  0
LINE
  5
B8CC
330
18
100
AcDbEntity
  8
0
100
AcDbLine
 10
1741.300199133885
 20
735.4377277783369
 30
0.0
 11
1741.300199133885
 21
739.4377277783369
 31
0.0
  0
LINE
  5
B8CD
330
18
100
AcDbEntity
  8
0
100
AcDbLine
 10
1735.800199133884
 20
735.4377277783369
 30
0.0
 11
1735.800199133884
 21
739.4377277783369
 31
0.0
  0
ARC
  5
B8CE
330
18
100
AcDbEntity
  8
0
100
AcDbCircle
 10
1765.550199133884
 20
739.4377277783369
 30
0.0
 40
1.0
100
AcDbArc
 50
0.0
 51
90.0
  0
LINE
  5
B8CF
330
18
100
AcDbEntity
  8
0
100
AcDbLine
 10
1982.454346727951
 20
740.4377277783368
 30
0.0
 11
1980.454346727951
 21
740.4377277783368
 31
0.0
  0
TEXT
  5
B8D0
330
18
100
AcDbEntity
  8
0
 48
5.0
100
AcDbText
 10
1723.899185231491
 20
647.1552096822961
 30
0.0
 40
5.0
  1
U
 41
1.199999999999999
  7
MSｺﾞｼｯｸ
 71
     2
 11
1723.899185231491
 21
649.6552096822961
 31
0.0
100
AcDbText
 73
     2
  0
TEXT
  5
B8D1
330
18
100
AcDbEntity
  8
0
 48
5.0
100
AcDbText
 10
1723.899185231491
 20
615.155209682296
 30
0.0
 40
5.0
  1
W
 41
1.199999999999999
  7
MSｺﾞｼｯｸ
 71
     2
 11
1723.899185231491
 21
617.6552096822961
 31
0.0
100
AcDbText
 73
     2
  0
TEXT
  5
B8D2
330
18
100
AcDbEntity
  8
0
 48
5.0
100
AcDbText
 10
1723.899185231491
 20
631.1552096822961
 30
0.0
 40
5.0
  1
V
 41
1.199999999999999
  7
MSｺﾞｼｯｸ
 71
     2
 11
1723.899185231491
 21
633.6552096822961
 31
0.0
100
AcDbText
 73
     2
  0
TEXT
  5
B8D3
330
18
100
AcDbEntity
  8
0
 48
5.0
100
AcDbText
 10
1723.899185231491
 20
695.1552096822961
 30
0.0
 40
5.0
  1
U
 41
1.199999999999999
  7
MSｺﾞｼｯｸ
 71
     2
 11
1723.899185231491
 21
697.6552096822961
 31
0.0
100
AcDbText
 73
     2
  0
TEXT
  5
B8D4
330
18
100
AcDbEntity
  8
0
 48
5.0
100
AcDbText
 10
1723.899185231491
 20
663.1552096822961
 30
0.0
 40
5.0
  1
W
 41
1.199999999999999
  7
MSｺﾞｼｯｸ
 71
     2
 11
1723.899185231491
 21
665.6552096822961
 31
0.0
100
AcDbText
 73
     2
  0
TEXT
  5
B8D5
330
18
100
AcDbEntity
  8
0
 48
5.0
100
AcDbText
 10
1723.899185231491
 20
679.155209682296
 30
0.0
 40
5.0
  1
V
 41
1.199999999999999
  7
MSｺﾞｼｯｸ
 71
     2
 11
1723.899185231491
 21
681.655209682296
 31
0.0
100
AcDbText
 73
     2
  0
MTEXT
  5
B8D6
330
18
100
AcDbEntity
  8
0
100
AcDbMText
 10
1717.855388255571
 20
716.7477479896913
 30
0.0
 40
4.0
 41
13.7408
 71
     1
 72
     5
  1
TB1
 73
     1
 44
1.0
  0
MTEXT
  5
B8D7
330
18
100
AcDbEntity
  8
0
100
AcDbMText
 10
1699.824445694285
 20
598.7608772201317
 30
0.0
 40
4.0
 41
13.7408
 71
     1
 72
     5
  1
TB2
 73
     1
 44
1.0
  0
MTEXT
  5
B8D8
330
18
100
AcDbEntity
  8
0
100
AcDbMText
 10
1716.888819095211
 20
585.1194423460781
 30
0.0
 40
2.399999999999999
 41
7.047999999999999
 71
     3
 72
     5
  1
DBC
 73
     1
 44
1.0
  0
MTEXT
  5
B8D9
330
18
100
AcDbEntity
  8
0
100
AcDbMText
 10
1717.053556468183
 20
590.1194423460781
 30
0.0
 40
2.399999999999999
 41
7.047999999999999
 71
     3
 72
     5
  1
DBK
 73
     1
 44
1.0
  0
LINE
  5
B8DA
330
18
100
AcDbEntity
  8
0
100
AcDbLine
 10
1700.450199133882
 20
574.4377277783322
 30
0.0
 11
1700.450199133882
 21
572.8377277783319
 31
0.0
  0
CIRCLE
  5
B8DB
330
18
100
AcDbEntity
  8
0
100
AcDbCircle
 10
1700.450199133882
 20
572.4377277783323
 30
0.0
 40
3.0
  0
LINE
  5
B8DC
330
18
100
AcDbEntity
  8
0
100
AcDbLine
 10
1700.950199133882
 20
570.4377277783322
 30
0.0
 11
1699.950199133882
 21
570.4377277783322
 31
0.0
  0
LINE
  5
B8DD
330
18
100
AcDbEntity
  8
0
100
AcDbLine
 10
1701.700199133882
 20
571.6377277783322
 30
0.0
 11
1699.200199133882
 21
571.6377277783322
 31
0.0
  0
LINE
  5
B8DE
330
18
100
AcDbEntity
  8
0
100
AcDbLine
 10
1702.450199133882
 20
572.8377277783319
 30
0.0
 11
1698.450199133882
 21
572.8377277783329
 31
0.0
  0
LINE
  5
BCB0
330
18
100
AcDbEntity
  8
0
100
AcDbLine
 10
1698.050199133884
 20
581.437727778336
 30
0.0
 11
1709.050199133885
 21
581.437727778336
 31
0.0
  0
LINE
  5
BCB1
330
18
100
AcDbEntity
  8
0
100
AcDbLine
 10
1698.050199133886
 20
591.4377277783358
 30
0.0
 11
1709.050199133885
 21
591.4377277783358
 31
0.0
  0
LINE
  5
BCB3
330
18
100
AcDbEntity
  8
0
100
AcDbLine
 10
1706.75019913388
 20
582.2908868599256
 30
0.0
 11
1706.750199133879
 21
581.9427277783356
 31
0.0
  0
LINE
  5
BCB4
330
18
100
AcDbEntity
  8
0
100
AcDbLine
 10
1699.750199133879
 20
581.437727778336
 30
0.0
 11
1699.750199133879
 21
582.2908868599256
 31
0.0
  0
LINE
  5
BCB5
330
18
100
AcDbEntity
  8
0
100
AcDbLine
 10
1698.150199133879
 20
582.2908868599252
 30
0.0
 11
1698.150199133879
 21
581.437727778336
 31
0.0
  0
LINE
  5
BCB6
330
18
100
AcDbEntity
  8
0
100
AcDbLine
 10
1698.050199133879
 20
582.2908868599257
 30
0.0
 11
1698.050199133881
 21
581.437727778336
 31
0.0
  0
LINE
  5
BCB7
330
18
100
AcDbEntity
  8
0
100
AcDbLine
 10
1706.750199133879
 20
581.9427277783356
 30
0.0
 11
1699.750199133879
 21
581.9427277783356
 31
0.0
  0
LINE
  5
BCB8
330
18
100
AcDbEntity
  8
0
100
AcDbLine
 10
1706.750199133879
 20
590.9427277783358
 30
0.0
 11
1706.75019913388
 21
590.6908868599257
 31
0.0
  0
LINE
  5
BCB9
330
18
100
AcDbEntity
  8
0
100
AcDbLine
 10
1698.050199133879
 20
591.4377277783357
 30
0.0
 11
1698.050199133879
 21
590.6908868599256
 31
0.0
  0
LINE
  5
BCBA
330
18
100
AcDbEntity
  8
0
100
AcDbLine
 10
1699.750199133879
 20
590.6908868599257
 30
0.0
 11
1699.750199133879
 21
591.4377277783357
 31
0.0
  0
LINE
  5
BCBB
330
18
100
AcDbEntity
  8
0
100
AcDbLine
 10
1698.150199133879
 20
591.4377277783357
 30
0.0
 11
1698.150199133879
 21
590.6908868599257
 31
0.0
  0
LINE
  5
BCBC
330
18
100
AcDbEntity
  8
0
100
AcDbLine
 10
1699.750199133879
 20
590.9427277783358
 30
0.0
 11
1706.750199133879
 21
590.9427277783358
 31
0.0
  0
LINE
  5
BCBD
330
18
100
AcDbEntity
  8
0
100
AcDbLine
 10
1709.050199133885
 20
591.4377277783361
 30
0.0
 11
1709.050199133885
 21
581.437727778336
 31
0.0
  0
LINE
  5
BCBE
330
18
100
AcDbEntity
  8
0
100
AcDbLine
 10
1727.383532467214
 20
573.2710611116649
 30
0.0
 11
1727.383532467214
 21
575.6652139001707
 31
0.0
  0
LINE
  5
BCBF
330
18
100
AcDbEntity
  8
0
100
AcDbLine
 10
1725.716865800547
 20
573.2710611116649
 30
0.0
 11
1725.716865800547
 21
575.6652139001707
 31
0.0
  0
LINE
  5
BCC0
330
18
100
AcDbEntity
  8
0
100
AcDbLine
 10
1712.383532467215
 20
573.2710611116649
 30
0.0
 11
1712.383532467215
 21
575.6652139001707
 31
0.0
  0
LINE
  5
BCC1
330
18
100
AcDbEntity
  8
0
100
AcDbLine
 10
1710.716865800548
 20
573.2710611116649
 30
0.0
 11
1710.716865800548
 21
575.6652139001707
 31
0.0
  0
CIRCLE
  5
BCC2
330
18
100
AcDbEntity
  8
0
100
AcDbCircle
 10
1711.550199133882
 20
572.4377277783319
 30
0.0
 40
4.166666666665718
  0
CIRCLE
  5
BCC3
330
18
100
AcDbEntity
  8
0
100
AcDbCircle
 10
1711.550199133882
 20
572.4377277783319
 30
0.0
 40
4.999999999998863
  0
CIRCLE
  5
BCC4
330
18
100
AcDbEntity
  8
0
100
AcDbCircle
 10
1726.550199133882
 20
572.4377277783319
 30
0.0
 40
4.166666666665718
  0
CIRCLE
  5
BCC5
330
18
100
AcDbEntity
  8
0
100
AcDbCircle
 10
1726.550199133882
 20
572.4377277783319
 30
0.0
 40
4.999999999998863
  0
LINE
  5
BCC6
330
18
100
AcDbEntity
  8
0
100
AcDbLine
 10
1710.716865800548
 20
571.6043944449987
 30
0.0
 11
1708.322713012043
 21
571.6043944449987
 31
0.0
  0
LINE
  5
BCC7
330
18
100
AcDbEntity
  8
0
100
AcDbLine
 10
1710.716865800548
 20
573.2710611116649
 30
0.0
 11
1708.322713012043
 21
573.2710611116649
 31
0.0
  0
ARC
  5
BCC8
330
18
100
AcDbEntity
  8
0
100
AcDbCircle
 10
1711.550199133882
 20
572.4377277783319
 30
0.0
 40
3.333333333332574
100
AcDbArc
 50
165.5224878140705
 51
194.4775121859294
  0
LINE
  5
BCC9
330
18
100
AcDbEntity
  8
0
100
AcDbLine
 10
1729.77768525572
 20
571.6043944449987
 30
0.0
 11
1727.383532467214
 21
571.6043944449987
 31
0.0
  0
LINE
  5
BCCA
330
18
100
AcDbEntity
  8
0
100
AcDbLine
 10
1729.77768525572
 20
573.2710611116649
 30
0.0
 11
1727.383532467214
 21
573.2710611116649
 31
0.0
  0
ARC
  5
BCCB
330
18
100
AcDbEntity
  8
0
100
AcDbCircle
 10
1726.550199133882
 20
572.4377277783319
 30
0.0
 40
3.333333333332574
100
AcDbArc
 50
165.5224878140705
 51
194.4775121859294
  0
LINE
  5
BCCC
330
18
100
AcDbEntity
  8
0
100
AcDbLine
 10
1725.716865800547
 20
571.6043944449987
 30
0.0
 11
1723.322713012043
 21
571.6043944449987
 31
0.0
  0
LINE
  5
BCCD
330
18
100
AcDbEntity
  8
0
100
AcDbLine
 10
1725.716865800547
 20
573.2710611116649
 30
0.0
 11
1723.322713012043
 21
573.2710611116649
 31
0.0
  0
LINE
  5
BCCE
330
18
100
AcDbEntity
  8
0
100
AcDbLine
 10
1714.77768525572
 20
571.6043944449987
 30
0.0
 11
1712.383532467215
 21
571.6043944449987
 31
0.0
  0
LINE
  5
BCCF
330
18
100
AcDbEntity
  8
0
100
AcDbLine
 10
1714.77768525572
 20
573.2710611116649
 30
0.0
 11
1712.383532467215
 21
573.2710611116649
 31
0.0
  0
ARC
  5
BCD0
330
18
100
AcDbEntity
  8
0
100
AcDbCircle
 10
1711.550199133882
 20
572.4377277783319
 30
0.0
 40
3.333333333332574
100
AcDbArc
 50
345.5224878140705
 51
14.47751218592945
  0
ARC
  5
BCD1
330
18
100
AcDbEntity
  8
0
100
AcDbCircle
 10
1726.550199133882
 20
572.4377277783319
 30
0.0
 40
3.333333333332574
100
AcDbArc
 50
255.5224878140705
 51
284.4775121859293
  0
ARC
  5
BCD2
330
18
100
AcDbEntity
  8
0
100
AcDbCircle
 10
1711.550199133882
 20
572.4377277783319
 30
0.0
 40
3.333333333332574
100
AcDbArc
 50
255.5224878140705
 51
284.4775121859293
  0
LINE
  5
BCD3
330
18
100
AcDbEntity
  8
0
100
AcDbLine
 10
1712.383532467215
 20
569.2102416564929
 30
0.0
 11
1712.383532467215
 21
571.6043944449987
 31
0.0
  0
LINE
  5
BCD4
330
18
100
AcDbEntity
  8
0
100
AcDbLine
 10
1710.716865800548
 20
569.2102416564929
 30
0.0
 11
1710.716865800548
 21
571.6043944449987
 31
0.0
  0
LINE
  5
BCD5
330
18
100
AcDbEntity
  8
0
100
AcDbLine
 10
1727.383532467214
 20
569.2102416564929
 30
0.0
 11
1727.383532467214
 21
571.6043944449987
 31
0.0
  0
LINE
  5
BCD6
330
18
100
AcDbEntity
  8
0
100
AcDbLine
 10
1725.716865800547
 20
569.2102416564929
 30
0.0
 11
1725.716865800547
 21
571.6043944449987
 31
0.0
  0
ARC
  5
BCD7
330
18
100
AcDbEntity
  8
0
100
AcDbCircle
 10
1726.550199133882
 20
572.4377277783319
 30
0.0
 40
3.333333333332574
100
AcDbArc
 50
345.5224878140705
 51
14.47751218592945
  0
ARC
  5
BCD8
330
18
100
AcDbEntity
  8
0
100
AcDbCircle
 10
1726.550199133882
 20
572.4377277783319
 30
0.0
 40
3.333333333332574
100
AcDbArc
 50
75.52248781407055
 51
104.4775121859294
  0
ARC
  5
BCD9
330
18
100
AcDbEntity
  8
0
100
AcDbCircle
 10
1711.550199133882
 20
572.4377277783319
 30
0.0
 40
3.333333333332574
100
AcDbArc
 50
75.52248781407055
 51
104.4775121859294
  0
LINE
  5
BCDA
330
18
100
AcDbEntity
  8
0
100
AcDbLine
 10
1744.383532467224
 20
601.2710611116691
 30
0.0
 11
1744.383532467224
 21
603.6652139001748
 31
0.0
  0
CIRCLE
  5
BCDB
330
18
100
AcDbEntity
  8
0
100
AcDbCircle
 10
1743.550199133891
 20
600.437727778336
 30
0.0
 40
4.999999999998863
  0
CIRCLE
  5
BCDC
330
18
100
AcDbEntity
  8
0
100
AcDbCircle
 10
1743.550199133891
 20
600.437727778336
 30
0.0
 40
4.166666666665718
  0
LINE
  5
BCDD
330
18
100
AcDbEntity
  8
0
100
AcDbLine
 10
1742.716865800557
 20
601.2710611116691
 30
0.0
 11
1742.716865800557
 21
603.6652139001748
 31
0.0
  0
ARC
  5
BCDE
330
18
100
AcDbEntity
  8
0
100
AcDbCircle
 10
1743.550199133891
 20
600.437727778336
 30
0.0
 40
3.333333333332574
100
AcDbArc
 50
345.5224878140705
 51
14.47751218592945
  0
LINE
  5
BCDF
330
18
100
AcDbEntity
  8
0
100
AcDbLine
 10
1742.716865800557
 20
597.2102416564971
 30
0.0
 11
1742.716865800557
 21
599.6043944450027
 31
0.0
  0
LINE
  5
BCE0
330
18
100
AcDbEntity
  8
0
100
AcDbLine
 10
1744.383532467224
 20
597.2102416564971
 30
0.0
 11
1744.383532467224
 21
599.6043944450027
 31
0.0
  0
ARC
  5
BCE1
330
18
100
AcDbEntity
  8
0
100
AcDbCircle
 10
1743.550199133891
 20
600.437727778336
 30
0.0
 40
3.333333333332574
100
AcDbArc
 50
255.5224878140705
 51
284.4775121859293
  0
LINE
  5
BCE2
330
18
100
AcDbEntity
  8
0
100
AcDbLine
 10
1742.716865800557
 20
601.2710611116691
 30
0.0
 11
1740.322713012051
 21
601.2710611116691
 31
0.0
  0
LINE
  5
BCE3
330
18
100
AcDbEntity
  8
0
100
AcDbLine
 10
1742.716865800557
 20
599.6043944450027
 30
0.0
 11
1740.322713012051
 21
599.6043944450027
 31
0.0
  0
ARC
  5
BCE4
330
18
100
AcDbEntity
  8
0
100
AcDbCircle
 10
1743.550199133891
 20
600.437727778336
 30
0.0
 40
3.333333333332574
100
AcDbArc
 50
165.5224878140705
 51
194.4775121859294
  0
LINE
  5
BCE5
330
18
100
AcDbEntity
  8
0
100
AcDbLine
 10
1746.77768525573
 20
601.2710611116691
 30
0.0
 11
1744.383532467224
 21
601.2710611116691
 31
0.0
  0
LINE
  5
BCE6
330
18
100
AcDbEntity
  8
0
100
AcDbLine
 10
1746.77768525573
 20
599.6043944450027
 30
0.0
 11
1744.383532467224
 21
599.6043944450027
 31
0.0
  0
ARC
  5
BCE7
330
18
100
AcDbEntity
  8
0
100
AcDbCircle
 10
1743.550199133891
 20
600.437727778336
 30
0.0
 40
3.333333333332574
100
AcDbArc
 50
75.52248781407055
 51
104.4775121859294
  0
CIRCLE
  5
BCE8
330
18
100
AcDbEntity
  8
0
100
AcDbCircle
 10
1743.550199133891
 20
714.437727778336
 30
0.0
 40
4.999999999998863
  0
CIRCLE
  5
BCE9
330
18
100
AcDbEntity
  8
0
100
AcDbCircle
 10
1743.550199133891
 20
714.437727778336
 30
0.0
 40
4.166666666665718
  0
LINE
  5
BCEA
330
18
100
AcDbEntity
  8
0
100
AcDbLine
 10
1742.716865800557
 20
715.2710611116691
 30
0.0
 11
1742.716865800557
 21
717.6652139001747
 31
0.0
  0
LINE
  5
BCEB
330
18
100
AcDbEntity
  8
0
100
AcDbLine
 10
1744.383532467224
 20
715.2710611116691
 30
0.0
 11
1744.383532467224
 21
717.6652139001747
 31
0.0
  0
ARC
  5
BCEC
330
18
100
AcDbEntity
  8
0
100
AcDbCircle
 10
1743.550199133891
 20
714.437727778336
 30
0.0
 40
3.333333333332574
100
AcDbArc
 50
345.5224878140705
 51
14.47751218592945
  0
LINE
  5
BCED
330
18
100
AcDbEntity
  8
0
100
AcDbLine
 10
1742.716865800557
 20
711.2102416564971
 30
0.0
 11
1742.716865800557
 21
713.6043944450029
 31
0.0
  0
LINE
  5
BCEE
330
18
100
AcDbEntity
  8
0
100
AcDbLine
 10
1744.383532467224
 20
711.2102416564971
 30
0.0
 11
1744.383532467224
 21
713.6043944450029
 31
0.0
  0
ARC
  5
BCEF
330
18
100
AcDbEntity
  8
0
100
AcDbCircle
 10
1743.550199133891
 20
714.437727778336
 30
0.0
 40
3.333333333332574
100
AcDbArc
 50
255.5224878140705
 51
284.4775121859293
  0
LINE
  5
BCF0
330
18
100
AcDbEntity
  8
0
100
AcDbLine
 10
1742.716865800557
 20
715.2710611116691
 30
0.0
 11
1740.322713012051
 21
715.2710611116691
 31
0.0
  0
LINE
  5
BCF1
330
18
100
AcDbEntity
  8
0
100
AcDbLine
 10
1742.716865800557
 20
713.6043944450029
 30
0.0
 11
1740.322713012051
 21
713.6043944450029
 31
0.0
  0
ARC
  5
BCF2
330
18
100
AcDbEntity
  8
0
100
AcDbCircle
 10
1743.550199133891
 20
714.437727778336
 30
0.0
 40
3.333333333332574
100
AcDbArc
 50
165.5224878140705
 51
194.4775121859294
  0
LINE
  5
BCF3
330
18
100
AcDbEntity
  8
0
100
AcDbLine
 10
1746.77768525573
 20
715.2710611116691
 30
0.0
 11
1744.383532467224
 21
715.2710611116691
 31
0.0
  0
LINE
  5
BCF4
330
18
100
AcDbEntity
  8
0
100
AcDbLine
 10
1746.77768525573
 20
713.6043944450029
 30
0.0
 11
1744.383532467224
 21
713.6043944450029
 31
0.0
  0
ARC
  5
BCF5
330
18
100
AcDbEntity
  8
0
100
AcDbCircle
 10
1743.550199133891
 20
714.437727778336
 30
0.0
 40
3.333333333332574
100
AcDbArc
 50
75.52248781407055
 51
104.4775121859294
  0
LINE
  5
BCF8
330
18
100
AcDbEntity
  8
0
100
AcDbLine
 10
1728.550199133891
 20
720.9377277783365
 30
0.0
 11
1740.800199133891
 21
720.9377277783355
 31
0.0
  0
LINE
  5
BCF9
330
18
100
AcDbEntity
  8
0
100
AcDbLine
 10
1743.550199133891
 20
655.9377277783364
 30
0.0
 11
1743.550199133891
 21
642.9377277783364
 31
0.0
  0
LINE
  5
BCFA
330
18
100
AcDbEntity
  8
0
100
AcDbLine
 10
1750.050199133891
 20
642.9377277783364
 30
0.0
 11
1750.050199133891
 21
655.9377277783364
 31
0.0
  0
LINE
  5
BCFB
330
18
100
AcDbEntity
  8
0
100
AcDbLine
 10
1737.050199133891
 20
642.9377277783364
 30
0.0
 11
1737.050199133891
 21
655.9377277783364
 31
0.0
  0
CIRCLE
  5
BCFC
330
18
100
AcDbEntity
  8
0
100
AcDbCircle
 10
1743.550199133891
 20
649.4377277783359
 30
0.0
 40
6.5
  0
LINE
  5
BCFD
330
18
100
AcDbEntity
  8
0
100
AcDbLine
 10
1758.550199133891
 20
593.9377277783364
 30
0.0
 11
1758.550199133891
 21
720.9377277783365
 31
0.0
  0
LINE
  5
BCFE
330
18
100
AcDbEntity
  8
0
100
AcDbLine
 10
1728.550199133891
 20
593.9377277783364
 30
0.0
 11
1728.550199133891
 21
720.9377277783365
 31
0.0
  0
CIRCLE
  5
BD01
330
18
100
AcDbEntity
  8
0
100
AcDbCircle
 10
1743.550199133891
 20
617.437727778336
 30
0.0
 40
6.5
  0
LINE
  5
BD02
330
18
100
AcDbEntity
  8
0
100
AcDbLine
 10
1737.050199133891
 20
610.9377277783364
 30
0.0
 11
1737.050199133891
 21
623.9377277783364
 31
0.0
  0
LINE
  5
BD03
330
18
100
AcDbEntity
  8
0
100
AcDbLine
 10
1743.550199133891
 20
623.9377277783364
 30
0.0
 11
1743.550199133891
 21
610.9377277783364
 31
0.0
  0
LINE
  5
BD04
330
18
100
AcDbEntity
  8
0
100
AcDbLine
 10
1750.050199133891
 20
610.9377277783364
 30
0.0
 11
1750.050199133891
 21
623.9377277783364
 31
0.0
  0
LINE
  5
BD05
330
18
100
AcDbEntity
  8
0
100
AcDbLine
 10
1728.550199133891
 20
610.9377277783364
 30
0.0
 11
1758.550199133891
 21
610.9377277783364
 31
0.0
  0
LINE
  5
BD06
330
18
100
AcDbEntity
  8
0
100
AcDbLine
 10
1728.550199133891
 20
593.9377277783364
 30
0.0
 11
1740.800199133891
 21
593.9377277783372
 31
0.0
  0
CIRCLE
  5
BD07
330
18
100
AcDbEntity
  8
0
100
AcDbCircle
 10
1733.550199133891
 20
600.437727778336
 30
0.0
 40
4.0
  0
LINE
  5
BD08
330
18
100
AcDbEntity
  8
0
100
AcDbLine
 10
1740.800199133891
 20
595.8193524178033
 30
0.0
 11
1740.800199133891
 21
593.9377277783364
 31
0.0
  0
LINE
  5
BD09
330
18
100
AcDbEntity
  8
0
100
AcDbLine
 10
1746.300199133891
 20
595.8193524178033
 30
0.0
 11
1746.300199133891
 21
593.9377277783364
 31
0.0
  0
LINE
  5
BD0A
330
18
100
AcDbEntity
  8
0
100
AcDbLine
 10
1737.550199133891
 20
603.4377277783364
 30
0.0
 11
1737.550199133891
 21
593.9377277783364
 31
0.0
  0
LINE
  5
BD0B
330
18
100
AcDbEntity
  8
0
100
AcDbLine
 10
1749.550199133891
 20
603.4377277783364
 30
0.0
 11
1749.550199133891
 21
593.9377277783364
 31
0.0
  0
LINE
  5
BD0C
330
18
100
AcDbEntity
  8
0
100
AcDbLine
 10
1746.300199133891
 20
593.9377277783372
 30
0.0
 11
1758.550199133891
 21
593.9377277783364
 31
0.0
  0
LINE
  5
BD0D
330
18
100
AcDbEntity
  8
0
100
AcDbLine
 10
1746.550199133891
 20
606.4377277783364
 30
0.0
 11
1740.550199133891
 21
606.4377277783364
 31
0.0
  0
ARC
  5
BD0E
330
18
100
AcDbEntity
  8
0
100
AcDbCircle
 10
1746.550199133891
 20
603.4377277783359
 30
0.0
 40
3.0
100
AcDbArc
 50
0.0
 51
90.0
  0
LINE
  5
BD0F
330
18
100
AcDbEntity
  8
0
100
AcDbLine
 10
1730.050199133891
 20
600.4377277783365
 30
0.0
 11
1737.050199133891
 21
600.4377277783365
 31
0.0
  0
ARC
  5
BD10
330
18
100
AcDbEntity
  8
0
100
AcDbCircle
 10
1740.550199133891
 20
603.4377277783359
 30
0.0
 40
3.0
100
AcDbArc
 50
90.0
 51
180.0
  0
LINE
  5
BD11
330
18
100
AcDbEntity
  8
0
100
AcDbLine
 10
1733.550199133891
 20
603.9377277783365
 30
0.0
 11
1733.550199133891
 21
596.9377277783364
 31
0.0
  0
CIRCLE
  5
BD12
330
18
100
AcDbEntity
  8
0
100
AcDbCircle
 10
1733.550199133891
 20
600.437727778336
 30
0.0
 40
3.5
  0
LINE
  5
BD13
330
18
100
AcDbEntity
  8
0
100
AcDbLine
 10
1758.463318506352
 20
610.9377277783364
 30
0.0
 11
1758.550199133891
 21
610.9377277783372
 31
0.0
  0
LINE
  5
BD18
330
18
100
AcDbEntity
  8
0
100
AcDbLine
 10
1743.550199133891
 20
639.9377277783364
 30
0.0
 11
1743.550199133891
 21
626.9377277783364
 31
0.0
  0
LINE
  5
BD19
330
18
100
AcDbEntity
  8
0
100
AcDbLine
 10
1750.050199133891
 20
626.9377277783364
 30
0.0
 11
1750.050199133891
 21
639.9377277783364
 31
0.0
  0
LINE
  5
BD1A
330
18
100
AcDbEntity
  8
0
100
AcDbLine
 10
1737.050199133891
 20
626.9377277783364
 30
0.0
 11
1737.050199133891
 21
639.9377277783364
 31
0.0
  0
CIRCLE
  5
BD1B
330
18
100
AcDbEntity
  8
0
100
AcDbCircle
 10
1743.550199133891
 20
633.437727778336
 30
0.0
 40
6.5
  0
LINE
  5
BD1C
330
18
100
AcDbEntity
  8
0
100
AcDbLine
 10
1728.550199133891
 20
623.9377277783364
 30
0.0
 11
1758.550199133891
 21
623.9377277783364
 31
0.0
  0
LINE
  5
BD1D
330
18
100
AcDbEntity
  8
0
100
AcDbLine
 10
1728.550199133891
 20
626.9377277783364
 30
0.0
 11
1758.550199133891
 21
626.9377277783364
 31
0.0
  0
LINE
  5
BD1E
330
18
100
AcDbEntity
  8
0
100
AcDbLine
 10
1737.050199133891
 20
617.4377277783364
 30
0.0
 11
1750.050199133891
 21
617.4377277783364
 31
0.0
  0
LINE
  5
BD1F
330
18
100
AcDbEntity
  8
0
100
AcDbLine
 10
1728.550199133891
 20
642.9377277783364
 30
0.0
 11
1758.550199133891
 21
642.9377277783364
 31
0.0
  0
LINE
  5
BD20
330
18
100
AcDbEntity
  8
0
100
AcDbLine
 10
1728.550199133891
 20
639.9377277783364
 30
0.0
 11
1758.550199133891
 21
639.9377277783364
 31
0.0
  0
LINE
  5
BD21
330
18
100
AcDbEntity
  8
0
100
AcDbLine
 10
1737.050199133891
 20
633.4377277783365
 30
0.0
 11
1750.050199133891
 21
633.4377277783365
 31
0.0
  0
CIRCLE
  5
BD22
330
18
100
AcDbEntity
  8
0
100
AcDbCircle
 10
1753.550199133891
 20
714.437727778336
 30
0.0
 40
3.5
  0
LINE
  5
BD23
330
18
100
AcDbEntity
  8
0
100
AcDbLine
 10
1753.550199133891
 20
717.9377277783363
 30
0.0
 11
1753.550199133891
 21
710.9377277783363
 31
0.0
  0
CIRCLE
  5
BD24
330
18
100
AcDbEntity
  8
0
100
AcDbCircle
 10
1753.550199133891
 20
714.437727778336
 30
0.0
 40
4.0
  0
LINE
  5
BD25
330
18
100
AcDbEntity
  8
0
100
AcDbLine
 10
1749.550199133891
 20
711.4377277783363
 30
0.0
 11
1749.550199133891
 21
720.9377277783365
 31
0.0
  0
LINE
  5
BD26
330
18
100
AcDbEntity
  8
0
100
AcDbLine
 10
1737.550199133891
 20
711.4377277783363
 30
0.0
 11
1737.550199133891
 21
720.9377277783365
 31
0.0
  0
CIRCLE
  5
BD27
330
18
100
AcDbEntity
  8
0
100
AcDbCircle
 10
1743.550199133891
 20
681.437727778336
 30
0.0
 40
6.5
  0
LINE
  5
BD28
330
18
100
AcDbEntity
  8
0
100
AcDbLine
 10
1737.050199133891
 20
674.9377277783365
 30
0.0
 11
1737.050199133891
 21
687.9377277783365
 31
0.0
  0
LINE
  5
BD29
330
18
100
AcDbEntity
  8
0
100
AcDbLine
 10
1743.550199133891
 20
687.9377277783365
 30
0.0
 11
1743.550199133891
 21
674.9377277783365
 31
0.0
  0
LINE
  5
BD2A
330
18
100
AcDbEntity
  8
0
100
AcDbLine
 10
1750.050199133891
 20
674.9377277783365
 30
0.0
 11
1750.050199133891
 21
687.9377277783365
 31
0.0
  0
CIRCLE
  5
BD2F
330
18
100
AcDbEntity
  8
0
100
AcDbCircle
 10
1743.550199133891
 20
665.437727778336
 30
0.0
 40
6.5
  0
LINE
  5
BD30
330
18
100
AcDbEntity
  8
0
100
AcDbLine
 10
1743.550199133891
 20
671.9377277783364
 30
0.0
 11
1743.550199133891
 21
658.9377277783365
 31
0.0
  0
LINE
  5
BD31
330
18
100
AcDbEntity
  8
0
100
AcDbLine
 10
1737.050199133891
 20
658.9377277783365
 30
0.0
 11
1737.050199133891
 21
671.9377277783364
 31
0.0
  0
LINE
  5
BD32
330
18
100
AcDbEntity
  8
0
100
AcDbLine
 10
1750.050199133891
 20
658.9377277783365
 30
0.0
 11
1750.050199133891
 21
671.9377277783364
 31
0.0
  0
LINE
  5
BD33
330
18
100
AcDbEntity
  8
0
100
AcDbLine
 10
1728.550199133891
 20
655.9377277783364
 30
0.0
 11
1758.550199133891
 21
655.9377277783364
 31
0.0
  0
LINE
  5
BD34
330
18
100
AcDbEntity
  8
0
100
AcDbLine
 10
1728.550199133891
 20
658.9377277783365
 30
0.0
 11
1758.550199133891
 21
658.9377277783365
 31
0.0
  0
LINE
  5
BD35
330
18
100
AcDbEntity
  8
0
100
AcDbLine
 10
1737.050199133891
 20
649.4377277783364
 30
0.0
 11
1750.050199133891
 21
649.4377277783364
 31
0.0
  0
LINE
  5
BD36
330
18
100
AcDbEntity
  8
0
100
AcDbLine
 10
1728.550199133891
 20
671.9377277783364
 30
0.0
 11
1758.550199133891
 21
671.9377277783364
 31
0.0
  0
LINE
  5
BD37
330
18
100
AcDbEntity
  8
0
100
AcDbLine
 10
1728.550199133891
 20
674.9377277783365
 30
0.0
 11
1758.550199133891
 21
674.9377277783365
 31
0.0
  0
LINE
  5
BD38
330
18
100
AcDbEntity
  8
0
100
AcDbLine
 10
1737.050199133891
 20
665.4377277783364
 30
0.0
 11
1750.050199133891
 21
665.4377277783364
 31
0.0
  0
LINE
  5
BD3B
330
18
100
AcDbEntity
  8
0
100
AcDbLine
 10
1728.550199133891
 20
703.9377277783365
 30
0.0
 11
1758.550199133891
 21
703.9377277783365
 31
0.0
  0
LINE
  5
BD3C
330
18
100
AcDbEntity
  8
0
100
AcDbLine
 10
1743.550199133891
 20
703.9377277783365
 30
0.0
 11
1743.550199133891
 21
690.9377277783363
 31
0.0
  0
LINE
  5
BD3D
330
18
100
AcDbEntity
  8
0
100
AcDbLine
 10
1750.050199133891
 20
690.9377277783363
 30
0.0
 11
1750.050199133891
 21
703.9377277783365
 31
0.0
  0
LINE
  5
BD3E
330
18
100
AcDbEntity
  8
0
100
AcDbLine
 10
1737.050199133891
 20
690.9377277783363
 30
0.0
 11
1737.050199133891
 21
703.9377277783365
 31
0.0
  0
CIRCLE
  5
BD3F
330
18
100
AcDbEntity
  8
0
100
AcDbCircle
 10
1743.550199133891
 20
697.437727778336
 30
0.0
 40
6.5
  0
LINE
  5
BD40
330
18
100
AcDbEntity
  8
0
100
AcDbLine
 10
1728.550199133891
 20
690.9377277783363
 30
0.0
 11
1758.550199133891
 21
690.9377277783363
 31
0.0
  0
LINE
  5
BD41
330
18
100
AcDbEntity
  8
0
100
AcDbLine
 10
1728.550199133891
 20
687.9377277783365
 30
0.0
 11
1758.550199133891
 21
687.9377277783365
 31
0.0
  0
LINE
  5
BD42
330
18
100
AcDbEntity
  8
0
100
AcDbLine
 10
1737.050199133891
 20
697.4377277783363
 30
0.0
 11
1750.050199133891
 21
697.4377277783363
 31
0.0
  0
LINE
  5
BD43
330
18
100
AcDbEntity
  8
0
100
AcDbLine
 10
1737.050199133891
 20
681.4377277783364
 30
0.0
 11
1750.050199133891
 21
681.4377277783364
 31
0.0
  0
LINE
  5
BD44
330
18
100
AcDbEntity
  8
0
100
AcDbLine
 10
1750.050199133891
 20
714.4377277783363
 30
0.0
 11
1757.050199133891
 21
714.4377277783363
 31
0.0
  0
LINE
  5
BD45
330
18
100
AcDbEntity
  8
0
100
AcDbLine
 10
1746.550199133891
 20
708.4377277783365
 30
0.0
 11
1740.550199133891
 21
708.4377277783365
 31
0.0
  0
ARC
  5
BD46
330
18
100
AcDbEntity
  8
0
100
AcDbCircle
 10
1740.550199133891
 20
711.437727778336
 30
0.0
 40
3.0
100
AcDbArc
 50
180.0
 51
270.0
  0
ARC
  5
BD47
330
18
100
AcDbEntity
  8
0
100
AcDbCircle
 10
1746.550199133891
 20
711.437727778336
 30
0.0
 40
3.0
100
AcDbArc
 50
270.0
 51
0.0
  0
LINE
  5
BD48
330
18
100
AcDbEntity
  8
0
100
AcDbLine
 10
1758.463318506352
 20
703.9377277783365
 30
0.0
 11
1758.550199133891
 21
703.9377277783374
 31
0.0
  0
LINE
  5
BD49
330
18
100
AcDbEntity
  8
0
100
AcDbLine
 10
1746.300199133891
 20
720.9377277783355
 30
0.0
 11
1758.550199133891
 21
720.9377277783365
 31
0.0
  0
LINE
  5
BD4A
330
18
100
AcDbEntity
  8
0
100
AcDbLine
 10
1746.300199133891
 20
719.0561031388686
 30
0.0
 11
1746.300199133891
 21
720.9377277783365
 31
0.0
  0
LINE
  5
BD4B
330
18
100
AcDbEntity
  8
0
100
AcDbLine
 10
1740.800199133891
 20
719.0561031388686
 30
0.0
 11
1740.800199133891
 21
720.9377277783365
 31
0.0
  0
LINE
  5
BD98
330
18
100
AcDbEntity
  8
0
100
AcDbLine
 10
1833.454346727951
 20
642.9377277783364
 30
0.0
 11
1833.454346727951
 21
655.9377277783364
 31
0.0
  0
LINE
  5
BD99
330
18
100
AcDbEntity
  8
0
100
AcDbLine
 10
1838.454346727951
 20
642.9377277783364
 30
0.0
 11
1838.454346727951
 21
655.9377277783364
 31
0.0
  0
LINE
  5
BD9A
330
18
100
AcDbEntity
  8
0
100
AcDbLine
 10
1832.454346727951
 20
643.4377277783372
 30
0.0
 11
1832.454346727951
 21
655.4377277783364
 31
0.0
  0
LINE
  5
BD9B
330
18
100
AcDbEntity
  8
0
100
AcDbLine
 10
1831.75434672795
 20
643.4377277783372
 30
0.0
 11
1831.75434672795
 21
655.4377277783364
 31
0.0
  0
ARC
  5
BD9C
330
18
100
AcDbEntity
  8
0
100
AcDbCircle
 10
1834.331286718215
 20
649.4377277783369
 30
0.0
 40
5.624999530081637
100
AcDbArc
 50
117.2660351635123
 51
242.7339648364875
  0
LINE
  5
BD9D
330
18
100
AcDbEntity
  8
0
100
AcDbLine
 10
1822.454346727951
 20
720.9377277783365
 30
0.0
 11
1822.454346727951
 21
593.9377277783364
 31
0.0
  0
LINE
  5
BD9E
330
18
100
AcDbEntity
  8
0
100
AcDbLine
 10
1820.454346727951
 20
593.9377277783364
 30
0.0
 11
1820.454346727951
 21
720.9377277783365
 31
0.0
  0
LINE
  5
BD9F
330
18
100
AcDbEntity
  8
0
100
AcDbLine
 10
1847.454346727951
 20
720.9377277783365
 30
0.0
 11
1847.454346727951
 21
593.9377277783364
 31
0.0
  0
LINE
  5
BDA0
330
18
100
AcDbEntity
  8
0
100
AcDbLine
 10
1833.454346727951
 20
610.9377277783364
 30
0.0
 11
1833.454346727951
 21
623.9377277783364
 31
0.0
  0
LINE
  5
BDA1
330
18
100
AcDbEntity
  8
0
100
AcDbLine
 10
1838.454346727951
 20
610.9377277783364
 30
0.0
 11
1838.454346727951
 21
623.9377277783364
 31
0.0
  0
LINE
  5
BDA2
330
18
100
AcDbEntity
  8
0
100
AcDbLine
 10
1832.454346727951
 20
611.4377277783374
 30
0.0
 11
1832.454346727951
 21
623.4377277783364
 31
0.0
  0
LINE
  5
BDA3
330
18
100
AcDbEntity
  8
0
100
AcDbLine
 10
1831.75434672795
 20
611.4377277783374
 30
0.0
 11
1831.75434672795
 21
623.4377277783364
 31
0.0
  0
LINE
  5
BDA4
330
18
100
AcDbEntity
  8
0
100
AcDbLine
 10
1822.454346727951
 20
593.9377277783364
 30
0.0
 11
1822.454346727951
 21
610.9377277783372
 31
0.0
  0
LINE
  5
BDA5
330
18
100
AcDbEntity
  8
0
100
AcDbLine
 10
1847.454346727951
 20
593.9377277783364
 30
0.0
 11
1822.454346727951
 21
593.9377277783364
 31
0.0
  0
LINE
  5
BDA6
330
18
100
AcDbEntity
  8
0
100
AcDbLine
 10
1822.454346727951
 20
593.9377277783364
 30
0.0
 11
1820.454346727951
 21
593.9377277783364
 31
0.0
  0
LINE
  5
BDA7
330
18
100
AcDbEntity
  8
0
100
AcDbLine
 10
1822.454346727951
 20
610.9377277783372
 30
0.0
 11
1838.454346727951
 21
610.9377277783364
 31
0.0
  0
LINE
  5
BDA8
330
18
100
AcDbEntity
  8
0
100
AcDbLine
 10
1833.454346727951
 20
611.4377277783374
 30
0.0
 11
1831.75434672795
 21
611.4377277783364
 31
0.0
  0
ARC
  5
BDA9
330
18
100
AcDbEntity
  8
0
100
AcDbCircle
 10
1823.496881978279
 20
600.4377277783369
 30
0.0
 40
5.025636352690469
100
AcDbArc
 50
127.257845961276
 51
232.7421540387381
  0
LINE
  5
BDAA
330
18
100
AcDbEntity
  8
0
100
AcDbLine
 10
1833.454346727951
 20
626.9377277783364
 30
0.0
 11
1833.454346727951
 21
639.9377277783364
 31
0.0
  0
LINE
  5
BDAB
330
18
100
AcDbEntity
  8
0
100
AcDbLine
 10
1838.454346727951
 20
626.9377277783364
 30
0.0
 11
1838.454346727951
 21
639.9377277783364
 31
0.0
  0
LINE
  5
BDAC
330
18
100
AcDbEntity
  8
0
100
AcDbLine
 10
1832.454346727951
 20
627.4377277783372
 30
0.0
 11
1832.454346727951
 21
639.4377277783364
 31
0.0
  0
LINE
  5
BDAD
330
18
100
AcDbEntity
  8
0
100
AcDbLine
 10
1831.75434672795
 20
627.4377277783372
 30
0.0
 11
1831.75434672795
 21
639.4377277783364
 31
0.0
  0
ARC
  5
BDAE
330
18
100
AcDbEntity
  8
0
100
AcDbCircle
 10
1834.331286718215
 20
633.4377277783369
 30
0.0
 40
5.624999530081637
100
AcDbArc
 50
117.2660351635123
 51
242.7339648364875
  0
LINE
  5
BDAF
330
18
100
AcDbEntity
  8
0
100
AcDbLine
 10
1822.454346727951
 20
626.9377277783364
 30
0.0
 11
1838.454346727951
 21
626.9377277783364
 31
0.0
  0
LINE
  5
BDB0
330
18
100
AcDbEntity
  8
0
100
AcDbLine
 10
1822.454346727951
 20
623.9377277783364
 30
0.0
 11
1838.454346727951
 21
623.9377277783364
 31
0.0
  0
LINE
  5
BDB1
330
18
100
AcDbEntity
  8
0
100
AcDbLine
 10
1833.454346727951
 20
627.4377277783372
 30
0.0
 11
1831.75434672795
 21
627.4377277783364
 31
0.0
  0
LINE
  5
BDB2
330
18
100
AcDbEntity
  8
0
100
AcDbLine
 10
1833.454346727951
 20
623.4377277783364
 30
0.0
 11
1831.75434672795
 21
623.4377277783364
 31
0.0
  0
LINE
  5
BDB3
330
18
100
AcDbEntity
  8
0
100
AcDbLine
 10
1822.454346727951
 20
623.9377277783364
 30
0.0
 11
1822.454346727951
 21
626.9377277783372
 31
0.0
  0
ARC
  5
BDB4
330
18
100
AcDbEntity
  8
0
100
AcDbCircle
 10
1834.331286718215
 20
617.4377277783369
 30
0.0
 40
5.624999530081637
100
AcDbArc
 50
117.2660351635123
 51
242.7339648364875
  0
LINE
  5
BDB5
330
18
100
AcDbEntity
  8
0
100
AcDbLine
 10
1822.454346727951
 20
642.9377277783364
 30
0.0
 11
1838.454346727951
 21
642.9377277783364
 31
0.0
  0
LINE
  5
BDB6
330
18
100
AcDbEntity
  8
0
100
AcDbLine
 10
1822.454346727951
 20
639.9377277783364
 30
0.0
 11
1838.454346727951
 21
639.9377277783364
 31
0.0
  0
LINE
  5
BDB7
330
18
100
AcDbEntity
  8
0
100
AcDbLine
 10
1833.454346727951
 20
643.4377277783372
 30
0.0
 11
1831.75434672795
 21
643.4377277783364
 31
0.0
  0
LINE
  5
BDB8
330
18
100
AcDbEntity
  8
0
100
AcDbLine
 10
1833.454346727951
 20
639.4377277783364
 30
0.0
 11
1831.75434672795
 21
639.4377277783364
 31
0.0
  0
LINE
  5
BDB9
330
18
100
AcDbEntity
  8
0
100
AcDbLine
 10
1822.454346727951
 20
639.9377277783364
 30
0.0
 11
1822.454346727951
 21
642.9377277783364
 31
0.0
  0
ARC
  5
BDBA
330
18
100
AcDbEntity
  8
0
100
AcDbCircle
 10
1823.47998308064
 20
714.437727778336
 30
0.0
 40
5.025636352690469
100
AcDbArc
 50
127.257845961276
 51
232.7421540387381
  0
LINE
  5
BDBB
330
18
100
AcDbEntity
  8
0
100
AcDbLine
 10
1822.454346727951
 20
703.9377277783374
 30
0.0
 11
1822.454346727951
 21
720.9377277783365
 31
0.0
  0
ARC
  5
BDBC
330
18
100
AcDbEntity
  8
0
100
AcDbCircle
 10
1834.331286718215
 20
681.4377277783369
 30
0.0
 40
5.624999530081637
100
AcDbArc
 50
117.2660351634685
 51
242.7339648365459
  0
LINE
  5
BDBD
330
18
100
AcDbEntity
  8
0
100
AcDbLine
 10
1833.454346727951
 20
674.9377277783365
 30
0.0
 11
1833.454346727951
 21
687.9377277783365
 31
0.0
  0
LINE
  5
BDBE
330
18
100
AcDbEntity
  8
0
100
AcDbLine
 10
1838.454346727951
 20
674.9377277783365
 30
0.0
 11
1838.454346727951
 21
687.9377277783365
 31
0.0
  0
LINE
  5
BDBF
330
18
100
AcDbEntity
  8
0
100
AcDbLine
 10
1832.454346727951
 20
675.4377277783373
 30
0.0
 11
1832.454346727951
 21
687.4377277783365
 31
0.0
  0
LINE
  5
BDC0
330
18
100
AcDbEntity
  8
0
100
AcDbLine
 10
1831.75434672795
 20
675.4377277783373
 30
0.0
 11
1831.75434672795
 21
687.4377277783365
 31
0.0
  0
LINE
  5
BDC1
330
18
100
AcDbEntity
  8
0
100
AcDbLine
 10
1833.454346727951
 20
658.9377277783365
 30
0.0
 11
1833.454346727951
 21
671.9377277783364
 31
0.0
  0
LINE
  5
BDC2
330
18
100
AcDbEntity
  8
0
100
AcDbLine
 10
1838.454346727951
 20
658.9377277783365
 30
0.0
 11
1838.454346727951
 21
671.9377277783364
 31
0.0
  0
ARC
  5
BDC3
330
18
100
AcDbEntity
  8
0
100
AcDbCircle
 10
1834.331286718215
 20
665.4377277783367
 30
0.0
 40
5.624999530081637
100
AcDbArc
 50
117.2660351634685
 51
242.7339648365459
  0
LINE
  5
BDC4
330
18
100
AcDbEntity
  8
0
100
AcDbLine
 10
1831.75434672795
 20
659.4377277783372
 30
0.0
 11
1831.75434672795
 21
671.4377277783365
 31
0.0
  0
LINE
  5
BDC5
330
18
100
AcDbEntity
  8
0
100
AcDbLine
 10
1832.454346727951
 20
659.4377277783372
 30
0.0
 11
1832.454346727951
 21
671.4377277783365
 31
0.0
  0
LINE
  5
BDC6
330
18
100
AcDbEntity
  8
0
100
AcDbLine
 10
1822.454346727951
 20
655.9377277783364
 30
0.0
 11
1838.454346727951
 21
655.9377277783364
 31
0.0
  0
LINE
  5
BDC7
330
18
100
AcDbEntity
  8
0
100
AcDbLine
 10
1822.454346727951
 20
658.9377277783365
 30
0.0
 11
1838.454346727951
 21
658.9377277783365
 31
0.0
  0
LINE
  5
BDC8
330
18
100
AcDbEntity
  8
0
100
AcDbLine
 10
1833.454346727951
 20
659.4377277783372
 30
0.0
 11
1831.75434672795
 21
659.4377277783364
 31
0.0
  0
LINE
  5
BDC9
330
18
100
AcDbEntity
  8
0
100
AcDbLine
 10
1833.454346727951
 20
655.4377277783364
 30
0.0
 11
1831.75434672795
 21
655.4377277783364
 31
0.0
  0
LINE
  5
BDCA
330
18
100
AcDbEntity
  8
0
100
AcDbLine
 10
1822.454346727951
 20
655.9377277783364
 30
0.0
 11
1822.454346727951
 21
658.9377277783365
 31
0.0
  0
LINE
  5
BDCB
330
18
100
AcDbEntity
  8
0
100
AcDbLine
 10
1822.454346727951
 20
674.9377277783365
 30
0.0
 11
1838.454346727951
 21
674.9377277783365
 31
0.0
  0
LINE
  5
BDCC
330
18
100
AcDbEntity
  8
0
100
AcDbLine
 10
1822.454346727951
 20
671.9377277783372
 30
0.0
 11
1838.454346727951
 21
671.9377277783364
 31
0.0
  0
LINE
  5
BDCD
330
18
100
AcDbEntity
  8
0
100
AcDbLine
 10
1833.454346727951
 20
675.4377277783373
 30
0.0
 11
1831.75434672795
 21
675.4377277783365
 31
0.0
  0
LINE
  5
BDCE
330
18
100
AcDbEntity
  8
0
100
AcDbLine
 10
1833.454346727951
 20
671.4377277783365
 30
0.0
 11
1831.75434672795
 21
671.4377277783365
 31
0.0
  0
LINE
  5
BDCF
330
18
100
AcDbEntity
  8
0
100
AcDbLine
 10
1822.454346727951
 20
671.9377277783364
 30
0.0
 11
1822.454346727951
 21
674.9377277783365
 31
0.0
  0
LINE
  5
BDD0
330
18
100
AcDbEntity
  8
0
100
AcDbLine
 10
1833.454346727951
 20
690.9377277783363
 30
0.0
 11
1833.454346727951
 21
703.9377277783365
 31
0.0
  0
LINE
  5
BDD1
330
18
100
AcDbEntity
  8
0
100
AcDbLine
 10
1838.454346727951
 20
690.9377277783363
 30
0.0
 11
1838.454346727951
 21
703.9377277783365
 31
0.0
  0
ARC
  5
BDD2
330
18
100
AcDbEntity
  8
0
100
AcDbCircle
 10
1834.331286718215
 20
697.4377277783369
 30
0.0
 40
5.624999530081637
100
AcDbArc
 50
117.2660351634685
 51
242.7339648365459
  0
LINE
  5
BDD3
330
18
100
AcDbEntity
  8
0
100
AcDbLine
 10
1831.75434672795
 20
691.4377277783374
 30
0.0
 11
1831.75434672795
 21
703.4377277783363
 31
0.0
  0
LINE
  5
BDD4
330
18
100
AcDbEntity
  8
0
100
AcDbLine
 10
1832.454346727951
 20
691.4377277783374
 30
0.0
 11
1832.454346727951
 21
703.4377277783363
 31
0.0
  0
LINE
  5
BDD5
330
18
100
AcDbEntity
  8
0
100
AcDbLine
 10
1822.454346727951
 20
687.9377277783365
 30
0.0
 11
1838.454346727951
 21
687.9377277783365
 31
0.0
  0
LINE
  5
BDD6
330
18
100
AcDbEntity
  8
0
100
AcDbLine
 10
1822.454346727951
 20
690.9377277783363
 30
0.0
 11
1838.454346727951
 21
690.9377277783363
 31
0.0
  0
LINE
  5
BDD7
330
18
100
AcDbEntity
  8
0
100
AcDbLine
 10
1833.454346727951
 20
691.4377277783374
 30
0.0
 11
1831.75434672795
 21
691.4377277783365
 31
0.0
  0
LINE
  5
BDD8
330
18
100
AcDbEntity
  8
0
100
AcDbLine
 10
1833.454346727951
 20
687.4377277783365
 30
0.0
 11
1831.75434672795
 21
687.4377277783365
 31
0.0
  0
LINE
  5
BDD9
330
18
100
AcDbEntity
  8
0
100
AcDbLine
 10
1822.454346727951
 20
687.9377277783365
 30
0.0
 11
1822.454346727951
 21
690.9377277783363
 31
0.0
  0
LINE
  5
BDDA
330
18
100
AcDbEntity
  8
0
100
AcDbLine
 10
1822.454346727951
 20
703.9377277783365
 30
0.0
 11
1838.454346727951
 21
703.9377277783365
 31
0.0
  0
LINE
  5
BDDB
330
18
100
AcDbEntity
  8
0
100
AcDbLine
 10
1833.454346727951
 20
703.4377277783363
 30
0.0
 11
1831.75434672795
 21
703.4377277783363
 31
0.0
  0
LINE
  5
BDDC
330
18
100
AcDbEntity
  8
0
100
AcDbLine
 10
1822.454346727951
 20
720.9377277783365
 30
0.0
 11
1847.454346727951
 21
720.9377277783365
 31
0.0
  0
LINE
  5
BDDD
330
18
100
AcDbEntity
  8
0
100
AcDbLine
 10
1820.454346727951
 20
720.9377277783365
 30
0.0
 11
1822.454346727951
 21
720.9377277783365
 31
0.0
  0
LINE
  5
BDDE
330
18
100
AcDbEntity
  8
0
100
AcDbLine
 10
1844.225149850785
 20
587.2268420923218
 30
0.0
 11
1843.07732582246
 21
589.214931627529
 31
0.0
  0
CIRCLE
  5
BDDF
330
18
100
AcDbEntity
  8
0
100
AcDbCircle
 10
1843.954346727946
 20
588.3958868599258
 30
0.0
 40
1.199999999999999
  0
LINE
  5
BDE0
330
18
100
AcDbEntity
  8
0
100
AcDbLine
 10
1844.831367633433
 20
587.5768420923221
 30
0.0
 11
1843.683543605107
 21
589.5649316275294
 31
0.0
  0
LINE
  5
BDE1
330
18
100
AcDbEntity
  8
0
100
AcDbLine
 10
1847.454346727946
 20
590.6908868599257
 30
0.0
 11
1838.554346727945
 21
590.6908868599257
 31
0.0
  0
LINE
  5
BDE2
330
18
100
AcDbEntity
  8
0
100
AcDbLine
 10
1847.454346727946
 20
582.2908868599256
 30
0.0
 11
1838.554346727945
 21
582.2908868599256
 31
0.0
  0
LINE
  5
BDE3
330
18
100
AcDbEntity
  8
0
100
AcDbLine
 10
1846.954346727947
 20
590.6908868599257
 30
0.0
 11
1846.954346727947
 21
582.2908868599256
 31
0.0
  0
LINE
  5
BDE4
330
18
100
AcDbEntity
  8
0
100
AcDbLine
 10
1847.454346727946
 20
590.6908868599257
 30
0.0
 11
1847.454346727946
 21
582.2908868599256
 31
0.0
  0
LINE
  5
BDE5
330
18
100
AcDbEntity
  8
0
100
AcDbLine
 10
1844.225149850785
 20
583.4168420923218
 30
0.0
 11
1843.07732582246
 21
585.4049316275291
 31
0.0
  0
LINE
  5
BDE6
330
18
100
AcDbEntity
  8
0
100
AcDbLine
 10
1838.554346727945
 20
590.6908868599257
 30
0.0
 11
1838.554346727945
 21
582.2908868599256
 31
0.0
  0
LINE
  5
BDE7
330
18
100
AcDbEntity
  8
0
100
AcDbLine
 10
1839.554346727945
 20
590.6908868599257
 30
0.0
 11
1839.554346727945
 21
582.2908868599256
 31
0.0
  0
CIRCLE
  5
BDE8
330
18
100
AcDbEntity
  8
0
100
AcDbCircle
 10
1843.954346727946
 20
584.5858868599252
 30
0.0
 40
1.199999999999999
  0
LINE
  5
BDE9
330
18
100
AcDbEntity
  8
0
100
AcDbLine
 10
1844.831367633433
 20
583.7668420923217
 30
0.0
 11
1843.683543605107
 21
585.754931627529
 31
0.0
  0
ARC
  5
BE29
330
18
100
AcDbEntity
  8
0
100
AcDbCircle
 10
1738.550199133884
 20
552.4377277783331
 30
0.0
 40
2.75
100
AcDbArc
 50
0.0
 51
180.0
  0
TEXT
  5
C507
330
18
100
AcDbEntity
  8
0
100
AcDbText
 10
1907.073188232936
 20
501.794281128422
 30
0.0
 40
7.0
  1
ＳＥ－４４５０１
 41
0.9529999999999999
100
AcDbText
  0
MTEXT
  5
C508
330
18
100
AcDbEntity
  8
0
100
AcDbMText
 10
1907.38841695744
 20
542.3743096462366
 30
0.0
 40
6.0
 41
0.6
 71
     1
 72
     5
  1
{ダイナミックブレーキユニット\PNCR-XABCA2B-402-UL}
 73
     1
 44
1.0
1001
ACAD
1000
ACAD_MTEXT_DEFINED_HEIGHT_BEGIN
1070
    46
1040
16.0
1000
ACAD_MTEXT_DEFINED_HEIGHT_END
  0
TEXT
  5
C509
330
18
100
AcDbEntity
  8
0
100
AcDbText
 10
1907.073188232936
 20
513.3130405105682
 30
0.0
 40
6.0
  1
外形図
100
AcDbText
  0
LINE
  5
C53C
330
18
100
AcDbEntity
  8
0
100
AcDbLine
 10
1698.158781843001
 20
586.8958868599257
 30
0.0
 11
1702.658781843001
 21
586.8958868599262
 31
0.0
  0
LINE
  5
C53D
330
18
100
AcDbEntity
  8
0
100
AcDbLine
 10
1698.158781843001
 20
583.0858868599258
 30
0.0
 11
1702.658781843001
 21
583.0858868599258
 31
0.0
  0
LINE
  5
C53E
330
18
100
AcDbEntity
  8
0
100
AcDbLine
 10
1698.658781843001
 20
589.595886859926
 30
0.0
 11
1698.158781843001
 21
589.8958868599257
 31
0.0
  0
LINE
  5
C53F
330
18
100
AcDbEntity
  8
0
100
AcDbLine
 10
1698.158781843001
 20
586.8958868599257
 30
0.0
 11
1698.658781843001
 21
587.1958868599259
 31
0.0
  0
LINE
  5
C540
330
18
100
AcDbEntity
  8
0
100
AcDbLine
 10
1698.158781843001
 20
583.0858868599258
 30
0.0
 11
1698.658781843001
 21
583.385886859926
 31
0.0
  0
LINE
  5
C541
330
18
100
AcDbEntity
  8
0
100
AcDbLine
 10
1698.658781843001
 20
585.7858868599261
 30
0.0
 11
1698.158781843001
 21
586.0858868599258
 31
0.0
  0
LINE
  5
C542
330
18
100
AcDbEntity
  8
0
100
AcDbLine
 10
1697.658781843001
 20
590.6908868599258
 30
0.0
 11
1697.658781843001
 21
582.2908868599257
 31
0.0
  0
LINE
  5
C543
330
18
100
AcDbEntity
  8
0
100
AcDbLine
 10
1697.658781843001
 20
590.6908868599258
 30
0.0
 11
1708.758781843001
 21
590.6908868599258
 31
0.0
  0
LINE
  5
C544
330
18
100
AcDbEntity
  8
0
100
AcDbLine
 10
1708.758781843001
 20
590.6908868599258
 30
0.0
 11
1708.758781843001
 21
582.2908868599262
 31
0.0
  0
LINE
  5
C545
330
18
100
AcDbEntity
  8
0
100
AcDbLine
 10
1707.758781843001
 20
590.6908868599258
 30
0.0
 11
1707.758781843001
 21
582.2908868599262
 31
0.0
  0
LINE
  5
C546
330
18
100
AcDbEntity
  8
0
100
AcDbLine
 10
1697.658781843001
 20
582.2908868599257
 30
0.0
 11
1708.758781843001
 21
582.2908868599262
 31
0.0
  0
LINE
  5
C547
330
18
100
AcDbEntity
  8
0
100
AcDbLine
 10
1703.658781843001
 20
590.6908868599258
 30
0.0
 11
1703.658781843001
 21
582.2908868599257
 31
0.0
  0
LINE
  5
C548
330
18
100
AcDbEntity
  8
0
100
AcDbLine
 10
1702.658781843001
 20
590.6908868599258
 30
0.0
 11
1702.658781843001
 21
582.2908868599257
 31
0.0
  0
LINE
  5
C549
330
18
100
AcDbEntity
  8
0
100
AcDbLine
 10
1701.658781843001
 20
589.595886859926
 30
0.0
 11
1702.658781843001
 21
589.8958868599257
 31
0.0
  0
LINE
  5
C54A
330
18
100
AcDbEntity
  8
0
100
AcDbLine
 10
1701.658781843001
 20
587.1958868599259
 30
0.0
 11
1702.658781843001
 21
586.8958868599257
 31
0.0
  0
LINE
  5
C54B
330
18
100
AcDbEntity
  8
0
100
AcDbLine
 10
1701.658781843001
 20
583.385886859926
 30
0.0
 11
1702.658781843001
 21
583.0858868599258
 31
0.0
  0
LINE
  5
C54C
330
18
100
AcDbEntity
  8
0
100
AcDbLine
 10
1701.658781843001
 20
585.7858868599261
 30
0.0
 11
1702.658781843001
 21
586.0858868599258
 31
0.0
  0
LINE
  5
C54D
330
18
100
AcDbEntity
  8
0
100
AcDbLine
 10
1698.658781843001
 20
589.595886859926
 30
0.0
 11
1701.658781843001
 21
589.595886859926
 31
0.0
  0
LINE
  5
C54E
330
18
100
AcDbEntity
  8
0
100
AcDbLine
 10
1698.658781843001
 20
587.1958868599259
 30
0.0
 11
1701.658781843001
 21
587.1958868599259
 31
0.0
  0
LINE
  5
C54F
330
18
100
AcDbEntity
  8
0
100
AcDbLine
 10
1698.658781843001
 20
589.595886859926
 30
0.0
 11
1698.658781843001
 21
587.1958868599259
 31
0.0
  0
LINE
  5
C550
330
18
100
AcDbEntity
  8
0
100
AcDbLine
 10
1701.658781843001
 20
589.595886859926
 30
0.0
 11
1701.658781843001
 21
587.1958868599259
 31
0.0
  0
LINE
  5
C551
330
18
100
AcDbEntity
  8
0
100
AcDbLine
 10
1698.658781843001
 20
585.7858868599261
 30
0.0
 11
1701.658781843001
 21
585.7858868599261
 31
0.0
  0
LINE
  5
C552
330
18
100
AcDbEntity
  8
0
100
AcDbLine
 10
1698.658781843001
 20
583.385886859926
 30
0.0
 11
1701.658781843001
 21
583.385886859926
 31
0.0
  0
LINE
  5
C553
330
18
100
AcDbEntity
  8
0
100
AcDbLine
 10
1698.658781843001
 20
585.7858868599261
 30
0.0
 11
1698.658781843001
 21
583.385886859926
 31
0.0
  0
LINE
  5
C554
330
18
100
AcDbEntity
  8
0
100
AcDbLine
 10
1701.658781843001
 20
585.7858868599261
 30
0.0
 11
1701.658781843001
 21
583.385886859926
 31
0.0
  0
LINE
  5
C555
330
18
100
AcDbEntity
  8
0
100
AcDbLine
 10
1698.158781843001
 20
589.8958868599257
 30
0.0
 11
1698.158781843001
 21
586.8958868599257
 31
0.0
  0
LINE
  5
C556
330
18
100
AcDbEntity
  8
0
100
AcDbLine
 10
1698.158781843001
 20
586.0858868599258
 30
0.0
 11
1698.158781843001
 21
583.0858868599258
 31
0.0
  0
LINE
  5
C557
330
18
100
AcDbEntity
  8
0
100
AcDbLine
 10
1698.158781843001
 20
586.0858868599258
 30
0.0
 11
1702.658781843001
 21
586.0858868599258
 31
0.0
  0
LINE
  5
C558
330
18
100
AcDbEntity
  8
0
100
AcDbLine
 10
1698.158781843001
 20
589.8958868599257
 30
0.0
 11
1702.658781843001
 21
589.8958868599257
 31
0.0
  0
LINE
  5
C559
330
18
100
AcDbEntity
  8
0
100
AcDbLine
 10
1697.658781843001
 20
590.6908868599258
 30
0.0
 11
1697.658781843001
 21
582.2908868599257
 31
0.0
  0
LINE
  5
C55A
330
18
100
AcDbEntity
  8
0
100
AcDbLine
 10
1698.658781843001
 20
585.7858868599261
 30
0.0
 11
1698.158781843001
 21
586.0858868599258
 31
0.0
  0
LINE
  5
C55B
330
18
100
AcDbEntity
  8
0
100
AcDbLine
 10
1698.158781843001
 20
583.0858868599258
 30
0.0
 11
1698.658781843001
 21
583.385886859926
 31
0.0
  0
LINE
  5
C55C
330
18
100
AcDbEntity
  8
0
100
AcDbLine
 10
1698.158781843001
 20
586.8958868599257
 30
0.0
 11
1698.658781843001
 21
587.1958868599259
 31
0.0
  0
LINE
  5
C55D
330
18
100
AcDbEntity
  8
0
100
AcDbLine
 10
1698.658781843001
 20
589.595886859926
 30
0.0
 11
1698.158781843001
 21
589.8958868599257
 31
0.0
  0
LINE
  5
C55E
330
18
100
AcDbEntity
  8
0
100
AcDbLine
 10
1698.158781843001
 20
583.0858868599258
 30
0.0
 11
1702.658781843001
 21
583.0858868599258
 31
0.0
  0
LINE
  5
C55F
330
18
100
AcDbEntity
  8
0
100
AcDbLine
 10
1698.158781843001
 20
586.8958868599257
 30
0.0
 11
1702.658781843001
 21
586.8958868599262
 31
0.0
  0
LINE
  5
C560
330
18
100
AcDbEntity
  8
0
100
AcDbLine
 10
1698.158781843001
 20
589.8958868599257
 30
0.0
 11
1702.658781843001
 21
589.8958868599257
 31
0.0
  0
LINE
  5
C561
330
18
100
AcDbEntity
  8
0
100
AcDbLine
 10
1698.158781843001
 20
586.0858868599258
 30
0.0
 11
1702.658781843001
 21
586.0858868599258
 31
0.0
  0
LINE
  5
C562
330
18
100
AcDbEntity
  8
0
100
AcDbLine
 10
1698.158781843001
 20
586.0858868599258
 30
0.0
 11
1698.158781843001
 21
583.0858868599258
 31
0.0
  0
LINE
  5
C563
330
18
100
AcDbEntity
  8
0
100
AcDbLine
 10
1698.158781843001
 20
589.8958868599257
 30
0.0
 11
1698.158781843001
 21
586.8958868599257
 31
0.0
  0
LINE
  5
C564
330
18
100
AcDbEntity
  8
0
100
AcDbLine
 10
1701.658781843001
 20
585.7858868599261
 30
0.0
 11
1701.658781843001
 21
583.385886859926
 31
0.0
  0
LINE
  5
C565
330
18
100
AcDbEntity
  8
0
100
AcDbLine
 10
1698.658781843001
 20
585.7858868599261
 30
0.0
 11
1698.658781843001
 21
583.385886859926
 31
0.0
  0
LINE
  5
C566
330
18
100
AcDbEntity
  8
0
100
AcDbLine
 10
1698.658781843001
 20
583.385886859926
 30
0.0
 11
1701.658781843001
 21
583.385886859926
 31
0.0
  0
LINE
  5
C567
330
18
100
AcDbEntity
  8
0
100
AcDbLine
 10
1698.658781843001
 20
585.7858868599261
 30
0.0
 11
1701.658781843001
 21
585.7858868599261
 31
0.0
  0
LINE
  5
C568
330
18
100
AcDbEntity
  8
0
100
AcDbLine
 10
1701.658781843001
 20
589.595886859926
 30
0.0
 11
1701.658781843001
 21
587.1958868599259
 31
0.0
  0
LINE
  5
C569
330
18
100
AcDbEntity
  8
0
100
AcDbLine
 10
1698.658781843001
 20
589.595886859926
 30
0.0
 11
1698.658781843001
 21
587.1958868599259
 31
0.0
  0
LINE
  5
C56A
330
18
100
AcDbEntity
  8
0
100
AcDbLine
 10
1698.658781843001
 20
587.1958868599259
 30
0.0
 11
1701.658781843001
 21
587.1958868599259
 31
0.0
  0
LINE
  5
C56B
330
18
100
AcDbEntity
  8
0
100
AcDbLine
 10
1698.658781843001
 20
589.595886859926
 30
0.0
 11
1701.658781843001
 21
589.595886859926
 31
0.0
  0
LINE
  5
C56C
330
18
100
AcDbEntity
  8
0
100
AcDbLine
 10
1701.658781843001
 20
585.7858868599261
 30
0.0
 11
1702.658781843001
 21
586.0858868599258
 31
0.0
  0
LINE
  5
C56D
330
18
100
AcDbEntity
  8
0
100
AcDbLine
 10
1701.658781843001
 20
583.385886859926
 30
0.0
 11
1702.658781843001
 21
583.0858868599258
 31
0.0
  0
LINE
  5
C56E
330
18
100
AcDbEntity
  8
0
100
AcDbLine
 10
1701.658781843001
 20
587.1958868599259
 30
0.0
 11
1702.658781843001
 21
586.8958868599257
 31
0.0
  0
LINE
  5
C56F
330
18
100
AcDbEntity
  8
0
100
AcDbLine
 10
1701.658781843001
 20
589.595886859926
 30
0.0
 11
1702.658781843001
 21
589.8958868599257
 31
0.0
  0
LINE
  5
C570
330
18
100
AcDbEntity
  8
0
100
AcDbLine
 10
1702.658781843001
 20
590.6908868599258
 30
0.0
 11
1702.658781843001
 21
582.2908868599257
 31
0.0
  0
LINE
  5
C571
330
18
100
AcDbEntity
  8
0
100
AcDbLine
 10
1703.658781843001
 20
590.6908868599258
 30
0.0
 11
1703.658781843001
 21
582.2908868599257
 31
0.0
  0
LINE
  5
C572
330
18
100
AcDbEntity
  8
0
100
AcDbLine
 10
1697.658781843001
 20
582.2908868599257
 30
0.0
 11
1708.758781843001
 21
582.2908868599262
 31
0.0
  0
LINE
  5
C573
330
18
100
AcDbEntity
  8
0
100
AcDbLine
 10
1707.758781843001
 20
590.6908868599258
 30
0.0
 11
1707.758781843001
 21
582.2908868599262
 31
0.0
  0
LINE
  5
C574
330
18
100
AcDbEntity
  8
0
100
AcDbLine
 10
1708.758781843001
 20
590.6908868599258
 30
0.0
 11
1708.758781843001
 21
582.2908868599262
 31
0.0
  0
LINE
  5
C575
330
18
100
AcDbEntity
  8
0
100
AcDbLine
 10
1697.658781843001
 20
590.6908868599258
 30
0.0
 11
1708.758781843001
 21
590.6908868599258
 31
0.0
  0
VIEWPORT
  5
23
330
15
100
AcDbEntity
 67
     1
  8
0
100
AcDbViewport
 10
199.999259465935
 20
144.0070643858102
 30
0.0
 40
580.5770672049528
 41
291.4473700639634
 68
     1
 69
     1
 12
199.999259465935
 22
144.0070643858102
 13
0.0
 23
0.0
 14
10.0
 24
10.0
 15
10.0
 25
10.0
 16
0.0
 26
0.0
 36
1.0
 17
0.0
 27
0.0
 37
0.0
 42
50.0
 43
0.0
 44
0.0
 45
291.4473700639634
 50
0.0
 51
0.0
 72
   100
 90
    32768
  1

281
     0
 71
     1
 74
     0
110
0.0
120
0.0
130
0.0
111
1.0
121
0.0
131
0.0
112
0.0
122
1.0
132
0.0
 79
     0
146
0.0
  0
ENDSEC
  0
SECTION
  2
OBJECTS
  0
DICTIONARY
  5
C
330
0
100
AcDbDictionary
281
     1
  3
ACAD_DETAILVIEWSTYLE
350
C50F
  3
ACAD_GROUP
350
D
  3
ACAD_IMAGE_VARS
350
C4CE
  3
ACAD_LAYOUT
350
73F
  3
ACAD_MLINESTYLE
350
1B
  3
ACAD_PLOTSETTINGS
350
740
  3
ACAD_PLOTSTYLENAME
350
73D
  3
ACAD_SCALELIST
350
C4A2
  3
ACAD_SECTIONVIEWSTYLE
350
C510
  3
AcadDim
350
A8FA
  3
AcDbVariableDictionary
350
7046
  3
APPDATA
350
C4CC
  3
DWGPROPS
350
C577
  0
DICTIONARY
  5
C4D0
330
2
100
AcDbDictionary
280
     1
281
     1
  3
ACAD_LAYERSTATES
360
C4D1
  3
ACLYDICTIONARY
360
C517
  0
DICTIONARY
  5
C50F
102
{ACAD_REACTORS
330
C
102
}
330
C
100
AcDbDictionary
281
     1
  0
DICTIONARY
  5
D
102
{ACAD_REACTORS
330
C
102
}
330
C
100
AcDbDictionary
281
     1
  0
RASTERVARIABLES
  5
C4CE
102
{ACAD_REACTORS
330
C
102
}
330
C
100
AcDbRasterVariables
 90
        0
 70
     1
 71
     1
 72
     0
  0
DICTIONARY
  5
73F
102
{ACAD_REACTORS
330
C
102
}
330
C
100
AcDbDictionary
281
     1
  3
Model
350
741
  3
ﾚｲｱｳﾄ1
350
742
  0
DICTIONARY
  5
1B
102
{ACAD_REACTORS
330
C
102
}
330
C
100
AcDbDictionary
281
     1
  3
STANDARD
350
1C
  0
DICTIONARY
  5
740
102
{ACAD_REACTORS
330
C
102
}
330
C
100
AcDbDictionary
281
     1
  0
ACDBDICTIONARYWDFLT
  5
73D
102
{ACAD_REACTORS
330
C
102
}
330
C
100
AcDbDictionary
281
     1
  3
Normal
350
73E
100
AcDbDictionaryWithDefault
340
73E
  0
DICTIONARY
  5
C4A2
102
{ACAD_REACTORS
330
C
102
}
330
C
100
AcDbDictionary
281
     1
  3
A0
350
C4A3
  3
A1
350
C4A4
  3
A2
350
C4A5
  3
A3
350
C4A6
  3
A4
350
C4A7
  3
A5
350
C4A8
  3
A6
350
C4A9
  3
A7
350
C4AA
  3
A8
350
C4AB
  3
A9
350
C4AC
  3
B0
350
C4AD
  3
B1
350
C4AE
  3
B2
350
C4AF
  3
B3
350
C4B0
  3
B4
350
C4B1
  3
B5
350
C4B2
  3
B6
350
C4B3
  3
B7
350
C4B4
  3
B8
350
C4B5
  3
B9
350
C4B6
  3
C0
350
C4B7
  3
C1
350
C4B8
  3
C2
350
C4B9
  3
C3
350
C4BA
  3
C4
350
C4BB
  3
C5
350
C4BC
  3
C6
350
C4BD
  3
C7
350
C4BE
  3
C8
350
C4BF
  3
C9
350
C4C0
  3
D0
350
C4C1
  3
D1
350
C4C2
  3
D2
350
C4C3
  0
DICTIONARY
  5
C510
102
{ACAD_REACTORS
330
C
102
}
330
C
100
AcDbDictionary
281
     1
  0
XRECORD
  5
A8FA
102
{ACAD_REACTORS
330
C
102
}
330
C
100
AcDbXrecord
280
     1
 90
   990106
  3

 60
     0
 61
     0
 62
     1
 63
     3
 64
     0
 65
     0
 66
     0
 67
     3
 68
     1
 69
     0
 70
     0
 71
     0
 72
     0
 40
0.0
170
     0
340
0
  0
DICTIONARY
  5
7046
102
{ACAD_REACTORS
330
C
102
}
330
C
100
AcDbDictionary
281
     1
  3
DIMASSOC
350
7047
  0
DICTIONARY
  5
C4CC
102
{ACAD_REACTORS
330
C
102
}
330
C
100
AcDbDictionary
281
     1
  0
XRECORD
  5
C577
102
{ACAD_REACTORS
330
C
102
}
330
C
100
AcDbXrecord
280
     1
  1
DWGPROPS COOKIE
  2

  3

  4

  6

  7

  8
k-yoshida
  9

300
=
301
=
302
=
303
=
304
=
305
=
306
=
307
=
308
=
309
=
 40
0.0
 41
2451224.285162384
 42
2457310.288445937
  1

 90
        0
  0
DICTIONARY
  5
C4D1
102
{ACAD_REACTORS
330
C4D0
102
}
330
C4D0
100
AcDbDictionary
281
     1
  3
ARGON_LAYERP_1
350
C4D2
  3
ARGON_LAYERP_2
350
C4D3
  3
ARGON_LAYERP_3
350
C512
  3
ARGON_LAYERP_4
350
C514
  3
ARGON_LAYERP_5
350
C516
  3
ARGON_LAYERP_6
350
C518
  0
DICTIONARY
  5
C517
102
{ACAD_REACTORS
330
C4D0
102
}
330
C4D0
100
AcDbDictionary
281
     1
1001
ACAD
1000
<All
  0
LAYOUT
  5
741
102
{ACAD_REACTORS
330
73F
102
}
330
73F
100
AcDbPlotSettings
  1

  2
HP DesignJet 750C (D/A1) Color
  4
ISO_A3_(420.00_x_297.00_MM)
  6

 40
7.5
 41
20.0
 42
7.5
 43
20.0
 44
420.0
 45
297.0
 46
0.0
 47
0.0
 48
0.0
 49
0.0
140
0.0
141
0.0
142
1.0
143
1.526403418270508
 70
  1712
 72
     1
 73
     0
 74
     0
  7

 75
     0
147
0.6551348012133323
148
-1461.467293312776
149
-432.6260374583366
100
AcDbLayout
  1
Model
 70
     1
 71
     0
 10
0.0
 20
0.0
 11
12.0
 21
9.0
 12
0.0
 22
0.0
 32
0.0
 14
1687.550199133883
 24
502.6109477950886
 34
0.0
 15
2004.488416957439
 25
740.4377277783368
 35
0.0
146
0.0
 13
0.0
 23
0.0
 33
0.0
 16
1.0
 26
0.0
 36
0.0
 17
0.0
 27
1.0
 37
0.0
 76
     0
330
18
  0
LAYOUT
  5
742
102
{ACAD_REACTORS
330
73F
102
}
330
73F
100
AcDbPlotSettings
  1

  2
SII LP-1010_A3.pc3
  4
A3
  6

 40
3.174999952316283
 41
3.174999952316283
 42
3.17498779296875
 43
3.17498779296875
 44
296.9259948730469
 45
419.9466552734373
 46
0.0
 47
0.0
 48
0.0
 49
0.0
140
0.0
141
0.0
142
1.0
143
1.0
 70
   688
 72
     1
 73
     1
 74
     1
  7
monochrome.ctb
 75
    16
147
1.0
148
0.006731271532999
149
0.0123290738313244
100
AcDbLayout
  1
ﾚｲｱｳﾄ1
 70
     0
 71
     1
 10
-3.181719064501749
 20
-3.187329026147608
 11
416.7649362089355
 21
293.7386658468992
 12
0.0
 22
0.0
 32
0.0
 14
1.000000000000000E+20
 24
1.000000000000000E+20
 34
1.000000000000000E+20
 15
-1.000000000000000E+20
 25
-1.000000000000000E+20
 35
-1.000000000000000E+20
146
0.0
 13
0.0
 23
0.0
 33
0.0
 16
1.0
 26
0.0
 36
0.0
 17
0.0
 27
1.0
 37
0.0
 76
     0
330
15
331
23
  0
MLINESTYLE
  5
1C
102
{ACAD_REACTORS
330
1B
102
}
330
1B
100
AcDbMlineStyle
  2
STANDARD
 70
     0
  3

 62
   256
 51
90.0
 52
90.0
 71
     2
 49
0.5
 62
   256
  6
BYLAYER
 49
-0.5
 62
   256
  6
BYLAYER
  0
ACDBPLACEHOLDER
  5
73E
102
{ACAD_REACTORS
330
73D
102
}
330
73D
  0
ACAD_PROXY_OBJECT
  5
C4A3
102
{ACAD_REACTORS
330
C4A2
102
}
330
C4A2
100
AcDbProxyObject
 90
      499
 91
      507
 95
   655383
 70
     0
 93
       41
310
903313A31581
 94
        0
  0
ACAD_PROXY_OBJECT
  5
C4A4
102
{ACAD_REACTORS
330
C4A2
102
}
330
C4A2
100
AcDbProxyObject
 90
      499
 91
      507
 95
   655383
 70
     0
 93
      105
310
903313A324000000000000004000
 94
        0
  0
ACAD_PROXY_OBJECT
  5
C4A5
102
{ACAD_REACTORS
330
C4A2
102
}
330
C4A2
100
AcDbProxyObject
 90
      499
 91
      507
 95
   655383
 70
     0
 93
      105
310
903313A344000000000000104000
 94
        0
  0
ACAD_PROXY_OBJECT
  5
C4A6
102
{ACAD_REACTORS
330
C4A2
102
}
330
C4A2
100
AcDbProxyObject
 90
      499
 91
      507
 95
   655383
 70
     0
 93
      105
310
903313A354000000000000144000
 94
        0
  0
ACAD_PROXY_OBJECT
  5
C4A7
102
{ACAD_REACTORS
330
C4A2
102
}
330
C4A2
100
AcDbProxyObject
 90
      499
 91
      507
 95
   655383
 70
     0
 93
      105
310
903313A384000000000000204000
 94
        0
  0
ACAD_PROXY_OBJECT
  5
C4A8
102
{ACAD_REACTORS
330
C4A2
102
}
330
C4A2
100
AcDbProxyObject
 90
      499
 91
      507
 95
   655383
 70
     0
 93
      113
310
904313A31304000000000000244000
 94
        0
  0
ACAD_PROXY_OBJECT
  5
C4A9
102
{ACAD_REACTORS
330
C4A2
102
}
330
C4A2
100
AcDbProxyObject
 90
      499
 91
      507
 95
   655383
 70
     0
 93
      113
310
904313A31364000000000000304000
 94
        0
  0
ACAD_PROXY_OBJECT
  5
C4AA
102
{ACAD_REACTORS
330
C4A2
102
}
330
C4A2
100
AcDbProxyObject
 90
      499
 91
      507
 95
   655383
 70
     0
 93
      113
310
904313A32304000000000000344000
 94
        0
  0
ACAD_PROXY_OBJECT
  5
C4AB
102
{ACAD_REACTORS
330
C4A2
102
}
330
C4A2
100
AcDbProxyObject
 90
      499
 91
      507
 95
   655383
 70
     0
 93
      113
310
904313A333040000000000003E4000
 94
        0
  0
ACAD_PROXY_OBJECT
  5
C4AC
102
{ACAD_REACTORS
330
C4A2
102
}
330
C4A2
100
AcDbProxyObject
 90
      499
 91
      507
 95
   655383
 70
     0
 93
      113
310
904313A34304000000000000444000
 94
        0
  0
ACAD_PROXY_OBJECT
  5
C4AD
102
{ACAD_REACTORS
330
C4A2
102
}
330
C4A2
100
AcDbProxyObject
 90
      499
 91
      507
 95
   655383
 70
     0
 93
      113
310
904313A35304000000000000494000
 94
        0
  0
ACAD_PROXY_OBJECT
  5
C4AE
102
{ACAD_REACTORS
330
C4A2
102
}
330
C4A2
100
AcDbProxyObject
 90
      499
 91
      507
 95
   655383
 70
     0
 93
      121
310
905313A3130304000000000000594000
 94
        0
  0
ACAD_PROXY_OBJECT
  5
C4AF
102
{ACAD_REACTORS
330
C4A2
102
}
330
C4A2
100
AcDbProxyObject
 90
      499
 91
      507
 95
   655383
 70
     0
 93
      105
310
903323A310000000000000010159
 94
        0
  0
ACAD_PROXY_OBJECT
  5
C4B0
102
{ACAD_REACTORS
330
C4A2
102
}
330
C4A2
100
AcDbProxyObject
 90
      499
 91
      507
 95
   655383
 70
     0
 93
      105
310
903343A310000000000000410159
 94
        0
  0
ACAD_PROXY_OBJECT
  5
C4B1
102
{ACAD_REACTORS
330
C4A2
102
}
330
C4A2
100
AcDbProxyObject
 90
      499
 91
      507
 95
   655383
 70
     0
 93
      105
310
903383A310000000000000810159
 94
        0
  0
ACAD_PROXY_OBJECT
  5
C4B2
102
{ACAD_REACTORS
330
C4A2
102
}
330
C4A2
100
AcDbProxyObject
 90
      499
 91
      507
 95
   655383
 70
     0
 93
      113
310
90431303A310000000000000910140
 94
        0
  0
ACAD_PROXY_OBJECT
  5
C4B3
102
{ACAD_REACTORS
330
C4A2
102
}
330
C4A2
100
AcDbProxyObject
 90
      499
 91
      507
 95
   655383
 70
     0
 93
      121
310
9053130303A310000000000001650100
 94
        0
  0
ACAD_PROXY_OBJECT
  5
C4B4
102
{ACAD_REACTORS
330
C4A2
102
}
330
C4A2
100
AcDbProxyObject
 90
      499
 91
      507
 95
   655383
 70
     0
 93
      257
310
90E312F31323822203D2031272D3022000000000000200FC000000000000284000
 94
        0
  0
ACAD_PROXY_OBJECT
  5
C4B5
102
{ACAD_REACTORS
330
C4A2
102
}
330
C4A2
100
AcDbProxyObject
 90
      499
 91
      507
 95
   655383
 70
     0
 93
      249
310
90D312F363422203D2031272D3022000000000000240FC000000000000284040
 94
        0
  0
ACAD_PROXY_OBJECT
  5
C4B6
102
{ACAD_REACTORS
330
C4A2
102
}
330
C4A2
100
AcDbProxyObject
 90
      499
 91
      507
 95
   655383
 70
     0
 93
      249
310
90D312F333222203D2031272D3022000000000000280FC000000000000284040
 94
        0
  0
ACAD_PROXY_OBJECT
  5
C4B7
102
{ACAD_REACTORS
330
C4A2
102
}
330
C4A2
100
AcDbProxyObject
 90
      499
 91
      507
 95
   655383
 70
     0
 93
      249
310
90D312F313622203D2031272D30220000000000002C0FC000000000000284040
 94
        0
  0
ACAD_PROXY_OBJECT
  5
C4B8
102
{ACAD_REACTORS
330
C4A2
102
}
330
C4A2
100
AcDbProxyObject
 90
      499
 91
      507
 95
   655383
 70
     0
 93
      249
310
90D332F333222203D2031272D30220000000000002E0FC000000000000284040
 94
        0
  0
ACAD_PROXY_OBJECT
  5
C4B9
102
{ACAD_REACTORS
330
C4A2
102
}
330
C4A2
100
AcDbProxyObject
 90
      499
 91
      507
 95
   655383
 70
     0
 93
      241
310
90C312F3822203D2031272D3022000000000000300FC000000000000284040
 94
        0
  0
ACAD_PROXY_OBJECT
  5
C4BA
102
{ACAD_REACTORS
330
C4A2
102
}
330
C4A2
100
AcDbProxyObject
 90
      499
 91
      507
 95
   655383
 70
     0
 93
      249
310
90D332F313622203D2031272D3022000000000000320FC000000000000284040
 94
        0
  0
ACAD_PROXY_OBJECT
  5
C4BB
102
{ACAD_REACTORS
330
C4A2
102
}
330
C4A2
100
AcDbProxyObject
 90
      499
 91
      507
 95
   655383
 70
     0
 93
      241
310
90C312F3422203D2031272D3022000000000000340FC000000000000284040
 94
        0
  0
ACAD_PROXY_OBJECT
  5
C4BC
102
{ACAD_REACTORS
330
C4A2
102
}
330
C4A2
100
AcDbProxyObject
 90
      499
 91
      507
 95
   655383
 70
     0
 93
      241
310
90C332F3822203D2031272D3022000000000000360FC000000000000284040
 94
        0
  0
ACAD_PROXY_OBJECT
  5
C4BD
102
{ACAD_REACTORS
330
C4A2
102
}
330
C4A2
100
AcDbProxyObject
 90
      499
 91
      507
 95
   655383
 70
     0
 93
      241
310
90C312F3222203D2031272D3022000000000000380FC000000000000284040
 94
        0
  0
ACAD_PROXY_OBJECT
  5
C4BE
102
{ACAD_REACTORS
330
C4A2
102
}
330
C4A2
100
AcDbProxyObject
 90
      499
 91
      507
 95
   655383
 70
     0
 93
      241
310
90C332F3422203D2031272D30220000000000003A0FC000000000000284040
 94
        0
  0
ACAD_PROXY_OBJECT
  5
C4BF
102
{ACAD_REACTORS
330
C4A2
102
}
330
C4A2
100
AcDbProxyObject
 90
      499
 91
      507
 95
   655383
 70
     0
 93
      161
310
90A3122203D2031272D30224000000000000284020
 94
        0
  0
ACAD_PROXY_OBJECT
  5
C4C0
102
{ACAD_REACTORS
330
C4A2
102
}
330
C4A2
100
AcDbProxyObject
 90
      499
 91
      507
 95
   655383
 70
     0
 93
      257
310
90E312D312F3222203D2031272D30220000000000003E0FC000000000000284000
 94
        0
  0
ACAD_PROXY_OBJECT
  5
C4C1
102
{ACAD_REACTORS
330
C4A2
102
}
330
C4A2
100
AcDbProxyObject
 90
      499
 91
      507
 95
   655383
 70
     0
 93
      225
310
90A3322203D2031272D302200000000000002100000000000000284000
 94
        0
  0
ACAD_PROXY_OBJECT
  5
C4C2
102
{ACAD_REACTORS
330
C4A2
102
}
330
C4A2
100
AcDbProxyObject
 90
      499
 91
      507
 95
   655383
 70
     0
 93
      225
310
90A3622203D2031272D302200000000000006100000000000000284000
 94
        0
  0
ACAD_PROXY_OBJECT
  5
C4C3
102
{ACAD_REACTORS
330
C4A2
102
}
330
C4A2
100
AcDbProxyObject
 90
      499
 91
      507
 95
   655383
 70
     0
 93
      249
310
90D31272D3022203D2031272D30220000000000000A100000000000000284040
 94
        0
  0
DICTIONARYVAR
  5
7047
102
{ACAD_REACTORS
330
7046
102
}
330
7046
100
DictionaryVariables
280
     0
  1
1
  0
XRECORD
  5
C4D2
102
{ACAD_REACTORS
330
C4D1
102
}
330
C4D1
100
AcDbXrecord
280
     1
 91
     1023
301

290
     0
302
ｷｮｳﾀｲ
330
E
 90
        8
 62
     7
370
    -3
331
14
  1
Color_7
330
0
 90
        9
 62
     1
370
    -3
331
14
  1
Color_1
330
0
 90
        8
 62
     7
370
    -3
331
14
  1
Color_7
330
0
 90
        8
 62
     2
370
    -3
331
14
  1
Color_2
330
0
 90
        0
 62
     7
370
    -3
331
14
  1
Color_7
330
0
 90
        8
 62
     7
370
    -3
331
14
  1
Color_7
330
0
 90
        8
 62
     4
370
    15
331
14
  1
Color_4
330
0
 90
        8
 62
     9
370
    -3
331
14
  1
Color_9
330
0
 90
        8
 62
   211
370
    -3
331
14
  1
Color_211
330
0
 90
        8
 62
     3
370
    -3
331
14
  1
Color_3
330
0
 90
        8
 62
   120
370
    -3
331
14
  1
Color_120
330
0
 90
        8
 62
     7
370
    -3
331
14
  1
Color_7
330
0
 90
        8
 62
     7
370
    -3
331
14
  1
Color_7
330
0
 90
        8
 62
    10
370
    -3
331
14
  1
Color_10
330
0
 90
        8
 62
     9
370
    -3
331
14
  1
Color_9
  0
XRECORD
  5
C4D3
102
{ACAD_REACTORS
330
C4D1
102
}
330
C4D1
100
AcDbXrecord
280
     1
 91
     1023
301

290
     0
302
0
330
E
 90
        8
 62
     7
370
    -3
331
14
  1
Color_7
330
0
 90
        9
 62
     1
370
    -3
331
14
  1
Color_1
330
0
 90
        8
 62
     7
370
    -3
331
14
  1
Color_7
330
0
 90
        8
 62
     2
370
    -3
331
14
  1
Color_2
330
0
 90
        0
 62
     7
370
    -3
331
14
  1
Color_7
330
0
 90
        8
 62
     7
370
    -3
331
14
  1
Color_7
330
0
 90
        8
 62
     4
370
    15
331
14
  1
Color_4
330
0
 90
        8
 62
     9
370
    -3
331
14
  1
Color_9
330
0
 90
        8
 62
   211
370
    -3
331
14
  1
Color_211
330
0
 90
        8
 62
     3
370
    -3
331
14
  1
Color_3
330
0
 90
        8
 62
   120
370
    -3
331
14
  1
Color_120
330
0
 90
        8
 62
     7
370
    -3
331
14
  1
Color_7
330
0
 90
        8
 62
     7
370
    -3
331
14
  1
Color_7
330
0
 90
        8
 62
    10
370
    -3
331
14
  1
Color_10
330
0
 90
        8
 62
     9
370
    -3
331
14
  1
Color_9
  0
XRECORD
  5
C512
102
{ACAD_REACTORS
330
C4D1
102
}
330
C4D1
100
AcDbXrecord
280
     1
 91
     1023
301

290
     0
302
0
330
E
 90
        8
 62
     7
370
    -3
331
14
  1
Color_7
330
0
 90
        8
 62
     1
370
    -3
331
14
  1
Color_1
330
0
 90
        8
 62
     7
370
    -3
331
14
  1
Color_7
330
0
 90
        8
 62
     2
370
    -3
331
14
  1
Color_2
330
0
 90
        0
 62
     7
370
    -3
331
14
  1
Color_7
330
0
 90
        8
 62
     7
370
    -3
331
14
  1
Color_7
330
0
 90
        8
 62
     4
370
    15
331
14
  1
Color_4
330
0
 90
        8
 62
     9
370
    -3
331
14
  1
Color_9
330
0
 90
        8
 62
   211
370
    -3
331
14
  1
Color_211
330
0
 90
        8
 62
     3
370
    -3
331
14
  1
Color_3
330
0
 90
        8
 62
   120
370
    -3
331
14
  1
Color_120
330
0
 90
        8
 62
     7
370
    -3
331
14
  1
Color_7
330
0
 90
        8
 62
     7
370
    -3
331
14
  1
Color_7
330
0
 90
        8
 62
    10
370
    -3
331
14
  1
Color_10
330
0
 90
        8
 62
     9
370
    -3
331
14
  1
Color_9
  0
XRECORD
  5
C514
102
{ACAD_REACTORS
330
C4D1
102
}
330
C4D1
100
AcDbXrecord
280
     1
 91
     1023
301

290
     0
302
0
330
E
 90
       12
 62
     7
370
    -3
331
14
  1
Color_7
330
0
 90
       12
 62
     1
370
    -3
331
14
  1
Color_1
330
0
 90
       12
 62
     7
370
    -3
331
14
  1
Color_7
330
0
 90
       12
 62
     2
370
    -3
331
14
  1
Color_2
330
0
 90
        4
 62
     7
370
    -3
331
14
  1
Color_7
330
0
 90
       12
 62
     7
370
    -3
331
14
  1
Color_7
330
0
 90
        8
 62
     4
370
    15
331
14
  1
Color_4
330
0
 90
       12
 62
     9
370
    -3
331
14
  1
Color_9
330
0
 90
       12
 62
   211
370
    -3
331
14
  1
Color_211
330
0
 90
       12
 62
     3
370
    -3
331
14
  1
Color_3
330
0
 90
       12
 62
   120
370
    -3
331
14
  1
Color_120
330
0
 90
       12
 62
     7
370
    -3
331
14
  1
Color_7
330
0
 90
       12
 62
     7
370
    -3
331
14
  1
Color_7
330
0
 90
       12
 62
    10
370
    -3
331
14
  1
Color_10
330
0
 90
       12
 62
     9
370
    -3
331
14
  1
Color_9
  0
XRECORD
  5
C516
102
{ACAD_REACTORS
330
C4D1
102
}
330
C4D1
100
AcDbXrecord
280
     1
 91
     1023
301

290
     0
302
大ﾀﾝｼ
330
E
 90
       12
 62
     7
370
    -3
331
14
  1
Color_7
330
0
 90
       12
 62
     1
370
    -3
331
14
  1
Color_1
330
0
 90
       12
 62
     7
370
    -3
331
14
  1
Color_7
330
0
 90
       12
 62
     2
370
    -3
331
14
  1
Color_2
330
0
 90
        4
 62
     7
370
    -3
331
14
  1
Color_7
330
0
 90
       12
 62
     7
370
    -3
331
14
  1
Color_7
330
0
 90
        8
 62
     4
370
    15
331
14
  1
Color_4
330
0
 90
       12
 62
     9
370
    -3
331
14
  1
Color_9
330
0
 90
       12
 62
   211
370
    -3
331
14
  1
Color_211
330
0
 90
       12
 62
     3
370
    -3
331
14
  1
Color_3
330
0
 90
       12
 62
   120
370
    -3
331
14
  1
Color_120
330
0
 90
       12
 62
     7
370
    -3
331
14
  1
Color_7
330
0
 90
       12
 62
     7
370
    -3
331
14
  1
Color_7
330
0
 90
       12
 62
    10
370
    -3
331
14
  1
Color_10
330
0
 90
       12
 62
     9
370
    -3
331
14
  1
Color_9
  0
XRECORD
  5
C518
102
{ACAD_REACTORS
330
C4D1
102
}
330
C4D1
100
AcDbXrecord
280
     1
 91
     1023
301

290
     0
302
大ﾀﾝｼ
330
E
 90
        8
 62
     7
370
    -3
331
14
  1
Color_7
330
0
 90
        8
 62
     1
370
    -3
331
14
  1
Color_1
330
0
 90
        8
 62
     7
370
    -3
331
14
  1
Color_7
330
0
 90
        8
 62
     2
370
    -3
331
14
  1
Color_2
330
0
 90
        0
 62
     7
370
    -3
331
14
  1
Color_7
330
0
 90
        8
 62
     7
370
    -3
331
14
  1
Color_7
330
0
 90
        8
 62
     4
370
    15
331
14
  1
Color_4
330
0
 90
        8
 62
     9
370
    -3
331
14
  1
Color_9
330
0
 90
        8
 62
   211
370
    -3
331
14
  1
Color_211
330
0
 90
        8
 62
     3
370
    -3
331
14
  1
Color_3
330
0
 90
        8
 62
   120
370
    -3
331
14
  1
Color_120
330
0
 90
        8
 62
     7
370
    -3
331
14
  1
Color_7
330
0
 90
        8
 62
     7
370
    -3
331
14
  1
Color_7
330
0
 90
        8
 62
    10
370
    -3
331
14
  1
Color_10
330
0
 90
        8
 62
     9
370
    -3
331
14
  1
Color_9
  0
ENDSEC
  0
EOF
