  0
SECTION
  2
HEADER
  9
$ACADVER
  1
AC1015
  9
$ACADMAINTVER
 70
    10
  9
$DWGCODEPAGE
  3
ANSI_932
  9
$INSBASE
 10
0.0
 20
0.0
 30
0.0
  9
$EXTMIN
 10
2180.921339038067
 20
616.2225340644197
 30
0.0
  9
$EXTMAX
 10
2631.798420589758
 20
986.9261093969818
 30
0.0
  9
$LIMMIN
 10
0.0
 20
0.0
  9
$LIMMAX
 10
420.0
 20
297.0
  9
$ORTHOMODE
 70
     0
  9
$REGENMODE
 70
     1
  9
$FILLMODE
 70
     1
  9
$QTEXTMODE
 70
     0
  9
$MIRRTEXT
 70
     1
  9
$LTSCALE
 40
1.0
  9
$ATTMODE
 70
     1
  9
$TEXTSIZE
 40
2.0
  9
$TRACEWID
 40
1.0
  9
$TEXTSTYLE
  7
TIMESNR
  9
$CLAYER
  8
0
  9
$CELTYPE
  6
BYLAYER
  9
$CECOLOR
 62
   256
  9
$CELTSCALE
 40
0.1
  9
$DISPSILH
 70
     0
  9
$DIMSCALE
 40
1.0
  9
$DIMASZ
 40
4.0
  9
$DIMEXO
 40
1.5
  9
$DIMDLI
 40
5.0
  9
$DIMRND
 40
0.0
  9
$DIMDLE
 40
0.0
  9
$DIMEXE
 40
0.75
  9
$DIMTP
 40
0.0
  9
$DIMTM
 40
0.0
  9
$DIMTXT
 40
6.0
  9
$DIMCEN
 40
2.5
  9
$DIMTSZ
 40
0.0
  9
$DIMTOL
 70
     0
  9
$DIMLIM
 70
     0
  9
$DIMTIH
 70
     0
  9
$DIMTOH
 70
     0
  9
$DIMSE1
 70
     0
  9
$DIMSE2
 70
     0
  9
$DIMTAD
 70
     1
  9
$DIMZIN
 70
     9
  9
$DIMBLK
  1

  9
$DIMASO
 70
     1
  9
$DIMSHO
 70
     1
  9
$DIMPOST
  1

  9
$DIMAPOST
  1

  9
$DIMALT
 70
     0
  9
$DIMALTD
 70
     4
  9
$DIMALTF
 40
0.0394
  9
$DIMLFAC
 40
1.0
  9
$DIMTOFL
 70
     1
  9
$DIMTVP
 40
0.0
  9
$DIMTIX
 70
     0
  9
$DIMSOXD
 70
     0
  9
$DIMSAH
 70
     1
  9
$DIMBLK1
  1
OPEN
  9
$DIMBLK2
  1
OPEN
  9
$DIMSTYLE
  2
STANDARD
  9
$DIMCLRD
 70
     0
  9
$DIMCLRE
 70
     0
  9
$DIMCLRT
 70
     7
  9
$DIMTFAC
 40
1.0
  9
$DIMGAP
 40
1.5
  9
$DIMJUST
 70
     0
  9
$DIMSD1
 70
     0
  9
$DIMSD2
 70
     0
  9
$DIMTOLJ
 70
     1
  9
$DIMTZIN
 70
     9
  9
$DIMALTZ
 70
     0
  9
$DIMALTTZ
 70
     0
  9
$DIMUPT
 70
     0
  9
$DIMDEC
 70
     4
  9
$DIMTDEC
 70
     4
  9
$DIMALTU
 70
     8
  9
$DIMALTTD
 70
     4
  9
$DIMTXSTY
  7
STANDARD
  9
$DIMAUNIT
 70
     0
  9
$DIMADEC
 70
     0
  9
$DIMALTRND
 40
0.0
  9
$DIMAZIN
 70
     2
  9
$DIMDSEP
 70
    46
  9
$DIMATFIT
 70
     3
  9
$DIMFRAC
 70
     0
  9
$DIMLDRBLK
  1
OPEN
  9
$DIMLUNIT
 70
     2
  9
$DIMLWD
 70
    -2
  9
$DIMLWE
 70
    -2
  9
$DIMTMOVE
 70
     2
  9
$LUNITS
 70
     2
  9
$LUPREC
 70
     4
  9
$SKETCHINC
 40
1.0
  9
$FILLETRAD
 40
1.0
  9
$AUNITS
 70
     0
  9
$AUPREC
 70
     0
  9
$MENU
  1
.
  9
$ELEVATION
 40
0.0
  9
$PELEVATION
 40
0.0
  9
$THICKNESS
 40
0.0
  9
$LIMCHECK
 70
     0
  9
$CHAMFERA
 40
1.0
  9
$CHAMFERB
 40
1.0
  9
$CHAMFERC
 40
20.0
  9
$CHAMFERD
 40
0.0
  9
$SKPOLY
 70
     0
  9
$TDCREATE
 40
2451224.660162384
  9
$TDUCREATE
 40
2451224.285162384
  9
$TDUPDATE
 40
2457366.585395497
  9
$TDUUPDATE
 40
2457366.210395497
  9
$TDINDWG
 40
1.8461070718
  9
$TDUSRTIMER
 40
2457352.097062546
  9
$USRTIMER
 70
     1
  9
$ANGBASE
 50
0.0
  9
$ANGDIR
 70
     0
  9
$PDMODE
 70
     0
  9
$PDSIZE
 40
0.0
  9
$PLINEWID
 40
0.0
  9
$SPLFRAME
 70
     0
  9
$SPLINETYPE
 70
     6
  9
$SPLINESEGS
 70
     8
  9
$HANDSEED
  5
C9E3
  9
$SURFTAB1
 70
     6
  9
$SURFTAB2
 70
     6
  9
$SURFTYPE
 70
     6
  9
$SURFU
 70
     6
  9
$SURFV
 70
     6
  9
$UCSBASE
  2

  9
$UCSNAME
  2

  9
$UCSORG
 10
0.0
 20
0.0
 30
0.0
  9
$UCSXDIR
 10
1.0
 20
0.0
 30
0.0
  9
$UCSYDIR
 10
0.0
 20
1.0
 30
0.0
  9
$UCSORTHOREF
  2

  9
$UCSORTHOVIEW
 70
     0
  9
$UCSORGTOP
 10
0.0
 20
0.0
 30
0.0
  9
$UCSORGBOTTOM
 10
0.0
 20
0.0
 30
0.0
  9
$UCSORGLEFT
 10
0.0
 20
0.0
 30
0.0
  9
$UCSORGRIGHT
 10
0.0
 20
0.0
 30
0.0
  9
$UCSORGFRONT
 10
0.0
 20
0.0
 30
0.0
  9
$UCSORGBACK
 10
0.0
 20
0.0
 30
0.0
  9
$PUCSBASE
  2

  9
$PUCSNAME
  2

  9
$PUCSORG
 10
0.0
 20
0.0
 30
0.0
  9
$PUCSXDIR
 10
1.0
 20
0.0
 30
0.0
  9
$PUCSYDIR
 10
0.0
 20
1.0
 30
0.0
  9
$PUCSORTHOREF
  2

  9
$PUCSORTHOVIEW
 70
     0
  9
$PUCSORGTOP
 10
0.0
 20
0.0
 30
0.0
  9
$PUCSORGBOTTOM
 10
0.0
 20
0.0
 30
0.0
  9
$PUCSORGLEFT
 10
0.0
 20
0.0
 30
0.0
  9
$PUCSORGRIGHT
 10
0.0
 20
0.0
 30
0.0
  9
$PUCSORGFRONT
 10
0.0
 20
0.0
 30
0.0
  9
$PUCSORGBACK
 10
0.0
 20
0.0
 30
0.0
  9
$USERI1
 70
     0
  9
$USERI2
 70
     0
  9
$USERI3
 70
     0
  9
$USERI4
 70
     0
  9
$USERI5
 70
     0
  9
$USERR1
 40
0.0
  9
$USERR2
 40
0.0
  9
$USERR3
 40
0.0
  9
$USERR4
 40
0.0
  9
$USERR5
 40
0.0
  9
$WORLDVIEW
 70
     1
  9
$SHADEDGE
 70
     3
  9
$SHADEDIF
 70
    70
  9
$TILEMODE
 70
     1
  9
$MAXACTVP
 70
    48
  9
$PINSBASE
 10
0.0
 20
0.0
 30
0.0
  9
$PLIMCHECK
 70
     0
  9
$PEXTMIN
 10
1.000000000000000E+20
 20
1.000000000000000E+20
 30
1.000000000000000E+20
  9
$PEXTMAX
 10
-1.000000000000000E+20
 20
-1.000000000000000E+20
 30
-1.000000000000000E+20
  9
$PLIMMIN
 10
-4.522431653282746
 20
-4.506078251930014
  9
$PLIMMAX
 10
415.6204301087802
 20
292.4950708043886
  9
$UNITMODE
 70
     0
  9
$VISRETAIN
 70
     1
  9
$PLINEGEN
 70
     0
  9
$PSLTSCALE
 70
     0
  9
$TREEDEPTH
 70
  3020
  9
$CMLSTYLE
  2
STANDARD
  9
$CMLJUST
 70
     0
  9
$CMLSCALE
 40
20.0
  9
$PROXYGRAPHICS
 70
     1
  9
$MEASUREMENT
 70
     1
  9
$CELWEIGHT
370
    -1
  9
$ENDCAPS
280
     0
  9
$JOINSTYLE
280
     0
  9
$LWDISPLAY
290
     1
  9
$INSUNITS
 70
     0
  9
$HYPERLINKBASE
  1

  9
$STYLESHEET
  1

  9
$XEDIT
290
     1
  9
$CEPSNTYPE
380
     0
  9
$PSTYLEMODE
290
     1
  9
$FINGERPRINTGUID
  2
{6B368F64-F7EB-11D4-BFBA-00004C030E53}
  9
$VERSIONGUID
  2
{7E39E6D5-980F-41AE-B61B-05842AB1D383}
  9
$EXTNAMES
290
     1
  9
$PSVPSCALE
 40
0.0
  9
$OLESTARTUP
290
     0
  0
ENDSEC
  0
SECTION
  2
CLASSES
  0
CLASS
  1
HATCH
  2
AcDbHatch
  3
AutoCAD 2000
 90
    32768
280
     0
281
     1
  0
CLASS
  1
LWPOLYLINE
  2
AcDbPolyline
  3
AutoCAD 2000
 90
    32768
280
     0
281
     1
  0
CLASS
  1
ACDBDICTIONARYWDFLT
  2
AcDbDictionaryWithDefault
  3
AutoCAD 2000
 90
        0
280
     0
281
     0
  0
CLASS
  1
ACDBPLACEHOLDER
  2
AcDbPlaceHolder
  3
AutoCAD 2000
 90
        0
280
     0
281
     0
  0
CLASS
  1
LAYOUT
  2
AcDbLayout
  3
AutoCAD 2000
 90
        0
280
     0
281
     0
  0
CLASS
  1
DICTIONARYVAR
  2
AcDbDictionaryVar
  3
AutoCAD 2000
 90
        0
280
     0
281
     0
  0
CLASS
  1
VISUALSTYLE
  2
AcDbVisualStyle
  3
ObjectDBX Classes
 90
    36863
280
     0
281
     0
  0
CLASS
  1
SCALE
  2
AcDbScale
  3
ObjectDBX Classes
 90
     1153
280
     0
281
     0
  0
CLASS
  1
MATERIAL
  2
AcDbMaterial
  3
ObjectDBX Classes
 90
    33921
280
     0
281
     0
  0
CLASS
  1
TABLESTYLE
  2
AcDbTableStyle
  3
ObjectDBX Classes
 90
    36863
280
     0
281
     0
  0
CLASS
  1
MLEADERSTYLE
  2
AcDbMLeaderStyle
  3
ACDB_MLEADERSTYLE_CLASS
 90
    36863
280
     0
281
     0
  0
CLASS
  1
SUN
  2
AcDbSun
  3
SCENEOE
 90
     1153
280
     0
281
     0
  0
CLASS
  1
RASTERVARIABLES
  2
AcDbRasterVariables
  3
ISM
 90
        0
280
     0
281
     0
  0
ENDSEC
  0
SECTION
  2
TABLES
  0
TABLE
  2
VPORT
  5
8
330
0
100
AcDbSymbolTable
 70
     2
  0
VPORT
  5
C9E2
330
8
100
AcDbSymbolTableRecord
100
AcDbViewportTableRecord
  2
*Active
 70
     0
 10
0.0
 20
0.0
 11
1.0
 21
1.0
 12
2406.484143882624
 22
827.0815515350133
 13
0.0
 23
0.0
 14
10.0
 24
10.0
 15
10.0
 25
10.0
 16
0.0
 26
0.0
 36
1.0
 17
0.0
 27
0.0
 37
0.0
 40
426.5481470569752
 41
1.562182741116751
 42
50.0
 43
0.0
 44
0.0
 50
0.0
 51
0.0
 71
    16
 72
   100
 73
     1
 74
     0
 75
     0
 76
     0
 77
     0
 78
     0
281
     0
 65
     1
110
0.0
120
0.0
130
0.0
111
1.0
121
0.0
131
0.0
112
0.0
122
1.0
132
0.0
 79
     0
146
0.0
  0
ENDTAB
  0
TABLE
  2
LTYPE
  5
5
330
0
100
AcDbSymbolTable
 70
     1
  0
LTYPE
  5
12
330
5
100
AcDbSymbolTableRecord
100
AcDbLinetypeTableRecord
  2
BYBLOCK
 70
     0
  3

 72
    65
 73
     0
 40
0.0
  0
LTYPE
  5
13
330
5
100
AcDbSymbolTableRecord
100
AcDbLinetypeTableRecord
  2
BYLAYER
 70
     0
  3

 72
    65
 73
     0
 40
0.0
  0
LTYPE
  5
14
330
5
100
AcDbSymbolTableRecord
100
AcDbLinetypeTableRecord
  2
CONTINUOUS
 70
     0
  3
Solid line
 72
    65
 73
     0
 40
0.0
  0
ENDTAB
  0
TABLE
  2
LAYER
  5
2
102
{ACAD_XDICTIONARY
360
C94E
102
}
330
0
100
AcDbSymbolTable
 70
     1
  0
LAYER
  5
E
330
2
100
AcDbSymbolTableRecord
100
AcDbLayerTableRecord
  2
0
 70
     0
 62
     7
  6
CONTINUOUS
370
    -3
390
73E
  0
ENDTAB
  0
TABLE
  2
STYLE
  5
3
330
0
100
AcDbSymbolTable
 70
     3
  0
STYLE
  5
F
330
3
100
AcDbSymbolTableRecord
100
AcDbTextStyleTableRecord
  2
STANDARD
 70
     0
 40
0.0
 41
1.0
 50
0.0
 71
     0
 42
3.0
  3
MS Gothic.ttf
  4

1001
ACAD
1000
MS Gothic
1071
    32817
  0
STYLE
  5
34
330
3
100
AcDbSymbolTableRecord
100
AcDbTextStyleTableRecord
  2
TIMESNR
 70
     0
 40
0.0
 41
1.0
 50
0.0
 71
     0
 42
2.0
  3
MS Gothic.ttf
  4

1001
ACAD
1000
MS Gothic
1071
    32817
  0
STYLE
  5
35
330
3
100
AcDbSymbolTableRecord
100
AcDbTextStyleTableRecord
  2
MSｺﾞｼｯｸ
 70
     0
 40
0.0
 41
1.0
 50
0.0
 71
     0
 42
5.0
  3
MS Gothic.ttf
  4

1001
ACAD
1000
MS Gothic
1071
    32817
  0
ENDTAB
  0
TABLE
  2
VIEW
  5
6
330
0
100
AcDbSymbolTable
 70
     0
  0
ENDTAB
  0
TABLE
  2
UCS
  5
7
330
0
100
AcDbSymbolTable
 70
     0
  0
ENDTAB
  0
TABLE
  2
APPID
  5
9
330
0
100
AcDbSymbolTable
 70
     1
  0
APPID
  5
10
330
9
100
AcDbSymbolTableRecord
100
AcDbRegAppTableRecord
  2
ACAD
 70
     0
  0
ENDTAB
  0
TABLE
  2
DIMSTYLE
  5
A
330
0
100
AcDbSymbolTable
 70
     1
100
AcDbDimStyleTable
 71
     0
  0
DIMSTYLE
105
1D
330
A
100
AcDbSymbolTableRecord
100
AcDbDimStyleTableRecord
  2
STANDARD
 70
     0
 78
     8
 79
     2
140
3.0
340
F
341
89E
342
89E
  0
ENDTAB
  0
TABLE
  2
BLOCK_RECORD
  5
1
330
0
100
AcDbSymbolTable
 70
     2
  0
BLOCK_RECORD
  5
18
330
1
100
AcDbSymbolTableRecord
100
AcDbBlockTableRecord
  2
*MODEL_SPACE
340
741
  0
BLOCK_RECORD
  5
15
330
1
100
AcDbSymbolTableRecord
100
AcDbBlockTableRecord
  2
*PAPER_SPACE
340
742
  0
BLOCK_RECORD
  5
24
330
1
100
AcDbSymbolTableRecord
100
AcDbBlockTableRecord
  2
_OPEN
340
0
  0
BLOCK_RECORD
  5
89E
330
1
100
AcDbSymbolTableRecord
100
AcDbBlockTableRecord
  2
_Open30
340
0
  0
ENDTAB
  0
ENDSEC
  0
SECTION
  2
BLOCKS
  0
BLOCK
  5
19
330
18
100
AcDbEntity
  8
0
100
AcDbBlockBegin
  2
*MODEL_SPACE
 70
     0
 10
0.0
 20
0.0
 30
0.0
  3
*MODEL_SPACE
  1

  0
ENDBLK
  5
1A
330
18
100
AcDbEntity
  8
0
100
AcDbBlockEnd
  0
BLOCK
  5
16
330
15
100
AcDbEntity
 67
     1
  8
0
100
AcDbBlockBegin
  2
*PAPER_SPACE
 70
     0
 10
0.0
 20
0.0
 30
0.0
  3
*PAPER_SPACE
  1

  0
ENDBLK
  5
17
330
15
100
AcDbEntity
 67
     1
  8
0
100
AcDbBlockEnd
  0
BLOCK
  5
25
330
24
100
AcDbEntity
  8
0
100
AcDbBlockBegin
  2
_OPEN
 70
     0
 10
0.0
 20
0.0
 30
0.0
  3
_OPEN
  1

  0
LINE
  5
26
330
24
100
AcDbEntity
  8
0
  6
ByBlock
 62
     0
100
AcDbLine
 10
-1.0
 20
0.1666666666666666
 30
0.0
 11
0.0
 21
0.0
 31
0.0
  0
LINE
  5
27
330
24
100
AcDbEntity
  8
0
  6
ByBlock
 62
     0
100
AcDbLine
 10
0.0
 20
0.0
 30
0.0
 11
-1.0
 21
-0.1666666666666666
 31
0.0
  0
LINE
  5
28
330
24
100
AcDbEntity
  8
0
  6
ByBlock
 62
     0
100
AcDbLine
 10
0.0
 20
0.0
 30
0.0
 11
-1.0
 21
0.0
 31
0.0
  0
ENDBLK
  5
29
330
24
100
AcDbEntity
  8
0
100
AcDbBlockEnd
  0
BLOCK
  5
8A2
330
89E
100
AcDbEntity
  8
0
100
AcDbBlockBegin
  2
_Open30
 70
     0
 10
0.0
 20
0.0
 30
0.0
  3
_Open30
  1

  0
LINE
  5
89F
330
89E
100
AcDbEntity
  8
0
  6
ByBlock
 62
     0
370
    -2
100
AcDbLine
 10
-1.0
 20
0.26794919
 30
0.0
 11
0.0
 21
0.0
 31
0.0
  0
LINE
  5
8A0
330
89E
100
AcDbEntity
  8
0
  6
ByBlock
 62
     0
370
    -2
100
AcDbLine
 10
0.0
 20
0.0
 30
0.0
 11
-1.0
 21
-0.26794919
 31
0.0
  0
LINE
  5
8A1
330
89E
100
AcDbEntity
  8
0
  6
ByBlock
 62
     0
370
    -2
100
AcDbLine
 10
0.0
 20
0.0
 30
0.0
 11
-1.0
 21
0.0
 31
0.0
  0
ENDBLK
  5
8A3
330
89E
100
AcDbEntity
  8
0
100
AcDbBlockEnd
  0
ENDSEC
  0
SECTION
  2
ENTITIES
  0
MTEXT
  5
8FAF
330
18
100
AcDbEntity
  8
0
 48
0.1
100
AcDbMText
 10
2016.570289152685
 20
-54.48178575600969
 30
0.0
 40
6.0
 41
0.0
 71
     9
 72
     1
  1

 73
     1
 44
1.0
  0
MTEXT
  5
B395
330
18
100
AcDbEntity
  8
0
100
AcDbMText
 10
2340.657041803129
 20
616.5232056728369
 30
0.0
 40
6.0
 41
0.0
 71
     1
 72
     1
  1

 73
     1
 44
1.0
  0
LINE
  5
C208
330
18
100
AcDbEntity
  8
0
100
AcDbLine
 10
2631.798420589758
 20
753.0267900027808
 30
0.0
 11
2628.798420589756
 21
753.0267900027816
 31
0.0
  0
LINE
  5
C209
330
18
100
AcDbEntity
  8
0
100
AcDbLine
 10
2631.798420589758
 20
681.0267900027803
 30
0.0
 11
2628.798420589758
 21
681.0267900027803
 31
0.0
  0
LINE
  5
C20A
330
18
100
AcDbEntity
  8
0
100
AcDbLine
 10
2628.798420589756
 20
986.9261093969809
 30
0.0
 11
2631.798420589756
 21
986.9261093969818
 31
0.0
  0
LINE
  5
C20B
330
18
100
AcDbEntity
  8
0
100
AcDbLine
 10
2628.798420589757
 20
770.92610939698
 30
0.0
 11
2631.798420589758
 21
770.92610939698
 31
0.0
  0
LINE
  5
C20C
330
18
100
AcDbEntity
  8
0
100
AcDbLine
 10
2631.798420589758
 20
673.0267900027803
 30
0.0
 11
2471.798420589757
 21
673.0267900027808
 31
0.0
  0
LINE
  5
C21A
330
18
100
AcDbEntity
  8
0
100
AcDbLine
 10
2626.798420589756
 20
753.0267900027816
 30
0.0
 11
2626.798420589756
 21
677.0267900027817
 31
0.0
  0
LINE
  5
C21B
330
18
100
AcDbEntity
  8
0
100
AcDbLine
 10
2614.798420589755
 20
716.5267900027816
 30
0.0
 11
2614.798420589755
 21
746.5267900027817
 31
0.0
  0
LINE
  5
C21C
330
18
100
AcDbEntity
  8
0
100
AcDbLine
 10
2612.298420589755
 20
746.5267900027817
 30
0.0
 11
2612.298420589755
 21
716.5267900027816
 31
0.0
  0
LINE
  5
C21D
330
18
100
AcDbEntity
  8
0
100
AcDbLine
 10
2609.298420589755
 20
716.5267900027816
 30
0.0
 11
2609.298420589755
 21
746.5267900027817
 31
0.0
  0
LINE
  5
C21E
330
18
100
AcDbEntity
  8
0
100
AcDbLine
 10
2606.798420589755
 20
746.5267900027817
 30
0.0
 11
2606.798420589755
 21
716.5267900027816
 31
0.0
  0
LINE
  5
C21F
330
18
100
AcDbEntity
  8
0
100
AcDbLine
 10
2603.798420589755
 20
716.5267900027816
 30
0.0
 11
2603.798420589755
 21
746.5267900027817
 31
0.0
  0
LINE
  5
C220
330
18
100
AcDbEntity
  8
0
100
AcDbLine
 10
2617.798420589755
 20
746.5267900027817
 30
0.0
 11
2617.798420589755
 21
716.5267900027816
 31
0.0
  0
LINE
  5
C221
330
18
100
AcDbEntity
  8
0
100
AcDbLine
 10
2628.798420589757
 20
753.0267900027808
 30
0.0
 11
2628.798420589758
 21
676.0267900027803
 31
0.0
  0
LINE
  5
C222
330
18
100
AcDbEntity
  8
0
100
AcDbLine
 10
2476.798420589755
 20
677.0267900027817
 30
0.0
 11
2476.798420589755
 21
753.0267900027825
 31
0.0
  0
LINE
  5
C223
330
18
100
AcDbEntity
  8
0
100
AcDbLine
 10
2496.298420589755
 20
716.5267900027816
 30
0.0
 11
2496.298420589755
 21
746.5267900027817
 31
0.0
  0
LINE
  5
C224
330
18
100
AcDbEntity
  8
0
100
AcDbLine
 10
2493.798420589755
 20
746.5267900027817
 30
0.0
 11
2493.798420589755
 21
716.5267900027816
 31
0.0
  0
LINE
  5
C225
330
18
100
AcDbEntity
  8
0
100
AcDbLine
 10
2490.798420589755
 20
716.5267900027816
 30
0.0
 11
2490.798420589755
 21
746.5267900027817
 31
0.0
  0
LINE
  5
C226
330
18
100
AcDbEntity
  8
0
100
AcDbLine
 10
2488.298420589755
 20
746.5267900027817
 30
0.0
 11
2488.298420589755
 21
716.5267900027816
 31
0.0
  0
LINE
  5
C227
330
18
100
AcDbEntity
  8
0
100
AcDbLine
 10
2485.298420589755
 20
716.5267900027816
 30
0.0
 11
2485.298420589755
 21
746.5267900027817
 31
0.0
  0
LINE
  5
C228
330
18
100
AcDbEntity
  8
0
100
AcDbLine
 10
2501.798420589755
 20
716.5267900027816
 30
0.0
 11
2501.798420589755
 21
746.5267900027817
 31
0.0
  0
LINE
  5
C229
330
18
100
AcDbEntity
  8
0
100
AcDbLine
 10
2504.798420589755
 20
746.5267900027817
 30
0.0
 11
2504.798420589755
 21
716.5267900027816
 31
0.0
  0
LINE
  5
C22A
330
18
100
AcDbEntity
  8
0
100
AcDbLine
 10
2507.298420589755
 20
716.5267900027816
 30
0.0
 11
2507.298420589755
 21
746.5267900027817
 31
0.0
  0
LINE
  5
C22B
330
18
100
AcDbEntity
  8
0
100
AcDbLine
 10
2510.298420589755
 20
746.5267900027817
 30
0.0
 11
2510.298420589755
 21
716.5267900027816
 31
0.0
  0
LINE
  5
C22C
330
18
100
AcDbEntity
  8
0
100
AcDbLine
 10
2512.798420589755
 20
716.5267900027816
 30
0.0
 11
2512.798420589755
 21
746.5267900027817
 31
0.0
  0
LINE
  5
C22D
330
18
100
AcDbEntity
  8
0
100
AcDbLine
 10
2499.298420589755
 20
746.5267900027817
 30
0.0
 11
2499.298420589755
 21
716.5267900027816
 31
0.0
  0
LINE
  5
C22E
330
18
100
AcDbEntity
  8
0
100
AcDbLine
 10
2515.798420589755
 20
746.5267900027817
 30
0.0
 11
2515.798420589755
 21
716.5267900027816
 31
0.0
  0
LINE
  5
C22F
330
18
100
AcDbEntity
  8
0
100
AcDbLine
 10
2518.298420589755
 20
716.5267900027816
 30
0.0
 11
2518.298420589755
 21
746.5267900027817
 31
0.0
  0
LINE
  5
C230
330
18
100
AcDbEntity
  8
0
100
AcDbLine
 10
2521.298420589755
 20
746.5267900027817
 30
0.0
 11
2521.298420589755
 21
716.5267900027816
 31
0.0
  0
LINE
  5
C231
330
18
100
AcDbEntity
  8
0
100
AcDbLine
 10
2523.798420589756
 20
716.5267900027816
 30
0.0
 11
2523.798420589756
 21
746.5267900027817
 31
0.0
  0
LINE
  5
C232
330
18
100
AcDbEntity
  8
0
100
AcDbLine
 10
2526.798420589755
 20
746.5267900027817
 30
0.0
 11
2526.798420589755
 21
716.5267900027816
 31
0.0
  0
LINE
  5
C233
330
18
100
AcDbEntity
  8
0
100
AcDbLine
 10
2535.798420589755
 20
716.5267900027816
 30
0.0
 11
2535.798420589755
 21
746.5267900027817
 31
0.0
  0
LINE
  5
C234
330
18
100
AcDbEntity
  8
0
100
AcDbLine
 10
2538.798420589755
 20
746.5267900027817
 30
0.0
 11
2538.798420589755
 21
716.5267900027816
 31
0.0
  0
LINE
  5
C235
330
18
100
AcDbEntity
  8
0
100
AcDbLine
 10
2541.298420589755
 20
716.5267900027816
 30
0.0
 11
2541.298420589755
 21
746.5267900027817
 31
0.0
  0
LINE
  5
C236
330
18
100
AcDbEntity
  8
0
100
AcDbLine
 10
2529.298420589755
 20
716.5267900027816
 30
0.0
 11
2529.298420589755
 21
746.5267900027817
 31
0.0
  0
LINE
  5
C237
330
18
100
AcDbEntity
  8
0
100
AcDbLine
 10
2532.298420589755
 20
746.5267900027817
 30
0.0
 11
2532.298420589755
 21
716.5267900027816
 31
0.0
  0
LINE
  5
C238
330
18
100
AcDbEntity
  8
0
100
AcDbLine
 10
2544.298420589755
 20
746.5267900027817
 30
0.0
 11
2544.298420589755
 21
716.5267900027816
 31
0.0
  0
LINE
  5
C239
330
18
100
AcDbEntity
  8
0
100
AcDbLine
 10
2546.798420589755
 20
716.5267900027816
 30
0.0
 11
2546.798420589755
 21
746.5267900027817
 31
0.0
  0
LINE
  5
C23A
330
18
100
AcDbEntity
  8
0
100
AcDbLine
 10
2549.798420589755
 20
746.5267900027817
 30
0.0
 11
2549.798420589755
 21
716.5267900027816
 31
0.0
  0
LINE
  5
C23B
330
18
100
AcDbEntity
  8
0
100
AcDbLine
 10
2552.298420589755
 20
716.5267900027816
 30
0.0
 11
2552.298420589755
 21
746.5267900027817
 31
0.0
  0
LINE
  5
C23C
330
18
100
AcDbEntity
  8
0
100
AcDbLine
 10
2555.298420589755
 20
746.5267900027817
 30
0.0
 11
2555.298420589755
 21
716.5267900027816
 31
0.0
  0
LINE
  5
C23D
330
18
100
AcDbEntity
  8
0
100
AcDbLine
 10
2557.798420589755
 20
716.5267900027816
 30
0.0
 11
2557.798420589755
 21
746.5267900027817
 31
0.0
  0
LINE
  5
C23E
330
18
100
AcDbEntity
  8
0
100
AcDbLine
 10
2569.798420589755
 20
716.5267900027816
 30
0.0
 11
2569.798420589755
 21
746.5267900027817
 31
0.0
  0
LINE
  5
C23F
330
18
100
AcDbEntity
  8
0
100
AcDbLine
 10
2572.798420589755
 20
746.5267900027817
 30
0.0
 11
2572.798420589755
 21
716.5267900027816
 31
0.0
  0
LINE
  5
C240
330
18
100
AcDbEntity
  8
0
100
AcDbLine
 10
2560.798420589755
 20
746.5267900027817
 30
0.0
 11
2560.798420589755
 21
716.5267900027816
 31
0.0
  0
LINE
  5
C241
330
18
100
AcDbEntity
  8
0
100
AcDbLine
 10
2563.298420589755
 20
716.5267900027816
 30
0.0
 11
2563.298420589755
 21
746.5267900027817
 31
0.0
  0
LINE
  5
C242
330
18
100
AcDbEntity
  8
0
100
AcDbLine
 10
2566.298420589755
 20
746.5267900027817
 30
0.0
 11
2566.298420589755
 21
716.5267900027816
 31
0.0
  0
LINE
  5
C243
330
18
100
AcDbEntity
  8
0
100
AcDbLine
 10
2575.298420589755
 20
716.5267900027816
 30
0.0
 11
2575.298420589755
 21
746.5267900027817
 31
0.0
  0
LINE
  5
C244
330
18
100
AcDbEntity
  8
0
100
AcDbLine
 10
2578.298420589755
 20
746.5267900027817
 30
0.0
 11
2578.298420589755
 21
716.5267900027816
 31
0.0
  0
LINE
  5
C245
330
18
100
AcDbEntity
  8
0
100
AcDbLine
 10
2580.798420589755
 20
716.5267900027816
 30
0.0
 11
2580.798420589755
 21
746.5267900027817
 31
0.0
  0
LINE
  5
C246
330
18
100
AcDbEntity
  8
0
100
AcDbLine
 10
2583.798420589755
 20
746.5267900027817
 30
0.0
 11
2583.798420589755
 21
716.5267900027816
 31
0.0
  0
LINE
  5
C247
330
18
100
AcDbEntity
  8
0
100
AcDbLine
 10
2586.298420589756
 20
716.5267900027816
 30
0.0
 11
2586.298420589756
 21
746.5267900027817
 31
0.0
  0
LINE
  5
C248
330
18
100
AcDbEntity
  8
0
100
AcDbLine
 10
2589.298420589755
 20
746.5267900027817
 30
0.0
 11
2589.298420589755
 21
716.5267900027816
 31
0.0
  0
LINE
  5
C249
330
18
100
AcDbEntity
  8
0
100
AcDbLine
 10
2591.798420589755
 20
716.5267900027816
 30
0.0
 11
2591.798420589755
 21
746.5267900027817
 31
0.0
  0
LINE
  5
C24A
330
18
100
AcDbEntity
  8
0
100
AcDbLine
 10
2594.798420589755
 20
746.5267900027817
 30
0.0
 11
2594.798420589755
 21
716.5267900027816
 31
0.0
  0
LINE
  5
C24B
330
18
100
AcDbEntity
  8
0
100
AcDbLine
 10
2597.298420589755
 20
716.5267900027816
 30
0.0
 11
2597.298420589755
 21
746.5267900027817
 31
0.0
  0
LINE
  5
C24C
330
18
100
AcDbEntity
  8
0
100
AcDbLine
 10
2600.298420589755
 20
746.5267900027817
 30
0.0
 11
2600.298420589755
 21
716.5267900027816
 31
0.0
  0
LINE
  5
C24D
330
18
100
AcDbEntity
  8
0
100
AcDbLine
 10
2474.798420589757
 20
753.0267900027808
 30
0.0
 11
2474.798420589757
 21
676.0267900027803
 31
0.0
  0
LINE
  5
C24E
330
18
100
AcDbEntity
  8
0
100
AcDbLine
 10
2471.798420589757
 20
753.0267900027803
 30
0.0
 11
2471.798420589757
 21
673.0267900027808
 31
0.0
  0
LINE
  5
C24F
330
18
100
AcDbEntity
  8
0
100
AcDbLine
 10
2442.298420589756
 20
700.5267900027807
 30
0.0
 11
2442.298420589756
 21
735.5267900027808
 31
0.0
  0
LINE
  5
C250
330
18
100
AcDbEntity
  8
0
100
AcDbLine
 10
2471.798420589756
 20
700.5267900027803
 30
0.0
 11
2471.798420589756
 21
735.5267900027803
 31
0.0
  0
LINE
  5
C251
330
18
100
AcDbEntity
  8
0
100
AcDbLine
 10
2532.298420589755
 20
716.5267900027816
 30
0.0
 11
2529.298420589755
 21
716.5267900027816
 31
0.0
  0
LINE
  5
C252
330
18
100
AcDbEntity
  8
0
100
AcDbLine
 10
2532.298420589755
 20
711.5267900027816
 30
0.0
 11
2529.298420589755
 21
711.5267900027816
 31
0.0
  0
LINE
  5
C253
330
18
100
AcDbEntity
  8
0
100
AcDbLine
 10
2529.298420589755
 20
681.5267900027817
 30
0.0
 11
2532.298420589755
 21
681.5267900027817
 31
0.0
  0
LINE
  5
C254
330
18
100
AcDbEntity
  8
0
100
AcDbLine
 10
2625.798420589756
 20
676.0267900027817
 30
0.0
 11
2477.798420589754
 21
676.0267900027817
 31
0.0
  0
LINE
  5
C255
330
18
100
AcDbEntity
  8
0
100
AcDbLine
 10
2628.798420589758
 20
676.0267900027803
 30
0.0
 11
2474.798420589757
 21
676.0267900027803
 31
0.0
  0
LINE
  5
C256
330
18
100
AcDbEntity
  8
0
100
AcDbLine
 10
2474.798420589761
 20
707.0267900027817
 30
0.0
 11
2476.798420589755
 21
707.0267900027812
 31
0.0
  0
LINE
  5
C257
330
18
100
AcDbEntity
  8
0
100
AcDbLine
 10
2474.798420589761
 20
717.0267900027816
 30
0.0
 11
2476.798420589755
 21
717.0267900027812
 31
0.0
  0
ARC
  5
C258
330
18
100
AcDbEntity
  8
0
100
AcDbCircle
 10
2500.498420589757
 20
671.2267900027811
 30
0.0
 40
1.199999999999999
100
AcDbArc
 50
180.0
 51
270.0
  0
ARC
  5
C259
330
18
100
AcDbEntity
  8
0
100
AcDbCircle
 10
2503.098420589755
 20
671.2267900027811
 30
0.0
 40
1.199999999999999
100
AcDbArc
 50
270.0
 51
0.0
  0
LINE
  5
C25A
330
18
100
AcDbEntity
  8
0
100
AcDbLine
 10
2500.498420589757
 20
670.0267900027808
 30
0.0
 11
2503.098420589755
 21
670.0267900027808
 31
0.0
  0
LWPOLYLINE
  5
C25B
330
18
100
AcDbEntity
  8
0
100
AcDbPolyline
 90
        4
 70
     1
 43
0.0
 10
2499.298420589756
 20
672.0267900027807
 10
2504.298420589756
 20
672.0267900027807
 10
2504.298420589756
 20
672.5267900027808
 10
2499.298420589756
 20
672.5267900027808
  0
LINE
  5
C25C
330
18
100
AcDbEntity
  8
0
100
AcDbLine
 10
2499.298420589756
 20
672.0267900027807
 30
0.0
 11
2499.298420589756
 21
671.2267900027815
 31
0.0
  0
LINE
  5
C25D
330
18
100
AcDbEntity
  8
0
100
AcDbLine
 10
2504.298420589756
 20
671.2267900027815
 30
0.0
 11
2504.298420589756
 21
672.0267900027807
 31
0.0
  0
LWPOLYLINE
  5
C25E
330
18
100
AcDbEntity
  8
0
100
AcDbPolyline
 90
        4
 70
     1
 43
0.0
 10
2498.798420589756
 20
672.5267900027808
 10
2504.798420589756
 20
672.5267900027808
 10
2504.798420589756
 20
673.0267900027808
 10
2498.798420589756
 20
673.0267900027808
  0
ARC
  5
C25F
330
18
100
AcDbEntity
  8
0
100
AcDbCircle
 10
2468.798420589757
 20
714.1934566694473
 30
0.0
 40
2.0
100
AcDbArc
 50
90.0
 51
180.0
  0
ARC
  5
C260
330
18
100
AcDbEntity
  8
0
100
AcDbCircle
 10
2468.798420589757
 20
709.8601233361161
 30
0.0
 40
2.0
100
AcDbArc
 50
180.0
 51
270.0
  0
LINE
  5
C261
330
18
100
AcDbEntity
  8
0
100
AcDbLine
 10
2466.798420589756
 20
714.1934566694473
 30
0.0
 11
2466.798420589756
 21
709.8601233361161
 31
0.0
  0
LWPOLYLINE
  5
C262
330
18
100
AcDbEntity
  8
0
100
AcDbPolyline
 90
        4
 70
     1
 43
0.0
 10
2470.13175392309
 20
716.1934566694486
 10
2470.13175392309
 20
707.8601233361147
 10
2470.965087256424
 20
707.8601233361147
 10
2470.965087256424
 20
716.1934566694486
  0
LINE
  5
C263
330
18
100
AcDbEntity
  8
0
100
AcDbLine
 10
2470.131753923089
 20
716.1934566694482
 30
0.0
 11
2468.798420589757
 21
716.1934566694482
 31
0.0
  0
LINE
  5
C264
330
18
100
AcDbEntity
  8
0
100
AcDbLine
 10
2468.798420589757
 20
707.8601233361151
 30
0.0
 11
2470.131753923089
 21
707.8601233361151
 31
0.0
  0
LWPOLYLINE
  5
C265
330
18
100
AcDbEntity
  8
0
100
AcDbPolyline
 90
        4
 70
     1
 43
0.0
 10
2470.965087256424
 20
717.0267900027816
 10
2470.965087256424
 20
707.0267900027817
 10
2471.798420589756
 20
707.0267900027817
 10
2471.798420589756
 20
717.0267900027816
  0
LINE
  5
C266
330
18
100
AcDbEntity
  8
0
100
AcDbLine
 10
2515.798420589755
 20
716.5267900027816
 30
0.0
 11
2512.798420589755
 21
716.5267900027816
 31
0.0
  0
LINE
  5
C267
330
18
100
AcDbEntity
  8
0
100
AcDbLine
 10
2512.798420589755
 20
681.5267900027817
 30
0.0
 11
2515.798420589755
 21
681.5267900027817
 31
0.0
  0
LINE
  5
C268
330
18
100
AcDbEntity
  8
0
100
AcDbLine
 10
2515.798420589755
 20
711.5267900027816
 30
0.0
 11
2512.798420589755
 21
711.5267900027816
 31
0.0
  0
LINE
  5
C269
330
18
100
AcDbEntity
  8
0
100
AcDbLine
 10
2512.798420589755
 20
711.5267900027816
 30
0.0
 11
2512.798420589755
 21
681.5267900027817
 31
0.0
  0
LINE
  5
C26A
330
18
100
AcDbEntity
  8
0
100
AcDbLine
 10
2510.298420589755
 20
681.5267900027817
 30
0.0
 11
2510.298420589755
 21
711.5267900027816
 31
0.0
  0
LINE
  5
C26B
330
18
100
AcDbEntity
  8
0
100
AcDbLine
 10
2507.298420589755
 20
711.5267900027816
 30
0.0
 11
2507.298420589755
 21
681.5267900027817
 31
0.0
  0
LINE
  5
C26C
330
18
100
AcDbEntity
  8
0
100
AcDbLine
 10
2504.798420589755
 20
681.5267900027817
 30
0.0
 11
2504.798420589755
 21
711.5267900027816
 31
0.0
  0
LINE
  5
C26D
330
18
100
AcDbEntity
  8
0
100
AcDbLine
 10
2501.798420589755
 20
711.5267900027816
 30
0.0
 11
2501.798420589755
 21
681.5267900027817
 31
0.0
  0
LINE
  5
C26E
330
18
100
AcDbEntity
  8
0
100
AcDbLine
 10
2504.798420589755
 20
716.5267900027816
 30
0.0
 11
2501.798420589755
 21
716.5267900027816
 31
0.0
  0
LINE
  5
C26F
330
18
100
AcDbEntity
  8
0
100
AcDbLine
 10
2510.298420589755
 20
716.5267900027816
 30
0.0
 11
2507.298420589755
 21
716.5267900027816
 31
0.0
  0
LINE
  5
C270
330
18
100
AcDbEntity
  8
0
100
AcDbLine
 10
2504.798420589755
 20
711.5267900027816
 30
0.0
 11
2501.798420589755
 21
711.5267900027816
 31
0.0
  0
LINE
  5
C271
330
18
100
AcDbEntity
  8
0
100
AcDbLine
 10
2510.298420589755
 20
711.5267900027816
 30
0.0
 11
2507.298420589755
 21
711.5267900027816
 31
0.0
  0
LINE
  5
C272
330
18
100
AcDbEntity
  8
0
100
AcDbLine
 10
2507.298420589755
 20
681.5267900027817
 30
0.0
 11
2510.298420589755
 21
681.5267900027817
 31
0.0
  0
LINE
  5
C273
330
18
100
AcDbEntity
  8
0
100
AcDbLine
 10
2501.798420589755
 20
681.5267900027817
 30
0.0
 11
2504.798420589755
 21
681.5267900027817
 31
0.0
  0
LINE
  5
C274
330
18
100
AcDbEntity
  8
0
100
AcDbLine
 10
2529.298420589755
 20
711.5267900027816
 30
0.0
 11
2529.298420589755
 21
681.5267900027817
 31
0.0
  0
LINE
  5
C275
330
18
100
AcDbEntity
  8
0
100
AcDbLine
 10
2526.798420589755
 20
681.5267900027817
 30
0.0
 11
2526.798420589755
 21
711.5267900027816
 31
0.0
  0
LINE
  5
C276
330
18
100
AcDbEntity
  8
0
100
AcDbLine
 10
2523.798420589756
 20
711.5267900027816
 30
0.0
 11
2523.798420589756
 21
681.5267900027817
 31
0.0
  0
LINE
  5
C277
330
18
100
AcDbEntity
  8
0
100
AcDbLine
 10
2521.298420589755
 20
681.5267900027817
 30
0.0
 11
2521.298420589755
 21
711.5267900027816
 31
0.0
  0
LINE
  5
C278
330
18
100
AcDbEntity
  8
0
100
AcDbLine
 10
2518.298420589755
 20
711.5267900027816
 30
0.0
 11
2518.298420589755
 21
681.5267900027817
 31
0.0
  0
LINE
  5
C279
330
18
100
AcDbEntity
  8
0
100
AcDbLine
 10
2515.798420589755
 20
681.5267900027817
 30
0.0
 11
2515.798420589755
 21
711.5267900027816
 31
0.0
  0
LINE
  5
C27A
330
18
100
AcDbEntity
  8
0
100
AcDbLine
 10
2521.298420589755
 20
716.5267900027816
 30
0.0
 11
2518.298420589755
 21
716.5267900027816
 31
0.0
  0
LINE
  5
C27B
330
18
100
AcDbEntity
  8
0
100
AcDbLine
 10
2526.798420589755
 20
716.5267900027816
 30
0.0
 11
2523.798420589756
 21
716.5267900027816
 31
0.0
  0
LINE
  5
C27C
330
18
100
AcDbEntity
  8
0
100
AcDbLine
 10
2521.298420589755
 20
711.5267900027816
 30
0.0
 11
2518.298420589755
 21
711.5267900027816
 31
0.0
  0
LINE
  5
C27D
330
18
100
AcDbEntity
  8
0
100
AcDbLine
 10
2526.798420589755
 20
711.5267900027816
 30
0.0
 11
2523.798420589756
 21
711.5267900027816
 31
0.0
  0
LINE
  5
C27E
330
18
100
AcDbEntity
  8
0
100
AcDbLine
 10
2523.798420589756
 20
681.5267900027817
 30
0.0
 11
2526.798420589755
 21
681.5267900027817
 31
0.0
  0
LINE
  5
C27F
330
18
100
AcDbEntity
  8
0
100
AcDbLine
 10
2518.298420589755
 20
681.5267900027817
 30
0.0
 11
2521.298420589755
 21
681.5267900027817
 31
0.0
  0
LINE
  5
C280
330
18
100
AcDbEntity
  8
0
100
AcDbLine
 10
2477.798420589754
 20
676.0267900027817
 30
0.0
 11
2476.798420589755
 21
677.0267900027817
 31
0.0
  0
LINE
  5
C281
330
18
100
AcDbEntity
  8
0
100
AcDbLine
 10
2485.298420589755
 20
711.5267900027816
 30
0.0
 11
2485.298420589755
 21
681.5267900027817
 31
0.0
  0
LINE
  5
C282
330
18
100
AcDbEntity
  8
0
100
AcDbLine
 10
2488.298420589755
 20
681.5267900027817
 30
0.0
 11
2488.298420589755
 21
711.5267900027816
 31
0.0
  0
LINE
  5
C283
330
18
100
AcDbEntity
  8
0
100
AcDbLine
 10
2490.798420589755
 20
711.5267900027816
 30
0.0
 11
2490.798420589755
 21
681.5267900027817
 31
0.0
  0
LINE
  5
C284
330
18
100
AcDbEntity
  8
0
100
AcDbLine
 10
2493.798420589755
 20
681.5267900027817
 30
0.0
 11
2493.798420589755
 21
711.5267900027816
 31
0.0
  0
LINE
  5
C285
330
18
100
AcDbEntity
  8
0
100
AcDbLine
 10
2496.298420589755
 20
711.5267900027816
 30
0.0
 11
2496.298420589755
 21
681.5267900027817
 31
0.0
  0
LINE
  5
C286
330
18
100
AcDbEntity
  8
0
100
AcDbLine
 10
2499.298420589755
 20
681.5267900027817
 30
0.0
 11
2499.298420589755
 21
711.5267900027816
 31
0.0
  0
LINE
  5
C287
330
18
100
AcDbEntity
  8
0
100
AcDbLine
 10
2499.298420589755
 20
711.5267900027816
 30
0.0
 11
2496.298420589755
 21
711.5267900027816
 31
0.0
  0
LINE
  5
C288
330
18
100
AcDbEntity
  8
0
100
AcDbLine
 10
2499.298420589755
 20
716.5267900027816
 30
0.0
 11
2496.298420589755
 21
716.5267900027816
 31
0.0
  0
LINE
  5
C289
330
18
100
AcDbEntity
  8
0
100
AcDbLine
 10
2493.798420589755
 20
711.5267900027816
 30
0.0
 11
2490.798420589755
 21
711.5267900027816
 31
0.0
  0
LINE
  5
C28A
330
18
100
AcDbEntity
  8
0
100
AcDbLine
 10
2488.298420589755
 20
711.5267900027816
 30
0.0
 11
2485.298420589755
 21
711.5267900027816
 31
0.0
  0
LINE
  5
C28B
330
18
100
AcDbEntity
  8
0
100
AcDbLine
 10
2493.798420589755
 20
716.5267900027816
 30
0.0
 11
2490.798420589755
 21
716.5267900027816
 31
0.0
  0
LINE
  5
C28C
330
18
100
AcDbEntity
  8
0
100
AcDbLine
 10
2488.298420589755
 20
716.5267900027816
 30
0.0
 11
2485.298420589755
 21
716.5267900027816
 31
0.0
  0
LINE
  5
C28D
330
18
100
AcDbEntity
  8
0
100
AcDbLine
 10
2496.298420589755
 20
681.5267900027817
 30
0.0
 11
2499.298420589755
 21
681.5267900027817
 31
0.0
  0
LINE
  5
C28E
330
18
100
AcDbEntity
  8
0
100
AcDbLine
 10
2485.298420589755
 20
681.5267900027817
 30
0.0
 11
2488.298420589755
 21
681.5267900027817
 31
0.0
  0
LINE
  5
C28F
330
18
100
AcDbEntity
  8
0
100
AcDbLine
 10
2490.798420589755
 20
681.5267900027817
 30
0.0
 11
2493.798420589755
 21
681.5267900027817
 31
0.0
  0
LINE
  5
C290
330
18
100
AcDbEntity
  8
0
100
AcDbLine
 10
2442.298420589756
 20
700.5267900027807
 30
0.0
 11
2471.798420589756
 21
700.5267900027803
 31
0.0
  0
LWPOLYLINE
  5
C291
330
18
100
AcDbEntity
  8
0
100
AcDbPolyline
 90
        4
 70
     1
 43
0.0
 10
2598.798420589756
 20
672.5267900027808
 10
2604.798420589756
 20
672.5267900027808
 10
2604.798420589756
 20
673.0267900027808
 10
2598.798420589756
 20
673.0267900027808
  0
LINE
  5
C292
330
18
100
AcDbEntity
  8
0
100
AcDbLine
 10
2604.298420589756
 20
671.2267900027815
 30
0.0
 11
2604.298420589756
 21
672.0267900027807
 31
0.0
  0
LINE
  5
C293
330
18
100
AcDbEntity
  8
0
100
AcDbLine
 10
2599.298420589756
 20
672.0267900027807
 30
0.0
 11
2599.298420589756
 21
671.2267900027815
 31
0.0
  0
LWPOLYLINE
  5
C294
330
18
100
AcDbEntity
  8
0
100
AcDbPolyline
 90
        4
 70
     1
 43
0.0
 10
2599.298420589756
 20
672.0267900027807
 10
2604.298420589756
 20
672.0267900027807
 10
2604.298420589756
 20
672.5267900027808
 10
2599.298420589756
 20
672.5267900027808
  0
LINE
  5
C295
330
18
100
AcDbEntity
  8
0
100
AcDbLine
 10
2600.498420589757
 20
670.0267900027808
 30
0.0
 11
2603.098420589756
 21
670.0267900027808
 31
0.0
  0
ARC
  5
C296
330
18
100
AcDbEntity
  8
0
100
AcDbCircle
 10
2603.098420589756
 20
671.2267900027811
 30
0.0
 40
1.199999999999999
100
AcDbArc
 50
270.0
 51
0.0
  0
ARC
  5
C297
330
18
100
AcDbEntity
  8
0
100
AcDbCircle
 10
2600.498420589757
 20
671.2267900027811
 30
0.0
 40
1.199999999999999
100
AcDbArc
 50
180.0
 51
270.0
  0
ARC
  5
C298
330
18
100
AcDbEntity
  8
0
100
AcDbCircle
 10
2582.198420589759
 20
669.4267900027813
 30
0.0
 40
2.399999999999999
100
AcDbArc
 50
180.0
 51
270.0
  0
ARC
  5
C299
330
18
100
AcDbEntity
  8
0
100
AcDbCircle
 10
2587.398420589756
 20
669.4267900027813
 30
0.0
 40
2.399999999999999
100
AcDbArc
 50
270.0
 51
0.0
  0
LINE
  5
C29A
330
18
100
AcDbEntity
  8
0
100
AcDbLine
 10
2582.198420589759
 20
667.0267900027803
 30
0.0
 11
2587.398420589756
 21
667.0267900027803
 31
0.0
  0
LWPOLYLINE
  5
C29B
330
18
100
AcDbEntity
  8
0
100
AcDbPolyline
 90
        4
 70
     1
 43
0.0
 10
2579.798420589757
 20
671.0267900027803
 10
2589.798420589757
 20
671.0267900027803
 10
2589.798420589757
 20
672.0267900027803
 10
2579.798420589757
 20
672.0267900027803
  0
LINE
  5
C29C
330
18
100
AcDbEntity
  8
0
100
AcDbLine
 10
2579.798420589757
 20
671.0267900027803
 30
0.0
 11
2579.798420589757
 21
669.4267900027817
 31
0.0
  0
LINE
  5
C29D
330
18
100
AcDbEntity
  8
0
100
AcDbLine
 10
2589.798420589757
 20
669.4267900027817
 30
0.0
 11
2589.798420589757
 21
671.0267900027803
 31
0.0
  0
LWPOLYLINE
  5
C29E
330
18
100
AcDbEntity
  8
0
100
AcDbPolyline
 90
        4
 70
     1
 43
0.0
 10
2578.798420589757
 20
672.0267900027803
 10
2590.798420589757
 20
672.0267900027803
 10
2590.798420589757
 20
673.0267900027803
 10
2578.798420589757
 20
673.0267900027803
  0
ARC
  5
C29F
330
18
100
AcDbEntity
  8
0
100
AcDbCircle
 10
2534.198420589758
 20
669.4267900027817
 30
0.0
 40
2.399999999999999
100
AcDbArc
 50
180.0
 51
270.0
  0
ARC
  5
C2A0
330
18
100
AcDbEntity
  8
0
100
AcDbCircle
 10
2539.398420589756
 20
669.4267900027817
 30
0.0
 40
2.399999999999999
100
AcDbArc
 50
270.0
 51
0.0
  0
LINE
  5
C2A1
330
18
100
AcDbEntity
  8
0
100
AcDbLine
 10
2534.198420589758
 20
667.0267900027807
 30
0.0
 11
2539.398420589756
 21
667.0267900027807
 31
0.0
  0
LWPOLYLINE
  5
C2A2
330
18
100
AcDbEntity
  8
0
100
AcDbPolyline
 90
        4
 70
     1
 43
0.0
 10
2531.798420589757
 20
671.0267900027807
 10
2541.798420589757
 20
671.0267900027807
 10
2541.798420589757
 20
672.0267900027807
 10
2531.798420589757
 20
672.0267900027807
  0
LINE
  5
C2A3
330
18
100
AcDbEntity
  8
0
100
AcDbLine
 10
2531.798420589757
 20
671.0267900027807
 30
0.0
 11
2531.798420589757
 21
669.4267900027822
 31
0.0
  0
LINE
  5
C2A4
330
18
100
AcDbEntity
  8
0
100
AcDbLine
 10
2541.798420589757
 20
669.4267900027822
 30
0.0
 11
2541.798420589757
 21
671.0267900027807
 31
0.0
  0
LWPOLYLINE
  5
C2A5
330
18
100
AcDbEntity
  8
0
100
AcDbPolyline
 90
        4
 70
     1
 43
0.0
 10
2530.798420589757
 20
672.0267900027807
 10
2542.798420589757
 20
672.0267900027807
 10
2542.798420589757
 20
673.0267900027808
 10
2530.798420589757
 20
673.0267900027808
  0
LINE
  5
C2A6
330
18
100
AcDbEntity
  8
0
100
AcDbLine
 10
2603.798420589755
 20
711.5267900027816
 30
0.0
 11
2603.798420589755
 21
681.5267900027817
 31
0.0
  0
LINE
  5
C2A7
330
18
100
AcDbEntity
  8
0
100
AcDbLine
 10
2606.798420589755
 20
681.5267900027817
 30
0.0
 11
2606.798420589755
 21
711.5267900027816
 31
0.0
  0
LINE
  5
C2A8
330
18
100
AcDbEntity
  8
0
100
AcDbLine
 10
2609.298420589755
 20
711.5267900027816
 30
0.0
 11
2609.298420589755
 21
681.5267900027817
 31
0.0
  0
LINE
  5
C2A9
330
18
100
AcDbEntity
  8
0
100
AcDbLine
 10
2612.298420589755
 20
681.5267900027817
 30
0.0
 11
2612.298420589755
 21
711.5267900027816
 31
0.0
  0
LINE
  5
C2AA
330
18
100
AcDbEntity
  8
0
100
AcDbLine
 10
2614.798420589755
 20
711.5267900027816
 30
0.0
 11
2614.798420589755
 21
681.5267900027817
 31
0.0
  0
LINE
  5
C2AB
330
18
100
AcDbEntity
  8
0
100
AcDbLine
 10
2617.798420589755
 20
681.5267900027817
 30
0.0
 11
2617.798420589755
 21
711.5267900027816
 31
0.0
  0
LINE
  5
C2AC
330
18
100
AcDbEntity
  8
0
100
AcDbLine
 10
2617.798420589755
 20
711.5267900027816
 30
0.0
 11
2614.798420589755
 21
711.5267900027816
 31
0.0
  0
LINE
  5
C2AD
330
18
100
AcDbEntity
  8
0
100
AcDbLine
 10
2617.798420589755
 20
716.5267900027816
 30
0.0
 11
2614.798420589755
 21
716.5267900027816
 31
0.0
  0
LINE
  5
C2AE
330
18
100
AcDbEntity
  8
0
100
AcDbLine
 10
2612.298420589755
 20
711.5267900027816
 30
0.0
 11
2609.298420589755
 21
711.5267900027816
 31
0.0
  0
LINE
  5
C2AF
330
18
100
AcDbEntity
  8
0
100
AcDbLine
 10
2606.798420589755
 20
711.5267900027816
 30
0.0
 11
2603.798420589755
 21
711.5267900027816
 31
0.0
  0
LINE
  5
C2B0
330
18
100
AcDbEntity
  8
0
100
AcDbLine
 10
2612.298420589755
 20
716.5267900027816
 30
0.0
 11
2609.298420589755
 21
716.5267900027816
 31
0.0
  0
LINE
  5
C2B1
330
18
100
AcDbEntity
  8
0
100
AcDbLine
 10
2606.798420589755
 20
716.5267900027816
 30
0.0
 11
2603.798420589755
 21
716.5267900027816
 31
0.0
  0
LINE
  5
C2B2
330
18
100
AcDbEntity
  8
0
100
AcDbLine
 10
2614.798420589755
 20
681.5267900027817
 30
0.0
 11
2617.798420589755
 21
681.5267900027817
 31
0.0
  0
LINE
  5
C2B3
330
18
100
AcDbEntity
  8
0
100
AcDbLine
 10
2603.798420589755
 20
681.5267900027817
 30
0.0
 11
2606.798420589755
 21
681.5267900027817
 31
0.0
  0
LINE
  5
C2B4
330
18
100
AcDbEntity
  8
0
100
AcDbLine
 10
2609.298420589755
 20
681.5267900027817
 30
0.0
 11
2612.298420589755
 21
681.5267900027817
 31
0.0
  0
LINE
  5
C2B5
330
18
100
AcDbEntity
  8
0
100
AcDbLine
 10
2626.798420589756
 20
677.0267900027817
 30
0.0
 11
2625.798420589756
 21
676.0267900027817
 31
0.0
  0
LINE
  5
C2B6
330
18
100
AcDbEntity
  8
0
100
AcDbLine
 10
2544.298420589755
 20
716.5267900027816
 30
0.0
 11
2541.298420589755
 21
716.5267900027816
 31
0.0
  0
LINE
  5
C2B7
330
18
100
AcDbEntity
  8
0
100
AcDbLine
 10
2541.298420589755
 20
681.5267900027817
 30
0.0
 11
2544.298420589755
 21
681.5267900027817
 31
0.0
  0
LINE
  5
C2B8
330
18
100
AcDbEntity
  8
0
100
AcDbLine
 10
2544.298420589755
 20
711.5267900027816
 30
0.0
 11
2541.298420589755
 21
711.5267900027816
 31
0.0
  0
LINE
  5
C2B9
330
18
100
AcDbEntity
  8
0
100
AcDbLine
 10
2532.298420589755
 20
681.5267900027817
 30
0.0
 11
2532.298420589755
 21
711.5267900027816
 31
0.0
  0
LINE
  5
C2BA
330
18
100
AcDbEntity
  8
0
100
AcDbLine
 10
2541.298420589755
 20
711.5267900027816
 30
0.0
 11
2541.298420589755
 21
681.5267900027817
 31
0.0
  0
LINE
  5
C2BB
330
18
100
AcDbEntity
  8
0
100
AcDbLine
 10
2538.798420589755
 20
681.5267900027817
 30
0.0
 11
2538.798420589755
 21
711.5267900027816
 31
0.0
  0
LINE
  5
C2BC
330
18
100
AcDbEntity
  8
0
100
AcDbLine
 10
2535.798420589755
 20
711.5267900027816
 30
0.0
 11
2535.798420589755
 21
681.5267900027817
 31
0.0
  0
LINE
  5
C2BD
330
18
100
AcDbEntity
  8
0
100
AcDbLine
 10
2538.798420589755
 20
716.5267900027816
 30
0.0
 11
2535.798420589755
 21
716.5267900027816
 31
0.0
  0
LINE
  5
C2BE
330
18
100
AcDbEntity
  8
0
100
AcDbLine
 10
2538.798420589755
 20
711.5267900027816
 30
0.0
 11
2535.798420589755
 21
711.5267900027816
 31
0.0
  0
LINE
  5
C2BF
330
18
100
AcDbEntity
  8
0
100
AcDbLine
 10
2535.798420589755
 20
681.5267900027817
 30
0.0
 11
2538.798420589755
 21
681.5267900027817
 31
0.0
  0
LINE
  5
C2C0
330
18
100
AcDbEntity
  8
0
100
AcDbLine
 10
2566.298420589755
 20
681.5267900027817
 30
0.0
 11
2566.298420589755
 21
711.5267900027816
 31
0.0
  0
LINE
  5
C2C1
330
18
100
AcDbEntity
  8
0
100
AcDbLine
 10
2563.298420589755
 20
711.5267900027816
 30
0.0
 11
2563.298420589755
 21
681.5267900027817
 31
0.0
  0
LINE
  5
C2C2
330
18
100
AcDbEntity
  8
0
100
AcDbLine
 10
2560.798420589755
 20
681.5267900027817
 30
0.0
 11
2560.798420589755
 21
711.5267900027816
 31
0.0
  0
LINE
  5
C2C3
330
18
100
AcDbEntity
  8
0
100
AcDbLine
 10
2557.798420589755
 20
711.5267900027816
 30
0.0
 11
2557.798420589755
 21
681.5267900027817
 31
0.0
  0
LINE
  5
C2C4
330
18
100
AcDbEntity
  8
0
100
AcDbLine
 10
2572.798420589755
 20
681.5267900027817
 30
0.0
 11
2572.798420589755
 21
711.5267900027816
 31
0.0
  0
LINE
  5
C2C5
330
18
100
AcDbEntity
  8
0
100
AcDbLine
 10
2569.798420589755
 20
711.5267900027816
 30
0.0
 11
2569.798420589755
 21
681.5267900027817
 31
0.0
  0
LINE
  5
C2C6
330
18
100
AcDbEntity
  8
0
100
AcDbLine
 10
2555.298420589755
 20
681.5267900027817
 30
0.0
 11
2555.298420589755
 21
711.5267900027816
 31
0.0
  0
LINE
  5
C2C7
330
18
100
AcDbEntity
  8
0
100
AcDbLine
 10
2552.298420589755
 20
711.5267900027816
 30
0.0
 11
2552.298420589755
 21
681.5267900027817
 31
0.0
  0
LINE
  5
C2C8
330
18
100
AcDbEntity
  8
0
100
AcDbLine
 10
2549.798420589755
 20
681.5267900027817
 30
0.0
 11
2549.798420589755
 21
711.5267900027816
 31
0.0
  0
LINE
  5
C2C9
330
18
100
AcDbEntity
  8
0
100
AcDbLine
 10
2546.798420589755
 20
711.5267900027816
 30
0.0
 11
2546.798420589755
 21
681.5267900027817
 31
0.0
  0
LINE
  5
C2CA
330
18
100
AcDbEntity
  8
0
100
AcDbLine
 10
2544.298420589755
 20
681.5267900027817
 30
0.0
 11
2544.298420589755
 21
711.5267900027816
 31
0.0
  0
LINE
  5
C2CB
330
18
100
AcDbEntity
  8
0
100
AcDbLine
 10
2560.798420589755
 20
716.5267900027816
 30
0.0
 11
2557.798420589755
 21
716.5267900027816
 31
0.0
  0
LINE
  5
C2CC
330
18
100
AcDbEntity
  8
0
100
AcDbLine
 10
2560.798420589755
 20
711.5267900027816
 30
0.0
 11
2557.798420589755
 21
711.5267900027816
 31
0.0
  0
LINE
  5
C2CD
330
18
100
AcDbEntity
  8
0
100
AcDbLine
 10
2549.798420589755
 20
716.5267900027816
 30
0.0
 11
2546.798420589755
 21
716.5267900027816
 31
0.0
  0
LINE
  5
C2CE
330
18
100
AcDbEntity
  8
0
100
AcDbLine
 10
2555.298420589755
 20
716.5267900027816
 30
0.0
 11
2552.298420589755
 21
716.5267900027816
 31
0.0
  0
LINE
  5
C2CF
330
18
100
AcDbEntity
  8
0
100
AcDbLine
 10
2549.798420589755
 20
711.5267900027816
 30
0.0
 11
2546.798420589755
 21
711.5267900027816
 31
0.0
  0
LINE
  5
C2D0
330
18
100
AcDbEntity
  8
0
100
AcDbLine
 10
2555.298420589755
 20
711.5267900027816
 30
0.0
 11
2552.298420589755
 21
711.5267900027816
 31
0.0
  0
LINE
  5
C2D1
330
18
100
AcDbEntity
  8
0
100
AcDbLine
 10
2572.798420589755
 20
716.5267900027816
 30
0.0
 11
2569.798420589755
 21
716.5267900027816
 31
0.0
  0
LINE
  5
C2D2
330
18
100
AcDbEntity
  8
0
100
AcDbLine
 10
2566.298420589755
 20
716.5267900027816
 30
0.0
 11
2563.298420589755
 21
716.5267900027816
 31
0.0
  0
LINE
  5
C2D3
330
18
100
AcDbEntity
  8
0
100
AcDbLine
 10
2572.798420589755
 20
711.5267900027816
 30
0.0
 11
2569.798420589755
 21
711.5267900027816
 31
0.0
  0
LINE
  5
C2D4
330
18
100
AcDbEntity
  8
0
100
AcDbLine
 10
2566.298420589755
 20
711.5267900027816
 30
0.0
 11
2563.298420589755
 21
711.5267900027816
 31
0.0
  0
LINE
  5
C2D5
330
18
100
AcDbEntity
  8
0
100
AcDbLine
 10
2557.798420589755
 20
681.5267900027817
 30
0.0
 11
2560.798420589755
 21
681.5267900027817
 31
0.0
  0
LINE
  5
C2D6
330
18
100
AcDbEntity
  8
0
100
AcDbLine
 10
2552.298420589755
 20
681.5267900027817
 30
0.0
 11
2555.298420589755
 21
681.5267900027817
 31
0.0
  0
LINE
  5
C2D7
330
18
100
AcDbEntity
  8
0
100
AcDbLine
 10
2546.798420589755
 20
681.5267900027817
 30
0.0
 11
2549.798420589755
 21
681.5267900027817
 31
0.0
  0
LINE
  5
C2D8
330
18
100
AcDbEntity
  8
0
100
AcDbLine
 10
2563.298420589755
 20
681.5267900027817
 30
0.0
 11
2566.298420589755
 21
681.5267900027817
 31
0.0
  0
LINE
  5
C2D9
330
18
100
AcDbEntity
  8
0
100
AcDbLine
 10
2569.798420589755
 20
681.5267900027817
 30
0.0
 11
2572.798420589755
 21
681.5267900027817
 31
0.0
  0
LINE
  5
C2DA
330
18
100
AcDbEntity
  8
0
100
AcDbLine
 10
2600.298420589755
 20
681.5267900027817
 30
0.0
 11
2600.298420589755
 21
711.5267900027816
 31
0.0
  0
LINE
  5
C2DB
330
18
100
AcDbEntity
  8
0
100
AcDbLine
 10
2597.298420589755
 20
711.5267900027816
 30
0.0
 11
2597.298420589755
 21
681.5267900027817
 31
0.0
  0
LINE
  5
C2DC
330
18
100
AcDbEntity
  8
0
100
AcDbLine
 10
2594.798420589755
 20
681.5267900027817
 30
0.0
 11
2594.798420589755
 21
711.5267900027816
 31
0.0
  0
LINE
  5
C2DD
330
18
100
AcDbEntity
  8
0
100
AcDbLine
 10
2591.798420589755
 20
711.5267900027816
 30
0.0
 11
2591.798420589755
 21
681.5267900027817
 31
0.0
  0
LINE
  5
C2DE
330
18
100
AcDbEntity
  8
0
100
AcDbLine
 10
2589.298420589755
 20
681.5267900027817
 30
0.0
 11
2589.298420589755
 21
711.5267900027816
 31
0.0
  0
LINE
  5
C2DF
330
18
100
AcDbEntity
  8
0
100
AcDbLine
 10
2586.298420589756
 20
711.5267900027816
 30
0.0
 11
2586.298420589756
 21
681.5267900027817
 31
0.0
  0
LINE
  5
C2E0
330
18
100
AcDbEntity
  8
0
100
AcDbLine
 10
2583.798420589755
 20
681.5267900027817
 30
0.0
 11
2583.798420589755
 21
711.5267900027816
 31
0.0
  0
LINE
  5
C2E1
330
18
100
AcDbEntity
  8
0
100
AcDbLine
 10
2580.798420589755
 20
711.5267900027816
 30
0.0
 11
2580.798420589755
 21
681.5267900027817
 31
0.0
  0
LINE
  5
C2E2
330
18
100
AcDbEntity
  8
0
100
AcDbLine
 10
2578.298420589755
 20
681.5267900027817
 30
0.0
 11
2578.298420589755
 21
711.5267900027816
 31
0.0
  0
LINE
  5
C2E3
330
18
100
AcDbEntity
  8
0
100
AcDbLine
 10
2575.298420589755
 20
711.5267900027816
 30
0.0
 11
2575.298420589755
 21
681.5267900027817
 31
0.0
  0
LINE
  5
C2E4
330
18
100
AcDbEntity
  8
0
100
AcDbLine
 10
2589.298420589755
 20
716.5267900027816
 30
0.0
 11
2586.298420589756
 21
716.5267900027816
 31
0.0
  0
LINE
  5
C2E5
330
18
100
AcDbEntity
  8
0
100
AcDbLine
 10
2589.298420589755
 20
711.5267900027816
 30
0.0
 11
2586.298420589756
 21
711.5267900027816
 31
0.0
  0
LINE
  5
C2E6
330
18
100
AcDbEntity
  8
0
100
AcDbLine
 10
2578.298420589755
 20
716.5267900027816
 30
0.0
 11
2575.298420589755
 21
716.5267900027816
 31
0.0
  0
LINE
  5
C2E7
330
18
100
AcDbEntity
  8
0
100
AcDbLine
 10
2583.798420589755
 20
716.5267900027816
 30
0.0
 11
2580.798420589755
 21
716.5267900027816
 31
0.0
  0
LINE
  5
C2E8
330
18
100
AcDbEntity
  8
0
100
AcDbLine
 10
2578.298420589755
 20
711.5267900027816
 30
0.0
 11
2575.298420589755
 21
711.5267900027816
 31
0.0
  0
LINE
  5
C2E9
330
18
100
AcDbEntity
  8
0
100
AcDbLine
 10
2583.798420589755
 20
711.5267900027816
 30
0.0
 11
2580.798420589755
 21
711.5267900027816
 31
0.0
  0
LINE
  5
C2EA
330
18
100
AcDbEntity
  8
0
100
AcDbLine
 10
2594.798420589755
 20
716.5267900027816
 30
0.0
 11
2591.798420589755
 21
716.5267900027816
 31
0.0
  0
LINE
  5
C2EB
330
18
100
AcDbEntity
  8
0
100
AcDbLine
 10
2600.298420589755
 20
716.5267900027816
 30
0.0
 11
2597.298420589755
 21
716.5267900027816
 31
0.0
  0
LINE
  5
C2EC
330
18
100
AcDbEntity
  8
0
100
AcDbLine
 10
2594.798420589755
 20
711.5267900027816
 30
0.0
 11
2591.798420589755
 21
711.5267900027816
 31
0.0
  0
LINE
  5
C2ED
330
18
100
AcDbEntity
  8
0
100
AcDbLine
 10
2600.298420589755
 20
711.5267900027816
 30
0.0
 11
2597.298420589755
 21
711.5267900027816
 31
0.0
  0
LINE
  5
C2EE
330
18
100
AcDbEntity
  8
0
100
AcDbLine
 10
2586.298420589756
 20
681.5267900027817
 30
0.0
 11
2589.298420589755
 21
681.5267900027817
 31
0.0
  0
LINE
  5
C2EF
330
18
100
AcDbEntity
  8
0
100
AcDbLine
 10
2580.798420589755
 20
681.5267900027817
 30
0.0
 11
2583.798420589755
 21
681.5267900027817
 31
0.0
  0
LINE
  5
C2F0
330
18
100
AcDbEntity
  8
0
100
AcDbLine
 10
2575.298420589755
 20
681.5267900027817
 30
0.0
 11
2578.298420589755
 21
681.5267900027817
 31
0.0
  0
LINE
  5
C2F1
330
18
100
AcDbEntity
  8
0
100
AcDbLine
 10
2597.298420589755
 20
681.5267900027817
 30
0.0
 11
2600.298420589755
 21
681.5267900027817
 31
0.0
  0
LINE
  5
C2F2
330
18
100
AcDbEntity
  8
0
100
AcDbLine
 10
2591.798420589755
 20
681.5267900027817
 30
0.0
 11
2594.798420589755
 21
681.5267900027817
 31
0.0
  0
LINE
  5
C2F3
330
18
100
AcDbEntity
  8
0
100
AcDbLine
 10
2529.298420589755
 20
746.5267900027817
 30
0.0
 11
2532.298420589755
 21
746.5267900027817
 31
0.0
  0
LINE
  5
C2F4
330
18
100
AcDbEntity
  8
0
 48
4.0
100
AcDbLine
 10
2475.798420589754
 20
752.0267900027817
 30
0.0
 11
2627.798420589756
 21
752.0267900027817
 31
0.0
  0
LINE
  5
C2F5
330
18
100
AcDbEntity
  8
0
100
AcDbLine
 10
2474.798420589754
 20
753.0267900027825
 30
0.0
 11
2628.798420589756
 21
753.0267900027816
 31
0.0
  0
LINE
  5
C2F6
330
18
100
AcDbEntity
  8
0
100
AcDbLine
 10
2474.798420589761
 20
729.0267900027816
 30
0.0
 11
2476.798420589755
 21
729.0267900027816
 31
0.0
  0
LINE
  5
C2F7
330
18
100
AcDbEntity
  8
0
100
AcDbLine
 10
2474.798420589761
 20
739.0267900027817
 30
0.0
 11
2476.798420589755
 21
739.0267900027817
 31
0.0
  0
LINE
  5
C2F8
330
18
100
AcDbEntity
  8
0
100
AcDbLine
 10
2442.298420589756
 20
735.5267900027808
 30
0.0
 11
2466.798420589757
 21
735.5267900027808
 31
0.0
  0
ARC
  5
C2F9
330
18
100
AcDbEntity
  8
0
100
AcDbCircle
 10
2468.798420589757
 20
736.1934566694473
 30
0.0
 40
2.0
100
AcDbArc
 50
90.0
 51
180.0
  0
ARC
  5
C2FA
330
18
100
AcDbEntity
  8
0
100
AcDbCircle
 10
2468.798420589757
 20
731.860123336116
 30
0.0
 40
2.0
100
AcDbArc
 50
180.0
 51
270.0
  0
LINE
  5
C2FB
330
18
100
AcDbEntity
  8
0
100
AcDbLine
 10
2466.798420589756
 20
736.1934566694473
 30
0.0
 11
2466.798420589756
 21
731.860123336116
 31
0.0
  0
LWPOLYLINE
  5
C2FC
330
18
100
AcDbEntity
  8
0
100
AcDbPolyline
 90
        4
 70
     1
 43
0.0
 10
2470.13175392309
 20
738.1934566694487
 10
2470.13175392309
 20
729.8601233361146
 10
2470.965087256424
 20
729.8601233361146
 10
2470.965087256424
 20
738.1934566694487
  0
LINE
  5
C2FD
330
18
100
AcDbEntity
  8
0
100
AcDbLine
 10
2470.131753923089
 20
738.1934566694482
 30
0.0
 11
2468.798420589757
 21
738.1934566694482
 31
0.0
  0
LINE
  5
C2FE
330
18
100
AcDbEntity
  8
0
100
AcDbLine
 10
2468.798420589757
 20
729.8601233361152
 30
0.0
 11
2470.131753923089
 21
729.8601233361152
 31
0.0
  0
LWPOLYLINE
  5
C2FF
330
18
100
AcDbEntity
  8
0
100
AcDbPolyline
 90
        4
 70
     1
 43
0.0
 10
2470.965087256424
 20
739.0267900027817
 10
2470.965087256424
 20
729.0267900027816
 10
2471.798420589756
 20
729.0267900027816
 10
2471.798420589756
 20
739.0267900027817
  0
LINE
  5
C300
330
18
100
AcDbEntity
  8
0
100
AcDbLine
 10
2512.798420589755
 20
746.5267900027817
 30
0.0
 11
2515.798420589755
 21
746.5267900027817
 31
0.0
  0
LINE
  5
C301
330
18
100
AcDbEntity
  8
0
100
AcDbLine
 10
2507.298420589755
 20
746.5267900027817
 30
0.0
 11
2510.298420589755
 21
746.5267900027817
 31
0.0
  0
LINE
  5
C302
330
18
100
AcDbEntity
  8
0
100
AcDbLine
 10
2501.798420589755
 20
746.5267900027817
 30
0.0
 11
2504.798420589755
 21
746.5267900027817
 31
0.0
  0
LINE
  5
C303
330
18
100
AcDbEntity
  8
0
100
AcDbLine
 10
2523.798420589756
 20
746.5267900027817
 30
0.0
 11
2526.798420589755
 21
746.5267900027817
 31
0.0
  0
LINE
  5
C304
330
18
100
AcDbEntity
  8
0
100
AcDbLine
 10
2518.298420589755
 20
746.5267900027817
 30
0.0
 11
2521.298420589755
 21
746.5267900027817
 31
0.0
  0
LINE
  5
C305
330
18
100
AcDbEntity
  8
0
100
AcDbLine
 10
2475.798420589754
 20
748.0267900027826
 30
0.0
 11
2475.798420589754
 21
752.0267900027817
 31
0.0
  0
LINE
  5
C306
330
18
100
AcDbEntity
  8
0
 48
4.0
100
AcDbLine
 10
2475.798420589754
 20
748.0267900027826
 30
0.0
 11
2474.798420589754
 21
748.0267900027826
 31
0.0
  0
LINE
  5
C307
330
18
100
AcDbEntity
  8
0
100
AcDbLine
 10
2474.798420589754
 20
753.0267900027825
 30
0.0
 11
2474.798420589754
 21
748.0267900027826
 31
0.0
  0
LINE
  5
C308
330
18
100
AcDbEntity
  8
0
100
AcDbLine
 10
2496.298420589755
 20
746.5267900027817
 30
0.0
 11
2499.298420589755
 21
746.5267900027817
 31
0.0
  0
LINE
  5
C309
330
18
100
AcDbEntity
  8
0
100
AcDbLine
 10
2485.298420589755
 20
746.5267900027817
 30
0.0
 11
2488.298420589755
 21
746.5267900027817
 31
0.0
  0
LINE
  5
C30A
330
18
100
AcDbEntity
  8
0
100
AcDbLine
 10
2490.798420589755
 20
746.5267900027817
 30
0.0
 11
2493.798420589755
 21
746.5267900027817
 31
0.0
  0
LINE
  5
C30B
330
18
100
AcDbEntity
  8
0
100
AcDbLine
 10
2474.798420589756
 20
753.0267900027816
 30
0.0
 11
2471.798420589757
 21
753.0267900027808
 31
0.0
  0
LINE
  5
C30C
330
18
100
AcDbEntity
  8
0
100
AcDbLine
 10
2614.798420589755
 20
746.5267900027817
 30
0.0
 11
2617.798420589755
 21
746.5267900027817
 31
0.0
  0
LINE
  5
C30D
330
18
100
AcDbEntity
  8
0
100
AcDbLine
 10
2603.798420589755
 20
746.5267900027817
 30
0.0
 11
2606.798420589755
 21
746.5267900027817
 31
0.0
  0
LINE
  5
C30E
330
18
100
AcDbEntity
  8
0
100
AcDbLine
 10
2609.298420589755
 20
746.5267900027817
 30
0.0
 11
2612.298420589755
 21
746.5267900027817
 31
0.0
  0
LINE
  5
C30F
330
18
100
AcDbEntity
  8
0
100
AcDbLine
 10
2627.798420589756
 20
748.0267900027826
 30
0.0
 11
2627.798420589756
 21
752.0267900027817
 31
0.0
  0
LINE
  5
C310
330
18
100
AcDbEntity
  8
0
 48
4.0
100
AcDbLine
 10
2627.798420589756
 20
748.0267900027826
 30
0.0
 11
2628.798420589756
 21
748.0267900027826
 31
0.0
  0
LINE
  5
C311
330
18
100
AcDbEntity
  8
0
100
AcDbLine
 10
2628.798420589756
 20
753.0267900027816
 30
0.0
 11
2628.798420589756
 21
748.0267900027826
 31
0.0
  0
LINE
  5
C312
330
18
100
AcDbEntity
  8
0
100
AcDbLine
 10
2541.298420589755
 20
746.5267900027817
 30
0.0
 11
2544.298420589755
 21
746.5267900027817
 31
0.0
  0
LINE
  5
C313
330
18
100
AcDbEntity
  8
0
100
AcDbLine
 10
2535.798420589755
 20
746.5267900027817
 30
0.0
 11
2538.798420589755
 21
746.5267900027817
 31
0.0
  0
LINE
  5
C314
330
18
100
AcDbEntity
  8
0
100
AcDbLine
 10
2557.798420589755
 20
746.5267900027817
 30
0.0
 11
2560.798420589755
 21
746.5267900027817
 31
0.0
  0
LINE
  5
C315
330
18
100
AcDbEntity
  8
0
100
AcDbLine
 10
2552.298420589755
 20
746.5267900027817
 30
0.0
 11
2555.298420589755
 21
746.5267900027817
 31
0.0
  0
LINE
  5
C316
330
18
100
AcDbEntity
  8
0
100
AcDbLine
 10
2546.798420589755
 20
746.5267900027817
 30
0.0
 11
2549.798420589755
 21
746.5267900027817
 31
0.0
  0
LINE
  5
C317
330
18
100
AcDbEntity
  8
0
100
AcDbLine
 10
2563.298420589755
 20
746.5267900027817
 30
0.0
 11
2566.298420589755
 21
746.5267900027817
 31
0.0
  0
LINE
  5
C318
330
18
100
AcDbEntity
  8
0
100
AcDbLine
 10
2569.798420589755
 20
746.5267900027817
 30
0.0
 11
2572.798420589755
 21
746.5267900027817
 31
0.0
  0
LINE
  5
C319
330
18
100
AcDbEntity
  8
0
100
AcDbLine
 10
2586.298420589756
 20
746.5267900027817
 30
0.0
 11
2589.298420589755
 21
746.5267900027817
 31
0.0
  0
LINE
  5
C31A
330
18
100
AcDbEntity
  8
0
100
AcDbLine
 10
2580.798420589755
 20
746.5267900027817
 30
0.0
 11
2583.798420589755
 21
746.5267900027817
 31
0.0
  0
LINE
  5
C31B
330
18
100
AcDbEntity
  8
0
100
AcDbLine
 10
2575.298420589755
 20
746.5267900027817
 30
0.0
 11
2578.298420589755
 21
746.5267900027817
 31
0.0
  0
LINE
  5
C31C
330
18
100
AcDbEntity
  8
0
100
AcDbLine
 10
2597.298420589755
 20
746.5267900027817
 30
0.0
 11
2600.298420589755
 21
746.5267900027817
 31
0.0
  0
LINE
  5
C31D
330
18
100
AcDbEntity
  8
0
100
AcDbLine
 10
2591.798420589755
 20
746.5267900027817
 30
0.0
 11
2594.798420589755
 21
746.5267900027817
 31
0.0
  0
LINE
  5
C31E
330
18
100
AcDbEntity
  8
0
100
AcDbLine
 10
2471.798420589756
 20
812.4261093969813
 30
0.0
 11
2471.798420589756
 21
967.4261093969814
 31
0.0
  0
LINE
  5
C31F
330
18
100
AcDbEntity
  8
0
100
AcDbLine
 10
2457.798420589755
 20
933.4261093969812
 30
0.0
 11
2457.798420589755
 21
951.4261093969814
 31
0.0
  0
ARC
  5
C320
330
18
100
AcDbEntity
  8
0
100
AcDbCircle
 10
2456.798420589755
 20
939.4261093969809
 30
0.0
 40
3.0
100
AcDbArc
 50
180.0
 51
270.0
  0
LINE
  5
C321
330
18
100
AcDbEntity
  8
0
100
AcDbLine
 10
2466.798420589756
 20
933.4261093969812
 30
0.0
 11
2466.798420589755
 21
951.4261093969814
 31
0.0
  0
LINE
  5
C322
330
18
100
AcDbEntity
  8
0
100
AcDbLine
 10
2474.798420589754
 20
784.9261093969817
 30
0.0
 11
2474.798420589755
 21
972.9261093969817
 31
0.0
  0
LINE
  5
C323
330
18
100
AcDbEntity
  8
0
100
AcDbLine
 10
2264.169867175487
 20
973.9261093969814
 30
0.0
 11
2264.169867175487
 21
783.9261093969804
 31
0.0
  0
LINE
  5
C324
330
18
100
AcDbEntity
  8
0
100
AcDbLine
 10
2184.16986717549
 20
973.9261093969814
 30
0.0
 11
2184.16986717549
 21
783.9261093969804
 31
0.0
  0
LINE
  5
C325
330
18
100
AcDbEntity
  8
0
100
AcDbLine
 10
2264.16986717549
 20
972.9261093969808
 30
0.0
 11
2264.16986717549
 21
784.9261093969809
 31
0.0
  0
LINE
  5
C326
330
18
100
AcDbEntity
  8
0
100
AcDbLine
 10
2474.798420589756
 20
783.9261093969813
 30
0.0
 11
2474.798420589756
 21
973.9261093969808
 31
0.0
  0
LINE
  5
C327
330
18
100
AcDbEntity
  8
0
100
AcDbLine
 10
2471.798420589756
 20
783.9261093969809
 30
0.0
 11
2471.798420589756
 21
973.9261093969808
 31
0.0
  0
LINE
  5
C328
330
18
100
AcDbEntity
  8
0
100
AcDbLine
 10
2221.16986717549
 20
933.4261093969809
 30
0.0
 11
2221.16986717549
 21
951.4261093969814
 31
0.0
  0
LINE
  5
C329
330
18
100
AcDbEntity
  8
0
100
AcDbLine
 10
2237.16986717549
 20
933.4261093969809
 30
0.0
 11
2237.16986717549
 21
951.4261093969814
 31
0.0
  0
CIRCLE
  5
C32A
330
18
100
AcDbEntity
  8
0
100
AcDbCircle
 10
2229.16986717549
 20
942.4261093969803
 30
0.0
 40
6.0
  0
LINE
  5
C32B
330
18
100
AcDbEntity
  8
0
100
AcDbLine
 10
2246.66986717549
 20
812.4261093969808
 30
0.0
 11
2246.66986717549
 21
967.4261093969803
 31
0.0
  0
LINE
  5
C32C
330
18
100
AcDbEntity
  8
0
100
AcDbLine
 10
2211.66986717549
 20
812.4261093969808
 30
0.0
 11
2211.66986717549
 21
967.4261093969803
 31
0.0
  0
LINE
  5
C32D
330
18
100
AcDbEntity
  8
0
100
AcDbLine
 10
2628.798420589761
 20
972.9261093969817
 30
0.0
 11
2628.798420589756
 21
784.9261093969817
 31
0.0
  0
LINE
  5
C32E
330
18
100
AcDbEntity
  8
0
100
AcDbLine
 10
2628.798420589757
 20
770.92610939698
 30
0.0
 11
2628.798420589756
 21
986.9261093969804
 31
0.0
  0
LINE
  5
C32F
330
18
100
AcDbEntity
  8
0
100
AcDbLine
 10
2221.16986717549
 20
828.4261093969808
 30
0.0
 11
2221.16986717549
 21
846.4261093969813
 31
0.0
  0
LINE
  5
C330
330
18
100
AcDbEntity
  8
0
100
AcDbLine
 10
2237.16986717549
 20
828.4261093969808
 30
0.0
 11
2237.16986717549
 21
846.4261093969813
 31
0.0
  0
LINE
  5
C331
330
18
100
AcDbEntity
  8
0
100
AcDbLine
 10
2227.91986717549
 20
770.9261093969804
 30
0.0
 11
2263.16986717549
 21
770.9261093969809
 31
0.0
  0
LINE
  5
C332
330
18
100
AcDbEntity
  8
0
100
AcDbLine
 10
2264.169867175487
 20
783.9261093969804
 30
0.0
 11
2187.169867175485
 21
783.9261093969804
 31
0.0
  0
LINE
  5
C333
330
18
100
AcDbEntity
  8
0
100
AcDbLine
 10
2184.16986717549
 20
783.9261093969804
 30
0.0
 11
2263.16986717549
 21
783.9261093969809
 31
0.0
  0
ARC
  5
C334
330
18
100
AcDbEntity
  8
0
100
AcDbCircle
 10
2182.369867175491
 20
790.2261093969806
 30
0.0
 40
1.199999999999999
100
AcDbArc
 50
90.0
 51
180.0
  0
ARC
  5
C335
330
18
100
AcDbEntity
  8
0
100
AcDbCircle
 10
2182.369867175491
 20
787.626109396982
 30
0.0
 40
1.199999999999999
100
AcDbArc
 50
180.0
 51
270.0
  0
LINE
  5
C336
330
18
100
AcDbEntity
  8
0
100
AcDbLine
 10
2181.16986717549
 20
790.2261093969806
 30
0.0
 11
2181.16986717549
 21
787.626109396982
 31
0.0
  0
LWPOLYLINE
  5
C337
330
18
100
AcDbEntity
  8
0
100
AcDbPolyline
 90
        4
 70
     1
 43
0.0
 10
2183.16986717549
 20
791.4261093969813
 10
2183.16986717549
 20
786.4261093969814
 10
2183.66986717549
 20
786.4261093969814
 10
2183.66986717549
 20
791.4261093969813
  0
LINE
  5
C338
330
18
100
AcDbEntity
  8
0
100
AcDbLine
 10
2183.16986717549
 20
791.4261093969813
 30
0.0
 11
2182.369867175491
 21
791.4261093969813
 31
0.0
  0
LINE
  5
C339
330
18
100
AcDbEntity
  8
0
100
AcDbLine
 10
2182.369867175491
 20
786.4261093969814
 30
0.0
 11
2183.16986717549
 21
786.4261093969814
 31
0.0
  0
LWPOLYLINE
  5
C33A
330
18
100
AcDbEntity
  8
0
100
AcDbPolyline
 90
        4
 70
     1
 43
0.0
 10
2183.66986717549
 20
791.9261093969813
 10
2183.66986717549
 20
785.9261093969814
 10
2184.16986717549
 20
785.9261093969814
 10
2184.16986717549
 20
791.9261093969813
  0
LINE
  5
C342
330
18
100
AcDbEntity
  8
0
100
AcDbLine
 10
2195.16986717549
 20
811.9261093969845
 30
0.0
 11
2195.16986717549
 21
811.1742684785705
 31
0.0
  0
LINE
  5
C343
330
18
100
AcDbEntity
  8
0
100
AcDbLine
 10
2195.16986717549
 20
802.77426847857
 30
0.0
 11
2195.16986717549
 21
801.9261093969841
 31
0.0
  0
LINE
  5
C344
330
18
100
AcDbEntity
  8
0
100
AcDbLine
 10
2196.769867175491
 20
802.4261093969805
 30
0.0
 11
2196.769867175491
 21
802.77426847857
 31
0.0
  0
LINE
  5
C345
330
18
100
AcDbEntity
  8
0
100
AcDbLine
 10
2196.769867175491
 20
811.1742684785705
 30
0.0
 11
2196.769867175491
 21
811.4261093969805
 31
0.0
  0
LINE
  5
C346
330
18
100
AcDbEntity
  8
0
100
AcDbLine
 10
2203.769867175491
 20
811.4261093969805
 30
0.0
 11
2203.769867175491
 21
811.1742684785705
 31
0.0
  0
LINE
  5
C347
330
18
100
AcDbEntity
  8
0
100
AcDbLine
 10
2203.769867175491
 20
802.7742684785703
 30
0.0
 11
2203.769867175491
 21
802.4261093969805
 31
0.0
  0
LINE
  5
C349
330
18
100
AcDbEntity
  8
0
100
AcDbLine
 10
2226.41986717549
 20
814.7502861248595
 30
0.0
 11
2226.41986717549
 21
812.4261093969813
 31
0.0
  0
LINE
  5
C34A
330
18
100
AcDbEntity
  8
0
100
AcDbLine
 10
2231.91986717549
 20
814.75028612486
 30
0.0
 11
2231.91986717549
 21
812.4261093969813
 31
0.0
  0
ARC
  5
C34B
330
18
100
AcDbEntity
  8
0
100
AcDbCircle
 10
2229.16986717549
 20
818.9261093969809
 30
0.0
 40
3.333333333332575
100
AcDbArc
 50
75.52248781407055
 51
104.4775121859294
  0
ARC
  5
C34C
330
18
100
AcDbEntity
  8
0
100
AcDbCircle
 10
2229.16986717549
 20
818.9261093969809
 30
0.0
 40
3.333333333332575
100
AcDbArc
 50
345.5224878140642
 51
14.47751218593576
  0
ARC
  5
C34D
330
18
100
AcDbEntity
  8
0
100
AcDbCircle
 10
2229.16986717549
 20
818.9261093969809
 30
0.0
 40
3.333333333332575
100
AcDbArc
 50
165.5224878140642
 51
194.4775121859357
  0
ARC
  5
C34E
330
18
100
AcDbEntity
  8
0
100
AcDbCircle
 10
2229.16986717549
 20
818.9261093969809
 30
0.0
 40
3.333333333332575
100
AcDbArc
 50
255.5224878140705
 51
284.4775121859294
  0
LINE
  5
C34F
330
18
100
AcDbEntity
  8
0
100
AcDbLine
 10
2228.336533842158
 20
815.6986232751419
 30
0.0
 11
2228.336533842158
 21
818.0927760636478
 31
0.0
  0
LINE
  5
C350
330
18
100
AcDbEntity
  8
0
100
AcDbLine
 10
2228.336533842158
 20
818.0927760636478
 30
0.0
 11
2225.942381053652
 21
818.0927760636478
 31
0.0
  0
LINE
  5
C351
330
18
100
AcDbEntity
  8
0
100
AcDbLine
 10
2230.003200508825
 20
815.6986232751419
 30
0.0
 11
2230.003200508825
 21
818.0927760636478
 31
0.0
  0
LINE
  5
C352
330
18
100
AcDbEntity
  8
0
100
AcDbLine
 10
2232.39735329733
 20
818.0927760636478
 30
0.0
 11
2230.003200508825
 21
818.0927760636478
 31
0.0
  0
LINE
  5
C353
330
18
100
AcDbEntity
  8
0
100
AcDbLine
 10
2228.336533842158
 20
819.7594427303139
 30
0.0
 11
2225.942381053652
 21
819.7594427303139
 31
0.0
  0
LINE
  5
C354
330
18
100
AcDbEntity
  8
0
100
AcDbLine
 10
2232.39735329733
 20
819.7594427303139
 30
0.0
 11
2230.003200508825
 21
819.7594427303139
 31
0.0
  0
CIRCLE
  5
C355
330
18
100
AcDbEntity
  8
0
100
AcDbCircle
 10
2229.16986717549
 20
818.9261093969809
 30
0.0
 40
4.999999999998863
  0
CIRCLE
  5
C356
330
18
100
AcDbEntity
  8
0
100
AcDbCircle
 10
2229.16986717549
 20
818.9261093969809
 30
0.0
 40
4.166666666665719
  0
LINE
  5
C357
330
18
100
AcDbEntity
  8
0
100
AcDbLine
 10
2228.336533842158
 20
819.7594427303139
 30
0.0
 11
2228.336533842158
 21
822.1535955188198
 31
0.0
  0
LINE
  5
C358
330
18
100
AcDbEntity
  8
0
100
AcDbLine
 10
2230.003200508825
 20
819.7594427303139
 30
0.0
 11
2230.003200508825
 21
822.1535955188198
 31
0.0
  0
ARC
  5
C359
330
18
100
AcDbEntity
  8
0
100
AcDbCircle
 10
2223.16986717549
 20
793.9261093969804
 30
0.0
 40
3.333333333332575
100
AcDbArc
 50
75.52248781407055
 51
104.4775121859294
  0
ARC
  5
C35A
330
18
100
AcDbEntity
  8
0
100
AcDbCircle
 10
2223.16986717549
 20
793.9261093969804
 30
0.0
 40
3.333333333332575
100
AcDbArc
 50
345.5224878140642
 51
14.47751218593576
  0
ARC
  5
C35B
330
18
100
AcDbEntity
  8
0
100
AcDbCircle
 10
2223.16986717549
 20
793.9261093969804
 30
0.0
 40
3.333333333332575
100
AcDbArc
 50
165.5224878140642
 51
194.4775121859357
  0
ARC
  5
C35C
330
18
100
AcDbEntity
  8
0
100
AcDbCircle
 10
2223.16986717549
 20
793.9261093969804
 30
0.0
 40
3.333333333332575
100
AcDbArc
 50
255.5224878140705
 51
284.4775121859294
  0
LINE
  5
C35D
330
18
100
AcDbEntity
  8
0
100
AcDbLine
 10
2222.336533842157
 20
790.6986232751416
 30
0.0
 11
2222.336533842157
 21
793.0927760636474
 31
0.0
  0
LINE
  5
C35E
330
18
100
AcDbEntity
  8
0
100
AcDbLine
 10
2222.336533842157
 20
793.0927760636474
 30
0.0
 11
2219.942381053652
 21
793.0927760636474
 31
0.0
  0
LINE
  5
C35F
330
18
100
AcDbEntity
  8
0
100
AcDbLine
 10
2224.003200508824
 20
790.6986232751416
 30
0.0
 11
2224.003200508824
 21
793.0927760636474
 31
0.0
  0
LINE
  5
C360
330
18
100
AcDbEntity
  8
0
100
AcDbLine
 10
2226.39735329733
 20
793.0927760636474
 30
0.0
 11
2224.003200508824
 21
793.0927760636474
 31
0.0
  0
LINE
  5
C361
330
18
100
AcDbEntity
  8
0
100
AcDbLine
 10
2222.336533842157
 20
794.7594427303134
 30
0.0
 11
2219.942381053652
 21
794.7594427303134
 31
0.0
  0
LINE
  5
C362
330
18
100
AcDbEntity
  8
0
100
AcDbLine
 10
2226.39735329733
 20
794.7594427303134
 30
0.0
 11
2224.003200508824
 21
794.7594427303134
 31
0.0
  0
CIRCLE
  5
C363
330
18
100
AcDbEntity
  8
0
100
AcDbCircle
 10
2223.16986717549
 20
793.9261093969804
 30
0.0
 40
4.999999999998863
  0
CIRCLE
  5
C364
330
18
100
AcDbEntity
  8
0
100
AcDbCircle
 10
2223.16986717549
 20
793.9261093969804
 30
0.0
 40
4.166666666665719
  0
LINE
  5
C365
330
18
100
AcDbEntity
  8
0
100
AcDbLine
 10
2222.336533842157
 20
794.7594427303134
 30
0.0
 11
2222.336533842157
 21
797.1535955188193
 31
0.0
  0
LINE
  5
C366
330
18
100
AcDbEntity
  8
0
100
AcDbLine
 10
2224.003200508824
 20
794.7594427303134
 30
0.0
 11
2224.003200508824
 21
797.1535955188193
 31
0.0
  0
ARC
  5
C367
330
18
100
AcDbEntity
  8
0
100
AcDbCircle
 10
2245.16986717549
 20
793.9261093969804
 30
0.0
 40
3.333333333332575
100
AcDbArc
 50
75.52248781407055
 51
104.4775121859294
  0
ARC
  5
C368
330
18
100
AcDbEntity
  8
0
100
AcDbCircle
 10
2245.16986717549
 20
793.9261093969804
 30
0.0
 40
3.333333333332575
100
AcDbArc
 50
345.5224878140642
 51
14.47751218593576
  0
ARC
  5
C369
330
18
100
AcDbEntity
  8
0
100
AcDbCircle
 10
2245.16986717549
 20
793.9261093969804
 30
0.0
 40
3.333333333332575
100
AcDbArc
 50
165.5224878140642
 51
194.4775121859357
  0
ARC
  5
C36A
330
18
100
AcDbEntity
  8
0
100
AcDbCircle
 10
2245.16986717549
 20
793.9261093969804
 30
0.0
 40
3.333333333332575
100
AcDbArc
 50
255.5224878140705
 51
284.4775121859294
  0
LINE
  5
C36B
330
18
100
AcDbEntity
  8
0
100
AcDbLine
 10
2244.336533842158
 20
790.6986232751416
 30
0.0
 11
2244.336533842158
 21
793.0927760636474
 31
0.0
  0
LINE
  5
C36C
330
18
100
AcDbEntity
  8
0
100
AcDbLine
 10
2244.336533842158
 20
793.0927760636474
 30
0.0
 11
2241.942381053652
 21
793.0927760636474
 31
0.0
  0
LINE
  5
C36D
330
18
100
AcDbEntity
  8
0
100
AcDbLine
 10
2246.003200508825
 20
790.6986232751416
 30
0.0
 11
2246.003200508825
 21
793.0927760636474
 31
0.0
  0
LINE
  5
C36E
330
18
100
AcDbEntity
  8
0
100
AcDbLine
 10
2248.39735329733
 20
793.0927760636474
 30
0.0
 11
2246.003200508825
 21
793.0927760636474
 31
0.0
  0
LINE
  5
C36F
330
18
100
AcDbEntity
  8
0
100
AcDbLine
 10
2244.336533842158
 20
794.7594427303134
 30
0.0
 11
2241.942381053652
 21
794.7594427303134
 31
0.0
  0
LINE
  5
C370
330
18
100
AcDbEntity
  8
0
100
AcDbLine
 10
2248.39735329733
 20
794.7594427303134
 30
0.0
 11
2246.003200508825
 21
794.7594427303134
 31
0.0
  0
CIRCLE
  5
C371
330
18
100
AcDbEntity
  8
0
100
AcDbCircle
 10
2245.16986717549
 20
793.9261093969804
 30
0.0
 40
4.999999999998863
  0
CIRCLE
  5
C372
330
18
100
AcDbEntity
  8
0
100
AcDbCircle
 10
2245.16986717549
 20
793.9261093969804
 30
0.0
 40
4.166666666665719
  0
LINE
  5
C373
330
18
100
AcDbEntity
  8
0
100
AcDbLine
 10
2244.336533842158
 20
794.7594427303134
 30
0.0
 11
2244.336533842158
 21
797.1535955188193
 31
0.0
  0
LINE
  5
C374
330
18
100
AcDbEntity
  8
0
100
AcDbLine
 10
2246.003200508825
 20
794.7594427303134
 30
0.0
 11
2246.003200508825
 21
797.1535955188193
 31
0.0
  0
MTEXT
  5
C375
330
18
100
AcDbEntity
  8
0
100
AcDbMText
 10
2209.319144247748
 20
810.2152311131373
 30
0.0
 40
2.5
 41
0.0
 71
     1
 72
     5
  1
{\fＭＳ ゴシック|b0|i0|c128|p49;ＤＢＫ}
 73
     1
 44
1.0
  0
MTEXT
  5
C376
330
18
100
AcDbEntity
  8
0
100
AcDbMText
 10
2209.291580493177
 20
806.488890160044
 30
0.0
 40
2.5
 41
0.0
 71
     1
 72
     5
  1
{\fＭＳ ゴシック|b0|i0|c128|p49;ＤＢＣ}
 73
     1
 44
1.0
  0
LINE
  5
C37B
330
18
100
AcDbEntity
  8
0
100
AcDbLine
 10
2230.907963851231
 20
839.8713128539094
 30
0.0
 11
2231.61507063242
 21
839.1642060727228
 31
0.0
  0
LINE
  5
C37C
330
18
100
AcDbEntity
  8
0
100
AcDbLine
 10
2230.907963851231
 20
834.9809059400524
 30
0.0
 11
2231.615070632418
 21
835.688012721239
 31
0.0
  0
LINE
  5
C37D
330
18
100
AcDbEntity
  8
0
100
AcDbLine
 10
2229.16986717549
 20
838.1332161781676
 30
0.0
 11
2227.431770499748
 21
839.8713128539094
 31
0.0
  0
LINE
  5
C37E
330
18
100
AcDbEntity
  8
0
100
AcDbLine
 10
2231.615070632418
 20
835.688012721239
 30
0.0
 11
2229.876973956677
 21
837.4261093969808
 31
0.0
  0
LINE
  5
C37F
330
18
100
AcDbEntity
  8
0
100
AcDbLine
 10
2230.907963851231
 20
839.8713128539094
 30
0.0
 11
2229.16986717549
 21
838.1332161781676
 31
0.0
  0
LINE
  5
C380
330
18
100
AcDbEntity
  8
0
100
AcDbLine
 10
2230.907963851233
 20
834.9809059400524
 30
0.0
 11
2229.16986717549
 21
836.7190026157942
 31
0.0
  0
LINE
  5
C381
330
18
100
AcDbEntity
  8
0
100
AcDbLine
 10
2231.615070632418
 20
839.1642060727228
 30
0.0
 11
2229.876973956677
 21
837.4261093969808
 31
0.0
  0
LINE
  5
C382
330
18
100
AcDbEntity
  8
0
100
AcDbLine
 10
2229.16986717549
 20
836.7190026157942
 30
0.0
 11
2227.431770499749
 21
834.9809059400524
 31
0.0
  0
LINE
  5
C383
330
18
100
AcDbEntity
  8
0
100
AcDbLine
 10
2246.66986717549
 20
812.4261093969808
 30
0.0
 11
2231.91986717549
 21
812.4261093969808
 31
0.0
  0
LINE
  5
C384
330
18
100
AcDbEntity
  8
0
100
AcDbLine
 10
2226.724663718563
 20
835.688012721239
 30
0.0
 11
2227.431770499749
 21
834.9809059400524
 31
0.0
  0
LINE
  5
C385
330
18
100
AcDbEntity
  8
0
100
AcDbLine
 10
2227.431770499748
 20
839.8713128539094
 30
0.0
 11
2226.724663718561
 21
839.1642060727228
 31
0.0
  0
LINE
  5
C386
330
18
100
AcDbEntity
  8
0
100
AcDbLine
 10
2228.462760394303
 20
837.4261093969808
 30
0.0
 11
2226.724663718561
 21
839.1642060727228
 31
0.0
  0
LINE
  5
C387
330
18
100
AcDbEntity
  8
0
100
AcDbLine
 10
2228.462760394303
 20
837.4261093969808
 30
0.0
 11
2226.724663718563
 21
835.688012721239
 31
0.0
  0
CIRCLE
  5
C388
330
18
100
AcDbEntity
  8
0
100
AcDbCircle
 10
2229.16986717549
 20
837.4261093969805
 30
0.0
 40
6.0
  0
LINE
  5
C389
330
18
100
AcDbEntity
  8
0
100
AcDbLine
 10
2196.769867175491
 20
811.4261093969805
 30
0.0
 11
2203.769867175491
 21
811.4261093969805
 31
0.0
  0
LINE
  5
C38A
330
18
100
AcDbEntity
  8
0
100
AcDbLine
 10
2203.769867175491
 20
802.4261093969805
 30
0.0
 11
2196.769867175491
 21
802.4261093969805
 31
0.0
  0
LINE
  5
C38B
330
18
100
AcDbEntity
  8
0
100
AcDbLine
 10
2195.16986717549
 20
770.92610939698
 30
0.0
 11
2220.41986717549
 21
770.9261093969805
 31
0.0
  0
LINE
  5
C38C
330
18
100
AcDbEntity
  8
0
100
AcDbLine
 10
2194.16986717549
 20
783.9261093969804
 30
0.0
 11
2194.16986717549
 21
771.92610939698
 31
0.0
  0
LINE
  5
C38D
330
18
100
AcDbEntity
  8
0
100
AcDbLine
 10
2195.16986717549
 20
770.92610939698
 30
0.0
 11
2194.16986717549
 21
771.92610939698
 31
0.0
  0
LINE
  5
C38E
330
18
100
AcDbEntity
  8
0
100
AcDbLine
 10
2206.169867175491
 20
811.9261093969845
 30
0.0
 11
2206.169867175491
 21
801.9261093969845
 31
0.0
  0
LINE
  5
C38F
330
18
100
AcDbEntity
  8
0
100
AcDbLine
 10
2195.169867175491
 20
801.9261093969841
 30
0.0
 11
2206.169867175491
 21
801.9261093969845
 31
0.0
  0
LINE
  5
C390
330
18
100
AcDbEntity
  8
0
100
AcDbLine
 10
2195.169867175491
 20
811.9261093969841
 30
0.0
 11
2206.169867175491
 21
811.9261093969845
 31
0.0
  0
TEXT
  5
C391
330
18
100
AcDbEntity
  8
0
 48
5.0
100
AcDbText
 10
2201.361348239921
 20
833.7314045193089
 30
0.0
 40
7.0
  1
W
 41
1.199999999999999
  7
MSｺﾞｼｯｸ
 11
2201.361348239921
 21
837.2314045193089
 31
0.0
100
AcDbText
 73
     2
  0
TEXT
  5
C392
330
18
100
AcDbEntity
  8
0
 48
5.0
100
AcDbText
 10
2198.755118521114
 20
815.8380012530452
 30
0.0
 40
5.0
  1
TB2
 41
1.199999999999999
  7
MSｺﾞｼｯｸ
 11
2198.755118521114
 21
818.3380012530452
 31
0.0
100
AcDbText
 73
     2
  0
LINE
  5
C394
330
18
100
AcDbEntity
  8
0
100
AcDbLine
 10
2226.41986717549
 20
812.4261093969808
 30
0.0
 11
2211.66986717549
 21
812.4261093969808
 31
0.0
  0
LINE
  5
C395
330
18
100
AcDbEntity
  8
0
100
AcDbLine
 10
2246.66986717549
 20
828.4261093969808
 30
0.0
 11
2211.66986717549
 21
828.4261093969808
 31
0.0
  0
LINE
  5
C3AC
330
18
100
AcDbEntity
  8
0
100
AcDbLine
 10
2264.16986717549
 20
784.9261093969809
 30
0.0
 11
2264.16986717549
 21
771.9261093969809
 31
0.0
  0
LINE
  5
C3AD
330
18
100
AcDbEntity
  8
0
100
AcDbLine
 10
2264.16986717549
 20
771.9261093969809
 30
0.0
 11
2263.16986717549
 21
770.9261093969809
 31
0.0
  0
LINE
  5
C3AE
330
18
100
AcDbEntity
  8
0
100
AcDbLine
 10
2264.16986717549
 20
784.9261093969809
 30
0.0
 11
2263.16986717549
 21
783.9261093969809
 31
0.0
  0
LINE
  5
C3B6
330
18
100
AcDbEntity
  8
0
100
AcDbLine
 10
2229.16986717549
 20
880.1332161781676
 30
0.0
 11
2227.431770499748
 21
881.8713128539094
 31
0.0
  0
LINE
  5
C3B7
330
18
100
AcDbEntity
  8
0
100
AcDbLine
 10
2231.615070632418
 20
877.688012721239
 30
0.0
 11
2229.876973956677
 21
879.4261093969808
 31
0.0
  0
LINE
  5
C3B8
330
18
100
AcDbEntity
  8
0
100
AcDbLine
 10
2230.907963851231
 20
881.8713128539094
 30
0.0
 11
2229.16986717549
 21
880.1332161781676
 31
0.0
  0
LINE
  5
C3B9
330
18
100
AcDbEntity
  8
0
100
AcDbLine
 10
2230.907963851233
 20
876.9809059400524
 30
0.0
 11
2229.16986717549
 21
878.7190026157942
 31
0.0
  0
LINE
  5
C3BA
330
18
100
AcDbEntity
  8
0
100
AcDbLine
 10
2231.615070632418
 20
881.1642060727228
 30
0.0
 11
2229.876973956677
 21
879.4261093969808
 31
0.0
  0
LINE
  5
C3BB
330
18
100
AcDbEntity
  8
0
100
AcDbLine
 10
2229.16986717549
 20
878.7190026157942
 30
0.0
 11
2227.431770499749
 21
876.9809059400524
 31
0.0
  0
LINE
  5
C3BC
330
18
100
AcDbEntity
  8
0
100
AcDbLine
 10
2237.16986717549
 20
912.4261093969808
 30
0.0
 11
2237.16986717549
 21
930.4261093969813
 31
0.0
  0
LINE
  5
C3BD
330
18
100
AcDbEntity
  8
0
100
AcDbLine
 10
2237.16986717549
 20
891.4261093969809
 30
0.0
 11
2237.16986717549
 21
909.4261093969814
 31
0.0
  0
LINE
  5
C3BE
330
18
100
AcDbEntity
  8
0
100
AcDbLine
 10
2237.16986717549
 20
870.4261093969808
 30
0.0
 11
2237.16986717549
 21
888.4261093969813
 31
0.0
  0
LINE
  5
C3BF
330
18
100
AcDbEntity
  8
0
100
AcDbLine
 10
2230.907963851231
 20
860.8713128539093
 30
0.0
 11
2231.61507063242
 21
860.1642060727227
 31
0.0
  0
LINE
  5
C3C0
330
18
100
AcDbEntity
  8
0
100
AcDbLine
 10
2230.907963851231
 20
855.9809059400523
 30
0.0
 11
2231.615070632418
 21
856.6880127212391
 31
0.0
  0
LINE
  5
C3C1
330
18
100
AcDbEntity
  8
0
100
AcDbLine
 10
2229.16986717549
 20
859.1332161781675
 30
0.0
 11
2227.431770499748
 21
860.8713128539093
 31
0.0
  0
LINE
  5
C3C2
330
18
100
AcDbEntity
  8
0
100
AcDbLine
 10
2231.615070632418
 20
856.6880127212391
 30
0.0
 11
2229.876973956677
 21
858.4261093969809
 31
0.0
  0
LINE
  5
C3C3
330
18
100
AcDbEntity
  8
0
100
AcDbLine
 10
2230.907963851231
 20
860.8713128539093
 30
0.0
 11
2229.16986717549
 21
859.1332161781675
 31
0.0
  0
LINE
  5
C3C4
330
18
100
AcDbEntity
  8
0
100
AcDbLine
 10
2230.907963851233
 20
855.9809059400523
 30
0.0
 11
2229.16986717549
 21
857.7190026157943
 31
0.0
  0
LINE
  5
C3C5
330
18
100
AcDbEntity
  8
0
100
AcDbLine
 10
2231.615070632418
 20
860.1642060727227
 30
0.0
 11
2229.876973956677
 21
858.4261093969809
 31
0.0
  0
LINE
  5
C3C6
330
18
100
AcDbEntity
  8
0
100
AcDbLine
 10
2229.16986717549
 20
857.7190026157943
 30
0.0
 11
2227.431770499749
 21
855.9809059400523
 31
0.0
  0
LINE
  5
C3C7
330
18
100
AcDbEntity
  8
0
100
AcDbLine
 10
2237.16986717549
 20
849.4261093969809
 30
0.0
 11
2237.16986717549
 21
867.4261093969814
 31
0.0
  0
LINE
  5
C3C8
330
18
100
AcDbEntity
  8
0
100
AcDbLine
 10
2226.724663718563
 20
919.688012721239
 30
0.0
 11
2227.431770499749
 21
918.9809059400523
 31
0.0
  0
LINE
  5
C3C9
330
18
100
AcDbEntity
  8
0
100
AcDbLine
 10
2227.431770499748
 20
923.8713128539094
 30
0.0
 11
2226.724663718561
 21
923.1642060727228
 31
0.0
  0
LINE
  5
C3CA
330
18
100
AcDbEntity
  8
0
100
AcDbLine
 10
2228.462760394303
 20
921.4261093969808
 30
0.0
 11
2226.724663718561
 21
923.1642060727228
 31
0.0
  0
LINE
  5
C3CB
330
18
100
AcDbEntity
  8
0
100
AcDbLine
 10
2228.462760394303
 20
921.4261093969808
 30
0.0
 11
2226.724663718563
 21
919.688012721239
 31
0.0
  0
CIRCLE
  5
C3CC
330
18
100
AcDbEntity
  8
0
100
AcDbCircle
 10
2229.16986717549
 20
921.4261093969804
 30
0.0
 40
6.0
  0
LINE
  5
C3CD
330
18
100
AcDbEntity
  8
0
100
AcDbLine
 10
2226.724663718563
 20
898.6880127212391
 30
0.0
 11
2227.431770499749
 21
897.9809059400523
 31
0.0
  0
LINE
  5
C3CE
330
18
100
AcDbEntity
  8
0
100
AcDbLine
 10
2227.431770499748
 20
902.8713128539093
 30
0.0
 11
2226.724663718561
 21
902.1642060727227
 31
0.0
  0
LINE
  5
C3CF
330
18
100
AcDbEntity
  8
0
100
AcDbLine
 10
2228.462760394303
 20
900.4261093969809
 30
0.0
 11
2226.724663718561
 21
902.1642060727227
 31
0.0
  0
LINE
  5
C3D0
330
18
100
AcDbEntity
  8
0
100
AcDbLine
 10
2228.462760394303
 20
900.4261093969809
 30
0.0
 11
2226.724663718563
 21
898.6880127212391
 31
0.0
  0
CIRCLE
  5
C3D1
330
18
100
AcDbEntity
  8
0
100
AcDbCircle
 10
2229.16986717549
 20
900.4261093969804
 30
0.0
 40
6.0
  0
LINE
  5
C3D2
330
18
100
AcDbEntity
  8
0
100
AcDbLine
 10
2226.724663718563
 20
877.688012721239
 30
0.0
 11
2227.431770499749
 21
876.9809059400524
 31
0.0
  0
LINE
  5
C3D3
330
18
100
AcDbEntity
  8
0
100
AcDbLine
 10
2227.431770499748
 20
881.8713128539094
 30
0.0
 11
2226.724663718561
 21
881.1642060727228
 31
0.0
  0
LINE
  5
C3D4
330
18
100
AcDbEntity
  8
0
100
AcDbLine
 10
2228.462760394303
 20
879.4261093969808
 30
0.0
 11
2226.724663718561
 21
881.1642060727228
 31
0.0
  0
LINE
  5
C3D5
330
18
100
AcDbEntity
  8
0
100
AcDbLine
 10
2228.462760394303
 20
879.4261093969808
 30
0.0
 11
2226.724663718563
 21
877.688012721239
 31
0.0
  0
CIRCLE
  5
C3D6
330
18
100
AcDbEntity
  8
0
100
AcDbCircle
 10
2229.16986717549
 20
879.4261093969804
 30
0.0
 40
6.0
  0
LINE
  5
C3D7
330
18
100
AcDbEntity
  8
0
100
AcDbLine
 10
2226.724663718563
 20
856.6880127212391
 30
0.0
 11
2227.431770499749
 21
855.9809059400523
 31
0.0
  0
LINE
  5
C3D8
330
18
100
AcDbEntity
  8
0
100
AcDbLine
 10
2227.431770499748
 20
860.8713128539093
 30
0.0
 11
2226.724663718561
 21
860.1642060727227
 31
0.0
  0
LINE
  5
C3D9
330
18
100
AcDbEntity
  8
0
100
AcDbLine
 10
2228.462760394303
 20
858.4261093969809
 30
0.0
 11
2226.724663718561
 21
860.1642060727227
 31
0.0
  0
LINE
  5
C3DA
330
18
100
AcDbEntity
  8
0
100
AcDbLine
 10
2228.462760394303
 20
858.4261093969809
 30
0.0
 11
2226.724663718563
 21
856.6880127212391
 31
0.0
  0
CIRCLE
  5
C3DB
330
18
100
AcDbEntity
  8
0
100
AcDbCircle
 10
2229.16986717549
 20
858.4261093969804
 30
0.0
 40
6.0
  0
TEXT
  5
C3DC
330
18
100
AcDbEntity
  8
0
 48
5.0
100
AcDbText
 10
2201.361348239921
 20
917.7314045193089
 30
0.0
 40
7.0
  1
V
 41
1.199999999999999
  7
MSｺﾞｼｯｸ
 11
2201.361348239921
 21
921.2314045193089
 31
0.0
100
AcDbText
 73
     2
  0
TEXT
  5
C3DD
330
18
100
AcDbEntity
  8
0
 48
5.0
100
AcDbText
 10
2201.361348239921
 20
896.731404519309
 30
0.0
 40
7.0
  1
W
 41
1.199999999999999
  7
MSｺﾞｼｯｸ
 11
2201.361348239921
 21
900.231404519309
 31
0.0
100
AcDbText
 73
     2
  0
TEXT
  5
C3DE
330
18
100
AcDbEntity
  8
0
 48
5.0
100
AcDbText
 10
2201.361348239921
 20
875.7314045193089
 30
0.0
 40
7.0
  1
U
 41
1.199999999999999
  7
MSｺﾞｼｯｸ
 11
2201.361348239921
 21
879.2314045193089
 31
0.0
100
AcDbText
 73
     2
  0
TEXT
  5
C3DF
330
18
100
AcDbEntity
  8
0
 48
5.0
100
AcDbText
 10
2201.361348239921
 20
854.731404519309
 30
0.0
 40
7.0
  1
V
 41
1.199999999999999
  7
MSｺﾞｼｯｸ
 11
2201.361348239921
 21
858.231404519309
 31
0.0
100
AcDbText
 73
     2
  0
LINE
  5
C3E0
330
18
100
AcDbEntity
  8
0
100
AcDbLine
 10
2246.66986717549
 20
846.4261093969808
 30
0.0
 11
2211.66986717549
 21
846.4261093969808
 31
0.0
  0
LINE
  5
C3E1
330
18
100
AcDbEntity
  8
0
100
AcDbLine
 10
2246.66986717549
 20
867.4261093969809
 30
0.0
 11
2211.66986717549
 21
867.4261093969809
 31
0.0
  0
LINE
  5
C3E2
330
18
100
AcDbEntity
  8
0
100
AcDbLine
 10
2246.66986717549
 20
849.4261093969809
 30
0.0
 11
2211.66986717549
 21
849.4261093969809
 31
0.0
  0
LINE
  5
C3E3
330
18
100
AcDbEntity
  8
0
100
AcDbLine
 10
2246.66986717549
 20
888.426109396981
 30
0.0
 11
2211.66986717549
 21
888.426109396981
 31
0.0
  0
LINE
  5
C3E4
330
18
100
AcDbEntity
  8
0
100
AcDbLine
 10
2246.66986717549
 20
870.4261093969808
 30
0.0
 11
2211.66986717549
 21
870.4261093969808
 31
0.0
  0
LINE
  5
C3E5
330
18
100
AcDbEntity
  8
0
100
AcDbLine
 10
2246.66986717549
 20
909.4261093969809
 30
0.0
 11
2211.66986717549
 21
909.4261093969809
 31
0.0
  0
LINE
  5
C3E6
330
18
100
AcDbEntity
  8
0
100
AcDbLine
 10
2246.66986717549
 20
891.4261093969809
 30
0.0
 11
2211.66986717549
 21
891.4261093969809
 31
0.0
  0
LINE
  5
C3E7
330
18
100
AcDbEntity
  8
0
100
AcDbLine
 10
2246.66986717549
 20
930.426109396981
 30
0.0
 11
2211.66986717549
 21
930.426109396981
 31
0.0
  0
LINE
  5
C3E8
330
18
100
AcDbEntity
  8
0
100
AcDbLine
 10
2246.66986717549
 20
912.4261093969808
 30
0.0
 11
2211.66986717549
 21
912.4261093969808
 31
0.0
  0
LINE
  5
C3E9
330
18
100
AcDbEntity
  8
0
100
AcDbLine
 10
2246.66986717549
 20
933.4261093969809
 30
0.0
 11
2211.66986717549
 21
933.4261093969809
 31
0.0
  0
LINE
  5
C3EA
330
18
100
AcDbEntity
  8
0
100
AcDbLine
 10
2221.16986717549
 20
912.4261093969808
 30
0.0
 11
2221.16986717549
 21
930.4261093969813
 31
0.0
  0
LINE
  5
C3EB
330
18
100
AcDbEntity
  8
0
100
AcDbLine
 10
2221.16986717549
 20
891.4261093969809
 30
0.0
 11
2221.16986717549
 21
909.4261093969814
 31
0.0
  0
LINE
  5
C3EC
330
18
100
AcDbEntity
  8
0
100
AcDbLine
 10
2221.16986717549
 20
870.4261093969808
 30
0.0
 11
2221.16986717549
 21
888.4261093969813
 31
0.0
  0
LINE
  5
C3ED
330
18
100
AcDbEntity
  8
0
100
AcDbLine
 10
2221.16986717549
 20
849.4261093969809
 30
0.0
 11
2221.16986717549
 21
867.4261093969814
 31
0.0
  0
LINE
  5
C3EE
330
18
100
AcDbEntity
  8
0
100
AcDbLine
 10
2230.907963851231
 20
923.8713128539094
 30
0.0
 11
2231.61507063242
 21
923.1642060727228
 31
0.0
  0
LINE
  5
C3EF
330
18
100
AcDbEntity
  8
0
100
AcDbLine
 10
2230.907963851231
 20
918.9809059400523
 30
0.0
 11
2231.615070632418
 21
919.688012721239
 31
0.0
  0
LINE
  5
C3F0
330
18
100
AcDbEntity
  8
0
100
AcDbLine
 10
2229.16986717549
 20
922.1332161781676
 30
0.0
 11
2227.431770499748
 21
923.8713128539094
 31
0.0
  0
LINE
  5
C3F1
330
18
100
AcDbEntity
  8
0
100
AcDbLine
 10
2231.615070632418
 20
919.688012721239
 30
0.0
 11
2229.876973956677
 21
921.4261093969808
 31
0.0
  0
LINE
  5
C3F2
330
18
100
AcDbEntity
  8
0
100
AcDbLine
 10
2230.907963851231
 20
923.8713128539094
 30
0.0
 11
2229.16986717549
 21
922.1332161781676
 31
0.0
  0
LINE
  5
C3F3
330
18
100
AcDbEntity
  8
0
100
AcDbLine
 10
2230.907963851233
 20
918.9809059400523
 30
0.0
 11
2229.16986717549
 21
920.7190026157942
 31
0.0
  0
LINE
  5
C3F4
330
18
100
AcDbEntity
  8
0
100
AcDbLine
 10
2231.615070632418
 20
923.1642060727228
 30
0.0
 11
2229.876973956677
 21
921.4261093969808
 31
0.0
  0
LINE
  5
C3F5
330
18
100
AcDbEntity
  8
0
100
AcDbLine
 10
2229.16986717549
 20
920.7190026157942
 30
0.0
 11
2227.431770499749
 21
918.9809059400523
 31
0.0
  0
LINE
  5
C3F6
330
18
100
AcDbEntity
  8
0
100
AcDbLine
 10
2230.907963851231
 20
902.8713128539093
 30
0.0
 11
2231.61507063242
 21
902.1642060727227
 31
0.0
  0
LINE
  5
C3F7
330
18
100
AcDbEntity
  8
0
100
AcDbLine
 10
2230.907963851231
 20
897.9809059400523
 30
0.0
 11
2231.615070632418
 21
898.6880127212391
 31
0.0
  0
LINE
  5
C3F8
330
18
100
AcDbEntity
  8
0
100
AcDbLine
 10
2229.16986717549
 20
901.1332161781675
 30
0.0
 11
2227.431770499748
 21
902.8713128539093
 31
0.0
  0
LINE
  5
C3F9
330
18
100
AcDbEntity
  8
0
100
AcDbLine
 10
2231.615070632418
 20
898.6880127212391
 30
0.0
 11
2229.876973956677
 21
900.4261093969809
 31
0.0
  0
LINE
  5
C3FA
330
18
100
AcDbEntity
  8
0
100
AcDbLine
 10
2230.907963851231
 20
902.8713128539093
 30
0.0
 11
2229.16986717549
 21
901.1332161781675
 31
0.0
  0
LINE
  5
C3FB
330
18
100
AcDbEntity
  8
0
100
AcDbLine
 10
2230.907963851233
 20
897.9809059400523
 30
0.0
 11
2229.16986717549
 21
899.7190026157943
 31
0.0
  0
LINE
  5
C3FC
330
18
100
AcDbEntity
  8
0
100
AcDbLine
 10
2231.615070632418
 20
902.1642060727227
 30
0.0
 11
2229.876973956677
 21
900.4261093969809
 31
0.0
  0
LINE
  5
C3FD
330
18
100
AcDbEntity
  8
0
100
AcDbLine
 10
2229.16986717549
 20
899.7190026157943
 30
0.0
 11
2227.431770499749
 21
897.9809059400523
 31
0.0
  0
LINE
  5
C3FE
330
18
100
AcDbEntity
  8
0
100
AcDbLine
 10
2230.907963851231
 20
881.8713128539094
 30
0.0
 11
2231.61507063242
 21
881.1642060727228
 31
0.0
  0
LINE
  5
C3FF
330
18
100
AcDbEntity
  8
0
100
AcDbLine
 10
2230.907963851231
 20
876.9809059400524
 30
0.0
 11
2231.615070632418
 21
877.688012721239
 31
0.0
  0
LINE
  5
C400
330
18
100
AcDbEntity
  8
0
100
AcDbLine
 10
2457.798420589755
 20
828.4261093969808
 30
0.0
 11
2457.798420589755
 21
846.4261093969808
 31
0.0
  0
LINE
  5
C401
330
18
100
AcDbEntity
  8
0
100
AcDbLine
 10
2466.798420589756
 20
828.4261093969817
 30
0.0
 11
2466.798420589755
 21
846.4261093969813
 31
0.0
  0
LINE
  5
C402
330
18
100
AcDbEntity
  8
0
100
AcDbLine
 10
2627.798420589756
 20
783.9261093969818
 30
0.0
 11
2475.798420589754
 21
783.9261093969818
 31
0.0
  0
LINE
  5
C403
330
18
100
AcDbEntity
  8
0
100
AcDbLine
 10
2471.798420589756
 20
783.9261093969809
 30
0.0
 11
2628.798420589756
 21
783.9261093969809
 31
0.0
  0
ARC
  5
C404
330
18
100
AcDbEntity
  8
0
100
AcDbCircle
 10
2468.798420589757
 20
796.092776063646
 30
0.0
 40
2.0
100
AcDbArc
 50
90.0
 51
180.0
  0
ARC
  5
C405
330
18
100
AcDbEntity
  8
0
100
AcDbCircle
 10
2468.798420589757
 20
791.7594427303148
 30
0.0
 40
2.0
100
AcDbArc
 50
180.0
 51
270.0
  0
LINE
  5
C406
330
18
100
AcDbEntity
  8
0
100
AcDbLine
 10
2466.798420589756
 20
796.092776063646
 30
0.0
 11
2466.798420589756
 21
791.7594427303148
 31
0.0
  0
LWPOLYLINE
  5
C407
330
18
100
AcDbEntity
  8
0
100
AcDbPolyline
 90
        4
 70
     1
 43
0.0
 10
2470.13175392309
 20
798.0927760636474
 10
2470.13175392309
 20
789.7594427303134
 10
2470.965087256424
 20
789.7594427303134
 10
2470.965087256424
 20
798.0927760636474
  0
LINE
  5
C408
330
18
100
AcDbEntity
  8
0
100
AcDbLine
 10
2470.131753923089
 20
798.0927760636469
 30
0.0
 11
2468.798420589757
 21
798.0927760636469
 31
0.0
  0
LINE
  5
C409
330
18
100
AcDbEntity
  8
0
100
AcDbLine
 10
2468.798420589757
 20
789.7594427303139
 30
0.0
 11
2470.131753923089
 21
789.7594427303139
 31
0.0
  0
LWPOLYLINE
  5
C40A
330
18
100
AcDbEntity
  8
0
100
AcDbPolyline
 90
        4
 70
     1
 43
0.0
 10
2470.965087256424
 20
798.9261093969804
 10
2470.965087256424
 20
788.9261093969804
 10
2471.798420589756
 20
788.9261093969804
 10
2471.798420589756
 20
798.9261093969804
  0
CIRCLE
  5
C412
330
18
100
AcDbEntity
  8
0
100
AcDbCircle
 10
2468.298420589756
 20
805.0211093969839
 30
0.0
 40
1.199999999999999
  0
LINE
  5
C413
330
18
100
AcDbEntity
  8
0
100
AcDbLine
 10
2471.798420589756
 20
802.7261093969848
 30
0.0
 11
2462.898420589757
 21
802.7261093969848
 31
0.0
  0
LINE
  5
C414
330
18
100
AcDbEntity
  8
0
100
AcDbLine
 10
2471.798420589756
 20
811.1261093969844
 30
0.0
 11
2462.898420589757
 21
811.1261093969844
 31
0.0
  0
CIRCLE
  5
C415
330
18
100
AcDbEntity
  8
0
100
AcDbCircle
 10
2468.298420589756
 20
808.8311093969842
 30
0.0
 40
1.199999999999999
  0
LINE
  5
C416
330
18
100
AcDbEntity
  8
0
100
AcDbLine
 10
2463.898420589757
 20
811.1261093969844
 30
0.0
 11
2463.898420589757
 21
802.7261093969848
 31
0.0
  0
LINE
  5
C417
330
18
100
AcDbEntity
  8
0
100
AcDbLine
 10
2462.898420589757
 20
811.1261093969844
 30
0.0
 11
2462.898420589757
 21
802.7261093969848
 31
0.0
  0
LINE
  5
C418
330
18
100
AcDbEntity
  8
0
100
AcDbLine
 10
2471.798420589756
 20
811.1261093969844
 30
0.0
 11
2471.798420589756
 21
802.7261093969848
 31
0.0
  0
LINE
  5
C419
330
18
100
AcDbEntity
  8
0
100
AcDbLine
 10
2471.298420589756
 20
811.1261093969844
 30
0.0
 11
2471.298420589756
 21
802.7261093969848
 31
0.0
  0
LINE
  5
C41A
330
18
100
AcDbEntity
  8
0
100
AcDbLine
 10
2469.175441495243
 20
808.0120646293808
 30
0.0
 11
2468.027617466919
 21
810.000154164588
 31
0.0
  0
LINE
  5
C41B
330
18
100
AcDbEntity
  8
0
100
AcDbLine
 10
2469.175441495243
 20
804.2020646293805
 30
0.0
 11
2468.027617466919
 21
806.1901541645877
 31
0.0
  0
LINE
  5
C41C
330
18
100
AcDbEntity
  8
0
100
AcDbLine
 10
2468.569223712596
 20
803.8520646293811
 30
0.0
 11
2467.421399684271
 21
805.8401541645881
 31
0.0
  0
LINE
  5
C41D
330
18
100
AcDbEntity
  8
0
100
AcDbLine
 10
2468.569223712596
 20
807.6620646293806
 30
0.0
 11
2467.421399684271
 21
809.6501541645876
 31
0.0
  0
LINE
  5
C41E
330
18
100
AcDbEntity
  8
0
100
AcDbLine
 10
2466.798420589756
 20
828.4261093969817
 30
0.0
 11
2442.298420589756
 21
828.4261093969814
 31
0.0
  0
LINE
  5
C41F
330
18
100
AcDbEntity
  8
0
100
AcDbLine
 10
2442.298420589756
 20
812.4261093969813
 30
0.0
 11
2471.798420589756
 21
812.4261093969813
 31
0.0
  0
LINE
  5
C420
330
18
100
AcDbEntity
  8
0
100
AcDbLine
 10
2457.798420589754
 20
831.4261093969813
 30
0.0
 11
2456.798420589755
 21
831.4261093969813
 31
0.0
  0
LINE
  5
C421
330
18
100
AcDbEntity
  8
0
100
AcDbLine
 10
2457.798420589754
 20
843.4261093969809
 30
0.0
 11
2456.798420589754
 21
843.4261093969809
 31
0.0
  0
LINE
  5
C422
330
18
100
AcDbEntity
  8
0
100
AcDbLine
 10
2453.798420589755
 20
834.4261093969814
 30
0.0
 11
2453.798420589754
 21
840.4261093969809
 31
0.0
  0
ARC
  5
C423
330
18
100
AcDbEntity
  8
0
100
AcDbCircle
 10
2456.798420589755
 20
834.4261093969809
 30
0.0
 40
3.0
100
AcDbArc
 50
180.0
 51
270.0
  0
ARC
  5
C424
330
18
100
AcDbEntity
  8
0
100
AcDbCircle
 10
2456.798420589754
 20
840.4261093969804
 30
0.0
 40
3.0
100
AcDbArc
 50
90.0
 51
180.0
  0
LINE
  5
C425
330
18
100
AcDbEntity
  8
0
100
AcDbLine
 10
2442.298420589756
 20
828.4261093969814
 30
0.0
 11
2442.298420589756
 21
812.4261093969813
 31
0.0
  0
LINE
  5
C426
330
18
100
AcDbEntity
  8
0
100
AcDbLine
 10
2475.798420589754
 20
783.9261093969818
 30
0.0
 11
2474.798420589754
 21
784.9261093969817
 31
0.0
  0
LINE
  5
C427
330
18
100
AcDbEntity
  8
0
100
AcDbLine
 10
2627.798420589756
 20
783.9261093969818
 30
0.0
 11
2628.798420589756
 21
784.9261093969817
 31
0.0
  0
LINE
  5
C428
330
18
100
AcDbEntity
  8
0
100
AcDbLine
 10
2442.298420589755
 20
846.4261093969808
 30
0.0
 11
2471.798420589757
 21
846.4261093969804
 31
0.0
  0
LINE
  5
C429
330
18
100
AcDbEntity
  8
0
100
AcDbLine
 10
2442.298420589755
 20
867.4261093969814
 30
0.0
 11
2471.798420589757
 21
867.4261093969809
 31
0.0
  0
LINE
  5
C42A
330
18
100
AcDbEntity
  8
0
100
AcDbLine
 10
2442.298420589755
 20
888.4261093969813
 30
0.0
 11
2471.798420589757
 21
888.426109396981
 31
0.0
  0
LINE
  5
C42B
330
18
100
AcDbEntity
  8
0
100
AcDbLine
 10
2442.298420589755
 20
909.4261093969814
 30
0.0
 11
2471.798420589757
 21
909.4261093969814
 31
0.0
  0
LINE
  5
C42C
330
18
100
AcDbEntity
  8
0
100
AcDbLine
 10
2442.298420589755
 20
930.4261093969813
 30
0.0
 11
2471.798420589757
 21
930.426109396981
 31
0.0
  0
LINE
  5
C42D
330
18
100
AcDbEntity
  8
0
100
AcDbLine
 10
2466.798420589756
 20
849.4261093969818
 30
0.0
 11
2442.298420589756
 21
849.4261093969813
 31
0.0
  0
LINE
  5
C42E
330
18
100
AcDbEntity
  8
0
100
AcDbLine
 10
2466.798420589756
 20
870.4261093969813
 30
0.0
 11
2442.298420589756
 21
870.4261093969813
 31
0.0
  0
LINE
  5
C42F
330
18
100
AcDbEntity
  8
0
100
AcDbLine
 10
2466.798420589756
 20
891.4261093969813
 30
0.0
 11
2442.298420589756
 21
891.4261093969813
 31
0.0
  0
LINE
  5
C430
330
18
100
AcDbEntity
  8
0
100
AcDbLine
 10
2466.798420589756
 20
912.4261093969813
 30
0.0
 11
2442.298420589756
 21
912.4261093969813
 31
0.0
  0
LINE
  5
C431
330
18
100
AcDbEntity
  8
0
100
AcDbLine
 10
2466.798420589756
 20
933.4261093969812
 30
0.0
 11
2442.298420589756
 21
933.4261093969812
 31
0.0
  0
LINE
  5
C432
330
18
100
AcDbEntity
  8
0
100
AcDbLine
 10
2457.798420589755
 20
849.4261093969809
 30
0.0
 11
2457.798420589755
 21
867.4261093969814
 31
0.0
  0
LINE
  5
C433
330
18
100
AcDbEntity
  8
0
100
AcDbLine
 10
2466.798420589756
 20
849.4261093969818
 30
0.0
 11
2466.798420589755
 21
867.4261093969814
 31
0.0
  0
ARC
  5
C434
330
18
100
AcDbEntity
  8
0
100
AcDbCircle
 10
2456.798420589754
 20
861.4261093969805
 30
0.0
 40
3.0
100
AcDbArc
 50
90.0
 51
180.0
  0
LINE
  5
C435
330
18
100
AcDbEntity
  8
0
100
AcDbLine
 10
2457.798420589754
 20
852.4261093969814
 30
0.0
 11
2456.798420589755
 21
852.4261093969814
 31
0.0
  0
LINE
  5
C436
330
18
100
AcDbEntity
  8
0
100
AcDbLine
 10
2453.798420589755
 20
855.4261093969813
 30
0.0
 11
2453.798420589754
 21
861.4261093969808
 31
0.0
  0
ARC
  5
C437
330
18
100
AcDbEntity
  8
0
100
AcDbCircle
 10
2456.798420589755
 20
855.426109396981
 30
0.0
 40
3.0
100
AcDbArc
 50
180.0
 51
270.0
  0
LINE
  5
C438
330
18
100
AcDbEntity
  8
0
100
AcDbLine
 10
2457.798420589754
 20
864.4261093969809
 30
0.0
 11
2456.798420589754
 21
864.4261093969809
 31
0.0
  0
LINE
  5
C439
330
18
100
AcDbEntity
  8
0
100
AcDbLine
 10
2457.798420589755
 20
870.4261093969813
 30
0.0
 11
2457.798420589755
 21
888.4261093969813
 31
0.0
  0
LINE
  5
C43A
330
18
100
AcDbEntity
  8
0
100
AcDbLine
 10
2466.798420589756
 20
870.4261093969813
 30
0.0
 11
2466.798420589755
 21
888.4261093969813
 31
0.0
  0
LINE
  5
C43B
330
18
100
AcDbEntity
  8
0
100
AcDbLine
 10
2457.798420589754
 20
873.4261093969813
 30
0.0
 11
2456.798420589755
 21
873.4261093969813
 31
0.0
  0
LINE
  5
C43C
330
18
100
AcDbEntity
  8
0
100
AcDbLine
 10
2457.798420589754
 20
885.4261093969814
 30
0.0
 11
2456.798420589754
 21
885.4261093969814
 31
0.0
  0
LINE
  5
C43D
330
18
100
AcDbEntity
  8
0
100
AcDbLine
 10
2453.798420589755
 20
876.4261093969814
 30
0.0
 11
2453.798420589754
 21
882.4261093969813
 31
0.0
  0
ARC
  5
C43E
330
18
100
AcDbEntity
  8
0
100
AcDbCircle
 10
2456.798420589755
 20
876.4261093969809
 30
0.0
 40
3.0
100
AcDbArc
 50
180.0
 51
270.0
  0
ARC
  5
C43F
330
18
100
AcDbEntity
  8
0
100
AcDbCircle
 10
2456.798420589754
 20
882.4261093969809
 30
0.0
 40
3.0
100
AcDbArc
 50
90.0
 51
180.0
  0
LINE
  5
C440
330
18
100
AcDbEntity
  8
0
100
AcDbLine
 10
2457.798420589755
 20
891.4261093969813
 30
0.0
 11
2457.798420589755
 21
909.4261093969814
 31
0.0
  0
LINE
  5
C441
330
18
100
AcDbEntity
  8
0
100
AcDbLine
 10
2466.798420589756
 20
891.4261093969813
 30
0.0
 11
2466.798420589755
 21
909.4261093969814
 31
0.0
  0
LINE
  5
C442
330
18
100
AcDbEntity
  8
0
100
AcDbLine
 10
2457.798420589754
 20
894.4261093969814
 30
0.0
 11
2456.798420589755
 21
894.4261093969814
 31
0.0
  0
LINE
  5
C443
330
18
100
AcDbEntity
  8
0
100
AcDbLine
 10
2457.798420589754
 20
906.4261093969813
 30
0.0
 11
2456.798420589754
 21
906.4261093969813
 31
0.0
  0
LINE
  5
C444
330
18
100
AcDbEntity
  8
0
100
AcDbLine
 10
2453.798420589755
 20
897.4261093969813
 30
0.0
 11
2453.798420589754
 21
903.4261093969814
 31
0.0
  0
ARC
  5
C445
330
18
100
AcDbEntity
  8
0
100
AcDbCircle
 10
2456.798420589755
 20
897.4261093969809
 30
0.0
 40
3.0
100
AcDbArc
 50
180.0
 51
270.0
  0
ARC
  5
C446
330
18
100
AcDbEntity
  8
0
100
AcDbCircle
 10
2456.798420589754
 20
903.4261093969808
 30
0.0
 40
3.0
100
AcDbArc
 50
90.0
 51
180.0
  0
LINE
  5
C447
330
18
100
AcDbEntity
  8
0
100
AcDbLine
 10
2457.798420589755
 20
912.4261093969813
 30
0.0
 11
2457.798420589755
 21
930.4261093969813
 31
0.0
  0
LINE
  5
C448
330
18
100
AcDbEntity
  8
0
100
AcDbLine
 10
2466.798420589756
 20
912.4261093969813
 30
0.0
 11
2466.798420589755
 21
930.4261093969813
 31
0.0
  0
ARC
  5
C449
330
18
100
AcDbEntity
  8
0
100
AcDbCircle
 10
2456.798420589754
 20
924.4261093969809
 30
0.0
 40
3.0
100
AcDbArc
 50
90.0
 51
180.0
  0
ARC
  5
C44A
330
18
100
AcDbEntity
  8
0
100
AcDbCircle
 10
2456.798420589755
 20
918.4261093969809
 30
0.0
 40
3.0
100
AcDbArc
 50
180.0
 51
270.0
  0
LINE
  5
C44B
330
18
100
AcDbEntity
  8
0
100
AcDbLine
 10
2453.798420589755
 20
918.4261093969814
 30
0.0
 11
2453.798420589754
 21
924.4261093969813
 31
0.0
  0
LINE
  5
C44C
330
18
100
AcDbEntity
  8
0
100
AcDbLine
 10
2457.798420589754
 20
927.4261093969814
 30
0.0
 11
2456.798420589754
 21
927.4261093969814
 31
0.0
  0
LINE
  5
C44D
330
18
100
AcDbEntity
  8
0
100
AcDbLine
 10
2457.798420589754
 20
915.4261093969813
 30
0.0
 11
2456.798420589755
 21
915.4261093969813
 31
0.0
  0
LINE
  5
C44E
330
18
100
AcDbEntity
  8
0
100
AcDbLine
 10
2457.798420589754
 20
936.4261093969814
 30
0.0
 11
2456.798420589755
 21
936.4261093969814
 31
0.0
  0
LINE
  5
C44F
330
18
100
AcDbEntity
  8
0
100
AcDbLine
 10
2442.298420589756
 20
849.4261093969813
 30
0.0
 11
2442.298420589755
 21
846.4261093969808
 31
0.0
  0
LINE
  5
C450
330
18
100
AcDbEntity
  8
0
100
AcDbLine
 10
2442.298420589756
 20
870.4261093969813
 30
0.0
 11
2442.298420589755
 21
867.4261093969814
 31
0.0
  0
LINE
  5
C451
330
18
100
AcDbEntity
  8
0
100
AcDbLine
 10
2442.298420589756
 20
891.4261093969813
 30
0.0
 11
2442.298420589755
 21
888.4261093969813
 31
0.0
  0
LINE
  5
C452
330
18
100
AcDbEntity
  8
0
100
AcDbLine
 10
2442.298420589756
 20
912.4261093969813
 30
0.0
 11
2442.298420589755
 21
909.4261093969814
 31
0.0
  0
LINE
  5
C453
330
18
100
AcDbEntity
  8
0
100
AcDbLine
 10
2442.298420589756
 20
933.4261093969812
 30
0.0
 11
2442.298420589755
 21
930.4261093969813
 31
0.0
  0
LINE
  5
C454
330
18
100
AcDbEntity
  8
0
100
AcDbLine
 10
2227.919867175491
 20
986.9261093969816
 30
0.0
 11
2263.16986717549
 21
986.9261093969804
 31
0.0
  0
LINE
  5
C455
330
18
100
AcDbEntity
  8
0
100
AcDbLine
 10
2187.16986717549
 20
973.9261093969814
 30
0.0
 11
2264.169867175488
 21
973.9261093969814
 31
0.0
  0
LINE
  5
C456
330
18
100
AcDbEntity
  8
0
100
AcDbLine
 10
2263.16986717549
 20
973.9261093969808
 30
0.0
 11
2184.16986717549
 21
973.9261093969814
 31
0.0
  0
LWPOLYLINE
  5
C457
330
18
100
AcDbEntity
  8
0
100
AcDbPolyline
 90
        4
 70
     1
 43
0.0
 10
2183.66986717549
 20
971.9261093969814
 10
2183.66986717549
 20
965.9261093969814
 10
2184.16986717549
 20
965.9261093969814
 10
2184.16986717549
 20
971.9261093969814
  0
LINE
  5
C458
330
18
100
AcDbEntity
  8
0
100
AcDbLine
 10
2182.369867175491
 20
966.4261093969813
 30
0.0
 11
2183.16986717549
 21
966.4261093969813
 31
0.0
  0
LINE
  5
C459
330
18
100
AcDbEntity
  8
0
100
AcDbLine
 10
2183.16986717549
 20
971.4261093969813
 30
0.0
 11
2182.369867175491
 21
971.4261093969813
 31
0.0
  0
LWPOLYLINE
  5
C45A
330
18
100
AcDbEntity
  8
0
100
AcDbPolyline
 90
        4
 70
     1
 43
0.0
 10
2183.16986717549
 20
971.4261093969813
 10
2183.16986717549
 20
966.4261093969813
 10
2183.66986717549
 20
966.4261093969813
 10
2183.66986717549
 20
971.4261093969813
  0
LINE
  5
C45B
330
18
100
AcDbEntity
  8
0
100
AcDbLine
 10
2181.16986717549
 20
970.2261093969806
 30
0.0
 11
2181.16986717549
 21
967.626109396982
 31
0.0
  0
ARC
  5
C45C
330
18
100
AcDbEntity
  8
0
100
AcDbCircle
 10
2182.369867175491
 20
967.626109396982
 30
0.0
 40
1.199999999999999
100
AcDbArc
 50
180.0
 51
270.0
  0
ARC
  5
C45D
330
18
100
AcDbEntity
  8
0
100
AcDbCircle
 10
2182.369867175491
 20
970.2261093969806
 30
0.0
 40
1.199999999999999
100
AcDbArc
 50
90.0
 51
180.0
  0
LINE
  5
C45E
330
18
100
AcDbEntity
  8
0
100
AcDbLine
 10
2226.41986717549
 20
965.1019326691013
 30
0.0
 11
2226.41986717549
 21
967.4261093969803
 31
0.0
  0
LINE
  5
C45F
330
18
100
AcDbEntity
  8
0
100
AcDbLine
 10
2231.91986717549
 20
965.1019326691008
 30
0.0
 11
2231.91986717549
 21
967.4261093969803
 31
0.0
  0
ARC
  5
C460
330
18
100
AcDbEntity
  8
0
100
AcDbCircle
 10
2229.16986717549
 20
960.92610939698
 30
0.0
 40
3.333333333332575
100
AcDbArc
 50
75.52248781407055
 51
104.4775121859294
  0
ARC
  5
C461
330
18
100
AcDbEntity
  8
0
100
AcDbCircle
 10
2229.16986717549
 20
960.92610939698
 30
0.0
 40
3.333333333332575
100
AcDbArc
 50
345.5224878140642
 51
14.47751218593576
  0
ARC
  5
C462
330
18
100
AcDbEntity
  8
0
100
AcDbCircle
 10
2229.16986717549
 20
960.92610939698
 30
0.0
 40
3.333333333332575
100
AcDbArc
 50
165.5224878140642
 51
194.4775121859357
  0
ARC
  5
C463
330
18
100
AcDbEntity
  8
0
100
AcDbCircle
 10
2229.16986717549
 20
960.92610939698
 30
0.0
 40
3.333333333332575
100
AcDbArc
 50
255.5224878140705
 51
284.4775121859294
  0
LINE
  5
C464
330
18
100
AcDbEntity
  8
0
100
AcDbLine
 10
2228.336533842158
 20
957.698623275141
 30
0.0
 11
2228.336533842158
 21
960.0927760636469
 31
0.0
  0
LINE
  5
C465
330
18
100
AcDbEntity
  8
0
100
AcDbLine
 10
2228.336533842158
 20
960.0927760636469
 30
0.0
 11
2225.942381053652
 21
960.0927760636469
 31
0.0
  0
LINE
  5
C466
330
18
100
AcDbEntity
  8
0
100
AcDbLine
 10
2230.003200508825
 20
957.698623275141
 30
0.0
 11
2230.003200508825
 21
960.0927760636469
 31
0.0
  0
LINE
  5
C467
330
18
100
AcDbEntity
  8
0
100
AcDbLine
 10
2232.39735329733
 20
960.0927760636469
 30
0.0
 11
2230.003200508825
 21
960.0927760636469
 31
0.0
  0
LINE
  5
C468
330
18
100
AcDbEntity
  8
0
100
AcDbLine
 10
2228.336533842158
 20
961.759442730313
 30
0.0
 11
2225.942381053652
 21
961.759442730313
 31
0.0
  0
LINE
  5
C469
330
18
100
AcDbEntity
  8
0
100
AcDbLine
 10
2232.39735329733
 20
961.759442730313
 30
0.0
 11
2230.003200508825
 21
961.759442730313
 31
0.0
  0
CIRCLE
  5
C46A
330
18
100
AcDbEntity
  8
0
100
AcDbCircle
 10
2229.16986717549
 20
960.92610939698
 30
0.0
 40
4.999999999998863
  0
CIRCLE
  5
C46B
330
18
100
AcDbEntity
  8
0
100
AcDbCircle
 10
2229.16986717549
 20
960.92610939698
 30
0.0
 40
4.166666666665719
  0
LINE
  5
C46C
330
18
100
AcDbEntity
  8
0
100
AcDbLine
 10
2228.336533842158
 20
961.759442730313
 30
0.0
 11
2228.336533842158
 21
964.1535955188189
 31
0.0
  0
LINE
  5
C46D
330
18
100
AcDbEntity
  8
0
100
AcDbLine
 10
2230.003200508825
 20
961.759442730313
 30
0.0
 11
2230.003200508825
 21
964.1535955188189
 31
0.0
  0
LINE
  5
C472
330
18
100
AcDbEntity
  8
0
100
AcDbLine
 10
2231.91986717549
 20
967.4261093969803
 30
0.0
 11
2246.66986717549
 21
967.4261093969803
 31
0.0
  0
LINE
  5
C473
330
18
100
AcDbEntity
  8
0
100
AcDbLine
 10
2229.16986717549
 20
941.7190026157943
 30
0.0
 11
2227.431770499749
 21
939.9809059400523
 31
0.0
  0
LINE
  5
C474
330
18
100
AcDbEntity
  8
0
100
AcDbLine
 10
2231.615070632418
 20
944.1642060727227
 30
0.0
 11
2229.876973956677
 21
942.4261093969809
 31
0.0
  0
LINE
  5
C475
330
18
100
AcDbEntity
  8
0
100
AcDbLine
 10
2230.907963851233
 20
939.9809059400523
 30
0.0
 11
2229.16986717549
 21
941.7190026157943
 31
0.0
  0
LINE
  5
C476
330
18
100
AcDbEntity
  8
0
100
AcDbLine
 10
2230.907963851231
 20
944.8713128539095
 30
0.0
 11
2229.16986717549
 21
943.1332161781675
 31
0.0
  0
LINE
  5
C477
330
18
100
AcDbEntity
  8
0
100
AcDbLine
 10
2231.615070632418
 20
940.688012721239
 30
0.0
 11
2229.876973956677
 21
942.4261093969809
 31
0.0
  0
LINE
  5
C478
330
18
100
AcDbEntity
  8
0
100
AcDbLine
 10
2229.16986717549
 20
943.1332161781675
 30
0.0
 11
2227.431770499748
 21
944.8713128539095
 31
0.0
  0
LINE
  5
C479
330
18
100
AcDbEntity
  8
0
100
AcDbLine
 10
2230.907963851231
 20
939.9809059400523
 30
0.0
 11
2231.615070632418
 21
940.688012721239
 31
0.0
  0
LINE
  5
C47A
330
18
100
AcDbEntity
  8
0
100
AcDbLine
 10
2230.907963851231
 20
944.8713128539095
 30
0.0
 11
2231.61507063242
 21
944.1642060727227
 31
0.0
  0
LINE
  5
C47B
330
18
100
AcDbEntity
  8
0
100
AcDbLine
 10
2228.462760394303
 20
942.4261093969809
 30
0.0
 11
2226.724663718563
 21
940.688012721239
 31
0.0
  0
LINE
  5
C47C
330
18
100
AcDbEntity
  8
0
100
AcDbLine
 10
2228.462760394303
 20
942.4261093969809
 30
0.0
 11
2226.724663718561
 21
944.1642060727227
 31
0.0
  0
LINE
  5
C47D
330
18
100
AcDbEntity
  8
0
100
AcDbLine
 10
2227.431770499748
 20
944.8713128539095
 30
0.0
 11
2226.724663718561
 21
944.1642060727227
 31
0.0
  0
LINE
  5
C47E
330
18
100
AcDbEntity
  8
0
100
AcDbLine
 10
2226.724663718563
 20
940.688012721239
 30
0.0
 11
2227.431770499749
 21
939.9809059400523
 31
0.0
  0
LINE
  5
C47F
330
18
100
AcDbEntity
  8
0
100
AcDbLine
 10
2194.16986717549
 20
973.9261093969814
 30
0.0
 11
2194.16986717549
 21
985.9261093969818
 31
0.0
  0
LINE
  5
C480
330
18
100
AcDbEntity
  8
0
100
AcDbLine
 10
2195.16986717549
 20
986.9261093969818
 30
0.0
 11
2220.41986717549
 21
986.9261093969813
 31
0.0
  0
LINE
  5
C481
330
18
100
AcDbEntity
  8
0
100
AcDbLine
 10
2195.16986717549
 20
986.9261093969818
 30
0.0
 11
2194.16986717549
 21
985.9261093969818
 31
0.0
  0
TEXT
  5
C482
330
18
100
AcDbEntity
  8
0
 48
5.0
100
AcDbText
 10
2201.361348239921
 20
938.731404519309
 30
0.0
 40
7.0
  1
U
 41
1.199999999999999
  7
MSｺﾞｼｯｸ
 11
2201.361348239921
 21
942.231404519309
 31
0.0
100
AcDbText
 73
     2
  0
TEXT
  5
C483
330
18
100
AcDbEntity
  8
0
 48
5.0
100
AcDbText
 10
2198.755118521114
 20
959.8380012530453
 30
0.0
 40
5.0
  1
TB1
 41
1.199999999999999
  7
MSｺﾞｼｯｸ
 11
2198.755118521114
 21
962.3380012530452
 31
0.0
100
AcDbText
 73
     2
  0
LINE
  5
C485
330
18
100
AcDbEntity
  8
0
100
AcDbLine
 10
2211.66986717549
 20
967.4261093969803
 30
0.0
 11
2226.41986717549
 21
967.4261093969803
 31
0.0
  0
LINE
  5
C486
330
18
100
AcDbEntity
  8
0
100
AcDbLine
 10
2246.66986717549
 20
951.4261093969809
 30
0.0
 11
2211.66986717549
 21
951.4261093969809
 31
0.0
  0
LINE
  5
C487
330
18
100
AcDbEntity
  8
0
100
AcDbLine
 10
2264.16986717549
 20
985.9261093969804
 30
0.0
 11
2264.16986717549
 21
972.9261093969808
 31
0.0
  0
LINE
  5
C488
330
18
100
AcDbEntity
  8
0
100
AcDbLine
 10
2264.16986717549
 20
972.9261093969808
 30
0.0
 11
2263.16986717549
 21
973.9261093969808
 31
0.0
  0
LINE
  5
C489
330
18
100
AcDbEntity
  8
0
100
AcDbLine
 10
2264.16986717549
 20
985.9261093969804
 30
0.0
 11
2263.16986717549
 21
986.9261093969804
 31
0.0
  0
LINE
  5
C48A
330
18
100
AcDbEntity
  8
0
100
AcDbLine
 10
2475.798420589756
 20
973.9261093969837
 30
0.0
 11
2627.798420589762
 21
973.9261093969817
 31
0.0
  0
LINE
  5
C48B
330
18
100
AcDbEntity
  8
0
100
AcDbLine
 10
2471.798420589756
 20
973.9261093969808
 30
0.0
 11
2628.798420589755
 21
973.9261093969814
 31
0.0
  0
LINE
  5
C48C
330
18
100
AcDbEntity
  8
0
100
AcDbLine
 10
2442.298420589756
 20
951.4261093969814
 30
0.0
 11
2442.298420589756
 21
967.4261093969814
 31
0.0
  0
LINE
  5
C48D
330
18
100
AcDbEntity
  8
0
100
AcDbLine
 10
2471.798420589755
 20
951.4261093969814
 30
0.0
 11
2442.298420589756
 21
951.4261093969814
 31
0.0
  0
LINE
  5
C48E
330
18
100
AcDbEntity
  8
0
100
AcDbLine
 10
2457.798420589754
 20
948.4261093969813
 30
0.0
 11
2456.798420589754
 21
948.4261093969813
 31
0.0
  0
LINE
  5
C48F
330
18
100
AcDbEntity
  8
0
100
AcDbLine
 10
2453.798420589755
 20
939.4261093969813
 30
0.0
 11
2453.798420589754
 21
945.4261093969813
 31
0.0
  0
ARC
  5
C490
330
18
100
AcDbEntity
  8
0
100
AcDbCircle
 10
2456.798420589754
 20
945.4261093969808
 30
0.0
 40
3.0
100
AcDbArc
 50
90.0
 51
180.0
  0
LINE
  5
C491
330
18
100
AcDbEntity
  8
0
100
AcDbLine
 10
2442.298420589756
 20
967.4261093969814
 30
0.0
 11
2471.798420589756
 21
967.4261093969814
 31
0.0
  0
LINE
  5
C492
330
18
100
AcDbEntity
  8
0
 48
4.0
100
AcDbLine
 10
2474.798420589755
 20
972.9261093969817
 30
0.0
 11
2475.798420589756
 21
973.9261093969817
 31
0.0
  0
LINE
  5
C493
330
18
100
AcDbEntity
  8
0
 48
4.0
100
AcDbLine
 10
2628.798420589761
 20
972.9261093969817
 30
0.0
 11
2627.798420589762
 21
973.9261093969817
 31
0.0
  0
LINE
  5
C494
330
18
100
AcDbEntity
  8
0
100
AcDbLine
 10
2631.798420589758
 20
753.0267900027808
 30
0.0
 11
2631.798420589758
 21
673.0267900027803
 31
0.0
  0
LINE
  5
C495
330
18
100
AcDbEntity
  8
0
100
AcDbLine
 10
2631.798420589757
 20
770.92610939698
 30
0.0
 11
2631.798420589756
 21
986.9261093969809
 31
0.0
  0
LINE
  5
C665
330
18
100
AcDbEntity
  8
0
 48
0.1
100
AcDbLine
 10
2442.298420589756
 20
951.4261093969814
 30
0.0
 11
2442.298420589756
 21
828.4261093969814
 31
0.0
  0
ARC
  5
C66D
330
18
100
AcDbEntity
  8
0
 48
0.1
100
AcDbCircle
 10
2224.16986717549
 20
981.9261093969814
 30
0.0
 40
2.75
100
AcDbArc
 50
180.0
 51
0.0
  0
LINE
  5
C66E
330
18
100
AcDbEntity
  8
0
 48
0.1
100
AcDbLine
 10
2226.91986717549
 20
981.9261093969814
 30
0.0
 11
2226.919867175491
 21
985.9261093969816
 31
0.0
  0
LINE
  5
C66F
330
18
100
AcDbEntity
  8
0
 48
0.1
100
AcDbLine
 10
2221.419867175491
 20
981.9261093969814
 30
0.0
 11
2221.419867175491
 21
985.9261093969813
 31
0.0
  0
LINE
  5
C670
330
18
100
AcDbEntity
  8
0
 48
0.1
100
AcDbLine
 10
2227.919867175491
 20
986.9261093969816
 30
0.0
 11
2226.919867175491
 21
985.9261093969816
 31
0.0
  0
LINE
  5
C671
330
18
100
AcDbEntity
  8
0
100
AcDbLine
 10
2221.419867175491
 20
985.9261093969813
 30
0.0
 11
2220.41986717549
 21
986.9261093969813
 31
0.0
  0
ARC
  5
C672
330
18
100
AcDbEntity
  8
0
 48
0.1
100
AcDbCircle
 10
2224.16986717549
 20
775.9261093969804
 30
0.0
 40
2.75
100
AcDbArc
 50
0.0
 51
180.0
  0
LINE
  5
C673
330
18
100
AcDbEntity
  8
0
 48
0.1
100
AcDbLine
 10
2226.91986717549
 20
775.9261093969804
 30
0.0
 11
2226.91986717549
 21
771.9261093969804
 31
0.0
  0
LINE
  5
C674
330
18
100
AcDbEntity
  8
0
 48
0.1
100
AcDbLine
 10
2221.419867175491
 20
775.9261093969804
 30
0.0
 11
2221.419867175491
 21
771.9261093969805
 31
0.0
  0
LINE
  5
C675
330
18
100
AcDbEntity
  8
0
 48
0.1
100
AcDbLine
 10
2227.91986717549
 20
770.9261093969804
 30
0.0
 11
2226.91986717549
 21
771.9261093969804
 31
0.0
  0
LINE
  5
C676
330
18
100
AcDbEntity
  8
0
 48
0.1
100
AcDbLine
 10
2220.41986717549
 20
770.9261093969805
 30
0.0
 11
2221.419867175491
 21
771.9261093969805
 31
0.0
  0
LINE
  5
C6B3
330
18
100
AcDbEntity
  8
0
100
AcDbLine
 10
2203.169867175491
 20
795.9261093969804
 30
0.0
 11
2203.169867175491
 21
794.3261093969805
 31
0.0
  0
LINE
  5
C6B4
330
18
100
AcDbEntity
  8
0
100
AcDbLine
 10
2205.169867175491
 20
794.3261093969805
 30
0.0
 11
2201.169867175491
 21
794.3261093969805
 31
0.0
  0
LINE
  5
C6B5
330
18
100
AcDbEntity
  8
0
100
AcDbLine
 10
2204.419867175491
 20
793.1261093969802
 30
0.0
 11
2201.919867175491
 21
793.1261093969802
 31
0.0
  0
LINE
  5
C6B6
330
18
100
AcDbEntity
  8
0
100
AcDbLine
 10
2203.669867175491
 20
791.9261093969804
 30
0.0
 11
2202.669867175491
 21
791.9261093969804
 31
0.0
  0
CIRCLE
  5
C6B7
330
18
100
AcDbEntity
  8
0
100
AcDbCircle
 10
2203.169867175491
 20
793.9261093969804
 30
0.0
 40
3.0
  0
TEXT
  5
C947
330
18
100
AcDbEntity
  8
0
100
AcDbText
 10
2543.211273211586
 20
648.5085464794369
 30
0.0
 40
6.0
  1
ダイナミックブレーキユニット
 41
0.6999999999999999
100
AcDbText
  0
TEXT
  5
C948
330
18
100
AcDbEntity
  8
0
100
AcDbText
 10
2542.67396920611
 20
617.5017218816785
 30
0.0
 40
7.0
  1
ＳＥ－４４６３１
 41
0.9529999999999999
100
AcDbText
  0
TEXT
  5
C94A
330
18
100
AcDbEntity
  8
0
100
AcDbText
 10
2542.884764754631
 20
639.6928181416596
 30
0.0
 40
6.0
  1
ＮＣＲ－ＸＡＢＣＡ２Ｃ－１５３
 41
0.6999999999999999
100
AcDbText
  0
TEXT
  5
C94C
330
18
100
AcDbEntity
  8
0
100
AcDbText
 10
2544.19079858245
 20
627.2854967773802
 30
0.0
 40
6.0
  1
外形図
100
AcDbText
  0
LINE
  5
C97D
330
18
100
AcDbEntity
  8
0
100
AcDbLine
 10
2195.178449884613
 20
807.3792684785704
 30
0.0
 11
2199.678449884613
 21
807.3792684785709
 31
0.0
  0
LINE
  5
C97E
330
18
100
AcDbEntity
  8
0
100
AcDbLine
 10
2195.178449884613
 20
803.5692684785704
 30
0.0
 11
2199.678449884613
 21
803.5692684785704
 31
0.0
  0
LINE
  5
C97F
330
18
100
AcDbEntity
  8
0
100
AcDbLine
 10
2195.678449884613
 20
810.0792684785707
 30
0.0
 11
2195.178449884613
 21
810.3792684785704
 31
0.0
  0
LINE
  5
C980
330
18
100
AcDbEntity
  8
0
100
AcDbLine
 10
2195.178449884613
 20
807.3792684785704
 30
0.0
 11
2195.678449884613
 21
807.6792684785706
 31
0.0
  0
LINE
  5
C981
330
18
100
AcDbEntity
  8
0
100
AcDbLine
 10
2195.178449884613
 20
803.5692684785704
 30
0.0
 11
2195.678449884613
 21
803.8692684785706
 31
0.0
  0
LINE
  5
C982
330
18
100
AcDbEntity
  8
0
100
AcDbLine
 10
2195.678449884613
 20
806.2692684785707
 30
0.0
 11
2195.178449884613
 21
806.5692684785705
 31
0.0
  0
LINE
  5
C983
330
18
100
AcDbEntity
  8
0
100
AcDbLine
 10
2194.678449884614
 20
811.1742684785705
 30
0.0
 11
2194.678449884614
 21
802.7742684785703
 31
0.0
  0
LINE
  5
C984
330
18
100
AcDbEntity
  8
0
100
AcDbLine
 10
2194.678449884614
 20
811.1742684785705
 30
0.0
 11
2205.778449884613
 21
811.1742684785705
 31
0.0
  0
LINE
  5
C985
330
18
100
AcDbEntity
  8
0
100
AcDbLine
 10
2205.778449884613
 20
811.1742684785705
 30
0.0
 11
2205.778449884613
 21
802.7742684785708
 31
0.0
  0
LINE
  5
C986
330
18
100
AcDbEntity
  8
0
100
AcDbLine
 10
2204.778449884613
 20
811.1742684785705
 30
0.0
 11
2204.778449884613
 21
802.7742684785708
 31
0.0
  0
LINE
  5
C987
330
18
100
AcDbEntity
  8
0
100
AcDbLine
 10
2194.678449884614
 20
802.7742684785703
 30
0.0
 11
2205.778449884613
 21
802.7742684785708
 31
0.0
  0
LINE
  5
C988
330
18
100
AcDbEntity
  8
0
100
AcDbLine
 10
2200.678449884613
 20
811.1742684785705
 30
0.0
 11
2200.678449884613
 21
802.7742684785703
 31
0.0
  0
LINE
  5
C989
330
18
100
AcDbEntity
  8
0
100
AcDbLine
 10
2199.678449884613
 20
811.1742684785705
 30
0.0
 11
2199.678449884613
 21
802.7742684785703
 31
0.0
  0
LINE
  5
C98A
330
18
100
AcDbEntity
  8
0
100
AcDbLine
 10
2198.678449884613
 20
810.0792684785707
 30
0.0
 11
2199.678449884613
 21
810.3792684785704
 31
0.0
  0
LINE
  5
C98B
330
18
100
AcDbEntity
  8
0
100
AcDbLine
 10
2198.678449884613
 20
807.6792684785706
 30
0.0
 11
2199.678449884613
 21
807.3792684785704
 31
0.0
  0
LINE
  5
C98C
330
18
100
AcDbEntity
  8
0
100
AcDbLine
 10
2198.678449884613
 20
803.8692684785706
 30
0.0
 11
2199.678449884613
 21
803.5692684785704
 31
0.0
  0
LINE
  5
C98D
330
18
100
AcDbEntity
  8
0
100
AcDbLine
 10
2198.678449884613
 20
806.2692684785707
 30
0.0
 11
2199.678449884613
 21
806.5692684785705
 31
0.0
  0
LINE
  5
C98E
330
18
100
AcDbEntity
  8
0
100
AcDbLine
 10
2195.678449884613
 20
810.0792684785707
 30
0.0
 11
2198.678449884613
 21
810.0792684785707
 31
0.0
  0
LINE
  5
C98F
330
18
100
AcDbEntity
  8
0
100
AcDbLine
 10
2195.678449884613
 20
807.6792684785706
 30
0.0
 11
2198.678449884613
 21
807.6792684785706
 31
0.0
  0
LINE
  5
C990
330
18
100
AcDbEntity
  8
0
100
AcDbLine
 10
2195.678449884613
 20
810.0792684785707
 30
0.0
 11
2195.678449884613
 21
807.6792684785706
 31
0.0
  0
LINE
  5
C991
330
18
100
AcDbEntity
  8
0
100
AcDbLine
 10
2198.678449884613
 20
810.0792684785707
 30
0.0
 11
2198.678449884613
 21
807.6792684785706
 31
0.0
  0
LINE
  5
C992
330
18
100
AcDbEntity
  8
0
100
AcDbLine
 10
2195.678449884613
 20
806.2692684785707
 30
0.0
 11
2198.678449884613
 21
806.2692684785707
 31
0.0
  0
LINE
  5
C993
330
18
100
AcDbEntity
  8
0
100
AcDbLine
 10
2195.678449884613
 20
803.8692684785706
 30
0.0
 11
2198.678449884613
 21
803.8692684785706
 31
0.0
  0
LINE
  5
C994
330
18
100
AcDbEntity
  8
0
100
AcDbLine
 10
2195.678449884613
 20
806.2692684785707
 30
0.0
 11
2195.678449884613
 21
803.8692684785706
 31
0.0
  0
LINE
  5
C995
330
18
100
AcDbEntity
  8
0
100
AcDbLine
 10
2198.678449884613
 20
806.2692684785707
 30
0.0
 11
2198.678449884613
 21
803.8692684785706
 31
0.0
  0
LINE
  5
C996
330
18
100
AcDbEntity
  8
0
100
AcDbLine
 10
2195.178449884613
 20
810.3792684785704
 30
0.0
 11
2195.178449884613
 21
807.3792684785704
 31
0.0
  0
LINE
  5
C997
330
18
100
AcDbEntity
  8
0
100
AcDbLine
 10
2195.178449884613
 20
806.5692684785705
 30
0.0
 11
2195.178449884613
 21
803.5692684785704
 31
0.0
  0
LINE
  5
C998
330
18
100
AcDbEntity
  8
0
100
AcDbLine
 10
2195.178449884613
 20
806.5692684785705
 30
0.0
 11
2199.678449884613
 21
806.5692684785705
 31
0.0
  0
LINE
  5
C999
330
18
100
AcDbEntity
  8
0
100
AcDbLine
 10
2195.178449884613
 20
810.3792684785704
 30
0.0
 11
2199.678449884613
 21
810.3792684785704
 31
0.0
  0
LINE
  5
C99A
330
18
100
AcDbEntity
  8
0
100
AcDbLine
 10
2194.678449884614
 20
811.1742684785705
 30
0.0
 11
2194.678449884614
 21
802.7742684785703
 31
0.0
  0
LINE
  5
C99B
330
18
100
AcDbEntity
  8
0
100
AcDbLine
 10
2195.678449884613
 20
806.2692684785707
 30
0.0
 11
2195.178449884613
 21
806.5692684785705
 31
0.0
  0
LINE
  5
C99C
330
18
100
AcDbEntity
  8
0
100
AcDbLine
 10
2195.178449884613
 20
803.5692684785704
 30
0.0
 11
2195.678449884613
 21
803.8692684785706
 31
0.0
  0
LINE
  5
C99D
330
18
100
AcDbEntity
  8
0
100
AcDbLine
 10
2195.178449884613
 20
807.3792684785704
 30
0.0
 11
2195.678449884613
 21
807.6792684785706
 31
0.0
  0
LINE
  5
C99E
330
18
100
AcDbEntity
  8
0
100
AcDbLine
 10
2195.678449884613
 20
810.0792684785707
 30
0.0
 11
2195.178449884613
 21
810.3792684785704
 31
0.0
  0
LINE
  5
C99F
330
18
100
AcDbEntity
  8
0
100
AcDbLine
 10
2195.178449884613
 20
803.5692684785704
 30
0.0
 11
2199.678449884613
 21
803.5692684785704
 31
0.0
  0
LINE
  5
C9A0
330
18
100
AcDbEntity
  8
0
100
AcDbLine
 10
2195.178449884613
 20
807.3792684785704
 30
0.0
 11
2199.678449884613
 21
807.3792684785709
 31
0.0
  0
LINE
  5
C9A1
330
18
100
AcDbEntity
  8
0
100
AcDbLine
 10
2195.178449884613
 20
810.3792684785704
 30
0.0
 11
2199.678449884613
 21
810.3792684785704
 31
0.0
  0
LINE
  5
C9A2
330
18
100
AcDbEntity
  8
0
100
AcDbLine
 10
2195.178449884613
 20
806.5692684785705
 30
0.0
 11
2199.678449884613
 21
806.5692684785705
 31
0.0
  0
LINE
  5
C9A3
330
18
100
AcDbEntity
  8
0
100
AcDbLine
 10
2195.178449884613
 20
806.5692684785705
 30
0.0
 11
2195.178449884613
 21
803.5692684785704
 31
0.0
  0
LINE
  5
C9A4
330
18
100
AcDbEntity
  8
0
100
AcDbLine
 10
2195.178449884613
 20
810.3792684785704
 30
0.0
 11
2195.178449884613
 21
807.3792684785704
 31
0.0
  0
LINE
  5
C9A5
330
18
100
AcDbEntity
  8
0
100
AcDbLine
 10
2198.678449884613
 20
806.2692684785707
 30
0.0
 11
2198.678449884613
 21
803.8692684785706
 31
0.0
  0
LINE
  5
C9A6
330
18
100
AcDbEntity
  8
0
100
AcDbLine
 10
2195.678449884613
 20
806.2692684785707
 30
0.0
 11
2195.678449884613
 21
803.8692684785706
 31
0.0
  0
LINE
  5
C9A7
330
18
100
AcDbEntity
  8
0
100
AcDbLine
 10
2195.678449884613
 20
803.8692684785706
 30
0.0
 11
2198.678449884613
 21
803.8692684785706
 31
0.0
  0
LINE
  5
C9A8
330
18
100
AcDbEntity
  8
0
100
AcDbLine
 10
2195.678449884613
 20
806.2692684785707
 30
0.0
 11
2198.678449884613
 21
806.2692684785707
 31
0.0
  0
LINE
  5
C9A9
330
18
100
AcDbEntity
  8
0
100
AcDbLine
 10
2198.678449884613
 20
810.0792684785707
 30
0.0
 11
2198.678449884613
 21
807.6792684785706
 31
0.0
  0
LINE
  5
C9AA
330
18
100
AcDbEntity
  8
0
100
AcDbLine
 10
2195.678449884613
 20
810.0792684785707
 30
0.0
 11
2195.678449884613
 21
807.6792684785706
 31
0.0
  0
LINE
  5
C9AB
330
18
100
AcDbEntity
  8
0
100
AcDbLine
 10
2195.678449884613
 20
807.6792684785706
 30
0.0
 11
2198.678449884613
 21
807.6792684785706
 31
0.0
  0
LINE
  5
C9AC
330
18
100
AcDbEntity
  8
0
100
AcDbLine
 10
2195.678449884613
 20
810.0792684785707
 30
0.0
 11
2198.678449884613
 21
810.0792684785707
 31
0.0
  0
LINE
  5
C9AD
330
18
100
AcDbEntity
  8
0
100
AcDbLine
 10
2198.678449884613
 20
806.2692684785707
 30
0.0
 11
2199.678449884613
 21
806.5692684785705
 31
0.0
  0
LINE
  5
C9AE
330
18
100
AcDbEntity
  8
0
100
AcDbLine
 10
2198.678449884613
 20
803.8692684785706
 30
0.0
 11
2199.678449884613
 21
803.5692684785704
 31
0.0
  0
LINE
  5
C9AF
330
18
100
AcDbEntity
  8
0
100
AcDbLine
 10
2198.678449884613
 20
807.6792684785706
 30
0.0
 11
2199.678449884613
 21
807.3792684785704
 31
0.0
  0
LINE
  5
C9B0
330
18
100
AcDbEntity
  8
0
100
AcDbLine
 10
2198.678449884613
 20
810.0792684785707
 30
0.0
 11
2199.678449884613
 21
810.3792684785704
 31
0.0
  0
LINE
  5
C9B1
330
18
100
AcDbEntity
  8
0
100
AcDbLine
 10
2199.678449884613
 20
811.1742684785705
 30
0.0
 11
2199.678449884613
 21
802.7742684785703
 31
0.0
  0
LINE
  5
C9B2
330
18
100
AcDbEntity
  8
0
100
AcDbLine
 10
2200.678449884613
 20
811.1742684785705
 30
0.0
 11
2200.678449884613
 21
802.7742684785703
 31
0.0
  0
LINE
  5
C9B3
330
18
100
AcDbEntity
  8
0
100
AcDbLine
 10
2194.678449884614
 20
802.7742684785703
 30
0.0
 11
2205.778449884613
 21
802.7742684785708
 31
0.0
  0
LINE
  5
C9B4
330
18
100
AcDbEntity
  8
0
100
AcDbLine
 10
2204.778449884613
 20
811.1742684785705
 30
0.0
 11
2204.778449884613
 21
802.7742684785708
 31
0.0
  0
LINE
  5
C9B5
330
18
100
AcDbEntity
  8
0
100
AcDbLine
 10
2205.778449884613
 20
811.1742684785705
 30
0.0
 11
2205.778449884613
 21
802.7742684785708
 31
0.0
  0
LINE
  5
C9B6
330
18
100
AcDbEntity
  8
0
100
AcDbLine
 10
2194.678449884614
 20
811.1742684785705
 30
0.0
 11
2205.778449884613
 21
811.1742684785705
 31
0.0
  0
VIEWPORT
  5
23
330
15
100
AcDbEntity
 67
     1
  8
0
100
AcDbViewport
 10
205.5489992277487
 20
143.9944962762293
 30
0.0
 40
444.5111477442626
 41
335.5122456154012
 68
     1
 69
     1
 12
205.5489992277487
 22
143.9944962762293
 13
0.0
 23
0.0
 14
10.0
 24
10.0
 15
10.0
 25
10.0
 16
0.0
 26
0.0
 36
1.0
 17
0.0
 27
0.0
 37
0.0
 42
50.0
 43
0.0
 44
0.0
 45
335.5122456154012
 50
0.0
 51
0.0
 72
   100
 90
    32768
  1

281
     0
 71
     1
 74
     0
110
0.0
120
0.0
130
0.0
111
1.0
121
0.0
131
0.0
112
0.0
122
1.0
132
0.0
 79
     0
146
0.0
  0
ENDSEC
  0
SECTION
  2
OBJECTS
  0
DICTIONARY
  5
C
330
0
100
AcDbDictionary
281
     1
  3
ACAD_GROUP
350
D
  3
ACAD_IMAGE_VARS
350
C910
  3
ACAD_LAYOUT
350
73F
  3
ACAD_MLINESTYLE
350
1B
  3
ACAD_PLOTSETTINGS
350
740
  3
ACAD_PLOTSTYLENAME
350
73D
  3
ACAD_SCALELIST
350
C8E4
  3
AcadDim
350
A8FA
  3
AcDbVariableDictionary
350
7046
  3
APPDATA
350
C90E
  3
DWGPROPS
350
C9DE
  0
DICTIONARY
  5
C94E
330
2
100
AcDbDictionary
280
     1
281
     1
  3
ACAD_LAYERSTATES
360
C94F
  3
ACLYDICTIONARY
360
C956
  0
DICTIONARY
  5
D
102
{ACAD_REACTORS
330
C
102
}
330
C
100
AcDbDictionary
281
     1
  0
RASTERVARIABLES
  5
C910
102
{ACAD_REACTORS
330
C
102
}
330
C
100
AcDbRasterVariables
 90
        0
 70
     1
 71
     1
 72
     0
  0
DICTIONARY
  5
73F
102
{ACAD_REACTORS
330
C
102
}
330
C
100
AcDbDictionary
281
     1
  3
Model
350
741
  3
ﾚｲｱｳﾄ1
350
742
  0
DICTIONARY
  5
1B
102
{ACAD_REACTORS
330
C
102
}
330
C
100
AcDbDictionary
281
     1
  3
STANDARD
350
1C
  0
DICTIONARY
  5
740
102
{ACAD_REACTORS
330
C
102
}
330
C
100
AcDbDictionary
281
     1
  0
ACDBDICTIONARYWDFLT
  5
73D
102
{ACAD_REACTORS
330
C
102
}
330
C
100
AcDbDictionary
281
     1
  3
Normal
350
73E
100
AcDbDictionaryWithDefault
340
73E
  0
DICTIONARY
  5
C8E4
102
{ACAD_REACTORS
330
C
102
}
330
C
100
AcDbDictionary
281
     1
  3
A0
350
C8E5
  3
A1
350
C8E6
  3
A2
350
C8E7
  3
A3
350
C8E8
  3
A4
350
C8E9
  3
A5
350
C8EA
  3
A6
350
C8EB
  3
A7
350
C8EC
  3
A8
350
C8ED
  3
A9
350
C8EE
  3
B0
350
C8EF
  3
B1
350
C8F0
  3
B2
350
C8F1
  3
B3
350
C8F2
  3
B4
350
C8F3
  3
B5
350
C8F4
  3
B6
350
C8F5
  3
B7
350
C8F6
  3
B8
350
C8F7
  3
B9
350
C8F8
  3
C0
350
C8F9
  3
C1
350
C8FA
  3
C2
350
C8FB
  3
C3
350
C8FC
  3
C4
350
C8FD
  3
C5
350
C8FE
  3
C6
350
C8FF
  3
C7
350
C900
  3
C8
350
C901
  3
C9
350
C902
  3
D0
350
C903
  3
D1
350
C904
  3
D2
350
C905
  0
XRECORD
  5
A8FA
102
{ACAD_REACTORS
330
C
102
}
330
C
100
AcDbXrecord
280
     1
 90
   990106
  3

 60
     0
 61
     0
 62
     1
 63
     3
 64
     0
 65
     0
 66
     0
 67
     3
 68
     1
 69
     0
 70
     0
 71
     0
 72
     0
 40
0.0
170
     0
340
0
  0
DICTIONARY
  5
7046
102
{ACAD_REACTORS
330
C
102
}
330
C
100
AcDbDictionary
281
     1
  3
DIMASSOC
350
7047
  0
DICTIONARY
  5
C90E
102
{ACAD_REACTORS
330
C
102
}
330
C
100
AcDbDictionary
281
     1
  0
XRECORD
  5
C9DE
102
{ACAD_REACTORS
330
C
102
}
330
C
100
AcDbXrecord
280
     1
  1
DWGPROPS COOKIE
  2

  3

  4

  6

  7

  8
takada
  9

300
=
301
=
302
=
303
=
304
=
305
=
306
=
307
=
308
=
309
=
 40
0.0
 41
2451224.285162384
 42
2457352.097208298
  1

 90
        0
  0
DICTIONARY
  5
C94F
102
{ACAD_REACTORS
330
C94E
102
}
330
C94E
100
AcDbDictionary
281
     1
  3
ARGON_LAYERP_1
350
C950
  3
ARGON_LAYERP_2
350
C952
  3
ARGON_LAYERP_3
350
C955
  3
ARGON_LAYERP_4
350
C957
  0
DICTIONARY
  5
C956
102
{ACAD_REACTORS
330
C94E
102
}
330
C94E
100
AcDbDictionary
281
     1
1001
ACAD
1000
<All
  0
LAYOUT
  5
741
102
{ACAD_REACTORS
330
73F
102
}
330
73F
100
AcDbPlotSettings
  1

  2
HP DesignJet 750C (D/A1) Color
  4
ISO_A3_(420.00_x_297.00_MM)
  6

 40
7.5
 41
20.0
 42
7.5
 43
20.0
 44
420.0
 45
297.0
 46
0.0
 47
0.0
 48
0.0
 49
0.0
140
0.0
141
0.0
142
1.0
143
1.600294535938569
 70
  1712
 72
     1
 73
     0
 74
     0
  7

 75
     0
147
0.6248849680746439
148
-1909.385433330504
149
-668.4107899822277
100
AcDbLayout
  1
Model
 70
     1
 71
     0
 10
0.0
 20
0.0
 11
12.0
 21
9.0
 12
0.0
 22
0.0
 32
0.0
 14
2181.16986717549
 24
617.5017218816785
 34
0.0
 15
2631.798420589758
 25
986.9261093969818
 35
0.0
146
0.0
 13
0.0
 23
0.0
 33
0.0
 16
1.0
 26
0.0
 36
0.0
 17
0.0
 27
1.0
 37
0.0
 76
     0
330
18
  0
LAYOUT
  5
742
102
{ACAD_REACTORS
330
73F
102
}
330
73F
100
AcDbPlotSettings
  1

  2
Adobe PDF
  4
A4
  6

 40
3.174999952316284
 41
3.174999952316284
 42
3.175003051757812
 43
3.17498779296875
 44
209.9733276367187
 45
297.0318298339843
 46
0.0
 47
0.0
 48
0.0
 49
0.0
140
0.0
141
0.0
142
1.0
143
1.41447083969717
 70
   688
 72
     1
 73
     1
 74
     1
  7
monochrome.ctb
 75
     0
147
0.7069781659225253
148
0.0315040037339713
149
0.0151334033387229
100
AcDbLayout
  1
ﾚｲｱｳﾄ1
 70
     0
 71
     1
 10
-4.522431653282746
 20
-4.506078251930014
 11
415.6204301087802
 21
292.4950708043886
 12
0.0
 22
0.0
 32
0.0
 14
1.000000000000000E+20
 24
1.000000000000000E+20
 34
1.000000000000000E+20
 15
-1.000000000000000E+20
 25
-1.000000000000000E+20
 35
-1.000000000000000E+20
146
0.0
 13
0.0
 23
0.0
 33
0.0
 16
1.0
 26
0.0
 36
0.0
 17
0.0
 27
1.0
 37
0.0
 76
     0
330
15
331
23
  0
MLINESTYLE
  5
1C
102
{ACAD_REACTORS
330
1B
102
}
330
1B
100
AcDbMlineStyle
  2
STANDARD
 70
     0
  3

 62
   256
 51
90.0
 52
90.0
 71
     2
 49
0.5
 62
   256
  6
BYLAYER
 49
-0.5
 62
   256
  6
BYLAYER
  0
ACDBPLACEHOLDER
  5
73E
102
{ACAD_REACTORS
330
73D
102
}
330
73D
  0
ACAD_PROXY_OBJECT
  5
C8E5
102
{ACAD_REACTORS
330
C8E4
102
}
330
C8E4
100
AcDbProxyObject
 90
      499
 91
      507
 95
   655383
 70
     0
 93
       41
310
903313A31581
 94
        0
  0
ACAD_PROXY_OBJECT
  5
C8E6
102
{ACAD_REACTORS
330
C8E4
102
}
330
C8E4
100
AcDbProxyObject
 90
      499
 91
      507
 95
   655383
 70
     0
 93
      105
310
903313A324000000000000004000
 94
        0
  0
ACAD_PROXY_OBJECT
  5
C8E7
102
{ACAD_REACTORS
330
C8E4
102
}
330
C8E4
100
AcDbProxyObject
 90
      499
 91
      507
 95
   655383
 70
     0
 93
      105
310
903313A344000000000000104000
 94
        0
  0
ACAD_PROXY_OBJECT
  5
C8E8
102
{ACAD_REACTORS
330
C8E4
102
}
330
C8E4
100
AcDbProxyObject
 90
      499
 91
      507
 95
   655383
 70
     0
 93
      105
310
903313A354000000000000144000
 94
        0
  0
ACAD_PROXY_OBJECT
  5
C8E9
102
{ACAD_REACTORS
330
C8E4
102
}
330
C8E4
100
AcDbProxyObject
 90
      499
 91
      507
 95
   655383
 70
     0
 93
      105
310
903313A384000000000000204000
 94
        0
  0
ACAD_PROXY_OBJECT
  5
C8EA
102
{ACAD_REACTORS
330
C8E4
102
}
330
C8E4
100
AcDbProxyObject
 90
      499
 91
      507
 95
   655383
 70
     0
 93
      113
310
904313A3130400000000000024407F
 94
        0
  0
ACAD_PROXY_OBJECT
  5
C8EB
102
{ACAD_REACTORS
330
C8E4
102
}
330
C8E4
100
AcDbProxyObject
 90
      499
 91
      507
 95
   655383
 70
     0
 93
      113
310
904313A3136400000000000030407F
 94
        0
  0
ACAD_PROXY_OBJECT
  5
C8EC
102
{ACAD_REACTORS
330
C8E4
102
}
330
C8E4
100
AcDbProxyObject
 90
      499
 91
      507
 95
   655383
 70
     0
 93
      113
310
904313A3230400000000000034407F
 94
        0
  0
ACAD_PROXY_OBJECT
  5
C8ED
102
{ACAD_REACTORS
330
C8E4
102
}
330
C8E4
100
AcDbProxyObject
 90
      499
 91
      507
 95
   655383
 70
     0
 93
      113
310
904313A333040000000000003E407F
 94
        0
  0
ACAD_PROXY_OBJECT
  5
C8EE
102
{ACAD_REACTORS
330
C8E4
102
}
330
C8E4
100
AcDbProxyObject
 90
      499
 91
      507
 95
   655383
 70
     0
 93
      113
310
904313A3430400000000000044407F
 94
        0
  0
ACAD_PROXY_OBJECT
  5
C8EF
102
{ACAD_REACTORS
330
C8E4
102
}
330
C8E4
100
AcDbProxyObject
 90
      499
 91
      507
 95
   655383
 70
     0
 93
      113
310
904313A3530400000000000049407F
 94
        0
  0
ACAD_PROXY_OBJECT
  5
C8F0
102
{ACAD_REACTORS
330
C8E4
102
}
330
C8E4
100
AcDbProxyObject
 90
      499
 91
      507
 95
   655383
 70
     0
 93
      121
310
905313A313030400000000000059407F
 94
        0
  0
ACAD_PROXY_OBJECT
  5
C8F1
102
{ACAD_REACTORS
330
C8E4
102
}
330
C8E4
100
AcDbProxyObject
 90
      499
 91
      507
 95
   655383
 70
     0
 93
      105
310
903323A310000000000000010159
 94
        0
  0
ACAD_PROXY_OBJECT
  5
C8F2
102
{ACAD_REACTORS
330
C8E4
102
}
330
C8E4
100
AcDbProxyObject
 90
      499
 91
      507
 95
   655383
 70
     0
 93
      105
310
903343A310000000000000410159
 94
        0
  0
ACAD_PROXY_OBJECT
  5
C8F3
102
{ACAD_REACTORS
330
C8E4
102
}
330
C8E4
100
AcDbProxyObject
 90
      499
 91
      507
 95
   655383
 70
     0
 93
      105
310
903383A310000000000000810159
 94
        0
  0
ACAD_PROXY_OBJECT
  5
C8F4
102
{ACAD_REACTORS
330
C8E4
102
}
330
C8E4
100
AcDbProxyObject
 90
      499
 91
      507
 95
   655383
 70
     0
 93
      113
310
90431303A310000000000000910140
 94
        0
  0
ACAD_PROXY_OBJECT
  5
C8F5
102
{ACAD_REACTORS
330
C8E4
102
}
330
C8E4
100
AcDbProxyObject
 90
      499
 91
      507
 95
   655383
 70
     0
 93
      121
310
9053130303A31000000000000165017F
 94
        0
  0
ACAD_PROXY_OBJECT
  5
C8F6
102
{ACAD_REACTORS
330
C8E4
102
}
330
C8E4
100
AcDbProxyObject
 90
      499
 91
      507
 95
   655383
 70
     0
 93
      257
310
90E312F31323822203D2031272D3022000000000000200FC00000000000028407F
 94
        0
  0
ACAD_PROXY_OBJECT
  5
C8F7
102
{ACAD_REACTORS
330
C8E4
102
}
330
C8E4
100
AcDbProxyObject
 90
      499
 91
      507
 95
   655383
 70
     0
 93
      249
310
90D312F363422203D2031272D3022000000000000240FC000000000000284040
 94
        0
  0
ACAD_PROXY_OBJECT
  5
C8F8
102
{ACAD_REACTORS
330
C8E4
102
}
330
C8E4
100
AcDbProxyObject
 90
      499
 91
      507
 95
   655383
 70
     0
 93
      249
310
90D312F333222203D2031272D3022000000000000280FC000000000000284040
 94
        0
  0
ACAD_PROXY_OBJECT
  5
C8F9
102
{ACAD_REACTORS
330
C8E4
102
}
330
C8E4
100
AcDbProxyObject
 90
      499
 91
      507
 95
   655383
 70
     0
 93
      249
310
90D312F313622203D2031272D30220000000000002C0FC000000000000284040
 94
        0
  0
ACAD_PROXY_OBJECT
  5
C8FA
102
{ACAD_REACTORS
330
C8E4
102
}
330
C8E4
100
AcDbProxyObject
 90
      499
 91
      507
 95
   655383
 70
     0
 93
      249
310
90D332F333222203D2031272D30220000000000002E0FC000000000000284040
 94
        0
  0
ACAD_PROXY_OBJECT
  5
C8FB
102
{ACAD_REACTORS
330
C8E4
102
}
330
C8E4
100
AcDbProxyObject
 90
      499
 91
      507
 95
   655383
 70
     0
 93
      241
310
90C312F3822203D2031272D3022000000000000300FC000000000000284040
 94
        0
  0
ACAD_PROXY_OBJECT
  5
C8FC
102
{ACAD_REACTORS
330
C8E4
102
}
330
C8E4
100
AcDbProxyObject
 90
      499
 91
      507
 95
   655383
 70
     0
 93
      249
310
90D332F313622203D2031272D3022000000000000320FC000000000000284040
 94
        0
  0
ACAD_PROXY_OBJECT
  5
C8FD
102
{ACAD_REACTORS
330
C8E4
102
}
330
C8E4
100
AcDbProxyObject
 90
      499
 91
      507
 95
   655383
 70
     0
 93
      241
310
90C312F3422203D2031272D3022000000000000340FC000000000000284040
 94
        0
  0
ACAD_PROXY_OBJECT
  5
C8FE
102
{ACAD_REACTORS
330
C8E4
102
}
330
C8E4
100
AcDbProxyObject
 90
      499
 91
      507
 95
   655383
 70
     0
 93
      241
310
90C332F3822203D2031272D3022000000000000360FC000000000000284040
 94
        0
  0
ACAD_PROXY_OBJECT
  5
C8FF
102
{ACAD_REACTORS
330
C8E4
102
}
330
C8E4
100
AcDbProxyObject
 90
      499
 91
      507
 95
   655383
 70
     0
 93
      241
310
90C312F3222203D2031272D3022000000000000380FC000000000000284040
 94
        0
  0
ACAD_PROXY_OBJECT
  5
C900
102
{ACAD_REACTORS
330
C8E4
102
}
330
C8E4
100
AcDbProxyObject
 90
      499
 91
      507
 95
   655383
 70
     0
 93
      241
310
90C332F3422203D2031272D30220000000000003A0FC000000000000284040
 94
        0
  0
ACAD_PROXY_OBJECT
  5
C901
102
{ACAD_REACTORS
330
C8E4
102
}
330
C8E4
100
AcDbProxyObject
 90
      499
 91
      507
 95
   655383
 70
     0
 93
      161
310
90A3122203D2031272D30224000000000000284020
 94
        0
  0
ACAD_PROXY_OBJECT
  5
C902
102
{ACAD_REACTORS
330
C8E4
102
}
330
C8E4
100
AcDbProxyObject
 90
      499
 91
      507
 95
   655383
 70
     0
 93
      257
310
90E312D312F3222203D2031272D30220000000000003E0FC00000000000028407F
 94
        0
  0
ACAD_PROXY_OBJECT
  5
C903
102
{ACAD_REACTORS
330
C8E4
102
}
330
C8E4
100
AcDbProxyObject
 90
      499
 91
      507
 95
   655383
 70
     0
 93
      225
310
90A3322203D2031272D302200000000000002100000000000000284000
 94
        0
  0
ACAD_PROXY_OBJECT
  5
C904
102
{ACAD_REACTORS
330
C8E4
102
}
330
C8E4
100
AcDbProxyObject
 90
      499
 91
      507
 95
   655383
 70
     0
 93
      225
310
90A3622203D2031272D302200000000000006100000000000000284000
 94
        0
  0
ACAD_PROXY_OBJECT
  5
C905
102
{ACAD_REACTORS
330
C8E4
102
}
330
C8E4
100
AcDbProxyObject
 90
      499
 91
      507
 95
   655383
 70
     0
 93
      249
310
90D31272D3022203D2031272D30220000000000000A100000000000000284040
 94
        0
  0
DICTIONARYVAR
  5
7047
102
{ACAD_REACTORS
330
7046
102
}
330
7046
100
DictionaryVariables
280
     0
  1
1
  0
XRECORD
  5
C950
102
{ACAD_REACTORS
330
C94F
102
}
330
C94F
100
AcDbXrecord
280
     1
 91
     1023
301

290
     0
302
DEMENTION
330
E
 90
        8
 62
     7
370
    -3
331
14
  1
Color_7
330
0
 90
        9
 62
     1
370
    -3
331
14
  1
Color_1
330
0
 90
        8
 62
     7
370
    -3
331
14
  1
Color_7
330
0
 90
        8
 62
     7
370
    -3
331
14
  1
Color_7
330
0
 90
        8
 62
     2
370
    -3
331
14
  1
Color_2
330
0
 90
        0
 62
     7
370
    -3
331
14
  1
Color_7
330
0
 90
        8
 62
     7
370
    -3
331
14
  1
Color_7
330
0
 90
        8
 62
     4
370
    15
331
14
  1
Color_4
330
0
 90
        8
 62
     9
370
    -3
331
14
  1
Color_9
330
0
 90
        8
 62
   211
370
    -3
331
14
  1
Color_211
330
0
 90
        8
 62
     3
370
    -3
331
14
  1
Color_3
330
0
 90
        8
 62
   120
370
    -3
331
14
  1
Color_120
330
0
 90
        8
 62
     7
370
    -3
331
14
  1
Color_7
330
0
 90
        8
 62
     7
370
    -3
331
14
  1
Color_7
330
0
 90
        8
 62
    10
370
    -3
331
14
  1
Color_10
330
0
 90
        8
 62
     9
370
    -3
331
14
  1
Color_9
  0
XRECORD
  5
C952
102
{ACAD_REACTORS
330
C94F
102
}
330
C94F
100
AcDbXrecord
280
     1
 91
     1023
301

290
     0
302
DEMENTION
330
E
 90
        8
 62
     7
370
    -3
331
14
  1
Color_7
330
0
 90
        8
 62
     1
370
    -3
331
14
  1
Color_1
330
0
 90
        8
 62
     7
370
    -3
331
14
  1
Color_7
330
0
 90
        8
 62
     7
370
    -3
331
14
  1
Color_7
330
0
 90
        8
 62
     2
370
    -3
331
14
  1
Color_2
330
0
 90
        0
 62
     7
370
    -3
331
14
  1
Color_7
330
0
 90
        8
 62
     7
370
    -3
331
14
  1
Color_7
330
0
 90
        8
 62
     4
370
    15
331
14
  1
Color_4
330
0
 90
        8
 62
     9
370
    -3
331
14
  1
Color_9
330
0
 90
        8
 62
   211
370
    -3
331
14
  1
Color_211
330
0
 90
        8
 62
     3
370
    -3
331
14
  1
Color_3
330
0
 90
        8
 62
   120
370
    -3
331
14
  1
Color_120
330
0
 90
        8
 62
     7
370
    -3
331
14
  1
Color_7
330
0
 90
        8
 62
     7
370
    -3
331
14
  1
Color_7
330
0
 90
        8
 62
    10
370
    -3
331
14
  1
Color_10
330
0
 90
        8
 62
     9
370
    -3
331
14
  1
Color_9
  0
XRECORD
  5
C955
102
{ACAD_REACTORS
330
C94F
102
}
330
C94F
100
AcDbXrecord
280
     1
 91
     1023
301

290
     0
302
DEMENTION
330
E
 90
       12
 62
     7
370
    -3
331
14
  1
Color_7
330
0
 90
        8
 62
     1
370
    -3
331
14
  1
Color_1
330
0
 90
       12
 62
     7
370
    -3
331
14
  1
Color_7
330
0
 90
       12
 62
     7
370
    -3
331
14
  1
Color_7
330
0
 90
       12
 62
     2
370
    -3
331
14
  1
Color_2
330
0
 90
        4
 62
     7
370
    -3
331
14
  1
Color_7
330
0
 90
       12
 62
     7
370
    -3
331
14
  1
Color_7
330
0
 90
        8
 62
     4
370
    15
331
14
  1
Color_4
330
0
 90
       12
 62
     9
370
    -3
331
14
  1
Color_9
330
0
 90
       12
 62
   211
370
    -3
331
14
  1
Color_211
330
0
 90
       12
 62
     3
370
    -3
331
14
  1
Color_3
330
0
 90
       12
 62
   120
370
    -3
331
14
  1
Color_120
330
0
 90
       12
 62
     7
370
    -3
331
14
  1
Color_7
330
0
 90
       12
 62
     7
370
    -3
331
14
  1
Color_7
330
0
 90
       12
 62
    10
370
    -3
331
14
  1
Color_10
330
0
 90
       12
 62
     9
370
    -3
331
14
  1
Color_9
  0
XRECORD
  5
C957
102
{ACAD_REACTORS
330
C94F
102
}
330
C94F
100
AcDbXrecord
280
     1
 91
     1023
301

290
     0
302
DEMENTION
330
E
 90
        8
 62
     7
370
    -3
331
14
  1
Color_7
330
0
 90
        8
 62
     1
370
    -3
331
14
  1
Color_1
330
0
 90
        8
 62
     7
370
    -3
331
14
  1
Color_7
330
0
 90
        8
 62
     7
370
    -3
331
14
  1
Color_7
330
0
 90
        8
 62
     2
370
    -3
331
14
  1
Color_2
330
0
 90
        0
 62
     7
370
    -3
331
14
  1
Color_7
330
0
 90
        8
 62
     7
370
    -3
331
14
  1
Color_7
330
0
 90
        8
 62
     4
370
    15
331
14
  1
Color_4
330
0
 90
        8
 62
     9
370
    -3
331
14
  1
Color_9
330
0
 90
        8
 62
   211
370
    -3
331
14
  1
Color_211
330
0
 90
        8
 62
     3
370
    -3
331
14
  1
Color_3
330
0
 90
        8
 62
   120
370
    -3
331
14
  1
Color_120
330
0
 90
        8
 62
     7
370
    -3
331
14
  1
Color_7
330
0
 90
        8
 62
     7
370
    -3
331
14
  1
Color_7
330
0
 90
        8
 62
    10
370
    -3
331
14
  1
Color_10
330
0
 90
        8
 62
     9
370
    -3
331
14
  1
Color_9
  0
ENDSEC
  0
EOF
