  0
SECTION
  2
HEADER
  9
$ACADVER
  1
AC1014
  9
$ACADMAINTVER
 70
     9
  9
$DWGCODEPAGE
  3
ANSI_932
  9
$INSBASE
 10
0.0
 20
0.0
 30
0.0
  9
$EXTMIN
 10
-98.67733520921683
 20
82.90555290074797
 30
0.0
  9
$EXTMAX
 10
1071.486212597787
 20
537.2672888680396
 30
0.0
  9
$LIMMIN
 10
0.0
 20
0.0
  9
$LIMMAX
 10
420.0
 20
297.0
  9
$ORTHOMODE
 70
     1
  9
$REGENMODE
 70
     1
  9
$FILLMODE
 70
     1
  9
$QTEXTMODE
 70
     0
  9
$MIRRTEXT
 70
     0
  9
$DRAGMODE
 70
     2
  9
$LTSCALE
 40
20.0
  9
$OSMODE
 70
    37
  9
$ATTMODE
 70
     1
  9
$TEXTSIZE
 40
5.0
  9
$TRACEWID
 40
1.0
  9
$TEXTSTYLE
  7
MSｺ_ｼｯｸ
  9
$CLAYER
  8
寸法線
  9
$CELTYPE
  6
BYLAYER
  9
$CECOLOR
 62
   256
  9
$CELTSCALE
 40
1.0
  9
$DELOBJ
 70
     1
  9
$DISPSILH
 70
     0
  9
$DIMSCALE
 40
2.0
  9
$DIMASZ
 40
2.5
  9
$DIMEXO
 40
1.0
  9
$DIMDLI
 40
6.5
  9
$DIMRND
 40
0.005
  9
$DIMDLE
 40
0.0
  9
$DIMEXE
 40
1.0
  9
$DIMTP
 40
0.0
  9
$DIMTM
 40
0.0
  9
$DIMTXT
 40
3.0
  9
$DIMCEN
 40
2.5
  9
$DIMTSZ
 40
0.0
  9
$DIMTOL
 70
     0
  9
$DIMLIM
 70
     0
  9
$DIMTIH
 70
     0
  9
$DIMTOH
 70
     0
  9
$DIMSE1
 70
     0
  9
$DIMSE2
 70
     0
  9
$DIMTAD
 70
     1
  9
$DIMZIN
 70
     9
  9
$DIMBLK
  1
OPEN30
  9
$DIMASO
 70
     1
  9
$DIMSHO
 70
     1
  9
$DIMPOST
  1

  9
$DIMAPOST
  1

  9
$DIMALT
 70
     0
  9
$DIMALTD
 70
     4
  9
$DIMALTF
 40
0.0394
  9
$DIMLFAC
 40
1.0
  9
$DIMTOFL
 70
     1
  9
$DIMTVP
 40
0.0
  9
$DIMTIX
 70
     0
  9
$DIMSOXD
 70
     0
  9
$DIMSAH
 70
     0
  9
$DIMBLK1
  1

  9
$DIMBLK2
  1

  9
$DIMSTYLE
  2
STD_M_
  9
$DIMCLRD
 70
     4
  9
$DIMCLRE
 70
     4
  9
$DIMCLRT
 70
     3
  9
$DIMTFAC
 40
1.0
  9
$DIMGAP
 40
0.75
  9
$DIMJUST
 70
     0
  9
$DIMSD1
 70
     0
  9
$DIMSD2
 70
     0
  9
$DIMTOLJ
 70
     1
  9
$DIMTZIN
 70
     9
  9
$DIMALTZ
 70
     0
  9
$DIMALTTZ
 70
     0
  9
$DIMFIT
 70
     3
  9
$DIMUPT
 70
     0
  9
$DIMUNIT
 70
     2
  9
$DIMDEC
 70
     2
  9
$DIMTDEC
 70
     2
  9
$DIMALTU
 70
     8
  9
$DIMALTTD
 70
     4
  9
$DIMTXSTY
  7
STANDARD
  9
$DIMAUNIT
 70
     0
  9
$LUNITS
 70
     2
  9
$LUPREC
 70
     4
  9
$SKETCHINC
 40
1.0
  9
$FILLETRAD
 40
0.0
  9
$AUNITS
 70
     0
  9
$AUPREC
 70
     0
  9
$MENU
  1
.
  9
$ELEVATION
 40
0.0
  9
$PELEVATION
 40
0.0
  9
$THICKNESS
 40
0.0
  9
$LIMCHECK
 70
     0
  9
$BLIPMODE
 70
     0
  9
$CHAMFERA
 40
1.0
  9
$CHAMFERB
 40
1.0
  9
$CHAMFERC
 40
20.0
  9
$CHAMFERD
 40
0.0
  9
$SKPOLY
 70
     0
  9
$TDCREATE
 40
2451224.660162384
  9
$TDUPDATE
 40
2455777.818219398
  9
$TDINDWG
 40
14.9026157523
  9
$TDUSRTIMER
 40
14.9026157523
  9
$USRTIMER
 70
     1
  9
$ANGBASE
 50
0.0
  9
$ANGDIR
 70
     0
  9
$PDMODE
 70
     0
  9
$PDSIZE
 40
0.0
  9
$PLINEWID
 40
0.0
  9
$COORDS
 70
     0
  9
$SPLFRAME
 70
     0
  9
$SPLINETYPE
 70
     6
  9
$SPLINESEGS
 70
     8
  9
$ATTDIA
 70
     0
  9
$ATTREQ
 70
     1
  9
$HANDLING
 70
-16383
  9
$HANDSEED
  5
1BB52
  9
$SURFTAB1
 70
     6
  9
$SURFTAB2
 70
     6
  9
$SURFTYPE
 70
     6
  9
$SURFU
 70
     6
  9
$SURFV
 70
     6
  9
$UCSNAME
  2

  9
$UCSORG
 10
0.0
 20
0.0
 30
0.0
  9
$UCSXDIR
 10
1.0
 20
0.0
 30
0.0
  9
$UCSYDIR
 10
0.0
 20
1.0
 30
0.0
  9
$PUCSNAME
  2

  9
$PUCSORG
 10
0.0
 20
0.0
 30
0.0
  9
$PUCSXDIR
 10
1.0
 20
0.0
 30
0.0
  9
$PUCSYDIR
 10
0.0
 20
1.0
 30
0.0
  9
$USERI1
 70
     0
  9
$USERI2
 70
     0
  9
$USERI3
 70
     0
  9
$USERI4
 70
     0
  9
$USERI5
 70
     0
  9
$USERR1
 40
0.0
  9
$USERR2
 40
0.0
  9
$USERR3
 40
0.0
  9
$USERR4
 40
0.0
  9
$USERR5
 40
0.0
  9
$WORLDVIEW
 70
     1
  9
$SHADEDGE
 70
     3
  9
$SHADEDIF
 70
    70
  9
$TILEMODE
 70
     0
  9
$MAXACTVP
 70
    48
  9
$PINSBASE
 10
0.0
 20
0.0
 30
0.0
  9
$PLIMCHECK
 70
     0
  9
$PEXTMIN
 10
0.0
 20
3.001483425061337
 30
0.0
  9
$PEXTMAX
 10
400.0
 20
284.9462354889991
 30
0.0
  9
$PLIMMIN
 10
-7.904653768585709
 20
-4.332298162219537
  9
$PLIMMAX
 10
418.1657372094714
 20
296.9235235914577
  9
$UNITMODE
 70
     0
  9
$VISRETAIN
 70
     1
  9
$PLINEGEN
 70
     0
  9
$PSLTSCALE
 70
     0
  9
$TREEDEPTH
 70
  3020
  9
$PICKSTYLE
 70
     0
  9
$CMLSTYLE
  2
STANDARD
  9
$CMLJUST
 70
     0
  9
$CMLSCALE
 40
20.0
  9
$PROXYGRAPHICS
 70
     1
  9
$MEASUREMENT
 70
     0
  0
ENDSEC
  0
SECTION
  2
CLASSES
  0
CLASS
  1
HATCH
  2
AcDbHatch
  3
AutoCAD 2000
 90
        0
280
     0
281
     1
  0
CLASS
  1
LWPOLYLINE
  2
AcDbPolyline
  3
AutoCAD 2000
 90
        0
280
     0
281
     1
  0
CLASS
  1
ACDBDICTIONARYWDFLT
  2
AcDbDictionaryWithDefault
  3
AutoCAD 2000
 90
        0
280
     0
281
     0
  0
CLASS
  1
ACDBPLACEHOLDER
  2
AcDbPlaceHolder
  3
AutoCAD 2000
 90
        0
280
     0
281
     0
  0
CLASS
  1
LAYOUT
  2
AcDbLayout
  3
AutoCAD 2000
 90
        0
280
     0
281
     0
  0
CLASS
  1
LONG_TRANSACTION
  2
AcDbLongTransaction
  3
AutoCAD 2000
 90
        0
280
     0
281
     0
  0
CLASS
  1
LWPOLYLINE
  2
AcDbPolyline
  3
AutoCAD 2000
 90
        0
280
     0
281
     1
  0
CLASS
  1
HATCH
  2
AcDbHatch
  3
AutoCAD 2000
 90
        0
280
     0
281
     1
  0
CLASS
  1
XRECORD
  2
AcDbXrecord
  3
AutoCAD 2000
 90
        0
280
     0
281
     0
  0
CLASS
  1
DICTIONARYVAR
  2
AcDbDictionaryVar
  3
AutoCAD 2000
 90
        0
280
     0
281
     0
  0
CLASS
  1
LONG_TRANSACTION
  2
AcDbLongTransaction
  3
AutoCAD 2000
 90
        0
280
     0
281
     0
  0
CLASS
  1
LWPOLYLINE
  2
AcDbPolyline
  3
AutoCAD 2000
 90
        0
280
     0
281
     1
  0
CLASS
  1
HATCH
  2
AcDbHatch
  3
AutoCAD 2000
 90
        0
280
     0
281
     1
  0
CLASS
  1
XRECORD
  2
AcDbXrecord
  3
AutoCAD 2000
 90
        0
280
     0
281
     0
  0
ENDSEC
  0
SECTION
  2
TABLES
  0
TABLE
  2
VPORT
  5
8
330
0
100
AcDbSymbolTable
 70
     2
  0
VPORT
  5
1BB2E
330
8
100
AcDbSymbolTableRecord
100
AcDbViewportTableRecord
  2
*ACTIVE
 70
     0
 10
0.0
 20
0.0
 11
1.0
 21
1.0
 12
486.3983962507171
 22
310.0764522469509
 13
0.0
 23
0.0
 14
10.0
 24
10.0
 15
10.0
 25
10.0
 16
0.0
 26
0.0
 36
1.0
 17
0.0
 27
0.0
 37
0.0
 40
769.6979195123954
 41
1.527918781725888
 42
50.0
 43
0.0
 44
0.0
 50
0.0
 51
0.0
 71
     0
 72
   100
 73
     1
 74
     0
 75
     0
 76
     0
 77
     0
 78
     0
  0
ENDTAB
  0
TABLE
  2
LTYPE
  5
5
330
0
100
AcDbSymbolTable
 70
     7
  0
LTYPE
  5
12
330
5
100
AcDbSymbolTableRecord
100
AcDbLinetypeTableRecord
  2
BYBLOCK
 70
     0
  3

 72
    65
 73
     0
 40
0.0
  0
LTYPE
  5
13
330
5
100
AcDbSymbolTableRecord
100
AcDbLinetypeTableRecord
  2
BYLAYER
 70
     0
  3

 72
    65
 73
     0
 40
0.0
  0
LTYPE
  5
14
330
5
100
AcDbSymbolTableRecord
100
AcDbLinetypeTableRecord
  2
CONTINUOUS
 70
     0
  3
Solid line
 72
    65
 73
     0
 40
0.0
  0
LTYPE
  5
126C
330
5
100
AcDbSymbolTableRecord
100
AcDbLinetypeTableRecord
  2
CENTER
 70
     0
  3
____ _ ____ _ ____ _ ____ _ ____ _ ____ _ ____
 72
    65
 73
     4
 40
2.0
 49
1.25
 74
     0
 49
-0.25
 74
     0
 49
0.25
 74
     0
 49
-0.25
 74
     0
  0
LTYPE
  5
126E
330
5
100
AcDbSymbolTableRecord
100
AcDbLinetypeTableRecord
  2
DASHDOT
 70
     0
  3
__ . __ . __ . __ . __ . __ . __ . __ . __ . __
 72
    65
 73
     4
 40
1.0
 49
0.5
 74
     0
 49
-0.25
 74
     0
 49
0.0
 74
     0
 49
-0.25
 74
     0
  0
LTYPE
  5
1541F
330
5
100
AcDbSymbolTableRecord
100
AcDbLinetypeTableRecord
  2
HIDDEN
 70
     0
  3
_ _ _ _ _ _ _ _ _ _ _ _ _ _ _ _ _ _ _ _ _ _ _
 72
    65
 73
     2
 40
0.375
 49
0.25
 74
     0
 49
-0.125
 74
     0
  0
LTYPE
  5
15420
330
5
100
AcDbSymbolTableRecord
100
AcDbLinetypeTableRecord
  2
CENTER2
 70
     0
  3
Center (.5x) ___ _ ___ _ ___ _ ___ _ ___ _ ___
 72
    65
 73
     4
 40
1.125
 49
0.75
 74
     0
 49
-0.125
 74
     0
 49
0.125
 74
     0
 49
-0.125
 74
     0
  0
LTYPE
  5
15421
330
5
100
AcDbSymbolTableRecord
100
AcDbLinetypeTableRecord
  2
PHANTOM2
 70
     0
  3
Phantom (.5x) ___ _ _ ___ _ _ ___ _ _ ___ _ _
 72
    65
 73
     6
 40
1.25
 49
0.625
 74
     0
 49
-0.125
 74
     0
 49
0.125
 74
     0
 49
-0.125
 74
     0
 49
0.125
 74
     0
 49
-0.125
 74
     0
  0
LTYPE
  5
1615D
330
5
100
AcDbSymbolTableRecord
100
AcDbLinetypeTableRecord
  2
PHANTOM
 70
     0
  3
Phantom ______  __  __  ______  __  __  ______
 72
    65
 73
     6
 40
2.5
 49
1.25
 74
     0
 49
-0.25
 74
     0
 49
0.25
 74
     0
 49
-0.25
 74
     0
 49
0.25
 74
     0
 49
-0.25
 74
     0
  0
ENDTAB
  0
TABLE
  2
LAYER
  5
2
102
{ACAD_XDICTIONARY
360
1B0B2
102
}
330
0
100
AcDbSymbolTable
 70
    18
  0
LAYER
  5
E
330
2
100
AcDbSymbolTableRecord
100
AcDbLayerTableRecord
  2
0
 70
     2
 62
     7
  6
CONTINUOUS
  0
LAYER
  5
2C
330
2
100
AcDbSymbolTableRecord
100
AcDbLayerTableRecord
  2
M_VIEW
 70
     0
 62
    -1
  6
CONTINUOUS
  0
LAYER
  5
30
330
2
100
AcDbSymbolTableRecord
100
AcDbLayerTableRecord
  2
FRAME025
 70
     0
 62
     7
  6
CONTINUOUS
  0
LAYER
  5
12B
330
2
100
AcDbSymbolTableRecord
100
AcDbLayerTableRecord
  2
DEFPOINTS
 70
     4
 62
     7
  6
CONTINUOUS
  0
LAYER
  5
651
330
2
100
AcDbSymbolTableRecord
100
AcDbLayerTableRecord
  2
FRAME020
 70
     0
 62
     7
  6
CONTINUOUS
  0
LAYER
  5
1271
330
2
100
AcDbSymbolTableRecord
100
AcDbLayerTableRecord
  2
A
 70
     0
 62
     7
  6
CONTINUOUS
  0
LAYER
  5
A9BB
330
2
100
AcDbSymbolTableRecord
100
AcDbLayerTableRecord
  2
文字
 70
     0
 62
     7
  6
CONTINUOUS
  0
LAYER
  5
12163
330
2
100
AcDbSymbolTableRecord
100
AcDbLayerTableRecord
  2
寸法線
 70
     0
 62
     7
  6
CONTINUOUS
  0
LAYER
  5
122DE
330
2
100
AcDbSymbolTableRecord
100
AcDbLayerTableRecord
  2
DIMENSION
 70
     0
 62
     7
  6
CONTINUOUS
  0
LAYER
  5
15422
330
2
100
AcDbSymbolTableRecord
100
AcDbLayerTableRecord
  2
細線
 70
     0
 62
     7
  6
CONTINUOUS
  0
LAYER
  5
15423
330
2
100
AcDbSymbolTableRecord
100
AcDbLayerTableRecord
  2
CENTER
 70
     0
 62
     7
  6
CENTER
  0
LAYER
  5
15425
330
2
100
AcDbSymbolTableRecord
100
AcDbLayerTableRecord
  2
中心線
 70
     0
 62
     7
  6
CENTER2
  0
LAYER
  5
15426
330
2
100
AcDbSymbolTableRecord
100
AcDbLayerTableRecord
  2
仮想線
 70
     0
 62
     7
  6
PHANTOM2
  0
LAYER
  5
1615E
330
2
100
AcDbSymbolTableRecord
100
AcDbLayerTableRecord
  2
２点鎖線
 70
     0
 62
     7
  6
PHANTOM
  0
LAYER
  5
17D4F
330
2
100
AcDbSymbolTableRecord
100
AcDbLayerTableRecord
  2
破線
 70
     0
 62
     7
  6
HIDDEN
  0
LAYER
  5
1A07F
330
2
100
AcDbSymbolTableRecord
100
AcDbLayerTableRecord
  2
ｷｬｯﾌ_ﾎ_ﾙﾄ
 70
     0
 62
     7
  6
CONTINUOUS
  0
ENDTAB
  0
TABLE
  2
STYLE
  5
3
330
0
100
AcDbSymbolTable
 70
     4
  0
STYLE
  5
F
330
3
100
AcDbSymbolTableRecord
100
AcDbTextStyleTableRecord
  2
STANDARD
 70
     0
 40
0.0
 41
1.0
 50
0.0
 71
     0
 42
2.5
  3
isocp.shx
  4
bigfont.shx
  0
STYLE
  5
35
330
3
100
AcDbSymbolTableRecord
100
AcDbTextStyleTableRecord
  2
MSｺ_ｼｯｸ
 70
     0
 40
0.0
 41
1.0
 50
0.0
 71
     0
 42
5.0
  3
MS Gothic.ttf
  4

1001
ACAD
1000
MS Gothic
1071
    32817
  0
STYLE
  5
1275
330
3
100
AcDbSymbolTableRecord
100
AcDbTextStyleTableRecord
  2
BIGFONT
 70
     0
 40
2.0
 41
1.0
 50
0.0
 71
     0
 42
2.0
  3
txt.shx
  4
bigfont.shx
  0
ENDTAB
  0
TABLE
  2
VIEW
  5
6
330
0
100
AcDbSymbolTable
 70
     0
  0
ENDTAB
  0
TABLE
  2
UCS
  5
7
330
0
100
AcDbSymbolTable
 70
     0
  0
ENDTAB
  0
TABLE
  2
APPID
  5
9
330
0
100
AcDbSymbolTable
 70
     3
  0
APPID
  5
10
330
9
100
AcDbSymbolTableRecord
100
AcDbRegAppTableRecord
  2
ACAD
 70
     0
  0
APPID
  5
F013
330
9
100
AcDbSymbolTableRecord
100
AcDbRegAppTableRecord
  2
CONTENTBLOCKDESCRIPTION
 70
     0
  0
APPID
  5
F014
330
9
100
AcDbSymbolTableRecord
100
AcDbRegAppTableRecord
  2
CONTENTBLOCKICON
 70
     0
  0
ENDTAB
  0
TABLE
  2
DIMSTYLE
  5
A
330
0
100
AcDbSymbolTable
 70
     2
  0
DIMSTYLE
105
1D
330
A
100
AcDbSymbolTableRecord
100
AcDbDimStyleTableRecord
  2
STANDARD
 70
     0
  3

  4

  5

  6

  7

 40
1.0
 41
0.18
 42
0.0625
 43
0.38
 44
0.18
 45
0.0
 46
0.0
 47
0.0
 48
0.0
140
0.18
141
0.09
142
0.0
143
25.4
144
1.0
145
0.0
146
1.0
147
0.09
 71
     0
 72
     0
 73
     1
 74
     1
 75
     0
 76
     0
 77
     0
 78
     0
170
     0
171
     2
172
     0
173
     0
174
     0
175
     0
176
     0
177
     0
178
     0
270
     2
271
     4
272
     4
273
     2
274
     2
340
F
275
     0
280
     0
281
     0
282
     0
283
     1
284
     0
285
     0
286
     0
287
     3
288
     0
  0
DIMSTYLE
105
1542A
102
{ACAD_REACTORS
330
167CA
330
1754D
330
18D06
330
18D19
330
18FF7
330
19004
330
1900A
330
197CB
330
19D4D
330
19F20
330
19F21
330
1A8BA
330
1A8BD
330
1A8BF
330
1AF20
330
1AF22
330
1AF26
330
1B156
102
}
330
A
100
AcDbSymbolTableRecord
100
AcDbDimStyleTableRecord
  2
STD_M_
 70
     0
  3

  4

  5
OPEN30
  6

  7

 40
2.0
 41
2.5
 42
1.0
 43
6.5
 44
1.0
 45
0.005
 46
0.0
 47
0.0
 48
0.0
140
3.0
141
2.5
142
0.0
143
0.0394
144
1.0
145
0.0
146
1.0
147
0.75
 71
     0
 72
     0
 73
     0
 74
     0
 75
     0
 76
     0
 77
     1
 78
     9
170
     0
171
     4
172
     1
173
     0
174
     0
175
     0
176
     4
177
     4
178
     3
270
     2
271
     2
272
     2
273
     8
274
     4
340
F
275
     0
280
     0
281
     0
282
     0
283
     1
284
     9
285
     0
286
     0
287
     3
288
     0
  0
ENDTAB
  0
TABLE
  2
BLOCK_RECORD
  5
1
330
0
100
AcDbSymbolTable
 70
    35
  0
BLOCK_RECORD
  5
18
102
{ACAD_XDICTIONARY
360
EFC6
102
}
330
1
100
AcDbSymbolTableRecord
100
AcDbBlockTableRecord
  2
*MODEL_SPACE
  0
BLOCK_RECORD
  5
15
102
{ACAD_XDICTIONARY
360
EFC4
102
}
330
1
100
AcDbSymbolTableRecord
100
AcDbBlockTableRecord
  2
*PAPER_SPACE
  0
BLOCK_RECORD
  5
115C
330
1
100
AcDbSymbolTableRecord
100
AcDbBlockTableRecord
  2
機械A4横_LBP
  0
BLOCK_RECORD
  5
1215D
330
1
100
AcDbSymbolTableRecord
100
AcDbBlockTableRecord
  2
_OPEN30
  0
ENDTAB
  0
ENDSEC
  0
SECTION
  2
BLOCKS
  0
BLOCK
  5
19
330
18
100
AcDbEntity
  8
0
100
AcDbBlockBegin
  2
*MODEL_SPACE
 70
     0
 10
0.0
 20
0.0
 30
0.0
  3
*MODEL_SPACE
  1

  0
ENDBLK
  5
1A
330
18
100
AcDbEntity
  8
0
100
AcDbBlockEnd
  0
BLOCK
  5
16
330
15
100
AcDbEntity
 67
     1
  8
0
100
AcDbBlockBegin
  2
*PAPER_SPACE
 70
     0
 10
0.0
 20
0.0
 30
0.0
  3
*PAPER_SPACE
  1

  0
ENDBLK
  5
17
330
15
100
AcDbEntity
 67
     1
  8
0
100
AcDbBlockEnd
  0
BLOCK
  5
115D
330
115C
100
AcDbEntity
  8
0
100
AcDbBlockBegin
  2
機械A4横_LBP
 70
     0
 10
0.0
 20
0.0
 30
0.0
  3
機械A4横_LBP
  1

  0
ENDBLK
  5
115E
330
115C
100
AcDbEntity
  8
0
100
AcDbBlockEnd
  0
BLOCK
  5
12161
330
1215D
100
AcDbEntity
  8
0
100
AcDbBlockBegin
  2
_OPEN30
 70
     0
 10
0.0
 20
0.0
 30
0.0
  3
_OPEN30
  1

  0
LINE
  5
1215E
330
1215D
100
AcDbEntity
  8
0
  6
BYBLOCK
 62
     0
100
AcDbLine
 10
-1.0
 20
0.26794919
 30
0.0
 11
0.0
 21
0.0
 31
0.0
  0
LINE
  5
1215F
330
1215D
100
AcDbEntity
  8
0
  6
BYBLOCK
 62
     0
100
AcDbLine
 10
0.0
 20
0.0
 30
0.0
 11
-1.0
 21
-0.26794919
 31
0.0
  0
LINE
  5
12160
330
1215D
100
AcDbEntity
  8
0
  6
BYBLOCK
 62
     0
100
AcDbLine
 10
0.0
 20
0.0
 30
0.0
 11
-1.0
 21
0.0
 31
0.0
  0
ENDBLK
  5
12162
330
1215D
100
AcDbEntity
  8
0
100
AcDbBlockEnd
  0
ENDSEC
  0
SECTION
  2
ENTITIES
  0
ARC
  5
16607
330
18
100
AcDbEntity
  8
0
100
AcDbCircle
 10
534.0664622099452
 20
212.0683736814489
 30
0.0
 40
9.015903847971634
100
AcDbArc
 50
5.539633318506666
 51
27.82043885584001
  0
LINE
  5
16608
330
18
100
AcDbEntity
  8
0
100
AcDbLine
 10
542.0402587275141
 20
211.767288868039
 30
0.0
 11
546.5402587275145
 21
217.0387174394668
 31
0.0
  0
LINE
  5
16609
330
18
100
AcDbEntity
  8
0
100
AcDbLine
 10
543.0402587275141
 20
231.5958602966102
 30
0.0
 11
543.0402587275145
 21
212.9387174394678
 31
0.0
  0
ARC
  5
1660A
330
18
100
AcDbEntity
  8
0
100
AcDbCircle
 10
534.0664622099452
 20
232.466204054629
 30
0.0
 40
9.015903847971634
100
AcDbArc
 50
332.1795611441596
 51
354.4603666814933
  0
ARC
  5
1660B
330
18
100
AcDbEntity
  8
0
100
AcDbCircle
 10
532.5402587275143
 20
222.267288868039
 30
0.0
 40
10.50000000000042
100
AcDbArc
 50
334.791234703239
 51
25.20876529676096
  0
LINE
  5
1660C
330
18
100
AcDbEntity
  8
0
100
AcDbLine
 10
542.0402587275141
 20
232.767288868039
 30
0.0
 11
546.5402587275145
 21
227.4958602966112
 31
0.0
  0
LINE
  5
1660D
330
18
100
AcDbEntity
  8
0
100
AcDbLine
 10
546.5402587275145
 20
227.4958602966112
 30
0.0
 11
546.5402587275145
 21
217.0387174394668
 31
0.0
  0
LINE
  5
1660E
330
18
100
AcDbEntity
  8
0
100
AcDbLine
 10
542.0402587275146
 20
217.7951529130396
 30
0.0
 11
542.0402587275146
 21
216.2761155095872
 31
0.0
  0
LINE
  5
1660F
330
18
100
AcDbEntity
  8
0
100
AcDbLine
 10
542.0402587275146
 20
228.2584622264912
 30
0.0
 11
542.0402587275146
 21
226.7394248230389
 31
0.0
  0
LINE
  5
16610
330
18
100
AcDbEntity
  8
0
100
AcDbLine
 10
533.0402587275146
 20
231.767288868039
 30
0.0
 11
533.0402587275146
 21
212.767288868039
 31
0.0
  0
LINE
  5
16611
330
18
100
AcDbEntity
  8
0
100
AcDbLine
 10
536.0402587275145
 20
232.767288868039
 30
0.0
 11
536.0402587275145
 21
211.767288868039
 31
0.0
  0
LINE
  5
16612
330
18
100
AcDbEntity
  8
0
100
AcDbLine
 10
531.0402587275145
 20
232.767288868039
 30
0.0
 11
531.0402587275145
 21
211.767288868039
 31
0.0
  0
LINE
  5
16613
330
18
100
AcDbEntity
  8
0
100
AcDbLine
 10
528.5402587275141
 20
211.767288868039
 30
0.0
 11
531.0402587275145
 21
211.767288868039
 31
0.0
  0
LINE
  5
16614
330
18
100
AcDbEntity
  8
0
100
AcDbLine
 10
533.0402587275146
 20
212.767288868039
 30
0.0
 11
536.0402587275145
 21
212.767288868039
 31
0.0
  0
LINE
  5
16615
330
18
100
AcDbEntity
  8
0
100
AcDbLine
 10
531.0402587275145
 20
217.7951529130396
 30
0.0
 11
528.5402587275141
 21
217.7951529130396
 31
0.0
  0
LINE
  5
16616
330
18
100
AcDbEntity
  8
0
100
AcDbLine
 10
531.0402587275145
 20
214.8672888680384
 30
0.0
 11
533.0402587275146
 21
214.8672888680384
 31
0.0
  0
LINE
  5
16617
330
18
100
AcDbEntity
  8
0
100
AcDbLine
 10
531.0402587275145
 20
216.2761155095872
 30
0.0
 11
528.5402587275141
 21
216.2761155095872
 31
0.0
  0
LINE
  5
16618
330
18
100
AcDbEntity
  8
0
100
AcDbLine
 10
528.5402587275141
 20
232.767288868039
 30
0.0
 11
531.0402587275145
 21
232.767288868039
 31
0.0
  0
LINE
  5
16619
330
18
100
AcDbEntity
  8
0
100
AcDbLine
 10
531.0402587275145
 20
229.6672888680386
 30
0.0
 11
533.0402587275146
 21
229.6672888680386
 31
0.0
  0
LINE
  5
1661A
330
18
100
AcDbEntity
  8
0
100
AcDbLine
 10
528.5402587275141
 20
228.2584622264912
 30
0.0
 11
531.0402587275145
 21
228.2584622264912
 31
0.0
  0
LINE
  5
1661B
330
18
100
AcDbEntity
  8
0
100
AcDbLine
 10
528.5402587275141
 20
226.7394248230389
 30
0.0
 11
531.0402587275145
 21
226.7394248230389
 31
0.0
  0
LINE
  5
1661C
330
18
100
AcDbEntity
  8
0
100
AcDbLine
 10
533.0402587275146
 20
231.767288868039
 30
0.0
 11
536.0402587275145
 21
231.767288868039
 31
0.0
  0
LINE
  5
1661D
330
18
100
AcDbEntity
  8
0
100
AcDbLine
 10
536.0402587275145
 20
211.767288868039
 30
0.0
 11
542.0402587275141
 21
211.767288868039
 31
0.0
  0
LINE
  5
1661E
330
18
100
AcDbEntity
  8
0
100
AcDbLine
 10
542.0402587275146
 20
216.2761155095872
 30
0.0
 11
536.0402587275145
 21
216.2761155095872
 31
0.0
  0
LINE
  5
1661F
330
18
100
AcDbEntity
  8
0
100
AcDbLine
 10
542.0402587275146
 20
217.7951529130396
 30
0.0
 11
536.0402587275145
 21
217.7951529130396
 31
0.0
  0
LINE
  5
16620
330
18
100
AcDbEntity
  8
0
100
AcDbLine
 10
536.0402587275145
 20
232.767288868039
 30
0.0
 11
542.0402587275146
 21
232.767288868039
 31
0.0
  0
LINE
  5
16621
330
18
100
AcDbEntity
  8
0
100
AcDbLine
 10
536.0402587275145
 20
228.2584622264912
 30
0.0
 11
542.0402587275146
 21
228.2584622264912
 31
0.0
  0
LINE
  5
16622
330
18
100
AcDbEntity
  8
0
100
AcDbLine
 10
536.0402587275145
 20
226.7394248230389
 30
0.0
 11
542.0402587275146
 21
226.7394248230389
 31
0.0
  0
ARC
  5
1662A
330
18
100
AcDbEntity
  8
0
100
AcDbCircle
 10
534.0664622099462
 20
412.4662040546292
 30
0.0
 40
9.015903847971634
100
AcDbArc
 50
332.1795611441596
 51
354.4603666814933
  0
LINE
  5
1662B
330
18
100
AcDbEntity
  8
0
100
AcDbLine
 10
531.0402587275155
 20
408.2584622264908
 30
0.0
 11
528.5402587275141
 21
408.2584622264908
 31
0.0
  0
LINE
  5
1662C
330
18
100
AcDbEntity
  8
0
100
AcDbLine
 10
531.0402587275155
 20
409.6672888680396
 30
0.0
 11
533.0402587275155
 21
409.6672888680396
 31
0.0
  0
LINE
  5
1662D
330
18
100
AcDbEntity
  8
0
100
AcDbLine
 10
533.0402587275155
 20
411.7672888680391
 30
0.0
 11
536.0402587275155
 21
411.7672888680391
 31
0.0
  0
LINE
  5
1662E
330
18
100
AcDbEntity
  8
0
100
AcDbLine
 10
528.5402587275141
 20
412.7672888680391
 30
0.0
 11
531.0402587275155
 21
412.7672888680391
 31
0.0
  0
LINE
  5
1662F
330
18
100
AcDbEntity
  8
0
100
AcDbLine
 10
542.0402587275154
 20
408.2584622264908
 30
0.0
 11
536.0402587275155
 21
408.2584622264908
 31
0.0
  0
LINE
  5
16630
330
18
100
AcDbEntity
  8
0
100
AcDbLine
 10
536.0402587275155
 20
412.7672888680391
 30
0.0
 11
542.040258727515
 21
412.7672888680391
 31
0.0
  0
LINE
  5
16631
330
18
100
AcDbEntity
  8
0
100
AcDbLine
 10
546.540258727515
 20
397.0387174394664
 30
0.0
 11
546.5402587275154
 21
407.4958602966108
 31
0.0
  0
ARC
  5
16632
330
18
100
AcDbEntity
  8
0
100
AcDbCircle
 10
532.5402587275152
 20
402.2672888680391
 30
0.0
 40
10.50000000000042
100
AcDbArc
 50
334.791234703239
 51
25.20876529676096
  0
LINE
  5
16633
330
18
100
AcDbEntity
  8
0
100
AcDbLine
 10
542.0402587275146
 20
391.7672888680391
 30
0.0
 11
546.540258727515
 21
397.0387174394664
 31
0.0
  0
ARC
  5
16634
330
18
100
AcDbEntity
  8
0
100
AcDbCircle
 10
534.0664622099457
 20
392.0683736814491
 30
0.0
 40
9.015903847971634
100
AcDbArc
 50
5.539633318506666
 51
27.82043885584001
  0
LINE
  5
16635
330
18
100
AcDbEntity
  8
0
100
AcDbLine
 10
542.040258727515
 20
396.2761155095865
 30
0.0
 11
542.040258727515
 21
397.7951529130392
 31
0.0
  0
LINE
  5
16636
330
18
100
AcDbEntity
  8
0
100
AcDbLine
 10
528.5402587275141
 20
391.7672888680391
 30
0.0
 11
531.040258727515
 21
391.7672888680391
 31
0.0
  0
LINE
  5
16637
330
18
100
AcDbEntity
  8
0
100
AcDbLine
 10
528.5402587275141
 20
396.2761155095869
 30
0.0
 11
531.040258727515
 21
396.2761155095869
 31
0.0
  0
LINE
  5
16638
330
18
100
AcDbEntity
  8
0
100
AcDbLine
 10
531.040258727515
 20
394.8672888680395
 30
0.0
 11
533.040258727515
 21
394.8672888680395
 31
0.0
  0
LINE
  5
16639
330
18
100
AcDbEntity
  8
0
100
AcDbLine
 10
528.5402587275141
 20
397.7951529130392
 30
0.0
 11
531.040258727515
 21
397.7951529130392
 31
0.0
  0
LINE
  5
1663A
330
18
100
AcDbEntity
  8
0
100
AcDbLine
 10
533.040258727515
 20
392.7672888680391
 30
0.0
 11
536.040258727515
 21
392.7672888680391
 31
0.0
  0
LINE
  5
1663B
330
18
100
AcDbEntity
  8
0
100
AcDbLine
 10
531.0402587275155
 20
406.7394248230385
 30
0.0
 11
528.5402587275141
 21
406.7394248230385
 31
0.0
  0
LINE
  5
1663C
330
18
100
AcDbEntity
  8
0
100
AcDbLine
 10
536.040258727515
 20
397.7951529130392
 30
0.0
 11
542.040258727515
 21
397.7951529130392
 31
0.0
  0
LINE
  5
1663D
330
18
100
AcDbEntity
  8
0
100
AcDbLine
 10
536.040258727515
 20
391.7672888680391
 30
0.0
 11
542.040258727515
 21
391.7672888680391
 31
0.0
  0
LINE
  5
1663E
330
18
100
AcDbEntity
  8
0
100
AcDbLine
 10
536.040258727515
 20
396.2761155095869
 30
0.0
 11
542.040258727515
 21
396.2761155095865
 31
0.0
  0
LINE
  5
1663F
330
18
100
AcDbEntity
  8
0
100
AcDbLine
 10
542.0402587275154
 20
406.7394248230385
 30
0.0
 11
536.0402587275155
 21
406.7394248230385
 31
0.0
  0
LINE
  5
16642
330
18
100
AcDbEntity
  8
0
100
AcDbLine
 10
531.040258727515
 20
391.7672888680391
 30
0.0
 11
531.0402587275155
 21
412.7672888680391
 31
0.0
  0
LINE
  5
16643
330
18
100
AcDbEntity
  8
0
100
AcDbLine
 10
533.040258727515
 20
392.7672888680391
 30
0.0
 11
533.0402587275155
 21
411.7672888680391
 31
0.0
  0
LINE
  5
16644
330
18
100
AcDbEntity
  8
0
100
AcDbLine
 10
543.040258727515
 20
392.9387174394679
 30
0.0
 11
543.0402587275154
 21
411.5958602966103
 31
0.0
  0
LINE
  5
16645
330
18
100
AcDbEntity
  8
0
100
AcDbLine
 10
536.040258727515
 20
391.7672888680391
 30
0.0
 11
536.0402587275155
 21
412.7672888680391
 31
0.0
  0
LINE
  5
16646
330
18
100
AcDbEntity
  8
0
100
AcDbLine
 10
542.040258727515
 20
412.7672888680391
 30
0.0
 11
546.5402587275154
 21
407.4958602966108
 31
0.0
  0
LINE
  5
16647
330
18
100
AcDbEntity
  8
0
100
AcDbLine
 10
542.0402587275154
 20
406.7394248230385
 30
0.0
 11
542.0402587275154
 21
408.2584622264908
 31
0.0
  0
LINE
  5
166C3
330
18
100
AcDbEntity
  8
破線
100
AcDbLine
 10
475.5402552046096
 20
279.7672888680392
 30
0.0
 11
525.5402552046056
 21
279.7672888680392
 31
0.0
  0
LINE
  5
166C4
330
18
100
AcDbEntity
  8
破線
100
AcDbLine
 10
475.5402552046096
 20
344.7672888680392
 30
0.0
 11
525.5402552046056
 21
344.7672888680388
 31
0.0
  0
LINE
  5
166E2
330
18
100
AcDbEntity
  8
0
100
AcDbLine
 10
472.8402552046053
 20
513.2672888680388
 30
0.0
 11
473.340255204606
 21
513.2672888680388
 31
0.0
  0
LINE
  5
166E4
330
18
100
AcDbEntity
  8
0
100
AcDbLine
 10
472.8402552046053
 20
462.267288868039
 30
0.0
 11
471.5402552046059
 21
462.267288868039
 31
0.0
  0
LINE
  5
166E5
330
18
100
AcDbEntity
  8
0
100
AcDbLine
 10
469.0402552046059
 20
442.2672888680394
 30
0.0
 11
471.5402552046059
 21
442.2672888680392
 31
0.0
  0
LINE
  5
166E9
330
18
100
AcDbEntity
  8
0
100
AcDbLine
 10
471.5402552046059
 20
312.267288868039
 30
0.0
 11
471.5402552046059
 21
462.2672888680394
 31
0.0
  0
LINE
  5
166EA
330
18
100
AcDbEntity
  8
0
100
AcDbLine
 10
468.5402552046059
 20
441.7672888680395
 30
0.0
 11
468.5402552046059
 21
312.267288868039
 31
0.0
  0
LINE
  5
166EB
330
18
100
AcDbEntity
  8
0
100
AcDbLine
 10
472.8402552046053
 20
312.267288868039
 30
0.0
 11
472.8402552046053
 21
513.2672888680387
 31
0.0
  0
LINE
  5
166EC
330
18
100
AcDbEntity
  8
0
100
AcDbLine
 10
473.3402552046059
 20
312.267288868039
 30
0.0
 11
473.3402552046059
 21
513.7672888680388
 31
0.0
  0
LINE
  5
166ED
330
18
100
AcDbEntity
  8
0
100
AcDbLine
 10
525.5402552046059
 20
514.9672888680391
 30
0.0
 11
525.5402552046056
 21
312.267288868039
 31
0.0
  0
LINE
  5
166F0
330
18
100
AcDbEntity
  8
0
100
AcDbLine
 10
469.0402552046059
 20
182.2672888680392
 30
0.0
 11
471.5402552046059
 21
182.2672888680392
 31
0.0
  0
LINE
  5
166F1
330
18
100
AcDbEntity
  8
0
100
AcDbLine
 10
472.8402552046053
 20
162.2672888680392
 30
0.0
 11
471.5402552046059
 21
162.2672888680392
 31
0.0
  0
LINE
  5
16710
330
18
100
AcDbEntity
  8
0
100
AcDbLine
 10
472.8402552046053
 20
111.2672888680394
 30
0.0
 11
473.3402552046057
 21
111.2672888680394
 31
0.0
  0
LINE
  5
16712
330
18
100
AcDbEntity
  8
0
100
AcDbLine
 10
472.8402552046053
 20
111.2672888680394
 30
0.0
 11
472.8402552046053
 21
312.267288868039
 31
0.0
  0
LINE
  5
16719
330
18
100
AcDbEntity
  8
0
100
AcDbLine
 10
473.3402552046059
 20
110.7672888680395
 30
0.0
 11
473.3402552046059
 21
312.267288868039
 31
0.0
  0
LINE
  5
16720
330
18
100
AcDbEntity
  8
0
100
AcDbLine
 10
471.5402552046059
 20
312.2672888680392
 30
0.0
 11
471.5402552046059
 21
162.2672888680392
 31
0.0
  0
LINE
  5
16721
330
18
100
AcDbEntity
  8
0
100
AcDbLine
 10
468.5402552046059
 20
182.7672888680392
 30
0.0
 11
468.5402552046059
 21
312.2672888680392
 31
0.0
  0
LINE
  5
16722
330
18
100
AcDbEntity
  8
0
100
AcDbLine
 10
525.5402552046059
 20
109.5672888680389
 30
0.0
 11
525.5402552046056
 21
312.2672888680392
 31
0.0
  0
LINE
  5
1672A
330
18
100
AcDbEntity
  8
0
100
AcDbLine
 10
528.5402587275127
 20
446.767288868039
 30
0.0
 11
528.5402587275127
 21
312.267288868039
 31
0.0
  0
LINE
  5
167A2
330
18
100
AcDbEntity
  8
0
100
AcDbLine
 10
528.5402587275127
 20
177.7672888680392
 30
0.0
 11
528.5402587275127
 21
312.2672888680392
 31
0.0
  0
LINE
  5
167BC
330
18
100
AcDbEntity
  8
中心線
100
AcDbLine
 10
436.4768887382655
 20
312.267288868039
 30
0.0
 11
534.1186548050081
 21
312.267288868039
 31
0.0
  0
LINE
  5
167BD
330
18
100
AcDbEntity
  8
0
100
AcDbLine
 10
525.5402552046058
 20
447.2672888680395
 30
0.0
 11
528.0402587275127
 21
447.2672888680391
 31
0.0
  0
LINE
  5
167BE
330
18
100
AcDbEntity
  8
0
100
AcDbLine
 10
525.5402552046058
 20
177.2672888680387
 30
0.0
 11
528.0402587275127
 21
177.2672888680391
 31
0.0
  0
LINE
  5
1739D
102
{ACAD_REACTORS
330
173BD
102
}
330
18
100
AcDbEntity
  8
２点鎖線
 48
0.5
100
AcDbLine
 10
437.3702588460785
 20
302.2433662039559
 30
0.0
 11
447.3702588460785
 21
292.2433662039559
 31
0.0
  0
LINE
  5
1739E
102
{ACAD_REACTORS
330
173BD
102
}
330
18
100
AcDbEntity
  8
CENTER
 48
0.5
100
AcDbLine
 10
457.3702588460787
 20
336.3618195403105
 30
0.0
 11
457.3702588460787
 21
288.2794031168159
 31
0.0
  0
LINE
  5
1739F
102
{ACAD_REACTORS
330
173BD
102
}
330
18
100
AcDbEntity
  8
２点鎖線
 48
0.5
100
AcDbLine
 10
487.5402552046056
 20
295.2433662039559
 30
0.0
 11
484.5402552046055
 21
292.2433662039559
 31
0.0
  0
LINE
  5
173A0
102
{ACAD_REACTORS
330
173BD
102
}
330
18
100
AcDbEntity
  8
２点鎖線
 48
0.5
100
AcDbLine
 10
484.5402552046055
 20
292.2433662039559
 30
0.0
 11
447.3702588460785
 21
292.2433662039559
 31
0.0
  0
LINE
  5
173A1
102
{ACAD_REACTORS
330
173BD
102
}
330
18
100
AcDbEntity
  8
２点鎖線
 48
0.5
100
AcDbLine
 10
447.3702588460785
 20
332.2433662039559
 30
0.0
 11
484.5402552046055
 21
332.2433662039561
 31
0.0
  0
CIRCLE
  5
173A2
102
{ACAD_REACTORS
330
173BD
102
}
330
18
100
AcDbEntity
  8
２点鎖線
 48
0.5
100
AcDbCircle
 10
480.5402552046051
 20
322.2672888680391
 30
0.0
 40
4.25
  0
LINE
  5
173A3
102
{ACAD_REACTORS
330
173BD
102
}
330
18
100
AcDbEntity
  8
中心線
 48
0.5
100
AcDbLine
 10
474.4597700035053
 20
322.267288868039
 30
0.0
 11
486.4878832025659
 21
322.267288868039
 31
0.0
  0
LINE
  5
173A4
102
{ACAD_REACTORS
330
173BD
102
}
330
18
100
AcDbEntity
  8
中心線
 48
0.5
100
AcDbLine
 10
474.4597700035053
 20
302.267288868039
 30
0.0
 11
486.4878832025659
 21
302.267288868039
 31
0.0
  0
CIRCLE
  5
173A5
102
{ACAD_REACTORS
330
173BD
102
}
330
18
100
AcDbEntity
  8
２点鎖線
 48
0.5
100
AcDbCircle
 10
480.5402552046051
 20
302.2672888680391
 30
0.0
 40
4.25
  0
LINE
  5
173A6
102
{ACAD_REACTORS
330
173BD
102
}
330
18
100
AcDbEntity
  8
２点鎖線
 48
0.5
100
AcDbLine
 10
437.3702588460785
 20
302.2433662039559
 30
0.0
 11
437.3702588460785
 21
322.2433662039559
 31
0.0
  0
CIRCLE
  5
173A7
102
{ACAD_REACTORS
330
173BD
102
}
330
18
100
AcDbEntity
  8
２点鎖線
 48
0.5
100
AcDbCircle
 10
457.3702588460789
 20
312.2433662040358
 30
0.0
 40
10.0
  0
LINE
  5
173A8
102
{ACAD_REACTORS
330
173BD
102
}
330
18
100
AcDbEntity
  8
CENTER
 48
0.5
100
AcDbLine
 10
480.5402552046051
 20
328.2230755706771
 30
0.0
 11
480.5402552046051
 21
295.4293038974358
 31
0.0
  0
LINE
  5
173A9
102
{ACAD_REACTORS
330
173BD
102
}
330
18
100
AcDbEntity
  8
２点鎖線
 48
0.5
100
AcDbLine
 10
447.3702588460785
 20
332.2433662039559
 30
0.0
 11
437.3702588460785
 21
322.2433662039559
 31
0.0
  0
LINE
  5
173AA
102
{ACAD_REACTORS
330
173BD
102
}
330
18
100
AcDbEntity
  8
２点鎖線
 48
0.5
100
AcDbLine
 10
487.5402552046056
 20
329.2433662039561
 30
0.0
 11
487.5402552046056
 21
295.2433662039559
 31
0.0
  0
LINE
  5
173AB
102
{ACAD_REACTORS
330
173BD
102
}
330
18
100
AcDbEntity
  8
２点鎖線
 48
0.5
100
AcDbLine
 10
487.5402552046056
 20
329.2433662039561
 30
0.0
 11
484.5402552046055
 21
332.2433662039561
 31
0.0
  0
LINE
  5
17523
330
18
100
AcDbEntity
  8
0
100
AcDbLine
 10
468.5402552046059
 20
182.7672888680392
 30
0.0
 11
469.0402552046059
 21
182.2672888680392
 31
0.0
  0
LINE
  5
17524
330
18
100
AcDbEntity
  8
0
100
AcDbLine
 10
469.0402552046059
 20
442.2672888680394
 30
0.0
 11
468.5402552046059
 21
441.7672888680395
 31
0.0
  0
LINE
  5
17525
330
18
100
AcDbEntity
  8
0
100
AcDbLine
 10
528.0402587275127
 20
447.2672888680391
 30
0.0
 11
528.5402587275127
 21
446.767288868039
 31
0.0
  0
LINE
  5
17526
330
18
100
AcDbEntity
  8
0
100
AcDbLine
 10
528.5402587275127
 20
177.7672888680392
 30
0.0
 11
528.0402587275127
 21
177.2672888680391
 31
0.0
  0
MTEXT
  5
176FC
330
18
100
AcDbEntity
  8
DIMENSION
 62
     2
100
AcDbMText
 10
-100.7823601383244
 20
171.621314412839
 30
0.0
 40
8.0
 41
0.0
 71
     4
 72
     1
  1

1001
ACAD
1000
MTEXTBEGIN
1070
    73
1070
     1
1070
    44
1040
1.0
1070
    74
1070
     0
1000
MTEXTEND
  0
TEXT
  5
187C8
330
18
100
AcDbEntity
  8
A
100
AcDbText
 10
27.08248755054501
 20
1784.547672862096
 30
0.0
 40
2.5
  1

  7
MSｺ_ｼｯｸ
100
AcDbText
  0
TEXT
  5
187C9
330
18
100
AcDbEntity
  8
A
100
AcDbText
 10
19.25748755054502
 20
1784.547672862096
 30
0.0
 40
2.5
  1

 41
0.5
  7
MSｺ_ｼｯｸ
100
AcDbText
  0
TEXT
  5
187CA
330
18
100
AcDbEntity
  8
A
100
AcDbText
 10
167.1825875009164
 20
2214.514692980458
 30
0.0
 40
3.524999999999999
  1
�    
100
AcDbText
  0
MTEXT
  5
187CB
330
18
100
AcDbEntity
  8
0
  6
BYBLOCK
100
AcDbMText
 10
325.4874764241681
 20
2232.511722574347
 30
0.0
 40
2.0
 41
0.0
 71
     4
 72
     5
  1

 11
-0.0000000000000002
 21
-1.0
 31
0.0
1001
ACAD
1000
MTEXTBEGIN
1070
    73
1070
     1
1070
    44
1040
1.0
1070
    74
1070
     0
1000
MTEXTEND
1000
MTEXTBEGIN
1070
    73
1070
     1
1070
    44
1040
1.0
1070
    74
1070
     0
1000
MTEXTEND
  0
MTEXT
  5
187CC
330
18
100
AcDbEntity
  8
0
  6
BYBLOCK
100
AcDbMText
 10
360.9528647873208
 20
2221.718414215929
 30
0.0
 40
2.0
 41
0.0
 71
     7
 72
     5
  1

 11
0.0000000000000001
 21
1.0
 31
0.0
1001
ACAD
1000
MTEXTBEGIN
1070
    73
1070
     1
1070
    44
1040
1.0
1070
    74
1070
     0
1000
MTEXTEND
1000
MTEXTBEGIN
1070
    73
1070
     1
1070
    44
1040
1.0
1070
    74
1070
     0
1000
MTEXTEND
  0
MTEXT
  5
187CD
330
18
100
AcDbEntity
  8
0
100
AcDbMText
 10
325.1733668026532
 20
2146.93890367364
 30
0.0
 40
2.0
 41
10.1453
 71
     1
 72
     5
  1

 11
-0.0000000000000002
 21
-1.0
 31
0.0
1001
ACAD
1000
MTEXTBEGIN
1070
    73
1070
     1
1070
    44
1040
1.0
1070
    74
1070
     0
1000
MTEXTEND
1000
MTEXTBEGIN
1070
    73
1070
     1
1070
    44
1040
1.0
1070
    74
1070
     0
1000
MTEXTEND
  0
MTEXT
  5
187CE
330
18
100
AcDbEntity
  8
0
100
AcDbMText
 10
280.7738750495033
 20
2115.30742008065
 30
0.0
 40
2.0
 41
0.0
 71
     1
 72
     5
  1

1001
ACAD
1000
MTEXTBEGIN
1070
    73
1070
     1
1070
    44
1040
1.0
1070
    74
1070
     0
1000
MTEXTEND
1000
MTEXTBEGIN
1070
    73
1070
     1
1070
    44
1040
1.0
1070
    74
1070
     0
1000
MTEXTEND
  0
MTEXT
  5
187CF
330
18
100
AcDbEntity
  8
0
  6
CENTER
100
AcDbMText
 10
606.3621522332663
 20
2216.239946825076
 30
0.0
 40
2.0
 41
15.6417
 71
     1
 72
     5
  1

  7
BIGFONT
1001
ACAD
1000
MTEXTBEGIN
1070
    73
1070
     1
1070
    44
1040
1.0
1070
    74
1070
     0
1000
MTEXTEND
1000
MTEXTBEGIN
1070
    73
1070
     1
1070
    44
1040
1.0
1070
    74
1070
     0
1000
MTEXTEND
  0
MTEXT
  5
187D0
330
18
100
AcDbEntity
  8
0
  6
DASHDOT
100
AcDbMText
 10
368.6842112890944
 20
2323.029441652852
 30
0.0
 40
1.0
 41
2.0
 71
     1
 72
     5
  1

  7
BIGFONT
1001
ACAD
1000
MTEXTBEGIN
1070
    73
1070
     1
1070
    44
1040
1.0
1070
    74
1070
     0
1000
MTEXTEND
1000
MTEXTBEGIN
1070
    73
1070
     1
1070
    44
1040
1.0
1070
    74
1070
     0
1000
MTEXTEND
  0
MTEXT
  5
187D1
330
18
100
AcDbEntity
  8
0
  6
BYBLOCK
100
AcDbMText
 10
325.4873894192178
 20
2232.511722574347
 30
0.0
 40
2.0
 41
0.0
 71
     4
 72
     5
  1

 11
-0.0000000000000002
 21
-1.0
 31
0.0
1001
ACAD
1000
MTEXTBEGIN
1070
    73
1070
     1
1070
    44
1040
1.0
1070
    74
1070
     0
1000
MTEXTEND
1000
MTEXTBEGIN
1070
    73
1070
     1
1070
    44
1040
1.0
1070
    74
1070
     0
1000
MTEXTEND
  0
MTEXT
  5
187D2
330
18
100
AcDbEntity
  8
0
  6
BYBLOCK
100
AcDbMText
 10
360.9527777823707
 20
2221.718414215929
 30
0.0
 40
2.0
 41
0.0
 71
     7
 72
     5
  1

 11
0.0000000000000001
 21
1.0
 31
0.0
1001
ACAD
1000
MTEXTBEGIN
1070
    73
1070
     1
1070
    44
1040
1.0
1070
    74
1070
     0
1000
MTEXTEND
1000
MTEXTBEGIN
1070
    73
1070
     1
1070
    44
1040
1.0
1070
    74
1070
     0
1000
MTEXTEND
  0
MTEXT
  5
187D3
330
18
100
AcDbEntity
  8
0
100
AcDbMText
 10
325.1732797977028
 20
2146.93890367364
 30
0.0
 40
2.0
 41
10.1453
 71
     1
 72
     5
  1

 11
-0.0000000000000002
 21
-1.0
 31
0.0
1001
ACAD
1000
MTEXTBEGIN
1070
    73
1070
     1
1070
    44
1040
1.0
1070
    74
1070
     0
1000
MTEXTEND
1000
MTEXTBEGIN
1070
    73
1070
     1
1070
    44
1040
1.0
1070
    74
1070
     0
1000
MTEXTEND
  0
MTEXT
  5
187D4
330
18
100
AcDbEntity
  8
0
100
AcDbMText
 10
280.773788044553
 20
2115.30742008065
 30
0.0
 40
2.0
 41
0.0
 71
     1
 72
     5
  1

1001
ACAD
1000
MTEXTBEGIN
1070
    73
1070
     1
1070
    44
1040
1.0
1070
    74
1070
     0
1000
MTEXTEND
1000
MTEXTBEGIN
1070
    73
1070
     1
1070
    44
1040
1.0
1070
    74
1070
     0
1000
MTEXTEND
  0
MTEXT
  5
187D5
330
18
100
AcDbEntity
  8
0
  6
CENTER
100
AcDbMText
 10
606.3620652283159
 20
2216.239946825076
 30
0.0
 40
2.0
 41
15.6417
 71
     1
 72
     5
  1

  7
BIGFONT
1001
ACAD
1000
MTEXTBEGIN
1070
    73
1070
     1
1070
    44
1040
1.0
1070
    74
1070
     0
1000
MTEXTEND
1000
MTEXTBEGIN
1070
    73
1070
     1
1070
    44
1040
1.0
1070
    74
1070
     0
1000
MTEXTEND
  0
MTEXT
  5
187D6
330
18
100
AcDbEntity
  8
0
  6
DASHDOT
100
AcDbMText
 10
368.6841242841443
 20
2323.029441652852
 30
0.0
 40
1.0
 41
2.0
 71
     1
 72
     5
  1

  7
BIGFONT
1001
ACAD
1000
MTEXTBEGIN
1070
    73
1070
     1
1070
    44
1040
1.0
1070
    74
1070
     0
1000
MTEXTEND
1000
MTEXTBEGIN
1070
    73
1070
     1
1070
    44
1040
1.0
1070
    74
1070
     0
1000
MTEXTEND
  0
INSERT
  5
187D7
330
18
100
AcDbEntity
  8
FRAME025
100
AcDbBlockReference
  2
機械A4横_LBP
 10
271.0019941658661
 20
2006.88884056487
 30
0.0
  0
LINE
  5
18C8B
330
18
100
AcDbEntity
  8
0
100
AcDbLine
 10
602.6209252969172
 20
129.0055980022231
 30
0.0
 11
602.6209252969172
 21
142.7672888680387
 31
0.0
  0
LINE
  5
18C8C
330
18
100
AcDbEntity
  8
0
100
AcDbLine
 10
596.7409252969175
 20
129.0055980022231
 30
0.0
 11
596.7409252969175
 21
142.7672888680387
 31
0.0
  0
LINE
  5
18CCF
330
18
100
AcDbEntity
  8
0
100
AcDbLine
 10
602.6209252969172
 20
129.0055980022231
 30
0.0
 11
596.7409252969175
 21
129.0055980022231
 31
0.0
  0
LINE
  5
18CD3
330
18
100
AcDbEntity
  8
中心線
100
AcDbLine
 10
553.8657886766677
 20
222.2672888680392
 30
0.0
 11
517.361652373472
 21
222.2672888680387
 31
0.0
  0
LINE
  5
18CF8
330
18
100
AcDbEntity
  8
0
100
AcDbLine
 10
596.7409252969175
 20
142.7672888680387
 30
0.0
 11
602.6209252969172
 21
142.7672888680387
 31
0.0
  0
ARC
  5
18CFA
330
18
100
AcDbEntity
  8
0
100
AcDbCircle
 10
568.7342651014639
 20
202.2672888680387
 30
0.0
 40
17.89999999999969
100
AcDbArc
 50
0.0
 51
90.0
  0
ARC
  5
18CFB
330
18
100
AcDbEntity
  8
0
100
AcDbCircle
 10
568.7342651014639
 20
202.2672888680387
 30
0.0
 40
22.09999999999948
100
AcDbArc
 50
0.0
 51
90.0
  0
LINE
  5
18CFD
330
18
100
AcDbEntity
  8
0
100
AcDbLine
 10
546.5402587275145
 20
224.3672888680382
 30
0.0
 11
568.7342651014634
 21
224.3672888680387
 31
0.0
  0
LINE
  5
18CFE
330
18
100
AcDbEntity
  8
0
100
AcDbLine
 10
546.540258727515
 20
220.1672888680383
 30
0.0
 11
568.7342651014635
 21
220.1672888680389
 31
0.0
  0
LINE
  5
18D00
330
18
100
AcDbEntity
  8
0
100
AcDbLine
 10
595.9130392822601
 20
422.2672888680388
 30
0.0
 11
595.9130392822601
 21
489.6315961428991
 31
0.0
  0
LINE
  5
18D02
330
18
100
AcDbEntity
  8
0
100
AcDbLine
 10
603.4130392786603
 20
422.2672888680388
 30
0.0
 11
603.4130392786604
 21
489.6315961428991
 31
0.0
  0
LINE
  5
18D1B
330
18
100
AcDbEntity
  8
中心線
100
AcDbLine
 10
556.2961569471521
 20
402.2672888680387
 30
0.0
 11
517.3616523734724
 21
402.2672888680387
 31
0.0
  0
ARC
  5
18D3A
330
18
100
AcDbEntity
  8
0
100
AcDbCircle
 10
579.6630392804602
 20
422.2672888680388
 30
0.0
 40
16.25000000180011
100
AcDbArc
 50
270.0
 51
0.0
  0
ARC
  5
18D3C
330
18
100
AcDbEntity
  8
0
100
AcDbCircle
 10
579.6630392804602
 20
422.2672888680388
 30
0.0
 40
23.74999999820033
100
AcDbArc
 50
270.0
 51
0.0
  0
LINE
  5
18D3F
330
18
100
AcDbEntity
  8
0
100
AcDbLine
 10
579.6630392804602
 20
406.0172888662389
 30
0.0
 11
546.5402587275154
 21
406.0172888662389
 31
0.0
  0
LINE
  5
18D40
330
18
100
AcDbEntity
  8
0
100
AcDbLine
 10
579.6630392804602
 20
398.5172888698386
 30
0.0
 11
546.5402587275154
 21
398.5172888698386
 31
0.0
  0
LINE
  5
18FF9
330
18
100
AcDbEntity
  8
0
100
AcDbLine
 10
525.0402552046059
 20
109.0672888680389
 30
0.0
 11
525.5402552046059
 21
109.567288868039
 31
0.0
  0
LINE
  5
18FFF
330
18
100
AcDbEntity
  8
0
100
AcDbLine
 10
474.3402552046059
 20
109.7672888680395
 30
0.0
 11
495.7402552046055
 21
109.7672888680393
 31
0.0
  0
LINE
  5
197AF
330
18
100
AcDbEntity
  8
中心線
 48
2.0
100
AcDbLine
 10
858.9862125977878
 20
524.767288868039
 30
0.0
 11
858.9862125977875
 21
99.76728886803904
 31
0.0
  0
CIRCLE
  5
197B4
330
18
100
AcDbEntity
  8
0
100
AcDbCircle
 10
858.9862125977875
 20
312.2672888680389
 30
0.0
 40
115.0249999999996
  0
CIRCLE
  5
197B5
330
18
100
AcDbEntity
  8
0
100
AcDbCircle
 10
858.9862125977875
 20
312.2672888680389
 30
0.0
 40
135.0
  0
CIRCLE
  5
197B6
330
18
100
AcDbEntity
  8
中心線
 48
2.0
100
AcDbCircle
 10
858.9862125977875
 20
312.2672888680389
 30
0.0
 40
192.5
  0
LWPOLYLINE
  5
197C4
330
18
100
AcDbEntity
  8
0
100
AcDbPolyline
 90
        6
 70
     1
 43
0.0
 10
858.9862185375828
 20
232.6388955549899
 10
850.0041506203592
 20
227.4530962251013
 10
850.0041506203597
 20
217.0814975653241
 10
858.9862185375832
 20
211.8956982354351
 10
867.9682864548068
 20
217.0814975653237
 10
867.968286454807
 20
227.4530962251013
  0
CIRCLE
  5
197C5
330
18
100
AcDbEntity
  8
0
100
AcDbCircle
 10
858.9862185375833
 20
222.2672968952128
 30
0.0
 40
7.564530200546926
  0
ARC
  5
197C6
330
18
100
AcDbEntity
  8
中心線
100
AcDbCircle
 10
858.9862125977873
 20
312.2672888680389
 30
0.0
 40
90.0
100
AcDbArc
 50
249.9999999999996
 51
284.27354477023
  0
CIRCLE
  5
197C7
330
18
100
AcDbEntity
  8
0
100
AcDbCircle
 10
858.9862125977875
 20
222.2672888680386
 30
0.0
 40
2.400000000000199
  0
CIRCLE
  5
197C8
330
18
100
AcDbEntity
  8
0
100
AcDbCircle
 10
858.9862125977875
 20
222.2672888680386
 30
0.0
 40
4.607147494343507
  0
LINE
  5
197CC
330
18
100
AcDbEntity
  8
中心線
 48
30.0
100
AcDbLine
 10
858.9862125977884
 20
127.3583747731306
 30
0.0
 11
858.9862125977884
 21
111.9017254848492
 31
0.0
  0
CIRCLE
  5
197CD
330
18
100
AcDbEntity
  8
0
100
AcDbCircle
 10
858.9862125977878
 20
119.767288868039
 30
0.0
 40
3.200000000000265
  0
CIRCLE
  5
197CE
330
18
100
AcDbEntity
  8
細線
 48
5.0
100
AcDbCircle
 10
858.9862125977878
 20
119.767288868039
 30
0.0
 40
4.000000000002989
  0
CIRCLE
  5
197E1
330
18
100
AcDbEntity
  8
0
100
AcDbCircle
 10
1025.696102826292
 20
216.0172888680389
 30
0.0
 40
3.200000000000265
  0
CIRCLE
  5
197E2
330
18
100
AcDbEntity
  8
細線
 48
5.0
100
AcDbCircle
 10
1025.696102826292
 20
216.0172888680389
 30
0.0
 40
4.000000000002989
  0
LINE
  5
197E3
330
18
100
AcDbEntity
  8
中心線
 48
30.0
100
AcDbLine
 10
1019.122029590173
 20
219.8128318205851
 30
0.0
 11
1032.507880531211
 21
212.0845071764445
 31
0.0
  0
LINE
  5
197E8
330
18
100
AcDbEntity
  8
中心線
 48
2.0
100
AcDbLine
 10
1071.486212597787
 20
312.267288868039
 30
0.0
 11
646.4862125977879
 21
312.267288868039
 31
0.0
  0
CIRCLE
  5
197EA
330
18
100
AcDbEntity
  8
0
100
AcDbCircle
 10
858.9862125977875
 20
312.2672888680389
 30
0.0
 40
32.5
  0
ARC
  5
197FB
330
18
100
AcDbEntity
  8
中心線
100
AcDbCircle
 10
858.9862125977873
 20
312.2672888680389
 30
0.0
 40
90.0
100
AcDbArc
 50
69.99999999999968
 51
110.0
  0
CIRCLE
  5
197FC
330
18
100
AcDbEntity
  8
0
100
AcDbCircle
 10
858.986206657992
 20
402.2672808408656
 30
0.0
 40
7.564530200546926
  0
LWPOLYLINE
  5
197FD
330
18
100
AcDbEntity
  8
0
100
AcDbPolyline
 90
        6
 70
     1
 43
0.0
 10
858.9862066579918
 20
391.895682181088
 10
867.9682745752161
 20
397.0814815109771
 10
867.9682745752156
 20
407.4530801707543
 10
858.9862066579915
 20
412.6388795006429
 10
850.0041387407678
 20
407.4530801707543
 10
850.0041387407684
 20
397.0814815109771
  0
CIRCLE
  5
197FF
330
18
100
AcDbEntity
  8
0
100
AcDbCircle
 10
858.986212597788
 20
402.2672888680396
 30
0.0
 40
2.400000000000199
  0
CIRCLE
  5
19800
330
18
100
AcDbEntity
  8
0
100
AcDbCircle
 10
858.986212597788
 20
402.2672888680396
 30
0.0
 40
4.607147494343507
  0
LINE
  5
19806
330
18
100
AcDbEntity
  8
中心線
 48
30.0
100
AcDbLine
 10
1019.122029590172
 20
404.7217459154937
 30
0.0
 11
1032.507880531211
 21
412.4500705596345
 31
0.0
  0
CIRCLE
  5
19807
330
18
100
AcDbEntity
  8
細線
 48
5.0
100
AcDbCircle
 10
1025.696102826292
 20
408.517288868039
 30
0.0
 40
4.000000000002989
  0
CIRCLE
  5
19808
330
18
100
AcDbEntity
  8
0
100
AcDbCircle
 10
1025.696102826292
 20
408.517288868039
 30
0.0
 40
3.200000000000265
  0
LINE
  5
19817
330
18
100
AcDbEntity
  8
中心線
 48
30.0
100
AcDbLine
 10
858.9862125977875
 20
497.1762029629474
 30
0.0
 11
858.9862125977875
 21
512.6328522512288
 31
0.0
  0
CIRCLE
  5
19818
330
18
100
AcDbEntity
  8
0
100
AcDbCircle
 10
858.9862125977878
 20
504.7672888680389
 30
0.0
 40
3.200000000000265
  0
CIRCLE
  5
19819
330
18
100
AcDbEntity
  8
細線
 48
5.0
100
AcDbCircle
 10
858.9862125977878
 20
504.7672888680389
 30
0.0
 40
4.000000000002989
  0
CIRCLE
  5
1982A
330
18
100
AcDbEntity
  8
0
100
AcDbCircle
 10
692.2763223692832
 20
216.017288868039
 30
0.0
 40
3.200000000000265
  0
CIRCLE
  5
1982B
330
18
100
AcDbEntity
  8
細線
 48
5.0
100
AcDbCircle
 10
692.2763223692832
 20
216.017288868039
 30
0.0
 40
4.000000000002989
  0
LINE
  5
1982C
330
18
100
AcDbEntity
  8
中心線
 48
30.0
100
AcDbLine
 10
698.8503956054032
 20
219.8128318205843
 30
0.0
 11
685.4645446643648
 21
212.0845071764436
 31
0.0
  0
CIRCLE
  5
1983B
330
18
100
AcDbEntity
  8
0
100
AcDbCircle
 10
692.2763223692836
 20
408.5172888680392
 30
0.0
 40
3.200000000000265
  0
CIRCLE
  5
1983C
330
18
100
AcDbEntity
  8
細線
 48
5.0
100
AcDbCircle
 10
692.2763223692836
 20
408.5172888680392
 30
0.0
 40
4.000000000002989
  0
LINE
  5
1983D
330
18
100
AcDbEntity
  8
中心線
 48
30.0
100
AcDbLine
 10
698.8503956054024
 20
404.7217459154927
 30
0.0
 11
685.4645446643639
 21
412.4500705596334
 31
0.0
  0
LINE
  5
19918
330
18
100
AcDbEntity
  8
0
100
AcDbLine
 10
525.0402552046059
 20
515.4672888680391
 30
0.0
 11
525.5402552046059
 21
514.9672888680391
 31
0.0
  0
LINE
  5
1991A
330
18
100
AcDbEntity
  8
0
100
AcDbLine
 10
474.340255204606
 20
514.7672888680387
 30
0.0
 11
495.7402552046058
 21
514.7672888680387
 31
0.0
  0
ARC
  5
19D3A
330
18
100
AcDbEntity
  8
0
100
AcDbCircle
 10
126.3226647907831
 20
312.2672888680397
 30
0.0
 40
150.0
100
AcDbArc
 50
104.9999999999991
 51
284.9999999999991
  0
ARC
  5
19D3B
330
18
100
AcDbEntity
  8
0
100
AcDbCircle
 10
126.3226647907831
 20
312.2672888680397
 30
0.0
 40
130.0
100
AcDbArc
 50
104.9999999999991
 51
284.9999999999991
  0
ARC
  5
19D3C
330
18
100
AcDbEntity
  8
0
100
AcDbCircle
 10
126.3226647907831
 20
312.2672888680397
 30
0.0
 40
150.0
100
AcDbArc
 50
284.9999999999991
 51
104.9999999999991
  0
ARC
  5
19D3D
330
18
100
AcDbEntity
  8
0
100
AcDbCircle
 10
126.3226647907838
 20
312.2672888680398
 30
0.0
 40
130.0
100
AcDbArc
 50
284.9999999999991
 51
104.9999999999991
  0
ARC
  5
19D3E
330
18
100
AcDbEntity
  8
中心線
 48
2.0
100
AcDbCircle
 10
126.3226647907831
 20
312.2672888680397
 30
0.0
 40
110.0
100
AcDbArc
 50
284.9999999999991
 51
104.9999999999991
  0
ARC
  5
19D3F
330
18
100
AcDbEntity
  8
中心線
 48
2.0
100
AcDbCircle
 10
126.3226647907831
 20
312.2672888680397
 30
0.0
 40
110.0
100
AcDbArc
 50
104.9999999999991
 51
284.9999999999991
  0
LINE
  5
19D47
330
18
100
AcDbEntity
  8
中心線
 48
2.0
100
AcDbLine
 10
340.6226647907832
 20
312.2672888680392
 30
0.0
 11
-98.67733520921683
 21
312.2672888680397
 31
0.0
  0
LINE
  5
19D4B
330
18
100
AcDbEntity
  8
中心線
 48
2.0
100
AcDbLine
 10
126.3226647907831
 20
97.26728886803948
 30
0.0
 11
126.3226647907831
 21
537.2672888680396
 31
0.0
  0
LINE
  5
19DBA
330
18
100
AcDbEntity
  8
中心線
100
AcDbLine
 10
75.60117194342706
 20
224.4150862206775
 30
0.0
 11
67.07130522931379
 21
209.6409236900426
 31
0.0
  0
LINE
  5
19DBD
330
18
100
AcDbEntity
  8
中心線
100
AcDbLine
 10
177.0441576381392
 20
224.4150862206775
 30
0.0
 11
185.5740243522524
 21
209.6409236900423
 31
0.0
  0
LINE
  5
19DC6
102
{ACAD_REACTORS
330
19F5D
102
}
330
18
100
AcDbEntity
  8
中心線
 48
0.5
100
AcDbLine
 10
318.9896601649337
 20
302.2672888680397
 30
0.0
 11
344.0805232071058
 21
302.2672888680397
 31
0.0
  0
LINE
  5
19DC7
102
{ACAD_REACTORS
330
19F5D
102
}
330
18
100
AcDbEntity
  8
中心線
 48
0.5
100
AcDbLine
 10
318.9896601649337
 20
322.2672888680392
 30
0.0
 11
344.0805232071058
 21
322.2672888680394
 31
0.0
  0
LINE
  5
19DC8
102
{ACAD_REACTORS
330
19F5D
102
}
330
18
100
AcDbEntity
  8
仮想線
 48
0.5
100
AcDbLine
 10
333.3226542174823
 20
332.3466784833205
 30
0.0
 11
333.3226752804761
 21
292.3466784833198
 31
0.0
  0
LINE
  5
19DC9
102
{ACAD_REACTORS
330
19F5D
102
}
330
18
100
AcDbEntity
  8
仮想線
  6
BYBLOCK
 48
0.5
100
AcDbLine
 10
328.8226542174815
 20
332.3466784833203
 30
0.0
 11
328.8226752804756
 21
292.3466784833203
 31
0.0
  0
LINE
  5
19DCA
102
{ACAD_REACTORS
330
19F5D
102
}
330
18
100
AcDbEntity
  8
仮想線
 48
0.5
100
AcDbLine
 10
335.6226594832305
 20
326.8672888680393
 30
0.0
 11
335.6226594832305
 21
317.6672888680395
 31
0.0
  0
LINE
  5
19DCB
102
{ACAD_REACTORS
330
19F5D
102
}
330
18
100
AcDbEntity
  8
仮想線
 48
0.5
100
AcDbLine
 10
334.3226594832314
 20
322.2672888680394
 30
0.0
 11
334.3226594832303
 21
317.2672888680394
 31
0.0
  0
LINE
  5
19DCC
102
{ACAD_REACTORS
330
19F5D
102
}
330
18
100
AcDbEntity
  8
仮想線
 48
0.5
100
AcDbLine
 10
335.6226594832305
 20
297.6672888680397
 30
0.0
 11
335.6226594832305
 21
306.8672888680395
 31
0.0
  0
LINE
  5
19DCD
102
{ACAD_REACTORS
330
19F5D
102
}
330
18
100
AcDbEntity
  8
仮想線
 48
0.5
100
AcDbLine
 10
334.3226594832314
 20
302.2672888680394
 30
0.0
 11
334.3226594832303
 21
307.2672888680396
 31
0.0
  0
LINE
  5
19DCE
102
{ACAD_REACTORS
330
19F5D
102
}
330
18
100
AcDbEntity
  8
仮想線
 48
0.5
100
AcDbLine
 10
340.6226594832305
 20
298.2378992527594
 30
0.0
 11
340.6226594832305
 21
306.137899252759
 31
0.0
  0
LINE
  5
19DCF
102
{ACAD_REACTORS
330
19F5D
102
}
330
18
100
AcDbEntity
  8
仮想線
 48
0.5
100
AcDbLine
 10
333.3226594832304
 20
297.2672888680398
 30
0.0
 11
334.3226594832303
 21
297.2672888680396
 31
0.0
  0
LINE
  5
19DD0
102
{ACAD_REACTORS
330
19F5D
102
}
330
18
100
AcDbEntity
  8
仮想線
 48
0.5
100
AcDbLine
 10
334.3226594832308
 20
297.6672888680397
 30
0.0
 11
335.6226594832305
 21
297.6672888680397
 31
0.0
  0
LINE
  5
19DD1
102
{ACAD_REACTORS
330
19F5D
102
}
330
18
100
AcDbEntity
  8
仮想線
  6
BYBLOCK
 48
0.5
100
AcDbLine
 10
333.3226752804761
 20
292.3466784833198
 30
0.0
 11
328.8226752804756
 21
292.3466784833203
 31
0.0
  0
LINE
  5
19DD2
102
{ACAD_REACTORS
330
19F5D
102
}
330
18
100
AcDbEntity
  8
仮想線
 48
0.5
100
AcDbLine
 10
334.3226594832303
 20
297.2672888680396
 30
0.0
 11
334.3226594832312
 21
302.2672888680394
 31
0.0
  0
LINE
  5
19DD3
102
{ACAD_REACTORS
330
19F5D
102
}
330
18
100
AcDbEntity
  8
仮想線
 48
0.5
100
AcDbLine
 10
340.6226594832305
 20
298.2378992527594
 30
0.0
 11
340.3226594832303
 21
297.9378992527592
 31
0.0
  0
LINE
  5
19DD4
102
{ACAD_REACTORS
330
19F5D
102
}
330
18
100
AcDbEntity
  8
仮想線
 48
0.5
100
AcDbLine
 10
335.6226594832305
 20
297.9378992527592
 30
0.0
 11
340.3226594832303
 21
297.9378992527592
 31
0.0
  0
LINE
  5
19DD5
102
{ACAD_REACTORS
330
19F5D
102
}
330
18
100
AcDbEntity
  8
仮想線
 48
0.5
100
AcDbLine
 10
333.3226594832304
 20
307.2672888680396
 30
0.0
 11
334.3226594832303
 21
307.2672888680396
 31
0.0
  0
LINE
  5
19DD6
102
{ACAD_REACTORS
330
19F5D
102
}
330
18
100
AcDbEntity
  8
仮想線
 48
0.5
100
AcDbLine
 10
334.3226594832308
 20
306.8672888680395
 30
0.0
 11
335.6226594832305
 21
306.8672888680395
 31
0.0
  0
LINE
  5
19DD7
102
{ACAD_REACTORS
330
19F5D
102
}
330
18
100
AcDbEntity
  8
仮想線
 48
0.5
100
AcDbLine
 10
333.3226594832304
 20
317.2672888680394
 30
0.0
 11
334.3226594832303
 21
317.2672888680394
 31
0.0
  0
LINE
  5
19DD8
102
{ACAD_REACTORS
330
19F5D
102
}
330
18
100
AcDbEntity
  8
仮想線
 48
0.5
100
AcDbLine
 10
334.3226594832308
 20
317.6672888680395
 30
0.0
 11
335.6226594832305
 21
317.6672888680395
 31
0.0
  0
LINE
  5
19DD9
102
{ACAD_REACTORS
330
19F5D
102
}
330
18
100
AcDbEntity
  8
仮想線
 48
0.5
100
AcDbLine
 10
340.3226594832308
 20
306.4378992527592
 30
0.0
 11
340.6226594832305
 21
306.137899252759
 31
0.0
  0
LINE
  5
19DDA
102
{ACAD_REACTORS
330
19F5D
102
}
330
18
100
AcDbEntity
  8
仮想線
 48
0.5
100
AcDbLine
 10
335.6226594832305
 20
306.4378992527592
 30
0.0
 11
340.3226594832308
 21
306.4378992527592
 31
0.0
  0
CIRCLE
  5
19DDB
330
18
100
AcDbEntity
  8
0
100
AcDbCircle
 10
95.00556033337806
 20
195.3902638870628
 30
0.0
 40
4.75
  0
CIRCLE
  5
19DDE
330
18
100
AcDbEntity
  8
細線
 48
5.0
100
AcDbCircle
 10
95.00556033337806
 20
195.3902638870628
 30
0.0
 40
4.25
  0
LWPOLYLINE
  5
19DDF
330
18
100
AcDbEntity
  8
細線
 48
5.0
100
AcDbPolyline
 90
        6
 70
     1
 43
0.0
 10
92.7741495839316
 20
194.7923591787662
 10
94.40765562508181
 20
193.1588531376165
 10
96.63906637452852
 20
193.7567578459129
 10
97.23697108282488
 20
195.9881685953596
 10
95.60346504167387
 20
197.6216746365089
 10
93.37205429222786
 20
197.0237699282124
  0
LINE
  5
19DE1
102
{ACAD_REACTORS
330
19F5D
102
}
330
18
100
AcDbEntity
  8
仮想線
 48
0.5
100
AcDbLine
 10
333.3226594832304
 20
327.2672888680391
 30
0.0
 11
334.3226594832303
 21
327.2672888680394
 31
0.0
  0
LINE
  5
19DE2
102
{ACAD_REACTORS
330
19F5D
102
}
330
18
100
AcDbEntity
  8
仮想線
 48
0.5
100
AcDbLine
 10
334.3226594832308
 20
326.8672888680393
 30
0.0
 11
335.6226594832305
 21
326.8672888680393
 31
0.0
  0
LINE
  5
19DE3
102
{ACAD_REACTORS
330
19F5D
102
}
330
18
100
AcDbEntity
  8
仮想線
 48
0.5
100
AcDbLine
 10
334.3226594832303
 20
327.2672888680394
 30
0.0
 11
334.3226594832314
 21
322.2672888680394
 31
0.0
  0
LINE
  5
19DE4
102
{ACAD_REACTORS
330
19F5D
102
}
330
18
100
AcDbEntity
  8
仮想線
 48
0.5
100
AcDbLine
 10
340.6226594832305
 20
326.2966784833196
 30
0.0
 11
340.3226594832303
 21
326.5966784833198
 31
0.0
  0
LINE
  5
19DE5
102
{ACAD_REACTORS
330
19F5D
102
}
330
18
100
AcDbEntity
  8
仮想線
 48
0.5
100
AcDbLine
 10
340.3226594832308
 20
318.0966784833198
 30
0.0
 11
340.6226594832305
 21
318.39667848332
 31
0.0
  0
LINE
  5
19DE6
102
{ACAD_REACTORS
330
19F5D
102
}
330
18
100
AcDbEntity
  8
仮想線
 48
0.5
100
AcDbLine
 10
340.6226594832305
 20
326.2966784833196
 30
0.0
 11
340.6226594832305
 21
318.39667848332
 31
0.0
  0
LINE
  5
19DE7
102
{ACAD_REACTORS
330
19F5D
102
}
330
18
100
AcDbEntity
  8
仮想線
 48
0.5
100
AcDbLine
 10
335.6226594832305
 20
326.5966784833198
 30
0.0
 11
340.3226594832303
 21
326.5966784833198
 31
0.0
  0
LINE
  5
19DE8
102
{ACAD_REACTORS
330
19F5D
102
}
330
18
100
AcDbEntity
  8
仮想線
 48
0.5
100
AcDbLine
 10
335.6226594832305
 20
318.0966784833198
 30
0.0
 11
340.3226594832308
 21
318.0966784833198
 31
0.0
  0
LINE
  5
19DE9
102
{ACAD_REACTORS
330
19F5D
102
}
330
18
100
AcDbEntity
  8
仮想線
 48
0.5
100
AcDbLine
 10
328.8226542174816
 20
332.3466784833203
 30
0.0
 11
333.3226542174823
 21
332.3466784833205
 31
0.0
  0
ARC
  5
19DEC
330
18
100
AcDbEntity
  8
0
100
AcDbCircle
 10
157.6397692481881
 20
195.3902638870624
 30
0.0
 40
4.75
100
AcDbArc
 50
284.9999999999991
 51
104.9999999999991
  0
ARC
  5
19DED
330
18
100
AcDbEntity
  8
0
100
AcDbCircle
 10
157.6397692481881
 20
195.3902638870624
 30
0.0
 40
4.75
100
AcDbArc
 50
104.9999999999991
 51
284.9999999999991
  0
ARC
  5
19DEE
330
18
100
AcDbEntity
  8
細線
 48
5.0
100
AcDbCircle
 10
157.6397692481881
 20
195.3902638870624
 30
0.0
 40
4.25
100
AcDbArc
 50
284.9999999999991
 51
104.9999999999991
  0
ARC
  5
19DEF
330
18
100
AcDbEntity
  8
細線
 48
5.0
100
AcDbCircle
 10
157.6397692481881
 20
195.3902638870624
 30
0.0
 40
4.25
100
AcDbArc
 50
104.9999999999991
 51
284.9999999999991
  0
LWPOLYLINE
  5
19DF0
330
18
100
AcDbEntity
  8
細線
 48
5.0
100
AcDbPolyline
 90
        5
 70
     0
 43
0.0
 10
157.041864539892
 20
197.6216746365084
 10
157.0418645398923
 20
197.6216746365088
 10
159.2732752893384
 20
197.0237699282122
 10
159.8711799976347
 20
194.792359178766
 10
158.2376739564844
 20
193.1588531376161
  0
LWPOLYLINE
  5
19DF4
330
18
100
AcDbEntity
  8
細線
 48
5.0
100
AcDbPolyline
 90
        5
 70
     0
 43
0.0
 10
157.041864539892
 20
197.6216746365084
 10
157.0418645398914
 20
197.6216746365086
 10
155.4083584987417
 20
195.9881685953583
 10
156.006263207038
 20
193.7567578459121
 10
158.2376739564844
 20
193.1588531376161
  0
LINE
  5
19DF7
330
18
100
AcDbEntity
  8
中心線
100
AcDbLine
 10
24.87967909607096
 20
312.2672888680397
 30
0.0
 11
7.819945667844194
 21
312.2672888680393
 31
0.0
  0
SOLID
  5
19DF9
330
18
100
AcDbEntity
  8
0
  6
BYBLOCK
 62
     0
100
AcDbTrace
 10
-19.17733520921683
 20
314.5766899480396
 30
0.0
 11
-23.17733520921683
 21
312.2672888680396
 31
0.0
 12
-19.17733520921683
 22
309.9578877880395
 32
0.0
 13
-19.17733520921683
 23
309.9578877880395
 33
0.0
  0
SOLID
  5
19DFA
330
18
100
AcDbEntity
  8
0
  6
BYBLOCK
 62
     0
100
AcDbTrace
 10
-28.17733520921683
 20
314.5766899480396
 30
0.0
 11
-24.17733520921683
 21
312.2672888680396
 31
0.0
 12
-28.17733520921683
 22
309.9578877880395
 32
0.0
 13
-28.17733520921683
 23
309.9578877880395
 33
0.0
  0
LWPOLYLINE
  5
19DFB
330
18
100
AcDbEntity
  8
細線
 48
5.0
100
AcDbPolyline
 90
        6
 70
     1
 43
0.0
 10
7.812133768655598
 20
282.5836904517848
 10
7.214229060359571
 20
280.3522797023386
 10
8.847735101509897
 20
278.7187736611882
 10
11.07914585095665
 20
279.3166783694846
 10
11.67705055925205
 20
281.5480891189314
 10
10.04354451810189
 20
283.181595160081
  0
CIRCLE
  5
19DFC
330
18
100
AcDbEntity
  8
0
100
AcDbCircle
 10
9.445639809805925
 20
280.9501844106347
 30
0.0
 40
4.75
  0
CIRCLE
  5
19DFD
330
18
100
AcDbEntity
  8
細線
 48
5.0
100
AcDbCircle
 10
9.445639809805925
 20
280.9501844106347
 30
0.0
 40
4.25
  0
CIRCLE
  5
19DFF
330
18
100
AcDbEntity
  8
0
100
AcDbCircle
 10
16.32266479078305
 20
312.2672888680412
 30
0.0
 40
3.277999999999999
  0
CIRCLE
  5
19E00
330
18
100
AcDbEntity
  8
細線
 48
5.0
100
AcDbCircle
 10
16.32266479078305
 20
312.2672888680412
 30
0.0
 40
4.0
  0
CIRCLE
  5
19E01
330
18
100
AcDbEntity
  8
細線
 48
5.0
100
AcDbCircle
 10
40.76274426721079
 20
226.7073683444674
 30
0.0
 40
4.25
  0
LWPOLYLINE
  5
19E02
330
18
100
AcDbEntity
  8
細線
 48
5.0
100
AcDbPolyline
 90
        6
 70
     1
 43
0.0
 10
38.53133351776432
 20
227.3052730527636
 10
39.1292382260608
 20
225.0738623033175
 10
41.3606489755075
 20
224.4759575950212
 10
42.99415501665794
 20
226.1094636361716
 10
42.39625030836054
 20
228.3408743856175
 10
40.16483955891437
 20
228.9387790939136
  0
CIRCLE
  5
19E03
330
18
100
AcDbEntity
  8
0
100
AcDbCircle
 10
40.76274426721079
 20
226.7073683444674
 30
0.0
 40
4.75
  0
CIRCLE
  5
19E08
330
18
100
AcDbEntity
  8
0
100
AcDbCircle
 10
71.32266479078158
 20
217.004494451752
 30
0.0
 40
3.277999999999999
  0
CIRCLE
  5
19E09
330
18
100
AcDbEntity
  8
細線
 48
5.0
100
AcDbCircle
 10
71.32266479078158
 20
217.004494451752
 30
0.0
 40
4.0
  0
LWPOLYLINE
  5
19E0A
330
18
100
AcDbEntity
  8
細線
 48
5.0
100
AcDbPolyline
 90
        6
 70
     1
 43
0.0
 10
7.812133768655598
 20
341.9508872842945
 10
7.214229060359627
 20
344.1822980337407
 10
8.847735101510011
 20
345.815804074891
 10
11.07914585095676
 20
345.2178993665946
 10
11.67705055925193
 20
342.986488617148
 10
10.04354451810183
 20
341.3529825759983
  0
CIRCLE
  5
19E0B
330
18
100
AcDbEntity
  8
0
100
AcDbCircle
 10
9.445639809805811
 20
343.5843933254446
 30
0.0
 40
4.75
  0
CIRCLE
  5
19E0C
330
18
100
AcDbEntity
  8
細線
 48
5.0
100
AcDbCircle
 10
9.445639809805811
 20
343.5843933254446
 30
0.0
 40
4.25
  0
LWPOLYLINE
  5
19E11
330
18
100
AcDbEntity
  8
細線
 48
5.0
100
AcDbPolyline
 90
        6
 70
     1
 43
0.0
 10
38.53133351776444
 20
397.2293046833155
 10
39.12923822606103
 20
399.4607154327616
 10
41.36064897550773
 20
400.0586201410579
 10
42.99415501665805
 20
398.4251140999075
 10
42.39625030836061
 20
396.1937033504615
 10
40.16483955891447
 20
395.5957986421655
  0
CIRCLE
  5
19E12
330
18
100
AcDbEntity
  8
0
100
AcDbCircle
 10
40.76274426721101
 20
397.8272093916116
 30
0.0
 40
4.75
  0
CIRCLE
  5
19E13
330
18
100
AcDbEntity
  8
細線
 48
5.0
100
AcDbCircle
 10
40.76274426721101
 20
397.8272093916116
 30
0.0
 40
4.25
  0
CIRCLE
  5
19E14
330
18
100
AcDbEntity
  8
0
100
AcDbCircle
 10
71.3226647907843
 20
407.5300832843285
 30
0.0
 40
3.277999999999999
  0
CIRCLE
  5
19E15
330
18
100
AcDbEntity
  8
細線
 48
5.0
100
AcDbCircle
 10
71.3226647907843
 20
407.5300832843285
 30
0.0
 40
4.0
  0
LINE
  5
19E16
330
18
100
AcDbEntity
  8
中心線
100
AcDbLine
 10
75.60117194342706
 20
400.1194915154018
 30
0.0
 11
67.07130522931345
 21
414.8936540460368
 31
0.0
  0
CIRCLE
  5
19E19
330
18
100
AcDbEntity
  8
細線
 48
5.0
100
AcDbCircle
 10
181.3226647907846
 20
217.0044944517521
 30
0.0
 40
4.0
  0
CIRCLE
  5
19E1A
330
18
100
AcDbEntity
  8
0
100
AcDbCircle
 10
181.3226647907846
 20
217.0044944517521
 30
0.0
 40
3.277999999999999
  0
ARC
  5
19E1B
330
18
100
AcDbEntity
  8
0
100
AcDbCircle
 10
95.00556033337819
 20
429.144313849017
 30
0.0
 40
4.75
100
AcDbArc
 50
104.9999999999991
 51
284.9999999999991
  0
ARC
  5
19E1E
330
18
100
AcDbEntity
  8
0
100
AcDbCircle
 10
95.00556033337819
 20
429.144313849017
 30
0.0
 40
4.75
100
AcDbArc
 50
284.9999999999991
 51
104.9999999999991
  0
ARC
  5
19E1F
330
18
100
AcDbEntity
  8
細線
 48
5.0
100
AcDbCircle
 10
95.00556033337819
 20
429.144313849017
 30
0.0
 40
4.25
100
AcDbArc
 50
284.9999999999991
 51
104.9999999999991
  0
ARC
  5
19E20
330
18
100
AcDbEntity
  8
細線
 48
5.0
100
AcDbCircle
 10
95.00556033337819
 20
429.144313849017
 30
0.0
 40
4.25
100
AcDbArc
 50
104.9999999999991
 51
284.9999999999991
  0
LWPOLYLINE
  5
19E21
330
18
100
AcDbEntity
  8
細線
 48
5.0
100
AcDbPolyline
 90
        5
 70
     0
 43
0.0
 10
95.60346504167432
 20
426.9129030995708
 10
95.60346504167398
 20
426.9129030995705
 10
93.37205429222786
 20
427.510807807867
 10
92.7741495839316
 20
429.7422185573132
 10
94.40765562508193
 20
431.3757245984631
  0
LWPOLYLINE
  5
19E22
330
18
100
AcDbEntity
  8
細線
 48
5.0
100
AcDbPolyline
 90
        5
 70
     0
 43
0.0
 10
95.60346504167432
 20
426.9129030995708
 10
95.60346504167489
 20
426.9129030995708
 10
97.23697108282454
 20
428.546409140721
 10
96.63906637452829
 20
430.7778198901672
 10
94.40765562508193
 20
431.3757245984631
  0
CIRCLE
  5
19E23
330
18
100
AcDbEntity
  8
細線
 48
5.0
100
AcDbCircle
 10
126.3226647907831
 20
422.2672888680397
 30
0.0
 40
2.5
  0
CIRCLE
  5
19E24
330
18
100
AcDbEntity
  8
細線
 48
5.0
100
AcDbCircle
 10
126.3226647907831
 20
422.2672888680397
 30
0.0
 40
2.0
  0
CIRCLE
  5
19E25
330
18
100
AcDbEntity
  8
0
100
AcDbCircle
 10
157.6397692481882
 20
429.1443138490166
 30
0.0
 40
4.75
  0
LWPOLYLINE
  5
19E26
330
18
100
AcDbEntity
  8
細線
 48
5.0
100
AcDbPolyline
 90
        6
 70
     1
 43
0.0
 10
159.8711799976347
 20
429.7422185573131
 10
158.2376739564845
 20
431.3757245984628
 10
156.0062632070378
 20
430.7778198901664
 10
155.4083584987414
 20
428.5464091407196
 10
157.0418645398924
 20
426.9129030995705
 10
159.2732752893384
 20
427.5108078078668
  0
CIRCLE
  5
19E27
330
18
100
AcDbEntity
  8
細線
 48
5.0
100
AcDbCircle
 10
157.6397692481882
 20
429.1443138490166
 30
0.0
 40
4.25
  0
CIRCLE
  5
19E2A
330
18
100
AcDbEntity
  8
細線
 48
5.0
100
AcDbCircle
 10
181.322664790782
 20
407.5300832843285
 30
0.0
 40
4.0
  0
CIRCLE
  5
19E2B
330
18
100
AcDbEntity
  8
0
100
AcDbCircle
 10
181.322664790782
 20
407.5300832843285
 30
0.0
 40
3.277999999999999
  0
LINE
  5
19E2C
330
18
100
AcDbEntity
  8
中心線
100
AcDbLine
 10
177.0441576381397
 20
400.119491515402
 30
0.0
 11
185.5740243522526
 21
414.8936540460367
 31
0.0
  0
LINE
  5
19E3E
102
{ACAD_REACTORS
330
19F5C
102
}
330
18
100
AcDbEntity
  8
仮想線
 48
0.5
100
AcDbLine
 10
-87.97733516741265
 20
318.2378985682114
 30
0.0
 11
-87.67733516741248
 21
317.9378985682112
 31
0.0
  0
LINE
  5
19E3F
102
{ACAD_REACTORS
330
19F5C
102
}
330
18
100
AcDbEntity
  8
仮想線
 48
0.5
100
AcDbLine
 10
-82.97733516741265
 20
326.7878985682115
 30
0.0
 11
-82.97733516741265
 21
317.5878985682117
 31
0.0
  0
LINE
  5
19E40
102
{ACAD_REACTORS
330
19F5C
102
}
330
18
100
AcDbEntity
  8
仮想線
 48
0.5
100
AcDbLine
 10
-76.1773246359154
 20
332.3466784833203
 30
0.0
 11
-76.1773456989091
 21
292.3466784833203
 31
0.0
  0
LINE
  5
19E41
102
{ACAD_REACTORS
330
19F5C
102
}
330
18
100
AcDbEntity
  8
仮想線
 48
0.5
100
AcDbLine
 10
-80.67732463591585
 20
332.3466784833205
 30
0.0
 11
-80.67734569891001
 21
292.3466784833198
 31
0.0
  0
LINE
  5
19E42
102
{ACAD_REACTORS
330
19F5C
102
}
330
18
100
AcDbEntity
  8
仮想線
 48
0.5
100
AcDbLine
 10
-81.67733516741293
 20
322.1878985682112
 30
0.0
 11
-81.67733516741249
 21
317.1878985682112
 31
0.0
  0
LINE
  5
19E43
102
{ACAD_REACTORS
330
19F5C
102
}
330
18
100
AcDbEntity
  8
仮想線
 48
0.5
100
AcDbLine
 10
-82.97733516741265
 20
306.5966791678676
 30
0.0
 11
-87.67733516741248
 21
306.5966791678676
 31
0.0
  0
LINE
  5
19E44
102
{ACAD_REACTORS
330
19F5C
102
}
330
18
100
AcDbEntity
  8
仮想線
 48
0.5
100
AcDbLine
 10
-82.97733516741265
 20
317.9378985682112
 30
0.0
 11
-87.67733516741248
 21
317.9378985682112
 31
0.0
  0
LINE
  5
19E45
102
{ACAD_REACTORS
330
19F5C
102
}
330
18
100
AcDbEntity
  8
仮想線
 48
0.5
100
AcDbLine
 10
-82.97733516741265
 20
298.0966791678676
 30
0.0
 11
-87.67733516741293
 21
298.0966791678676
 31
0.0
  0
LINE
  5
19E46
102
{ACAD_REACTORS
330
19F5C
102
}
330
18
100
AcDbEntity
  8
中心線
 48
0.5
100
AcDbLine
 10
-70.40822288070308
 20
302.2672888680397
 30
0.0
 11
-91.43519362553957
 21
302.2672888680395
 31
0.0
  0
LINE
  5
19E47
102
{ACAD_REACTORS
330
19F5C
102
}
330
18
100
AcDbEntity
  8
仮想線
 48
0.5
100
AcDbLine
 10
-82.97733516741265
 20
297.7466791678672
 30
0.0
 11
-82.97733516741265
 21
306.9466791678671
 31
0.0
  0
LINE
  5
19E48
102
{ACAD_REACTORS
330
19F5C
102
}
330
18
100
AcDbEntity
  8
仮想線
 48
0.5
100
AcDbLine
 10
-81.67733516741293
 20
302.3466791678676
 30
0.0
 11
-81.67733516741249
 21
307.3466791678676
 31
0.0
  0
LINE
  5
19E49
102
{ACAD_REACTORS
330
19F5C
102
}
330
18
100
AcDbEntity
  8
仮想線
 48
0.5
100
AcDbLine
 10
-81.67733516741249
 20
297.3466791678676
 30
0.0
 11
-81.67733516741249
 21
302.3466791678676
 31
0.0
  0
LINE
  5
19E4A
102
{ACAD_REACTORS
330
19F5C
102
}
330
18
100
AcDbEntity
  8
仮想線
 48
0.5
100
AcDbLine
 10
-80.67734569891001
 20
292.3466784833198
 30
0.0
 11
-76.1773456989091
 21
292.3466784833203
 31
0.0
  0
LINE
  5
19E4B
102
{ACAD_REACTORS
330
19F5C
102
}
330
18
100
AcDbEntity
  8
仮想線
 48
0.5
100
AcDbLine
 10
-80.67733516741247
 20
297.3466791678676
 30
0.0
 11
-81.67733516741249
 21
297.3466791678676
 31
0.0
  0
LINE
  5
19E4C
102
{ACAD_REACTORS
330
19F5C
102
}
330
18
100
AcDbEntity
  8
仮想線
 48
0.5
100
AcDbLine
 10
-81.67733516741249
 20
297.7466791678672
 30
0.0
 11
-82.97733516741265
 21
297.7466791678672
 31
0.0
  0
LINE
  5
19E4D
102
{ACAD_REACTORS
330
19F5C
102
}
330
18
100
AcDbEntity
  8
仮想線
 48
0.5
100
AcDbLine
 10
-80.67733516741247
 20
307.3466791678676
 30
0.0
 11
-81.67733516741249
 21
307.3466791678676
 31
0.0
  0
LINE
  5
19E4E
102
{ACAD_REACTORS
330
19F5C
102
}
330
18
100
AcDbEntity
  8
仮想線
 48
0.5
100
AcDbLine
 10
-80.67733516741247
 20
317.1878985682112
 30
0.0
 11
-81.67733516741249
 21
317.1878985682112
 31
0.0
  0
LINE
  5
19E4F
102
{ACAD_REACTORS
330
19F5C
102
}
330
18
100
AcDbEntity
  8
仮想線
 48
0.5
100
AcDbLine
 10
-81.67733516741249
 20
317.5878985682113
 30
0.0
 11
-82.97733516741265
 21
317.5878985682117
 31
0.0
  0
LINE
  5
19E50
102
{ACAD_REACTORS
330
19F5C
102
}
330
18
100
AcDbEntity
  8
仮想線
 48
0.5
100
AcDbLine
 10
-81.67733516741249
 20
306.9466791678675
 30
0.0
 11
-82.97733516741265
 21
306.9466791678671
 31
0.0
  0
LINE
  5
19E51
102
{ACAD_REACTORS
330
19F5C
102
}
330
18
100
AcDbEntity
  8
仮想線
 48
0.5
100
AcDbLine
 10
-87.97733516741265
 20
306.2966791678674
 30
0.0
 11
-87.97733516741265
 21
298.3966791678678
 31
0.0
  0
LINE
  5
19E52
102
{ACAD_REACTORS
330
19F5C
102
}
330
18
100
AcDbEntity
  8
仮想線
 48
0.5
100
AcDbLine
 10
-87.67733516741293
 20
298.0966791678676
 30
0.0
 11
-87.97733516741265
 21
298.3966791678678
 31
0.0
  0
LINE
  5
19E53
102
{ACAD_REACTORS
330
19F5C
102
}
330
18
100
AcDbEntity
  8
仮想線
 48
0.5
100
AcDbLine
 10
-87.97733516741265
 20
306.2966791678674
 30
0.0
 11
-87.67733516741248
 21
306.5966791678676
 31
0.0
  0
LINE
  5
19E54
102
{ACAD_REACTORS
330
19F5C
102
}
330
18
100
AcDbEntity
  8
仮想線
 48
0.5
100
AcDbLine
 10
-82.97733516741265
 20
326.4378985682112
 30
0.0
 11
-87.67733516741293
 21
326.4378985682112
 31
0.0
  0
LINE
  5
19E55
102
{ACAD_REACTORS
330
19F5C
102
}
330
18
100
AcDbEntity
  8
中心線
 48
0.5
100
AcDbLine
 10
-70.40822288070308
 20
322.2672888680392
 30
0.0
 11
-91.43519362553957
 21
322.2672888680394
 31
0.0
  0
LINE
  5
19E56
102
{ACAD_REACTORS
330
19F5C
102
}
330
18
100
AcDbEntity
  8
仮想線
 48
0.5
100
AcDbLine
 10
-80.67733516741247
 20
327.1878985682111
 30
0.0
 11
-81.67733516741249
 21
327.1878985682111
 31
0.0
  0
LINE
  5
19E57
102
{ACAD_REACTORS
330
19F5C
102
}
330
18
100
AcDbEntity
  8
仮想線
 48
0.5
100
AcDbLine
 10
-81.67733516741249
 20
327.1878985682111
 30
0.0
 11
-81.67733516741249
 21
322.1878985682112
 31
0.0
  0
LINE
  5
19E58
102
{ACAD_REACTORS
330
19F5C
102
}
330
18
100
AcDbEntity
  8
仮想線
 48
0.5
100
AcDbLine
 10
-81.67733516741249
 20
326.7878985682115
 30
0.0
 11
-82.97733516741265
 21
326.7878985682115
 31
0.0
  0
LINE
  5
19E59
102
{ACAD_REACTORS
330
19F5C
102
}
330
18
100
AcDbEntity
  8
仮想線
 48
0.5
100
AcDbLine
 10
-76.1773246359154
 20
332.3466784833203
 30
0.0
 11
-80.67732463591585
 21
332.3466784833205
 31
0.0
  0
LINE
  5
19E5A
102
{ACAD_REACTORS
330
19F5C
102
}
330
18
100
AcDbEntity
  8
仮想線
 48
0.5
100
AcDbLine
 10
-87.67733516741293
 20
326.4378985682112
 30
0.0
 11
-87.97733516741265
 21
326.137898568211
 31
0.0
  0
LINE
  5
19E5B
102
{ACAD_REACTORS
330
19F5C
102
}
330
18
100
AcDbEntity
  8
仮想線
 48
0.5
100
AcDbLine
 10
-87.97733516741265
 20
318.2378985682114
 30
0.0
 11
-87.97733516741265
 21
326.137898568211
 31
0.0
  0
LINE
  5
19E6C
330
18
100
AcDbEntity
  8
中心線
100
AcDbLine
 10
227.7656504854953
 20
312.2672888680397
 30
0.0
 11
244.8253839137223
 21
312.2672888680394
 31
0.0
  0
LWPOLYLINE
  5
19E6D
330
18
100
AcDbEntity
  8
細線
 48
5.0
100
AcDbPolyline
 90
        6
 70
     1
 43
0.0
 10
244.8331958129107
 20
282.5836904517847
 10
245.4311005212067
 20
280.3522797023386
 10
243.7975944800563
 20
278.7187736611882
 10
241.5661837306096
 20
279.3166783694846
 10
240.9682790223145
 20
281.5480891189312
 10
242.6017850634644
 20
283.1815951600809
  0
CIRCLE
  5
19E6E
330
18
100
AcDbEntity
  8
0
100
AcDbCircle
 10
243.1996897717605
 20
280.9501844106347
 30
0.0
 40
4.75
  0
CIRCLE
  5
19E6F
330
18
100
AcDbEntity
  8
細線
 48
5.0
100
AcDbCircle
 10
243.1996897717605
 20
280.9501844106347
 30
0.0
 40
4.25
  0
CIRCLE
  5
19E71
330
18
100
AcDbEntity
  8
細線
 48
5.0
100
AcDbCircle
 10
211.8825853143553
 20
226.7073683444678
 30
0.0
 40
4.25
  0
CIRCLE
  5
19E72
330
18
100
AcDbEntity
  8
0
100
AcDbCircle
 10
211.8825853143553
 20
226.7073683444678
 30
0.0
 40
4.75
  0
LWPOLYLINE
  5
19E73
330
18
100
AcDbEntity
  8
細線
 48
5.0
100
AcDbPolyline
 90
        6
 70
     1
 43
0.0
 10
214.1139960638018
 20
227.3052730527638
 10
213.5160913555052
 20
225.0738623033178
 10
211.2846806060586
 20
224.4759575950214
 10
209.6511745649082
 20
226.1094636361717
 10
210.2490792732057
 20
228.3408743856178
 10
212.4804900226519
 20
228.9387790939138
  0
CIRCLE
  5
19E77
330
18
100
AcDbEntity
  8
細線
 48
5.0
100
AcDbCircle
 10
236.3226647907828
 20
312.2672888680412
 30
0.0
 40
4.0
  0
CIRCLE
  5
19E78
330
18
100
AcDbEntity
  8
0
100
AcDbCircle
 10
236.3226647907828
 20
312.2672888680412
 30
0.0
 40
3.277999999999999
  0
LWPOLYLINE
  5
19E7B
330
18
100
AcDbEntity
  8
細線
 48
5.0
100
AcDbPolyline
 90
        6
 70
     1
 43
0.0
 10
243.7975944800569
 20
345.8158040748912
 10
245.4311005212066
 20
344.1822980337411
 10
244.8331958129102
 20
341.9508872842945
 10
242.6017850634635
 20
341.3529825759979
 10
240.968279022314
 20
342.9864886171488
 10
241.5661837306105
 20
345.217899366595
  0
CIRCLE
  5
19E7C
330
18
100
AcDbEntity
  8
0
100
AcDbCircle
 10
243.1996897717604
 20
343.5843933254446
 30
0.0
 40
4.75
  0
CIRCLE
  5
19E7D
330
18
100
AcDbEntity
  8
細線
 48
5.0
100
AcDbCircle
 10
243.1996897717604
 20
343.5843933254446
 30
0.0
 40
4.25
  0
CIRCLE
  5
19E82
330
18
100
AcDbEntity
  8
0
100
AcDbCircle
 10
211.8825853143555
 20
397.8272093916119
 30
0.0
 40
4.75
  0
CIRCLE
  5
19E83
330
18
100
AcDbEntity
  8
細線
 48
5.0
100
AcDbCircle
 10
211.8825853143555
 20
397.8272093916119
 30
0.0
 40
4.25
  0
LWPOLYLINE
  5
19E86
330
18
100
AcDbEntity
  8
細線
 48
5.0
100
AcDbPolyline
 90
        6
 70
     1
 43
0.0
 10
214.113996063802
 20
397.2293046833157
 10
213.5160913555055
 20
399.4607154327617
 10
211.2846806060588
 20
400.058620141058
 10
209.6511745649085
 20
398.4251140999077
 10
210.2490792732057
 20
396.1937033504617
 10
212.480490022652
 20
395.5957986421657
  0
CIRCLE
  5
1A00B
330
18
100
AcDbEntity
  8
0
100
AcDbCircle
 10
126.3226647907831
 20
312.2672888680394
 30
0.0
 40
202.4999999999999
  0
CIRCLE
  5
1A00C
330
18
100
AcDbEntity
  8
0
100
AcDbCircle
 10
858.9862125977877
 20
312.2672888680409
 30
0.0
 40
203.2
  0
LINE
  5
1A08D
330
18
100
AcDbEntity
  8
中心線
 48
0.2
100
AcDbLine
 10
483.581723693588
 20
116.767288868039
 30
0.0
 11
472.4712886264038
 21
116.767288868039
 31
0.0
  0
LINE
  5
1A08E
330
18
100
AcDbEntity
  8
ｷｬｯﾌ_ﾎ_ﾙﾄ
100
AcDbLine
 10
472.0402552046055
 20
119.2172888680388
 30
0.0
 11
472.0402552046055
 21
114.3172888680392
 31
0.0
  0
LINE
  5
1A08F
330
18
100
AcDbEntity
  8
ｷｬｯﾌ_ﾎ_ﾙﾄ
100
AcDbLine
 10
472.3402552046057
 20
120.267288868039
 30
0.0
 11
472.3402552046057
 21
113.267288868039
 31
0.0
  0
LINE
  5
1A090
330
18
100
AcDbEntity
  8
ｷｬｯﾌ_ﾎ_ﾙﾄ
100
AcDbLine
 10
472.8402552046053
 20
120.267288868039
 30
0.0
 11
472.8402552046053
 21
113.267288868039
 31
0.0
  0
LINE
  5
1A091
330
18
100
AcDbEntity
  8
ｷｬｯﾌ_ﾎ_ﾙﾄ
100
AcDbLine
 10
472.3402552046057
 20
113.267288868039
 30
0.0
 11
472.8402552046053
 21
113.267288868039
 31
0.0
  0
LINE
  5
1A092
330
18
100
AcDbEntity
  8
ｷｬｯﾌ_ﾎ_ﾙﾄ
100
AcDbLine
 10
472.3402552046057
 20
113.267288868039
 30
0.0
 11
472.0402552046055
 21
114.3172888680392
 31
0.0
  0
LINE
  5
1A093
330
18
100
AcDbEntity
  8
中心線
 48
0.5
100
AcDbLine
 10
471.0402552046056
 20
116.767288868039
 30
0.0
 11
479.8402552046053
 21
116.767288868039
 31
0.0
  0
LINE
  5
1A094
330
18
100
AcDbEntity
  8
ｷｬｯﾌ_ﾎ_ﾙﾄ
100
AcDbLine
 10
472.3402552046057
 20
120.267288868039
 30
0.0
 11
472.8402552046053
 21
120.267288868039
 31
0.0
  0
LINE
  5
1A095
330
18
100
AcDbEntity
  8
ｷｬｯﾌ_ﾎ_ﾙﾄ
100
AcDbLine
 10
472.3402552046057
 20
120.267288868039
 30
0.0
 11
472.0402552046055
 21
119.2172888680388
 31
0.0
  0
LINE
  5
1A098
330
18
100
AcDbEntity
  8
ｷｬｯﾌ_ﾎ_ﾙﾄ
100
AcDbLine
 10
472.3402552046057
 20
511.267288868039
 30
0.0
 11
472.3402552046057
 21
504.267288868039
 31
0.0
  0
LINE
  5
1A099
330
18
100
AcDbEntity
  8
ｷｬｯﾌ_ﾎ_ﾙﾄ
100
AcDbLine
 10
472.8402552046053
 20
511.267288868039
 30
0.0
 11
472.8402552046053
 21
504.267288868039
 31
0.0
  0
LINE
  5
1A09A
330
18
100
AcDbEntity
  8
ｷｬｯﾌ_ﾎ_ﾙﾄ
100
AcDbLine
 10
472.3402552046057
 20
504.267288868039
 30
0.0
 11
472.0402552046055
 21
505.3172888680392
 31
0.0
  0
LINE
  5
1A09B
330
18
100
AcDbEntity
  8
ｷｬｯﾌ_ﾎ_ﾙﾄ
100
AcDbLine
 10
472.3402552046057
 20
504.267288868039
 30
0.0
 11
472.8402552046053
 21
504.267288868039
 31
0.0
  0
LINE
  5
1A09C
330
18
100
AcDbEntity
  8
中心線
 48
0.2
100
AcDbLine
 10
483.581723693588
 20
507.767288868039
 30
0.0
 11
472.4712886264038
 21
507.767288868039
 31
0.0
  0
LINE
  5
1A09D
330
18
100
AcDbEntity
  8
中心線
 48
0.5
100
AcDbLine
 10
471.0402552046056
 20
507.767288868039
 30
0.0
 11
479.8402552046053
 21
507.767288868039
 31
0.0
  0
LINE
  5
1A09E
330
18
100
AcDbEntity
  8
ｷｬｯﾌ_ﾎ_ﾙﾄ
100
AcDbLine
 10
472.0402552046055
 20
510.2172888680388
 30
0.0
 11
472.0402552046055
 21
505.3172888680392
 31
0.0
  0
LINE
  5
1A09F
330
18
100
AcDbEntity
  8
ｷｬｯﾌ_ﾎ_ﾙﾄ
100
AcDbLine
 10
472.3402552046057
 20
511.267288868039
 30
0.0
 11
472.8402552046053
 21
511.267288868039
 31
0.0
  0
LINE
  5
1A0A0
330
18
100
AcDbEntity
  8
ｷｬｯﾌ_ﾎ_ﾙﾄ
100
AcDbLine
 10
472.3402552046057
 20
511.267288868039
 30
0.0
 11
472.0402552046055
 21
510.2172888680388
 31
0.0
  0
ARC
  5
1A0EA
330
18
100
AcDbEntity
  8
中心線
100
AcDbCircle
 10
858.9862125977875
 20
312.2672888680388
 30
0.0
 40
90.0
100
AcDbArc
 50
302.3487135642597
 51
328.1490412644099
  0
CIRCLE
  5
1A0EB
330
18
100
AcDbEntity
  8
0
100
AcDbCircle
 10
922.6258214285778
 20
248.6276884373886
 30
0.0
 40
7.564530200546926
  0
LWPOLYLINE
  5
1A0EC
330
18
100
AcDbEntity
  8
0
100
AcDbPolyline
 90
        6
 70
     1
 43
0.0
 10
915.2919936845037
 20
255.9615161814619
 10
912.6076264231935
 20
245.943321176078
 10
919.9414541672677
 20
238.6094934320047
 10
929.9596491726516
 20
241.2938606933142
 10
932.6440164339617
 20
251.3120556986981
 10
925.310188689888
 20
258.6458834427725
  0
CIRCLE
  5
1A0ED
330
18
100
AcDbEntity
  8
0
100
AcDbCircle
 10
922.625822904577
 20
248.6276785612494
 30
0.0
 40
4.607147494343507
  0
CIRCLE
  5
1A0EE
330
18
100
AcDbEntity
  8
0
100
AcDbCircle
 10
922.625822904577
 20
248.6276785612494
 30
0.0
 40
2.400000000000199
  0
ARC
  5
1A2EF
330
18
100
AcDbEntity
  8
0
100
AcDbCircle
 10
534.0664622099438
 20
258.8265937478396
 30
0.0
 40
9.015903847971634
100
AcDbArc
 50
332.179561144159
 51
354.4603666814929
  0
LINE
  5
1A2F0
330
18
100
AcDbEntity
  8
0
100
AcDbLine
 10
542.0402587275127
 20
259.1276785612496
 30
0.0
 11
546.5402587275132
 21
253.8562499898218
 31
0.0
  0
LINE
  5
1A2F1
330
18
100
AcDbEntity
  8
0
100
AcDbLine
 10
543.0402587275128
 20
257.9562499898208
 30
0.0
 11
543.0402587275132
 21
239.2991071326784
 31
0.0
  0
LINE
  5
1A2F2
330
18
100
AcDbEntity
  8
0
100
AcDbLine
 10
533.0402587275131
 20
258.1276785612496
 30
0.0
 11
533.0402587275131
 21
239.1276785612496
 31
0.0
  0
LINE
  5
1A2F3
330
18
100
AcDbEntity
  8
0
100
AcDbLine
 10
536.0402587275132
 20
259.1276785612496
 30
0.0
 11
536.0402587275132
 21
238.1276785612496
 31
0.0
  0
LINE
  5
1A2F4
330
18
100
AcDbEntity
  8
0
100
AcDbLine
 10
531.0402587275132
 20
259.1276785612496
 30
0.0
 11
531.0402587275132
 21
238.1276785612496
 31
0.0
  0
LINE
  5
1A2F6
330
18
100
AcDbEntity
  8
0
100
AcDbLine
 10
536.0402587275132
 20
238.1276785612496
 30
0.0
 11
542.0402587275127
 21
238.1276785612496
 31
0.0
  0
LINE
  5
1A2F7
330
18
100
AcDbEntity
  8
0
100
AcDbLine
 10
542.0402587275132
 20
242.6365052027978
 30
0.0
 11
536.0402587275132
 21
242.6365052027978
 31
0.0
  0
LINE
  5
1A2F8
330
18
100
AcDbEntity
  8
0
100
AcDbLine
 10
542.0402587275132
 20
244.1555426062502
 30
0.0
 11
536.0402587275132
 21
244.1555426062502
 31
0.0
  0
LINE
  5
1A2F9
330
18
100
AcDbEntity
  8
0
100
AcDbLine
 10
536.0402587275132
 20
254.6188519197018
 30
0.0
 11
542.0402587275132
 21
254.6188519197018
 31
0.0
  0
LINE
  5
1A2FA
330
18
100
AcDbEntity
  8
0
100
AcDbLine
 10
536.0402587275132
 20
253.0998145162495
 30
0.0
 11
542.0402587275132
 21
253.0998145162495
 31
0.0
  0
LINE
  5
1A2FC
330
18
100
AcDbEntity
  8
0
100
AcDbLine
 10
531.0402587275132
 20
241.227678561249
 30
0.0
 11
533.0402587275131
 21
241.227678561249
 31
0.0
  0
LINE
  5
1A2FD
330
18
100
AcDbEntity
  8
0
100
AcDbLine
 10
531.0402587275132
 20
242.6365052027978
 30
0.0
 11
528.5402587275127
 21
242.6365052027978
 31
0.0
  0
LINE
  5
1A2FE
330
18
100
AcDbEntity
  8
0
100
AcDbLine
 10
528.5402587275127
 20
238.1276785612496
 30
0.0
 11
531.0402587275132
 21
238.1276785612496
 31
0.0
  0
LINE
  5
1A2FF
330
18
100
AcDbEntity
  8
0
100
AcDbLine
 10
533.0402587275131
 20
239.1276785612496
 30
0.0
 11
536.0402587275132
 21
239.1276785612496
 31
0.0
  0
LINE
  5
1A300
330
18
100
AcDbEntity
  8
0
100
AcDbLine
 10
531.0402587275132
 20
256.0276785612492
 30
0.0
 11
533.0402587275131
 21
256.0276785612492
 31
0.0
  0
LINE
  5
1A301
330
18
100
AcDbEntity
  8
0
100
AcDbLine
 10
528.5402587275127
 20
254.6188519197018
 30
0.0
 11
531.0402587275132
 21
254.6188519197018
 31
0.0
  0
LINE
  5
1A302
330
18
100
AcDbEntity
  8
0
100
AcDbLine
 10
531.0402587275132
 20
244.1555426062502
 30
0.0
 11
528.5402587275127
 21
244.1555426062502
 31
0.0
  0
LINE
  5
1A303
330
18
100
AcDbEntity
  8
0
100
AcDbLine
 10
528.5402587275127
 20
253.0998145162495
 30
0.0
 11
531.0402587275132
 21
253.0998145162495
 31
0.0
  0
LINE
  5
1A304
330
18
100
AcDbEntity
  8
0
100
AcDbLine
 10
546.5402587275132
 20
250.7276785612488
 30
0.0
 11
590.6451532640012
 21
250.7276785612498
 31
0.0
  0
LINE
  5
1A305
330
18
100
AcDbEntity
  8
0
100
AcDbLine
 10
546.5402587275137
 20
246.5276785612489
 30
0.0
 11
590.6451532640013
 21
246.5276785612501
 31
0.0
  0
LINE
  5
1A306
330
18
100
AcDbEntity
  8
0
100
AcDbLine
 10
542.0402587275132
 20
244.1555426062502
 30
0.0
 11
542.0402587275132
 21
242.6365052027978
 31
0.0
  0
LINE
  5
1A307
330
18
100
AcDbEntity
  8
0
100
AcDbLine
 10
546.5402587275132
 20
253.8562499898218
 30
0.0
 11
546.5402587275132
 21
243.3991071326774
 31
0.0
  0
ARC
  5
1A308
330
18
100
AcDbEntity
  8
0
100
AcDbCircle
 10
534.0664622099438
 20
238.4287633746595
 30
0.0
 40
9.015903847971634
100
AcDbArc
 50
5.539633318507032
 51
27.82043885584092
  0
LINE
  5
1A309
330
18
100
AcDbEntity
  8
0
100
AcDbLine
 10
542.0402587275127
 20
238.1276785612496
 30
0.0
 11
546.5402587275132
 21
243.3991071326774
 31
0.0
  0
ARC
  5
1A30A
330
18
100
AcDbEntity
  8
0
100
AcDbCircle
 10
532.540258727513
 20
248.6276785612496
 30
0.0
 40
10.50000000000042
100
AcDbArc
 50
334.7912347032405
 51
25.20876529675951
  0
LINE
  5
1A30B
330
18
100
AcDbEntity
  8
0
100
AcDbLine
 10
542.0402587275132
 20
254.6188519197018
 30
0.0
 11
542.0402587275132
 21
253.0998145162495
 31
0.0
  0
LINE
  5
1A30C
330
18
100
AcDbEntity
  8
0
100
AcDbLine
 10
536.0402587275132
 20
259.1276785612496
 30
0.0
 11
542.0402587275132
 21
259.1276785612496
 31
0.0
  0
LINE
  5
1A30D
330
18
100
AcDbEntity
  8
0
100
AcDbLine
 10
528.5402587275127
 20
259.1276785612496
 30
0.0
 11
531.0402587275132
 21
259.1276785612496
 31
0.0
  0
LINE
  5
1A30E
330
18
100
AcDbEntity
  8
0
100
AcDbLine
 10
533.0402587275131
 20
258.1276785612496
 30
0.0
 11
536.0402587275132
 21
258.1276785612496
 31
0.0
  0
ARC
  5
1A30F
330
18
100
AcDbEntity
  8
0
100
AcDbCircle
 10
590.6451532640017
 20
228.6276785612501
 30
0.0
 40
22.1
100
AcDbArc
 50
0.0
 51
90.0
  0
ARC
  5
1A310
330
18
100
AcDbEntity
  8
0
100
AcDbCircle
 10
590.6451532640017
 20
228.6276785612501
 30
0.0
 40
17.9
100
AcDbArc
 50
0.0
 51
90.0
  0
LINE
  5
1A358
330
18
100
AcDbEntity
  8
0
100
AcDbLine
 10
528.5402587275127
 20
259.1276785612496
 30
0.0
 11
528.5402587275127
 21
238.1276785612496
 31
0.0
  0
LINE
  5
1A37E
330
18
100
AcDbEntity
  8
中心線
100
AcDbLine
 10
858.9862125977886
 20
312.267288868039
 30
0.0
 11
940.3211701037696
 21
230.9323313620564
 31
0.0
  0
CIRCLE
  5
1A3C1
330
18
100
AcDbEntity
  8
0
100
AcDbCircle
 10
808.3870892802449
 20
501.1057879075519
 30
0.0
 40
4.0
  0
CIRCLE
  5
1A3C2
330
18
100
AcDbEntity
  8
細線
 48
5.0
100
AcDbCircle
 10
808.3870892802449
 20
501.1057879075519
 30
0.0
 40
3.5
  0
LWPOLYLINE
  5
1A3C3
330
18
100
AcDbEntity
  8
細線
 48
5.0
100
AcDbPolyline
 90
        6
 70
     1
 43
0.0
 10
806.7140566743264
 20
501.5540756432198
 10
807.9388015445783
 20
502.7788205134708
 10
809.611834150497
 20
502.3305327778044
 10
810.0601218861644
 20
500.6575001718855
 10
808.8353770159127
 20
499.4327553016336
 10
807.1623444099936
 20
499.8810430373003
  0
LWPOLYLINE
  5
1A3C4
330
18
100
AcDbEntity
  8
細線
 48
5.0
100
AcDbPolyline
 90
        6
 70
     1
 43
0.0
 10
719.0738042698987
 20
450.0583768543434
 10
719.522092005566
 20
451.7314094602613
 10
721.1951246114844
 20
452.1796971959284
 10
722.4198694817369
 20
450.9549523256766
 10
721.9715817460701
 20
449.281919719758
 10
720.2985491401512
 20
448.8336319840909
  0
CIRCLE
  5
1A3C5
330
18
100
AcDbEntity
  8
細線
 48
5.0
100
AcDbCircle
 10
720.7468368758178
 20
450.5066645900092
 30
0.0
 40
3.5
  0
CIRCLE
  5
1A3C6
330
18
100
AcDbEntity
  8
0
100
AcDbCircle
 10
720.7468368758178
 20
450.5066645900092
 30
0.0
 40
4.0
  0
LWPOLYLINE
  5
1A3C7
330
18
100
AcDbEntity
  8
細線
 48
5.0
100
AcDbPolyline
 90
        6
 70
     1
 43
0.0
 10
668.9229686880221
 20
361.6416673153307
 10
668.474680952356
 20
363.3146999212491
 10
669.6994258226075
 20
364.5394447915011
 10
671.3724584285266
 20
364.0911570558347
 10
671.8207461641935
 20
362.418124449916
 10
670.5960012939417
 20
361.1933795796637
  0
CIRCLE
  5
1A3C8
330
18
100
AcDbEntity
  8
細線
 48
5.0
100
AcDbCircle
 10
670.147713558275
 20
362.8664121855817
 30
0.0
 40
3.5
  0
CIRCLE
  5
1A3C9
330
18
100
AcDbEntity
  8
0
100
AcDbCircle
 10
670.147713558275
 20
362.8664121855817
 30
0.0
 40
4.0
  0
LWPOLYLINE
  5
1A3CA
330
18
100
AcDbEntity
  8
細線
 48
5.0
100
AcDbPolyline
 90
        6
 70
     1
 43
0.0
 10
669.6994258226069
 20
259.9951329445778
 10
668.4746809523559
 20
261.2198778148297
 10
668.9229686880223
 20
262.8929104207482
 10
670.5960012939413
 20
263.3411981564157
 10
671.8207461641931
 20
262.1164532861639
 10
671.3724584285264
 20
260.4434206802449
  0
CIRCLE
  5
1A3CB
330
18
100
AcDbEntity
  8
細線
 48
5.0
100
AcDbCircle
 10
670.1477135582747
 20
261.6681655504965
 30
0.0
 40
3.5
  0
CIRCLE
  5
1A3CC
330
18
100
AcDbEntity
  8
0
100
AcDbCircle
 10
670.1477135582747
 20
261.6681655504965
 30
0.0
 40
4.0
  0
LWPOLYLINE
  5
1A3CD
330
18
100
AcDbEntity
  8
細線
 48
5.0
100
AcDbPolyline
 90
        6
 70
     1
 43
0.0
 10
721.1951246114835
 20
172.3548805401501
 10
719.5220920055655
 20
172.8031682758173
 10
719.0738042698983
 20
174.4762008817358
 10
720.29854914015
 20
175.7009457519883
 10
721.9715817460687
 20
175.2526580163214
 10
722.419869481736
 20
173.5796254104026
  0
CIRCLE
  5
1A3CE
330
18
100
AcDbEntity
  8
細線
 48
5.0
100
AcDbCircle
 10
720.7468368758176
 20
174.0279131460695
 30
0.0
 40
3.5
  0
CIRCLE
  5
1A3CF
330
18
100
AcDbEntity
  8
0
100
AcDbCircle
 10
720.7468368758176
 20
174.0279131460695
 30
0.0
 40
4.0
  0
LWPOLYLINE
  5
1A3D0
330
18
100
AcDbEntity
  8
細線
 48
5.0
100
AcDbPolyline
 90
        6
 70
     1
 43
0.0
 10
809.611834150496
 20
122.2040449582735
 10
807.9388015445776
 20
121.7557572226074
 10
806.7140566743255
 20
122.9805020928589
 10
807.162344409992
 20
124.6535346987781
 10
808.8353770159107
 20
125.1018224344449
 10
810.060121886163
 20
123.877077564193
  0
CIRCLE
  5
1A3D1
330
18
100
AcDbEntity
  8
細線
 48
5.0
100
AcDbCircle
 10
808.3870892802448
 20
123.4287898285262
 30
0.0
 40
3.5
  0
CIRCLE
  5
1A3D2
330
18
100
AcDbEntity
  8
0
100
AcDbCircle
 10
808.3870892802448
 20
123.4287898285262
 30
0.0
 40
4.0
  0
LWPOLYLINE
  5
1A3D3
330
18
100
AcDbEntity
  8
細線
 48
5.0
100
AcDbPolyline
 90
        6
 70
     1
 43
0.0
 10
911.258368521249
 20
122.9805020928582
 10
910.0336236509971
 20
121.7557572226072
 10
908.3605910450783
 20
122.2040449582736
 10
907.9123033094109
 20
123.8770775641925
 10
909.1370481796628
 20
125.1018224344443
 10
910.8100807855818
 20
124.6535346987777
  0
CIRCLE
  5
1A3D4
330
18
100
AcDbEntity
  8
細線
 48
5.0
100
AcDbCircle
 10
909.5853359153302
 20
123.4287898285261
 30
0.0
 40
3.5
  0
CIRCLE
  5
1A3D5
330
18
100
AcDbEntity
  8
0
100
AcDbCircle
 10
909.5853359153302
 20
123.4287898285261
 30
0.0
 40
4.0
  0
LWPOLYLINE
  5
1A3D6
330
18
100
AcDbEntity
  8
細線
 48
5.0
100
AcDbPolyline
 90
        6
 70
     1
 43
0.0
 10
998.8986209256768
 20
174.4762008817347
 10
998.4503331900095
 20
172.8031682758166
 10
996.7773005840911
 20
172.3548805401495
 10
995.5525557138384
 20
173.5796254104012
 10
996.0008434495053
 20
175.2526580163199
 10
997.6738760554244
 20
175.700945751987
  0
CIRCLE
  5
1A3D7
330
18
100
AcDbEntity
  8
細線
 48
5.0
100
AcDbCircle
 10
997.2255883197579
 20
174.0279131460689
 30
0.0
 40
3.5
  0
CIRCLE
  5
1A3D8
330
18
100
AcDbEntity
  8
0
100
AcDbCircle
 10
997.2255883197579
 20
174.0279131460689
 30
0.0
 40
4.0
  0
LWPOLYLINE
  5
1A3D9
330
18
100
AcDbEntity
  8
細線
 48
5.0
100
AcDbPolyline
 90
        6
 70
     1
 43
0.0
 10
1049.049456507553
 20
262.8929104207472
 10
1049.497744243219
 20
261.2198778148289
 10
1048.272999372968
 20
259.995132944577
 10
1046.599966767048
 20
260.4434206802434
 10
1046.151679031381
 20
262.116453286162
 10
1047.376423901633
 20
263.3411981564143
  0
CIRCLE
  5
1A3DA
330
18
100
AcDbEntity
  8
細線
 48
5.0
100
AcDbCircle
 10
1047.8247116373
 20
261.668165550496
 30
0.0
 40
3.5
  0
CIRCLE
  5
1A3DB
330
18
100
AcDbEntity
  8
0
100
AcDbCircle
 10
1047.8247116373
 20
261.668165550496
 30
0.0
 40
4.0
  0
LWPOLYLINE
  5
1A3DC
330
18
100
AcDbEntity
  8
細線
 48
5.0
100
AcDbPolyline
 90
        6
 70
     1
 43
0.0
 10
1048.272999372968
 20
364.5394447915001
 10
1049.497744243219
 20
363.3146999212482
 10
1049.049456507553
 20
361.6416673153296
 10
1047.376423901634
 20
361.1933795796621
 10
1046.151679031382
 20
362.418124449914
 10
1046.599966767048
 20
364.091157055833
  0
CIRCLE
  5
1A3DD
330
18
100
AcDbEntity
  8
細線
 48
5.0
100
AcDbCircle
 10
1047.8247116373
 20
362.8664121855815
 30
0.0
 40
3.5
  0
CIRCLE
  5
1A3DE
330
18
100
AcDbEntity
  8
0
100
AcDbCircle
 10
1047.8247116373
 20
362.8664121855815
 30
0.0
 40
4.0
  0
LWPOLYLINE
  5
1A3DF
330
18
100
AcDbEntity
  8
細線
 48
5.0
100
AcDbPolyline
 90
        6
 70
     1
 43
0.0
 10
996.7773005840919
 20
452.1796971959282
 10
998.4503331900098
 20
451.7314094602608
 10
998.8986209256772
 20
450.0583768543424
 10
997.6738760554255
 20
448.8336319840899
 10
996.0008434495067
 20
449.2819197197567
 10
995.5525557138395
 20
450.9549523256757
  0
CIRCLE
  5
1A3E0
330
18
100
AcDbEntity
  8
細線
 48
5.0
100
AcDbCircle
 10
997.2255883197579
 20
450.506664590009
 30
0.0
 40
3.5
  0
CIRCLE
  5
1A3E1
330
18
100
AcDbEntity
  8
0
100
AcDbCircle
 10
997.2255883197579
 20
450.506664590009
 30
0.0
 40
4.0
  0
LWPOLYLINE
  5
1A3E2
330
18
100
AcDbEntity
  8
細線
 48
5.0
100
AcDbPolyline
 90
        6
 70
     1
 43
0.0
 10
908.3605910450794
 20
502.3305327778046
 10
910.0336236509976
 20
502.7788205134706
 10
911.2583685212497
 20
501.5540756432192
 10
910.8100807855832
 20
499.8810430373
 10
909.1370481796646
 20
499.4327553016331
 10
907.9123033094123
 20
500.657500171885
  0
CIRCLE
  5
1A3E3
330
18
100
AcDbEntity
  8
細線
 48
5.0
100
AcDbCircle
 10
909.5853359153307
 20
501.1057879075518
 30
0.0
 40
3.5
  0
CIRCLE
  5
1A3E4
330
18
100
AcDbEntity
  8
0
100
AcDbCircle
 10
909.5853359153307
 20
501.1057879075518
 30
0.0
 40
4.0
  0
CIRCLE
  5
1A4E4
330
18
100
AcDbEntity
  8
細線
100
AcDbCircle
 10
126.3226647907871
 20
507.7672888680383
 30
0.0
 40
3.5
  0
ARC
  5
1A4E5
330
18
100
AcDbEntity
  8
細線
100
AcDbCircle
 10
127.2579722268743
 20
508.3072888680383
 30
0.0
 40
0.5
100
AcDbArc
 50
162.3463876628237
 51
257.6536123371752
  0
ARC
  5
1A4E6
330
18
100
AcDbEntity
  8
細線
100
AcDbCircle
 10
127.2579722268743
 20
507.2272888680383
 30
0.0
 40
0.5
100
AcDbArc
 50
102.3463876628234
 51
197.6536123371758
  0
CIRCLE
  5
1A4E7
330
18
100
AcDbEntity
  8
細線
100
AcDbCircle
 10
126.3226647907871
 20
507.7672888680383
 30
0.0
 40
0.8299999999999998
  0
ARC
  5
1A4E8
330
18
100
AcDbEntity
  8
細線
100
AcDbCircle
 10
125.3873573546999
 20
507.2272888680383
 30
0.0
 40
0.5
100
AcDbArc
 50
342.3463876628238
 51
77.65361233717524
  0
ARC
  5
1A4E9
330
18
100
AcDbEntity
  8
細線
100
AcDbCircle
 10
125.3873573547
 20
508.3072888680383
 30
0.0
 40
0.5
100
AcDbArc
 50
282.3463876628235
 51
17.65361233717577
  0
ARC
  5
1A4EA
330
18
100
AcDbEntity
  8
細線
100
AcDbCircle
 10
126.3226647907871
 20
508.8472888680382
 30
0.0
 40
0.5
100
AcDbArc
 50
222.3463876628241
 51
317.6536123371754
  0
ARC
  5
1A4EB
330
18
100
AcDbEntity
  8
細線
100
AcDbCircle
 10
126.3226647907871
 20
506.6872888680382
 30
0.0
 40
0.5
100
AcDbArc
 50
42.34638766282414
 51
137.6536123371754
  0
ARC
  5
1A524
330
18
100
AcDbEntity
  8
細線
100
AcDbCircle
 10
-11.15303560750123
 20
449.7429892663301
 30
0.0
 40
0.5
100
AcDbArc
 50
87.34638766282413
 51
182.6536123371754
  0
ARC
  5
1A525
330
18
100
AcDbEntity
  8
細線
100
AcDbCircle
 10
-12.68038625486428
 20
451.2703399136931
 30
0.0
 40
0.5
100
AcDbArc
 50
267.3463876628241
 51
2.653612337175399
  0
ARC
  5
1A526
330
18
100
AcDbEntity
  8
細線
100
AcDbCircle
 10
-12.959910823575
 20
450.2271400213008
 30
0.0
 40
0.5
100
AcDbArc
 50
327.3463876628235
 51
62.65361233717577
  0
ARC
  5
1A527
330
18
100
AcDbEntity
  8
細線
100
AcDbCircle
 10
-12.19623549989353
 20
449.4634646976195
 30
0.0
 40
0.5
100
AcDbArc
 50
27.34638766282385
 51
122.6536123371752
  0
CIRCLE
  5
1A528
330
18
100
AcDbEntity
  8
細線
100
AcDbCircle
 10
-11.91671093118282
 20
450.5066645900115
 30
0.0
 40
0.8299999999999998
  0
ARC
  5
1A529
330
18
100
AcDbEntity
  8
細線
100
AcDbCircle
 10
-10.87351103879063
 20
450.7861891587224
 30
0.0
 40
0.5
100
AcDbArc
 50
147.3463876628234
 51
242.6536123371757
  0
ARC
  5
1A52A
330
18
100
AcDbEntity
  8
細線
100
AcDbCircle
 10
-11.6371863624721
 20
451.5498644824039
 30
0.0
 40
0.5
100
AcDbArc
 50
207.3463876628238
 51
302.6536123371752
  0
CIRCLE
  5
1A52B
330
18
100
AcDbEntity
  8
細線
100
AcDbCircle
 10
-11.91671093118282
 20
450.5066645900115
 30
0.0
 40
3.5
  0
ARC
  5
1A52C
330
18
100
AcDbEntity
  8
細線
100
AcDbCircle
 10
-68.09733520921509
 20
312.267288868044
 30
0.0
 40
0.5
100
AcDbArc
 50
132.3463876628241
 51
227.6536123371754
  0
ARC
  5
1A52D
330
18
100
AcDbEntity
  8
細線
100
AcDbCircle
 10
-70.25733520921517
 20
312.267288868044
 30
0.0
 40
0.5
100
AcDbArc
 50
312.3463876628241
 51
47.6536123371754
  0
ARC
  5
1A52E
330
18
100
AcDbEntity
  8
細線
100
AcDbCircle
 10
-69.71733520921509
 20
311.3319814319568
 30
0.0
 40
0.5
100
AcDbArc
 50
12.3463876628235
 51
107.6536123371757
  0
ARC
  5
1A52F
330
18
100
AcDbEntity
  8
細線
100
AcDbCircle
 10
-68.63733520921517
 20
311.3319814319568
 30
0.0
 40
0.5
100
AcDbArc
 50
72.34638766282386
 51
167.6536123371752
  0
CIRCLE
  5
1A530
330
18
100
AcDbEntity
  8
細線
100
AcDbCircle
 10
-69.17733520921513
 20
312.267288868044
 30
0.0
 40
0.8299999999999998
  0
ARC
  5
1A531
330
18
100
AcDbEntity
  8
細線
100
AcDbCircle
 10
-68.63733520921517
 20
313.2025963041312
 30
0.0
 40
0.5
100
AcDbArc
 50
192.3463876628234
 51
287.6536123371757
  0
ARC
  5
1A532
330
18
100
AcDbEntity
  8
細線
100
AcDbCircle
 10
-69.71733520921521
 20
313.2025963041312
 30
0.0
 40
0.5
100
AcDbArc
 50
252.3463876628238
 51
347.6536123371752
  0
CIRCLE
  5
1A533
330
18
100
AcDbEntity
  8
細線
100
AcDbCircle
 10
-69.17733520921513
 20
312.267288868044
 30
0.0
 40
3.5
  0
ARC
  5
1A534
330
18
100
AcDbEntity
  8
細線
100
AcDbCircle
 10
-11.15303560750703
 20
174.7915884697555
 30
0.0
 40
0.5
100
AcDbArc
 50
177.3463876628241
 51
272.6536123371753
  0
ARC
  5
1A535
330
18
100
AcDbEntity
  8
細線
100
AcDbCircle
 10
-12.68038625487008
 20
173.2642378223926
 30
0.0
 40
0.5
100
AcDbArc
 50
357.3463876628241
 51
92.65361233717532
  0
ARC
  5
1A536
330
18
100
AcDbEntity
  8
細線
100
AcDbCircle
 10
-11.6371863624779
 20
172.9847132536819
 30
0.0
 40
0.5
100
AcDbArc
 50
57.34638766282343
 51
152.6536123371757
  0
ARC
  5
1A537
330
18
100
AcDbEntity
  8
細線
100
AcDbCircle
 10
-10.87351103879643
 20
173.7483885773632
 30
0.0
 40
0.5
100
AcDbArc
 50
117.3463876628237
 51
212.6536123371752
  0
CIRCLE
  5
1A538
330
18
100
AcDbEntity
  8
細線
100
AcDbCircle
 10
-11.91671093118861
 20
174.027913146074
 30
0.0
 40
0.8299999999999998
  0
ARC
  5
1A539
330
18
100
AcDbEntity
  8
細線
100
AcDbCircle
 10
-12.19623549989933
 20
175.0711130384662
 30
0.0
 40
0.5
100
AcDbArc
 50
237.3463876628234
 51
332.6536123371758
  0
ARC
  5
1A53A
330
18
100
AcDbEntity
  8
細線
100
AcDbCircle
 10
-12.9599108235808
 20
174.3074377147847
 30
0.0
 40
0.5
100
AcDbArc
 50
297.3463876628238
 51
32.65361233717521
  0
CIRCLE
  5
1A53B
330
18
100
AcDbEntity
  8
細線
100
AcDbCircle
 10
-11.91671093118861
 20
174.027913146074
 30
0.0
 40
3.5
  0
ARC
  5
1A53C
330
18
100
AcDbEntity
  8
細線
100
AcDbCircle
 10
126.322664790779
 20
117.8472888680416
 30
0.0
 40
0.5
100
AcDbArc
 50
222.346387662824
 51
317.6536123371754
  0
ARC
  5
1A53D
330
18
100
AcDbEntity
  8
細線
100
AcDbCircle
 10
126.322664790779
 20
115.6872888680416
 30
0.0
 40
0.5
100
AcDbArc
 50
42.34638766282412
 51
137.6536123371754
  0
ARC
  5
1A53E
330
18
100
AcDbEntity
  8
細線
100
AcDbCircle
 10
127.2579722268662
 20
116.2272888680416
 30
0.0
 40
0.5
100
AcDbArc
 50
102.3463876628235
 51
197.6536123371757
  0
ARC
  5
1A53F
330
18
100
AcDbEntity
  8
細線
100
AcDbCircle
 10
127.2579722268662
 20
117.3072888680416
 30
0.0
 40
0.5
100
AcDbArc
 50
162.3463876628238
 51
257.6536123371752
  0
CIRCLE
  5
1A540
330
18
100
AcDbEntity
  8
細線
100
AcDbCircle
 10
126.322664790779
 20
116.7672888680416
 30
0.0
 40
0.8299999999999998
  0
ARC
  5
1A541
330
18
100
AcDbEntity
  8
細線
100
AcDbCircle
 10
125.3873573546918
 20
117.3072888680416
 30
0.0
 40
0.5
100
AcDbArc
 50
282.3463876628234
 51
17.65361233717574
  0
ARC
  5
1A542
330
18
100
AcDbEntity
  8
細線
100
AcDbCircle
 10
125.3873573546918
 20
116.2272888680416
 30
0.0
 40
0.5
100
AcDbArc
 50
342.3463876628237
 51
77.65361233717529
  0
CIRCLE
  5
1A543
330
18
100
AcDbEntity
  8
細線
100
AcDbCircle
 10
126.322664790779
 20
116.7672888680416
 30
0.0
 40
3.5
  0
ARC
  5
1A544
330
18
100
AcDbEntity
  8
細線
100
AcDbCircle
 10
263.7983651890675
 20
174.7915884697498
 30
0.0
 40
0.5
100
AcDbArc
 50
267.3463876628241
 51
2.65361233717538
  0
ARC
  5
1A545
330
18
100
AcDbEntity
  8
細線
100
AcDbCircle
 10
265.3257158364305
 20
173.2642378223868
 30
0.0
 40
0.5
100
AcDbArc
 50
87.34638766282413
 51
182.6536123371754
  0
ARC
  5
1A546
330
18
100
AcDbEntity
  8
細線
100
AcDbCircle
 10
265.6052404051412
 20
174.307437714779
 30
0.0
 40
0.5
100
AcDbArc
 50
147.3463876628234
 51
242.6536123371757
  0
ARC
  5
1A547
330
18
100
AcDbEntity
  8
細線
100
AcDbCircle
 10
264.8415650814598
 20
175.0711130384605
 30
0.0
 40
0.5
100
AcDbArc
 50
207.3463876628238
 51
302.6536123371752
  0
CIRCLE
  5
1A548
330
18
100
AcDbEntity
  8
細線
100
AcDbCircle
 10
264.5620405127491
 20
174.0279131460682
 30
0.0
 40
0.8299999999999998
  0
ARC
  5
1A549
330
18
100
AcDbEntity
  8
細線
100
AcDbCircle
 10
263.5188406203569
 20
173.7483885773575
 30
0.0
 40
0.5
100
AcDbArc
 50
327.3463876628234
 51
62.65361233717577
  0
ARC
  5
1A54A
330
18
100
AcDbEntity
  8
細線
100
AcDbCircle
 10
264.2825159440383
 20
172.9847132536761
 30
0.0
 40
0.5
100
AcDbArc
 50
27.34638766282377
 51
122.6536123371752
  0
CIRCLE
  5
1A54B
330
18
100
AcDbEntity
  8
細線
100
AcDbCircle
 10
264.5620405127491
 20
174.0279131460682
 30
0.0
 40
3.5
  0
ARC
  5
1A54C
330
18
100
AcDbEntity
  8
細線
100
AcDbCircle
 10
320.7426647907814
 20
312.2672888680358
 30
0.0
 40
0.5
100
AcDbArc
 50
312.3463876628241
 51
47.65361233717533
  0
ARC
  5
1A54D
330
18
100
AcDbEntity
  8
細線
100
AcDbCircle
 10
322.9026647907814
 20
312.2672888680358
 30
0.0
 40
0.5
100
AcDbArc
 50
132.346387662824
 51
227.6536123371753
  0
ARC
  5
1A54E
330
18
100
AcDbEntity
  8
細線
100
AcDbCircle
 10
322.3626647907814
 20
313.2025963041229
 30
0.0
 40
0.5
100
AcDbArc
 50
192.3463876628234
 51
287.6536123371756
  0
ARC
  5
1A54F
330
18
100
AcDbEntity
  8
細線
100
AcDbCircle
 10
321.2826647907815
 20
313.202596304123
 30
0.0
 40
0.5
100
AcDbArc
 50
252.3463876628238
 51
347.6536123371751
  0
CIRCLE
  5
1A550
330
18
100
AcDbEntity
  8
細線
100
AcDbCircle
 10
321.8226647907814
 20
312.2672888680358
 30
0.0
 40
0.8299999999999998
  0
ARC
  5
1A551
330
18
100
AcDbEntity
  8
細線
100
AcDbCircle
 10
321.2826647907815
 20
311.3319814319486
 30
0.0
 40
0.5
100
AcDbArc
 50
12.3463876628234
 51
107.6536123371757
  0
ARC
  5
1A552
330
18
100
AcDbEntity
  8
細線
100
AcDbCircle
 10
322.3626647907814
 20
311.3319814319486
 30
0.0
 40
0.5
100
AcDbArc
 50
72.34638766282373
 51
167.6536123371752
  0
CIRCLE
  5
1A553
330
18
100
AcDbEntity
  8
細線
100
AcDbCircle
 10
321.8226647907814
 20
312.2672888680358
 30
0.0
 40
3.5
  0
ARC
  5
1A554
102
{ACAD_REACTORS
330
1AB93
102
}
330
18
100
AcDbEntity
  8
細線
100
AcDbCircle
 10
263.7983651890734
 20
449.7429892663244
 30
0.0
 40
0.5
100
AcDbArc
 50
357.346387662824
 51
92.65361233717534
  0
ARC
  5
1A555
102
{ACAD_REACTORS
330
1AB93
102
}
330
18
100
AcDbEntity
  8
細線
100
AcDbCircle
 10
265.3257158364364
 20
451.2703399136873
 30
0.0
 40
0.5
100
AcDbArc
 50
177.346387662824
 51
272.6536123371753
  0
ARC
  5
1A556
102
{ACAD_REACTORS
330
1AB93
102
}
330
18
100
AcDbEntity
  8
細線
100
AcDbCircle
 10
264.2825159440441
 20
451.549864482398
 30
0.0
 40
0.5
100
AcDbArc
 50
237.3463876628234
 51
332.6536123371756
  0
ARC
  5
1A557
102
{ACAD_REACTORS
330
1AB93
102
}
330
18
100
AcDbEntity
  8
細線
100
AcDbCircle
 10
263.5188406203627
 20
450.7861891587166
 30
0.0
 40
0.5
100
AcDbArc
 50
297.3463876628238
 51
32.65361233717518
  0
CIRCLE
  5
1A558
102
{ACAD_REACTORS
330
1AB93
102
}
330
18
100
AcDbEntity
  8
細線
100
AcDbCircle
 10
264.5620405127549
 20
450.5066645900059
 30
0.0
 40
0.8299999999999998
  0
ARC
  5
1A559
102
{ACAD_REACTORS
330
1AB93
102
}
330
18
100
AcDbEntity
  8
細線
100
AcDbCircle
 10
264.8415650814656
 20
449.4634646976137
 30
0.0
 40
0.5
100
AcDbArc
 50
57.34638766282341
 51
152.6536123371757
  0
ARC
  5
1A55A
102
{ACAD_REACTORS
330
1AB93
102
}
330
18
100
AcDbEntity
  8
細線
100
AcDbCircle
 10
265.6052404051471
 20
450.2271400212952
 30
0.0
 40
0.5
100
AcDbArc
 50
117.3463876628237
 51
212.6536123371752
  0
CIRCLE
  5
1A55B
102
{ACAD_REACTORS
330
1AB93
102
}
330
18
100
AcDbEntity
  8
細線
100
AcDbCircle
 10
264.5620405127549
 20
450.5066645900059
 30
0.0
 40
3.5
  0
CIRCLE
  5
1A55C
330
18
100
AcDbEntity
  8
細線
 48
5.0
100
AcDbCircle
 10
88.70044902495965
 20
415.633477154489
 30
0.0
 40
2.5
  0
CIRCLE
  5
1A55D
330
18
100
AcDbEntity
  8
細線
 48
5.0
100
AcDbCircle
 10
88.70044902495965
 20
415.633477154489
 30
0.0
 40
2.0
  0
CIRCLE
  5
1A55E
330
18
100
AcDbEntity
  8
細線
 48
5.0
100
AcDbCircle
 10
55.61602772526419
 20
396.532177611126
 30
0.0
 40
2.5
  0
CIRCLE
  5
1A55F
330
18
100
AcDbEntity
  8
細線
 48
5.0
100
AcDbCircle
 10
55.61602772526419
 20
396.532177611126
 30
0.0
 40
2.0
  0
CIRCLE
  5
1A560
330
18
100
AcDbEntity
  8
細線
 48
5.0
100
AcDbCircle
 10
31.05987037449574
 20
367.2672888680378
 30
0.0
 40
2.5
  0
CIRCLE
  5
1A561
330
18
100
AcDbEntity
  8
細線
 48
5.0
100
AcDbCircle
 10
31.05987037449574
 20
367.2672888680378
 30
0.0
 40
2.0
  0
CIRCLE
  5
1A562
330
18
100
AcDbEntity
  8
細線
 48
5.0
100
AcDbCircle
 10
17.9938119594417
 20
331.3685884114
 30
0.0
 40
2.5
  0
CIRCLE
  5
1A563
330
18
100
AcDbEntity
  8
細線
 48
5.0
100
AcDbCircle
 10
17.9938119594417
 20
331.3685884114
 30
0.0
 40
2.0
  0
CIRCLE
  5
1A564
330
18
100
AcDbEntity
  8
細線
 48
5.0
100
AcDbCircle
 10
17.99381195944238
 20
293.1659893246751
 30
0.0
 40
2.5
  0
CIRCLE
  5
1A565
330
18
100
AcDbEntity
  8
細線
 48
5.0
100
AcDbCircle
 10
17.99381195944238
 20
293.1659893246751
 30
0.0
 40
2.0
  0
CIRCLE
  5
1A566
330
18
100
AcDbEntity
  8
細線
 48
5.0
100
AcDbCircle
 10
31.05987037449779
 20
257.2672888680378
 30
0.0
 40
2.5
  0
CIRCLE
  5
1A567
330
18
100
AcDbEntity
  8
細線
 48
5.0
100
AcDbCircle
 10
31.05987037449779
 20
257.2672888680378
 30
0.0
 40
2.0
  0
CIRCLE
  5
1A568
330
18
100
AcDbEntity
  8
細線
 48
5.0
100
AcDbCircle
 10
55.61602772526703
 20
228.0024001249505
 30
0.0
 40
2.5
  0
CIRCLE
  5
1A569
330
18
100
AcDbEntity
  8
細線
 48
5.0
100
AcDbCircle
 10
55.61602772526703
 20
228.0024001249505
 30
0.0
 40
2.0
  0
CIRCLE
  5
1A56A
330
18
100
AcDbEntity
  8
細線
 48
5.0
100
AcDbCircle
 10
88.7004490249633
 20
208.9011005815888
 30
0.0
 40
2.5
  0
CIRCLE
  5
1A56B
330
18
100
AcDbEntity
  8
細線
 48
5.0
100
AcDbCircle
 10
88.7004490249633
 20
208.9011005815888
 30
0.0
 40
2.0
  0
CIRCLE
  5
1A56C
330
18
100
AcDbEntity
  8
細線
 48
5.0
100
AcDbCircle
 10
126.322664790787
 20
202.2672888680392
 30
0.0
 40
2.5
  0
CIRCLE
  5
1A56D
330
18
100
AcDbEntity
  8
細線
 48
5.0
100
AcDbCircle
 10
126.322664790787
 20
202.2672888680392
 30
0.0
 40
2.0
  0
CIRCLE
  5
1A56E
330
18
100
AcDbEntity
  8
細線
 48
5.0
100
AcDbCircle
 10
163.9448805566105
 20
208.90110058159
 30
0.0
 40
2.5
  0
CIRCLE
  5
1A56F
330
18
100
AcDbEntity
  8
細線
 48
5.0
100
AcDbCircle
 10
163.9448805566105
 20
208.90110058159
 30
0.0
 40
2.0
  0
CIRCLE
  5
1A570
330
18
100
AcDbEntity
  8
細線
 48
5.0
100
AcDbCircle
 10
197.029301856306
 20
228.002400124953
 30
0.0
 40
2.5
  0
CIRCLE
  5
1A571
330
18
100
AcDbEntity
  8
細線
 48
5.0
100
AcDbCircle
 10
197.029301856306
 20
228.002400124953
 30
0.0
 40
2.0
  0
CIRCLE
  5
1A572
330
18
100
AcDbEntity
  8
細線
 48
5.0
100
AcDbCircle
 10
221.5854592070745
 20
257.2672888680409
 30
0.0
 40
2.5
  0
CIRCLE
  5
1A573
330
18
100
AcDbEntity
  8
細線
 48
5.0
100
AcDbCircle
 10
221.5854592070745
 20
257.2672888680409
 30
0.0
 40
2.0
  0
CIRCLE
  5
1A574
330
18
100
AcDbEntity
  8
細線
 48
5.0
100
AcDbCircle
 10
234.6515176221285
 20
293.1659893246789
 30
0.0
 40
2.5
  0
CIRCLE
  5
1A575
330
18
100
AcDbEntity
  8
細線
 48
5.0
100
AcDbCircle
 10
234.6515176221285
 20
293.1659893246789
 30
0.0
 40
2.0
  0
CIRCLE
  5
1A576
330
18
100
AcDbEntity
  8
細線
 48
5.0
100
AcDbCircle
 10
234.6515176221278
 20
331.3685884114036
 30
0.0
 40
2.5
  0
CIRCLE
  5
1A577
330
18
100
AcDbEntity
  8
細線
 48
5.0
100
AcDbCircle
 10
234.6515176221278
 20
331.3685884114036
 30
0.0
 40
2.0
  0
CIRCLE
  5
1A578
330
18
100
AcDbEntity
  8
細線
 48
5.0
100
AcDbCircle
 10
221.5854592070726
 20
367.2672888680411
 30
0.0
 40
2.5
  0
CIRCLE
  5
1A579
330
18
100
AcDbEntity
  8
細線
 48
5.0
100
AcDbCircle
 10
221.5854592070726
 20
367.2672888680411
 30
0.0
 40
2.0
  0
CIRCLE
  5
1A57A
330
18
100
AcDbEntity
  8
細線
 48
5.0
100
AcDbCircle
 10
197.0293018563032
 20
396.5321776111283
 30
0.0
 40
2.5
  0
CIRCLE
  5
1A57B
330
18
100
AcDbEntity
  8
細線
 48
5.0
100
AcDbCircle
 10
197.0293018563032
 20
396.5321776111283
 30
0.0
 40
2.0
  0
CIRCLE
  5
1A57C
330
18
100
AcDbEntity
  8
細線
 48
5.0
100
AcDbCircle
 10
163.9448805566071
 20
415.6334771544901
 30
0.0
 40
2.5
  0
CIRCLE
  5
1A57D
330
18
100
AcDbEntity
  8
細線
 48
5.0
100
AcDbCircle
 10
163.9448805566071
 20
415.6334771544901
 30
0.0
 40
2.0
  0
LINE
  5
1A6AC
330
18
100
AcDbEntity
  8
0
100
AcDbLine
 10
501.7402552046059
 20
515.4672888680389
 30
0.0
 11
501.7402552046056
 21
312.267288868039
 31
0.0
  0
LINE
  5
1A6AD
330
18
100
AcDbEntity
  8
0
100
AcDbLine
 10
495.7402552046058
 20
514.7672888680388
 30
0.0
 11
495.7402552046056
 21
312.267288868039
 31
0.0
  0
LINE
  5
1A6AF
330
18
100
AcDbEntity
  8
0
100
AcDbLine
 10
495.7402552046058
 20
512.267288868039
 30
0.0
 11
501.7402552046059
 21
512.267288868039
 31
0.0
  0
LINE
  5
1A6B0
330
18
100
AcDbEntity
  8
0
100
AcDbLine
 10
501.7402552046059
 20
515.4672888680388
 30
0.0
 11
525.0402552046059
 21
515.4672888680392
 31
0.0
  0
LINE
  5
1A6B1
330
18
100
AcDbEntity
  8
0
100
AcDbLine
 10
495.7402552046055
 20
112.2672888680393
 30
0.0
 11
501.7402552046055
 21
112.2672888680392
 31
0.0
  0
LINE
  5
1A6B2
330
18
100
AcDbEntity
  8
0
100
AcDbLine
 10
501.7402552046055
 20
109.0672888680392
 30
0.0
 11
525.0402552046059
 21
109.0672888680389
 31
0.0
  0
CIRCLE
  5
1A6C6
330
18
100
AcDbEntity
  8
0
100
AcDbCircle
 10
858.9862125977891
 20
312.2672888680388
 30
0.0
 40
34.39999999999999
  0
CIRCLE
  5
1A900
330
18
100
AcDbEntity
  8
0
100
AcDbCircle
 10
146.3226647907841
 20
346.9083050194165
 30
0.0
 40
3.25
  0
LWPOLYLINE
  5
1A901
330
18
100
AcDbEntity
  8
細線
100
AcDbPolyline
 90
        6
 70
     1
 43
0.0
 10
147.0443553579957
 20
345.6583065975556
 10
145.6009796863679
 20
345.6583034436098
 10
144.8792891191567
 20
346.9083018654696
 10
145.6009742235727
 20
348.1583034412774
 10
147.0443498952004
 20
348.1583065952234
 10
147.7660404624119
 20
346.908308173363
  0
CIRCLE
  5
1A902
330
18
100
AcDbEntity
  8
細線
100
AcDbCircle
 10
146.3226647907841
 20
346.9083050194165
 30
0.0
 40
2.74999999744107
  0
CIRCLE
  5
1A903
330
18
100
AcDbEntity
  8
0
100
AcDbCircle
 10
106.3226647907827
 20
346.9083050194167
 30
0.0
 40
3.25
  0
LWPOLYLINE
  5
1A904
330
18
100
AcDbEntity
  8
細線
100
AcDbPolyline
 90
        6
 70
     1
 43
0.0
 10
107.7660404624104
 20
346.9083081733632
 10
107.0443553579938
 20
345.6583065975562
 10
105.6009796863671
 20
345.6583034436095
 10
104.879289119155
 20
346.9083018654706
 10
105.6009742235715
 20
348.1583034412776
 10
107.0443498951988
 20
348.1583065952241
  0
CIRCLE
  5
1A905
330
18
100
AcDbEntity
  8
細線
100
AcDbCircle
 10
106.3226647907827
 20
346.9083050194167
 30
0.0
 40
2.74999999744107
  0
CIRCLE
  5
1A906
330
18
100
AcDbEntity
  8
0
100
AcDbCircle
 10
86.32266479078188
 20
312.2672888680382
 30
0.0
 40
3.25
  0
LWPOLYLINE
  5
1A907
330
18
100
AcDbEntity
  8
細線
100
AcDbPolyline
 90
        6
 70
     1
 43
0.0
 10
87.04434989519791
 20
313.5172904438454
 10
87.76604046240903
 20
312.2672920219843
 10
87.0443553579936
 20
311.0172904461778
 10
85.6009796863654
 20
311.017287292231
 10
84.87928911915417
 20
312.2672857140921
 10
85.60097422357006
 20
313.517287289899
  0
CIRCLE
  5
1A908
330
18
100
AcDbEntity
  8
細線
100
AcDbCircle
 10
86.32266479078188
 20
312.2672888680382
 30
0.0
 40
2.74999999744107
  0
CIRCLE
  5
1A909
330
18
100
AcDbEntity
  8
0
100
AcDbCircle
 10
106.3226647907822
 20
277.6262727166592
 30
0.0
 40
3.25
  0
LWPOLYLINE
  5
1A90A
330
18
100
AcDbEntity
  8
細線
100
AcDbPolyline
 90
        6
 70
     1
 43
0.0
 10
105.6009742235706
 20
278.8762711385201
 10
107.0443498951984
 20
278.8762742924659
 10
107.7660404624096
 20
277.6262758706061
 10
107.0443553579935
 20
276.3762742947983
 10
105.6009796863658
 20
276.3762711408523
 10
104.8792891191544
 20
277.6262695627127
  0
CIRCLE
  5
1A90B
330
18
100
AcDbEntity
  8
細線
100
AcDbCircle
 10
106.3226647907822
 20
277.6262727166592
 30
0.0
 40
2.74999999744107
  0
CIRCLE
  5
1A90C
330
18
100
AcDbEntity
  8
0
100
AcDbCircle
 10
146.3226647907835
 20
277.626272716659
 30
0.0
 40
3.25
  0
LWPOLYLINE
  5
1A90D
330
18
100
AcDbEntity
  8
細線
100
AcDbPolyline
 90
        6
 70
     1
 43
0.0
 10
144.8792891191558
 20
277.6262695627125
 10
145.6009742235725
 20
278.8762711385195
 10
147.0443498951992
 20
278.8762742924661
 10
147.7660404624113
 20
277.6262758706051
 10
147.0443553579948
 20
276.3762742947981
 10
145.6009796863675
 20
276.3762711408516
  0
CIRCLE
  5
1A90E
330
18
100
AcDbEntity
  8
細線
100
AcDbCircle
 10
146.3226647907835
 20
277.626272716659
 30
0.0
 40
2.74999999744107
  0
CIRCLE
  5
1A90F
330
18
100
AcDbEntity
  8
0
100
AcDbCircle
 10
166.3226647907846
 20
312.2672888680375
 30
0.0
 40
3.25
  0
LWPOLYLINE
  5
1A910
330
18
100
AcDbEntity
  8
細線
100
AcDbPolyline
 90
        6
 70
     1
 43
0.0
 10
165.6009796863684
 20
311.0172872922302
 10
164.8792891191573
 20
312.2672857140914
 10
165.6009742235728
 20
313.5172872898978
 10
167.0443498952009
 20
313.5172904438446
 10
167.7660404624122
 20
312.2672920219836
 10
167.0443553579963
 20
311.0172904461767
  0
CIRCLE
  5
1A911
330
18
100
AcDbEntity
  8
細線
100
AcDbCircle
 10
166.3226647907846
 20
312.2672888680375
 30
0.0
 40
2.74999999744107
  0
LINE
  5
1A97E
330
18
100
AcDbEntity
  8
0
100
AcDbLine
 10
495.7402552046056
 20
312.267288868039
 30
0.0
 11
495.7402552046055
 21
109.7672888680392
 31
0.0
  0
LINE
  5
1A97F
330
18
100
AcDbEntity
  8
0
100
AcDbLine
 10
501.7402552046056
 20
312.2672888680391
 30
0.0
 11
501.7402552046054
 21
109.0672888680392
 31
0.0
  0
CIRCLE
  5
1AB94
102
{ACAD_REACTORS
330
1AB9C
102
}
330
18
100
AcDbEntity
  8
細線
100
AcDbCircle
 10
763.7234181814997
 20
367.2672888680389
 30
0.0
 40
3.5
  0
ARC
  5
1AB95
102
{ACAD_REACTORS
330
1AB9C
102
}
330
18
100
AcDbEntity
  8
細線
100
AcDbCircle
 10
764.7666180738919
 20
366.9877642993282
 30
0.0
 40
0.5
100
AcDbArc
 50
117.3463876628237
 51
212.6536123371752
  0
ARC
  5
1AB96
102
{ACAD_REACTORS
330
1AB9C
102
}
330
18
100
AcDbEntity
  8
細線
100
AcDbCircle
 10
764.0029427502104
 20
366.2240889756467
 30
0.0
 40
0.5
100
AcDbArc
 50
57.34638766282341
 51
152.6536123371757
  0
CIRCLE
  5
1AB97
102
{ACAD_REACTORS
330
1AB9C
102
}
330
18
100
AcDbEntity
  8
細線
100
AcDbCircle
 10
763.7234181814997
 20
367.2672888680389
 30
0.0
 40
0.8299999999999998
  0
ARC
  5
1AB98
102
{ACAD_REACTORS
330
1AB9C
102
}
330
18
100
AcDbEntity
  8
細線
100
AcDbCircle
 10
762.6802182891075
 20
367.5468134367497
 30
0.0
 40
0.5
100
AcDbArc
 50
297.3463876628238
 51
32.65361233717518
  0
ARC
  5
1AB99
102
{ACAD_REACTORS
330
1AB9C
102
}
330
18
100
AcDbEntity
  8
細線
100
AcDbCircle
 10
763.443893612789
 20
368.3104887604311
 30
0.0
 40
0.5
100
AcDbArc
 50
237.3463876628234
 51
332.6536123371756
  0
ARC
  5
1AB9A
102
{ACAD_REACTORS
330
1AB9C
102
}
330
18
100
AcDbEntity
  8
細線
100
AcDbCircle
 10
764.4870935051812
 20
368.0309641917204
 30
0.0
 40
0.5
100
AcDbArc
 50
177.346387662824
 51
272.6536123371753
  0
ARC
  5
1AB9B
102
{ACAD_REACTORS
330
1AB9C
102
}
330
18
100
AcDbEntity
  8
細線
100
AcDbCircle
 10
762.9597428578181
 20
366.5036135443574
 30
0.0
 40
0.5
100
AcDbArc
 50
357.346387662824
 51
92.65361233717534
  0
CIRCLE
  5
1AB9D
102
{ACAD_REACTORS
330
1ABA5
102
}
330
18
100
AcDbEntity
  8
細線
100
AcDbCircle
 10
763.7234181814997
 20
257.2672888680389
 30
0.0
 40
3.5
  0
ARC
  5
1AB9E
102
{ACAD_REACTORS
330
1ABA5
102
}
330
18
100
AcDbEntity
  8
細線
100
AcDbCircle
 10
764.7666180738919
 20
256.9877642993282
 30
0.0
 40
0.5
100
AcDbArc
 50
117.3463876628237
 51
212.6536123371752
  0
ARC
  5
1AB9F
102
{ACAD_REACTORS
330
1ABA5
102
}
330
18
100
AcDbEntity
  8
細線
100
AcDbCircle
 10
764.0029427502104
 20
256.2240889756467
 30
0.0
 40
0.5
100
AcDbArc
 50
57.34638766282341
 51
152.6536123371757
  0
CIRCLE
  5
1ABA0
102
{ACAD_REACTORS
330
1ABA5
102
}
330
18
100
AcDbEntity
  8
細線
100
AcDbCircle
 10
763.7234181814997
 20
257.2672888680389
 30
0.0
 40
0.8299999999999998
  0
ARC
  5
1ABA1
102
{ACAD_REACTORS
330
1ABA5
102
}
330
18
100
AcDbEntity
  8
細線
100
AcDbCircle
 10
762.6802182891075
 20
257.5468134367496
 30
0.0
 40
0.5
100
AcDbArc
 50
297.3463876628238
 51
32.65361233717518
  0
ARC
  5
1ABA2
102
{ACAD_REACTORS
330
1ABA5
102
}
330
18
100
AcDbEntity
  8
細線
100
AcDbCircle
 10
763.443893612789
 20
258.3104887604311
 30
0.0
 40
0.5
100
AcDbArc
 50
237.3463876628234
 51
332.6536123371756
  0
ARC
  5
1ABA3
102
{ACAD_REACTORS
330
1ABA5
102
}
330
18
100
AcDbEntity
  8
細線
100
AcDbCircle
 10
764.4870935051812
 20
258.0309641917204
 30
0.0
 40
0.5
100
AcDbArc
 50
177.346387662824
 51
272.6536123371753
  0
ARC
  5
1ABA4
102
{ACAD_REACTORS
330
1ABA5
102
}
330
18
100
AcDbEntity
  8
細線
100
AcDbCircle
 10
762.9597428578181
 20
256.5036135443574
 30
0.0
 40
0.5
100
AcDbArc
 50
357.346387662824
 51
92.65361233717534
  0
CIRCLE
  5
1ABA6
102
{ACAD_REACTORS
330
1ABAE
102
}
330
18
100
AcDbEntity
  8
細線
100
AcDbCircle
 10
858.9862125977875
 20
202.2672888680389
 30
0.0
 40
3.5
  0
ARC
  5
1ABA7
102
{ACAD_REACTORS
330
1ABAE
102
}
330
18
100
AcDbEntity
  8
細線
100
AcDbCircle
 10
860.0294124901797
 20
201.9877642993281
 30
0.0
 40
0.5
100
AcDbArc
 50
117.3463876628237
 51
212.6536123371752
  0
ARC
  5
1ABA8
102
{ACAD_REACTORS
330
1ABAE
102
}
330
18
100
AcDbEntity
  8
細線
100
AcDbCircle
 10
859.2657371664982
 20
201.2240889756467
 30
0.0
 40
0.5
100
AcDbArc
 50
57.34638766282341
 51
152.6536123371757
  0
CIRCLE
  5
1ABA9
102
{ACAD_REACTORS
330
1ABAE
102
}
330
18
100
AcDbEntity
  8
細線
100
AcDbCircle
 10
858.9862125977875
 20
202.2672888680389
 30
0.0
 40
0.8299999999999998
  0
ARC
  5
1ABAA
102
{ACAD_REACTORS
330
1ABAE
102
}
330
18
100
AcDbEntity
  8
細線
100
AcDbCircle
 10
857.9430127053953
 20
202.5468134367496
 30
0.0
 40
0.5
100
AcDbArc
 50
297.3463876628238
 51
32.65361233717518
  0
ARC
  5
1ABAB
102
{ACAD_REACTORS
330
1ABAE
102
}
330
18
100
AcDbEntity
  8
細線
100
AcDbCircle
 10
858.7066880290768
 20
203.3104887604311
 30
0.0
 40
0.5
100
AcDbArc
 50
237.3463876628234
 51
332.6536123371756
  0
ARC
  5
1ABAC
102
{ACAD_REACTORS
330
1ABAE
102
}
330
18
100
AcDbEntity
  8
細線
100
AcDbCircle
 10
859.749887921469
 20
203.0309641917203
 30
0.0
 40
0.5
100
AcDbArc
 50
177.346387662824
 51
272.6536123371753
  0
ARC
  5
1ABAD
102
{ACAD_REACTORS
330
1ABAE
102
}
330
18
100
AcDbEntity
  8
細線
100
AcDbCircle
 10
858.2225372741058
 20
201.5036135443574
 30
0.0
 40
0.5
100
AcDbArc
 50
357.346387662824
 51
92.65361233717534
  0
CIRCLE
  5
1ABAF
102
{ACAD_REACTORS
330
1ABB7
102
}
330
18
100
AcDbEntity
  8
細線
100
AcDbCircle
 10
954.2490070140761
 20
257.2672888680389
 30
0.0
 40
3.5
  0
ARC
  5
1ABB0
102
{ACAD_REACTORS
330
1ABB7
102
}
330
18
100
AcDbEntity
  8
細線
100
AcDbCircle
 10
955.2922069064683
 20
256.9877642993282
 30
0.0
 40
0.5
100
AcDbArc
 50
117.3463876628237
 51
212.6536123371752
  0
ARC
  5
1ABB1
102
{ACAD_REACTORS
330
1ABB7
102
}
330
18
100
AcDbEntity
  8
細線
100
AcDbCircle
 10
954.5285315827868
 20
256.2240889756467
 30
0.0
 40
0.5
100
AcDbArc
 50
57.34638766282341
 51
152.6536123371757
  0
CIRCLE
  5
1ABB2
102
{ACAD_REACTORS
330
1ABB7
102
}
330
18
100
AcDbEntity
  8
細線
100
AcDbCircle
 10
954.2490070140761
 20
257.2672888680389
 30
0.0
 40
0.8299999999999998
  0
ARC
  5
1ABB3
102
{ACAD_REACTORS
330
1ABB7
102
}
330
18
100
AcDbEntity
  8
細線
100
AcDbCircle
 10
953.2058071216839
 20
257.5468134367496
 30
0.0
 40
0.5
100
AcDbArc
 50
297.3463876628238
 51
32.65361233717518
  0
ARC
  5
1ABB4
102
{ACAD_REACTORS
330
1ABB7
102
}
330
18
100
AcDbEntity
  8
細線
100
AcDbCircle
 10
953.9694824453654
 20
258.3104887604311
 30
0.0
 40
0.5
100
AcDbArc
 50
237.3463876628234
 51
332.6536123371756
  0
ARC
  5
1ABB5
102
{ACAD_REACTORS
330
1ABB7
102
}
330
18
100
AcDbEntity
  8
細線
100
AcDbCircle
 10
955.0126823377576
 20
258.0309641917204
 30
0.0
 40
0.5
100
AcDbArc
 50
177.346387662824
 51
272.6536123371753
  0
ARC
  5
1ABB6
102
{ACAD_REACTORS
330
1ABB7
102
}
330
18
100
AcDbEntity
  8
細線
100
AcDbCircle
 10
953.4853316903946
 20
256.5036135443574
 30
0.0
 40
0.5
100
AcDbArc
 50
357.346387662824
 51
92.65361233717534
  0
CIRCLE
  5
1ABB8
102
{ACAD_REACTORS
330
1ABC0
102
}
330
18
100
AcDbEntity
  8
細線
100
AcDbCircle
 10
954.2490070140761
 20
367.2672888680389
 30
0.0
 40
3.5
  0
ARC
  5
1ABB9
102
{ACAD_REACTORS
330
1ABC0
102
}
330
18
100
AcDbEntity
  8
細線
100
AcDbCircle
 10
955.2922069064683
 20
366.9877642993282
 30
0.0
 40
0.5
100
AcDbArc
 50
117.3463876628237
 51
212.6536123371752
  0
ARC
  5
1ABBA
102
{ACAD_REACTORS
330
1ABC0
102
}
330
18
100
AcDbEntity
  8
細線
100
AcDbCircle
 10
954.5285315827868
 20
366.2240889756467
 30
0.0
 40
0.5
100
AcDbArc
 50
57.34638766282341
 51
152.6536123371757
  0
CIRCLE
  5
1ABBB
102
{ACAD_REACTORS
330
1ABC0
102
}
330
18
100
AcDbEntity
  8
細線
100
AcDbCircle
 10
954.2490070140761
 20
367.2672888680389
 30
0.0
 40
0.8299999999999998
  0
ARC
  5
1ABBC
102
{ACAD_REACTORS
330
1ABC0
102
}
330
18
100
AcDbEntity
  8
細線
100
AcDbCircle
 10
953.2058071216839
 20
367.5468134367497
 30
0.0
 40
0.5
100
AcDbArc
 50
297.3463876628238
 51
32.65361233717518
  0
ARC
  5
1ABBD
102
{ACAD_REACTORS
330
1ABC0
102
}
330
18
100
AcDbEntity
  8
細線
100
AcDbCircle
 10
953.9694824453654
 20
368.3104887604311
 30
0.0
 40
0.5
100
AcDbArc
 50
237.3463876628234
 51
332.6536123371756
  0
ARC
  5
1ABBE
102
{ACAD_REACTORS
330
1ABC0
102
}
330
18
100
AcDbEntity
  8
細線
100
AcDbCircle
 10
955.0126823377576
 20
368.0309641917204
 30
0.0
 40
0.5
100
AcDbArc
 50
177.346387662824
 51
272.6536123371753
  0
ARC
  5
1ABBF
102
{ACAD_REACTORS
330
1ABC0
102
}
330
18
100
AcDbEntity
  8
細線
100
AcDbCircle
 10
953.4853316903946
 20
366.5036135443574
 30
0.0
 40
0.5
100
AcDbArc
 50
357.346387662824
 51
92.65361233717534
  0
CIRCLE
  5
1ABC1
102
{ACAD_REACTORS
330
1ABC9
102
}
330
18
100
AcDbEntity
  8
細線
100
AcDbCircle
 10
858.9862125977875
 20
422.2672888680389
 30
0.0
 40
3.5
  0
ARC
  5
1ABC2
102
{ACAD_REACTORS
330
1ABC9
102
}
330
18
100
AcDbEntity
  8
細線
100
AcDbCircle
 10
860.0294124901797
 20
421.9877642993282
 30
0.0
 40
0.5
100
AcDbArc
 50
117.3463876628237
 51
212.6536123371752
  0
ARC
  5
1ABC3
102
{ACAD_REACTORS
330
1ABC9
102
}
330
18
100
AcDbEntity
  8
細線
100
AcDbCircle
 10
859.2657371664982
 20
421.2240889756467
 30
0.0
 40
0.5
100
AcDbArc
 50
57.34638766282341
 51
152.6536123371757
  0
CIRCLE
  5
1ABC4
102
{ACAD_REACTORS
330
1ABC9
102
}
330
18
100
AcDbEntity
  8
細線
100
AcDbCircle
 10
858.9862125977875
 20
422.2672888680389
 30
0.0
 40
0.8299999999999998
  0
ARC
  5
1ABC5
102
{ACAD_REACTORS
330
1ABC9
102
}
330
18
100
AcDbEntity
  8
細線
100
AcDbCircle
 10
857.9430127053953
 20
422.5468134367497
 30
0.0
 40
0.5
100
AcDbArc
 50
297.3463876628238
 51
32.65361233717518
  0
ARC
  5
1ABC6
102
{ACAD_REACTORS
330
1ABC9
102
}
330
18
100
AcDbEntity
  8
細線
100
AcDbCircle
 10
858.7066880290768
 20
423.310488760431
 30
0.0
 40
0.5
100
AcDbArc
 50
237.3463876628234
 51
332.6536123371756
  0
ARC
  5
1ABC7
102
{ACAD_REACTORS
330
1ABC9
102
}
330
18
100
AcDbEntity
  8
細線
100
AcDbCircle
 10
859.749887921469
 20
423.0309641917203
 30
0.0
 40
0.5
100
AcDbArc
 50
177.346387662824
 51
272.6536123371753
  0
ARC
  5
1ABC8
102
{ACAD_REACTORS
330
1ABC9
102
}
330
18
100
AcDbEntity
  8
細線
100
AcDbCircle
 10
858.2225372741058
 20
421.5036135443574
 30
0.0
 40
0.5
100
AcDbArc
 50
357.346387662824
 51
92.65361233717534
  0
LINE
  5
1AC03
330
18
100
AcDbEntity
  8
0
100
AcDbLine
 10
598.4972793136201
 20
499.0797400145006
 30
0.0
 11
596.932137287647
 21
511.5233005365936
 31
0.0
  0
LINE
  5
1AC04
330
18
100
AcDbEntity
  8
0
100
AcDbLine
 10
598.2972185315509
 20
497.4891696966231
 30
0.0
 11
596.5321384782558
 21
511.5223245829106
 31
0.0
  0
LINE
  5
1AC05
330
18
100
AcDbEntity
  8
0
100
AcDbLine
 10
601.7095995656188
 20
489.626537571893
 30
0.0
 11
604.4630220166323
 21
511.5174448144955
 31
0.0
  0
LINE
  5
1AC06
330
18
100
AcDbEntity
  8
0
100
AcDbLine
 10
597.285566882313
 20
489.626537571893
 30
0.0
 11
594.5321444312994
 21
511.5174448144955
 31
0.0
  0
LINE
  5
1AC07
330
18
100
AcDbEntity
  8
0
100
AcDbLine
 10
599.3096067092713
 20
489.6323932939909
 30
0.0
 11
602.0630291602847
 21
511.5233005365936
 31
0.0
  0
LINE
  5
1AC08
330
18
100
AcDbEntity
  8
0
100
AcDbLine
 10
599.7096055186625
 20
489.6314173403079
 30
0.0
 11
602.4630279696761
 21
511.5223245829106
 31
0.0
  0
LINE
  5
1AC09
330
18
100
AcDbEntity
  8
0
100
AcDbLine
 10
597.309612662315
 20
489.637273062406
 30
0.0
 11
600.0630351133286
 21
511.5281803050087
 31
0.0
  0
LINE
  5
1AC0A
330
18
100
AcDbEntity
  8
0
100
AcDbLine
 10
599.6855597386605
 20
489.6323932939909
 30
0.0
 11
599.4975832239658
 21
491.1268884251147
 31
0.0
  0
LINE
  5
1AC0B
330
18
100
AcDbEntity
  8
0
100
AcDbLine
 10
595.9130392822601
 20
489.6315961428991
 30
0.0
 11
603.4130392786603
 21
489.6315961428991
 31
0.0
  0
LINE
  5
1AC0C
330
18
100
AcDbEntity
  8
0
100
AcDbLine
 10
600.6979479163808
 20
497.4891696966231
 30
0.0
 11
600.4978871343117
 21
499.0797400145006
 31
0.0
  0
LINE
  5
1AC0D
330
18
100
AcDbEntity
  8
0
100
AcDbLine
 10
604.6630453334894
 20
525.7316412443789
 30
0.0
 11
594.6630453334894
 21
525.7316412443699
 31
0.0
  0
LINE
  5
1AC0E
330
18
100
AcDbEntity
  8
0
100
AcDbLine
 10
605.6630392804598
 20
511.5315961429047
 30
0.0
 11
593.6630392804589
 21
511.5315961428936
 31
0.0
  0
LINE
  5
1AC0F
330
18
100
AcDbEntity
  8
0
100
AcDbLine
 10
592.2344739049149
 20
529.0344983872249
 30
0.0
 11
592.2344739049179
 21
525.7316412443677
 31
0.0
  0
LINE
  5
1AC10
330
18
100
AcDbEntity
  8
0
100
AcDbLine
 10
593.4001881906291
 20
529.1316412443693
 30
0.0
 11
593.4001881906322
 21
525.7316412443688
 31
0.0
  0
LINE
  5
1AC11
330
18
100
AcDbEntity
  8
0
100
AcDbLine
 10
591.263045333485
 20
530.491641244367
 30
0.0
 11
591.2630453334948
 21
519.2230698157954
 31
0.0
  0
LINE
  5
1AC12
330
18
100
AcDbEntity
  8
0
100
AcDbLine
 10
590.8453310477724
 20
528.6167841015094
 30
0.0
 11
590.8453310477817
 21
518.251641244367
 31
0.0
  0
LINE
  5
1AC13
330
18
100
AcDbEntity
  8
0
100
AcDbLine
 10
603.1880453334808
 20
535.2316412443781
 30
0.0
 11
603.188045333489
 21
525.7316412443777
 31
0.0
  0
LINE
  5
1AC14
330
18
100
AcDbEntity
  8
0
100
AcDbLine
 10
595.6380453334807
 20
535.2316412443713
 30
0.0
 11
595.6380453334893
 21
525.7316412443708
 31
0.0
  0
LINE
  5
1AC15
330
18
100
AcDbEntity
  8
0
100
AcDbLine
 10
599.088045333481
 20
535.2316412443744
 30
0.0
 11
599.0880453334896
 21
525.7316412443739
 31
0.0
  0
LINE
  5
1AC16
330
18
100
AcDbEntity
  8
0
100
AcDbLine
 10
599.7380453334805
 20
535.231641244375
 30
0.0
 11
599.7380453334892
 21
525.7316412443746
 31
0.0
  0
LINE
  5
1AC17
330
18
100
AcDbEntity
  8
0
100
AcDbLine
 10
594.6630453335012
 20
512.6315961428938
 30
0.0
 11
594.6630453334894
 21
525.7316412443699
 31
0.0
  0
LINE
  5
1AC18
330
18
100
AcDbEntity
  8
0
100
AcDbLine
 10
594.6630453335012
 20
512.6315961428938
 30
0.0
 11
593.663039280458
 21
512.631596142893
 31
0.0
  0
LINE
  5
1AC19
330
18
100
AcDbEntity
  8
0
100
AcDbLine
 10
593.6630392804589
 20
511.5315961428936
 30
0.0
 11
593.663039280458
 21
512.631596142893
 31
0.0
  0
LINE
  5
1AC1A
330
18
100
AcDbEntity
  8
0
100
AcDbLine
 10
599.4975832239658
 20
507.0325916038858
 30
0.0
 11
598.9321313346031
 21
511.5281803050087
 31
0.0
  0
LINE
  5
1AC1B
330
18
100
AcDbEntity
  8
0
100
AcDbLine
 10
594.1773310477769
 20
524.1190698157978
 30
0.0
 11
593.6766225474424
 21
524.1190698157978
 31
0.0
  0
ARC
  5
1AC1C
330
18
100
AcDbEntity
  8
0
100
AcDbCircle
 10
594.1773310477773
 20
523.6333555300838
 30
0.0
 40
0.4857142857142857
100
AcDbArc
 50
0.0000000000521102
 51
90.00000000003907
  0
ARC
  5
1AC1D
330
18
100
AcDbEntity
  8
0
100
AcDbCircle
 10
593.6766225474424
 20
523.6333555300838
 30
0.0
 40
0.4857142857142857
100
AcDbArc
 50
90.00000000003907
 51
170.0000000000474
  0
LINE
  5
1AC1E
330
18
100
AcDbEntity
  8
0
100
AcDbLine
 10
594.6630453334894
 20
525.7316412443699
 30
0.0
 11
590.845331047775
 21
525.7316412443665
 31
0.0
  0
LINE
  5
1AC1F
330
18
100
AcDbEntity
  8
0
100
AcDbLine
 10
591.2630453334948
 20
519.2230698157954
 30
0.0
 11
590.8453310477809
 21
519.223069815795
 31
0.0
  0
LINE
  5
1AC20
330
18
100
AcDbEntity
  8
0
100
AcDbLine
 10
592.2344739049245
 20
518.2516412443673
 30
0.0
 11
590.8453310477817
 21
518.2516412443665
 31
0.0
  0
LINE
  5
1AC21
330
18
100
AcDbEntity
  8
0
100
AcDbLine
 10
593.1982873531222
 20
523.7176989306643
 30
0.0
 11
592.2344739049245
 21
518.2516412443673
 31
0.0
  0
LINE
  5
1AC22
330
18
100
AcDbEntity
  8
0
100
AcDbLine
 10
599.088045333481
 20
535.2316412443744
 30
0.0
 11
595.6380453334807
 21
535.2316412443713
 31
0.0
  0
LINE
  5
1AC23
330
18
100
AcDbEntity
  8
0
100
AcDbLine
 10
593.4973310477698
 20
531.4630698157976
 30
0.0
 11
592.2344739049126
 21
531.4630698157965
 31
0.0
  0
LINE
  5
1AC24
330
18
100
AcDbEntity
  8
0
100
AcDbLine
 10
594.4687596192006
 20
529.034498387227
 30
0.0
 11
593.4001881906291
 21
529.1316412443693
 31
0.0
  0
LINE
  5
1AC25
330
18
100
AcDbEntity
  8
0
100
AcDbLine
 10
594.4687596191993
 20
530.49164124437
 30
0.0
 11
594.4687596192006
 21
529.0344983872274
 31
0.0
  0
LINE
  5
1AC26
330
18
100
AcDbEntity
  8
0
100
AcDbLine
 10
591.2630453334863
 20
529.034498387224
 30
0.0
 11
590.8453310477724
 21
528.6167841015094
 31
0.0
  0
LINE
  5
1AC27
330
18
100
AcDbEntity
  8
0
100
AcDbLine
 10
592.2344739049149
 20
529.0344983872249
 30
0.0
 11
591.2630453334863
 21
529.034498387224
 31
0.0
  0
LINE
  5
1AC28
330
18
100
AcDbEntity
  8
0
100
AcDbLine
 10
591.263045333485
 20
530.491641244367
 30
0.0
 11
592.2344739049126
 21
531.4630698157965
 31
0.0
  0
LINE
  5
1AC29
330
18
100
AcDbEntity
  8
0
100
AcDbLine
 10
593.4973310477698
 20
531.4630698157976
 30
0.0
 11
594.4687596191993
 21
530.49164124437
 31
0.0
  0
LINE
  5
1AC2A
330
18
100
AcDbEntity
  8
0
100
AcDbLine
 10
603.1880453334808
 20
535.2316412443781
 30
0.0
 11
599.7380453334805
 21
535.231641244375
 31
0.0
  0
LINE
  5
1AC2B
330
18
100
AcDbEntity
  8
0
100
AcDbLine
 10
604.6630453335012
 20
512.6315961429027
 30
0.0
 11
604.6630453334894
 21
525.7316412443789
 31
0.0
  0
LINE
  5
1AC2C
330
18
100
AcDbEntity
  8
0
100
AcDbLine
 10
605.6630392804589
 20
512.6315961429049
 30
0.0
 11
604.6630453335012
 21
512.6315961429043
 31
0.0
  0
LINE
  5
1AC2D
330
18
100
AcDbEntity
  8
0
100
AcDbLine
 10
605.6630392804598
 20
511.5315961429045
 30
0.0
 11
605.6630392804589
 21
512.6315961429039
 31
0.0
  0
LINE
  5
1ACA2
330
18
100
AcDbEntity
  8
0
100
AcDbLine
 10
598.3897152512552
 20
129.0055980022231
 30
0.0
 11
594.6052403654105
 21
106.6055980022235
 31
0.0
  0
LINE
  5
1ACA3
330
18
100
AcDbEntity
  8
0
100
AcDbLine
 10
599.6809252969171
 20
106.6055980022235
 30
0.0
 11
599.6809252969171
 21
129.0055980022231
 31
0.0
  0
LINE
  5
1ACA4
330
18
100
AcDbEntity
  8
0
100
AcDbLine
 10
600.9721353425791
 20
129.0055980022231
 30
0.0
 11
604.7566102284238
 21
106.6055980022235
 31
0.0
  0
LINE
  5
1ACA5
330
18
100
AcDbEntity
  8
0
100
AcDbLine
 10
606.4809313499597
 20
105.5055980022231
 30
0.0
 11
606.4809313499597
 21
92.40555290074842
 31
0.0
  0
LINE
  5
1ACA6
330
18
100
AcDbEntity
  8
0
100
AcDbLine
 10
592.8809313499603
 20
105.5055980022245
 30
0.0
 11
592.8809313499603
 21
92.40555290074842
 31
0.0
  0
LINE
  5
1ACA7
330
18
100
AcDbEntity
  8
0
100
AcDbLine
 10
590.4523599213887
 20
89.10269575789124
 30
0.0
 11
590.4523599213887
 21
92.40555290074842
 31
0.0
  0
LINE
  5
1ACA8
330
18
100
AcDbEntity
  8
0
100
AcDbLine
 10
591.6180742071031
 20
89.00555290074789
 30
0.0
 11
591.6180742071031
 21
92.40555290074842
 31
0.0
  0
LINE
  5
1ACA9
330
18
100
AcDbEntity
  8
0
100
AcDbLine
 10
589.0632170642459
 20
89.52041004360552
 30
0.0
 11
589.0632170642459
 21
99.88555290074799
 31
0.0
  0
LINE
  5
1ACAA
330
18
100
AcDbEntity
  8
0
100
AcDbLine
 10
589.4809313499601
 20
87.64555290074822
 30
0.0
 11
589.4809313499597
 21
98.91412432931993
 31
0.0
  0
LINE
  5
1ACAB
330
18
100
AcDbEntity
  8
0
100
AcDbLine
 10
593.8559313499601
 20
82.90555290074797
 30
0.0
 11
593.8559313499601
 21
92.40555290074842
 31
0.0
  0
LINE
  5
1ACAC
330
18
100
AcDbEntity
  8
0
100
AcDbLine
 10
602.05593134996
 20
82.90555290074797
 30
0.0
 11
602.05593134996
 21
92.40555290074842
 31
0.0
  0
LINE
  5
1ACAD
330
18
100
AcDbEntity
  8
0
100
AcDbLine
 10
601.4059313499603
 20
82.90555290074797
 30
0.0
 11
601.4059313499599
 21
92.40555290074842
 31
0.0
  0
LINE
  5
1ACAE
330
18
100
AcDbEntity
  8
0
100
AcDbLine
 10
597.9559313499601
 20
82.90555290074797
 30
0.0
 11
597.9559313499601
 21
92.40555290074842
 31
0.0
  0
LINE
  5
1ACAF
330
18
100
AcDbEntity
  8
0
100
AcDbLine
 10
597.3059313499605
 20
82.90555290074797
 30
0.0
 11
597.3059313499605
 21
92.40555290074842
 31
0.0
  0
LINE
  5
1ACB0
330
18
100
AcDbEntity
  8
0
100
AcDbLine
 10
605.5059313499603
 20
82.90555290074797
 30
0.0
 11
605.5059313499603
 21
92.40555290074842
 31
0.0
  0
LINE
  5
1ACB1
330
18
100
AcDbEntity
  8
0
100
AcDbLine
 10
597.3059313499605
 20
82.90555290074797
 30
0.0
 11
593.8559313499601
 21
82.90555290074797
 31
0.0
  0
LINE
  5
1ACB2
330
18
100
AcDbEntity
  8
0
100
AcDbLine
 10
591.7152170642459
 20
86.67412432931968
 30
0.0
 11
590.4523599213887
 21
86.67412432931968
 31
0.0
  0
LINE
  5
1ACB3
330
18
100
AcDbEntity
  8
0
100
AcDbLine
 10
589.4809313499601
 20
89.10269575789124
 30
0.0
 11
589.0632170642459
 21
89.52041004360552
 31
0.0
  0
LINE
  5
1ACB4
330
18
100
AcDbEntity
  8
0
100
AcDbLine
 10
590.4523599213887
 20
89.10269575789124
 30
0.0
 11
589.4809313499601
 21
89.10269575789124
 31
0.0
  0
LINE
  5
1ACB5
330
18
100
AcDbEntity
  8
0
100
AcDbLine
 10
589.4809313499601
 20
87.64555290074822
 30
0.0
 11
590.4523599213887
 21
86.67412432931968
 31
0.0
  0
LINE
  5
1ACB6
330
18
100
AcDbEntity
  8
0
100
AcDbLine
 10
592.6866456356744
 20
87.64555290074822
 30
0.0
 11
592.6866456356744
 21
89.10269575789078
 31
0.0
  0
LINE
  5
1ACB7
330
18
100
AcDbEntity
  8
0
100
AcDbLine
 10
592.6866456356744
 20
89.10269575789124
 30
0.0
 11
591.6180742071031
 21
89.00555290074789
 31
0.0
  0
LINE
  5
1ACB8
330
18
100
AcDbEntity
  8
0
100
AcDbLine
 10
591.7152170642459
 20
86.67412432931968
 30
0.0
 11
592.6866456356744
 21
87.64555290074822
 31
0.0
  0
LINE
  5
1ACB9
330
18
100
AcDbEntity
  8
0
100
AcDbLine
 10
601.4059313499603
 20
82.90555290074797
 30
0.0
 11
597.9559313499601
 21
82.90555290074797
 31
0.0
  0
LINE
  5
1ACBA
330
18
100
AcDbEntity
  8
0
100
AcDbLine
 10
605.5059313499603
 20
82.90555290074843
 30
0.0
 11
602.0559313499595
 21
82.90555290074797
 31
0.0
  0
LINE
  5
1ACBB
330
18
100
AcDbEntity
  8
0
100
AcDbLine
 10
606.4809313499597
 20
92.40555290074842
 30
0.0
 11
592.8809313499603
 21
92.40555290074842
 31
0.0
  0
LINE
  5
1ACBC
330
18
100
AcDbEntity
  8
0
100
AcDbLine
 10
589.4809313499597
 20
98.91412432931993
 30
0.0
 11
589.0632170642459
 21
98.91412432931993
 31
0.0
  0
LINE
  5
1ACBD
330
18
100
AcDbEntity
  8
0
100
AcDbLine
 10
590.4523599213887
 20
99.88555290074891
 30
0.0
 11
589.0632170642459
 21
99.88555290074845
 31
0.0
  0
LINE
  5
1ACBE
330
18
100
AcDbEntity
  8
0
100
AcDbLine
 10
592.8809313499603
 20
92.40555290074842
 30
0.0
 11
589.0632170642459
 21
92.40555290074842
 31
0.0
  0
ARC
  5
1ACBF
330
18
100
AcDbEntity
  8
0
100
AcDbCircle
 10
592.3952170642462
 20
94.5038386150342
 30
0.0
 40
0.4857142857142857
100
AcDbArc
 50
270.000000000013
 51
0.0
  0
ARC
  5
1ACC0
330
18
100
AcDbEntity
  8
0
100
AcDbCircle
 10
591.8945085639113
 20
94.50383861503373
 30
0.0
 40
0.4857142857142857
100
AcDbArc
 50
190.0000000000046
 51
270.000000000013
  0
LINE
  5
1ACC1
330
18
100
AcDbEntity
  8
0
100
AcDbLine
 10
592.3952170642462
 20
94.01812432932018
 30
0.0
 11
591.8945085639117
 21
94.01812432931974
 31
0.0
  0
LINE
  5
1ACC2
330
18
100
AcDbEntity
  8
0
100
AcDbLine
 10
591.4161733695912
 20
94.41949521445275
 30
0.0
 11
590.4523599213887
 21
99.88555290074891
 31
0.0
  0
LINE
  5
1ACC3
330
18
100
AcDbEntity
  8
0
100
AcDbLine
 10
607.4809252969173
 20
105.5055980022236
 30
0.0
 11
606.4809313499597
 21
105.5055980022231
 31
0.0
  0
LINE
  5
1ACC4
330
18
100
AcDbEntity
  8
0
100
AcDbLine
 10
607.4809252969173
 20
106.605598002223
 30
0.0
 11
591.8809252969169
 21
106.6055980022239
 31
0.0
  0
LINE
  5
1ACC5
330
18
100
AcDbEntity
  8
0
100
AcDbLine
 10
591.8809252969169
 20
106.6055980022239
 30
0.0
 11
591.8809252969169
 21
105.5055980022245
 31
0.0
  0
LINE
  5
1ACC6
330
18
100
AcDbEntity
  8
0
100
AcDbLine
 10
592.8809313499603
 20
105.5055980022245
 30
0.0
 11
591.8809252969169
 21
105.5055980022245
 31
0.0
  0
LINE
  5
1ACC7
330
18
100
AcDbEntity
  8
0
100
AcDbLine
 10
607.4809252969173
 20
106.6055980022239
 30
0.0
 11
607.4809252969173
 21
105.5055980022245
 31
0.0
  0
LINE
  5
1ACC8
330
18
100
AcDbEntity
  8
0
100
AcDbLine
 10
595.7940130556592
 20
153.2995734986647
 30
0.0
 11
588.385405309806
 21
164.1102331777152
 31
0.0
  0
LINE
  5
1ACC9
330
18
100
AcDbEntity
  8
0
100
AcDbLine
 10
603.5009190304828
 20
153.2962857939614
 30
0.0
 11
611.0007085046072
 21
164.2678671124585
 31
0.0
  0
LINE
  5
1ACCA
330
18
100
AcDbEntity
  8
0
100
AcDbLine
 10
599.2923066429616
 20
153.2976177519889
 30
0.0
 11
606.7979998850415
 21
164.2665351544305
 31
0.0
  0
LINE
  5
1ACCB
330
18
100
AcDbEntity
  8
0
100
AcDbLine
 10
599.6516856316425
 20
153.8228188647807
 30
0.0
 11
592.3792399269895
 21
164.459670178463
 31
0.0
  0
LINE
  5
1ACCC
330
18
100
AcDbEntity
  8
0
100
AcDbLine
 10
597.5451532640015
 20
142.7672888680387
 30
0.0
 11
597.5451532640017
 21
147.6504483150421
 31
0.0
  0
LINE
  5
1ACCD
330
18
100
AcDbEntity
  8
0
100
AcDbLine
 10
597.5451532640015
 20
142.7672888680387
 30
0.0
 11
597.5451532640017
 21
147.6465820660178
 31
0.0
  0
LINE
  5
1ACCE
330
18
100
AcDbEntity
  8
0
100
AcDbLine
 10
601.7564742710882
 20
142.7672888680387
 30
0.0
 11
601.7564742710882
 21
147.6530768071073
 31
0.0
  0
ARC
  5
1ACCF
330
18
100
AcDbEntity
  8
0
100
AcDbCircle
 10
611.7564742710882
 20
147.6530768071071
 30
0.0
 40
10.0
100
AcDbArc
 50
145.6448534167717
 51
180.0
  0
ARC
  5
1ACD0
330
18
100
AcDbEntity
  8
0
100
AcDbCircle
 10
587.5451532640018
 20
147.646582066018
 30
0.0
 40
10.0
100
AcDbArc
 50
0.0
 51
34.42306692944868
  0
ARC
  5
1ACD1
330
18
100
AcDbEntity
  8
0
100
AcDbCircle
 10
607.5451532640017
 20
147.650448315042
 30
0.0
 40
10.0
100
AcDbArc
 50
145.6173623158439
 51
180.0
  0
ARC
  5
1ACD2
330
18
100
AcDbEntity
  8
0
100
AcDbCircle
 10
598.5451532640013
 20
169.9137045913772
 30
0.0
 40
10.0
100
AcDbArc
 50
325.6173623158439
 51
0.0
  0
ARC
  5
1ACD3
330
18
100
AcDbEntity
  8
0
100
AcDbCircle
 10
600.6342651014663
 20
170.1036545307406
 30
0.0
 40
10.0
100
AcDbArc
 50
180.0
 51
214.3605280011016
  0
ARC
  5
1ACD4
330
18
100
AcDbEntity
  8
0
100
AcDbCircle
 10
596.6342651014636
 20
169.7632246103618
 30
0.0
 40
10.0
100
AcDbArc
 50
180.0
 51
214.4230669294486
  0
ARC
  5
1ACD5
330
18
100
AcDbEntity
  8
0
100
AcDbCircle
 10
602.7451532640018
 20
169.9110760993127
 30
0.0
 40
10.0
100
AcDbArc
 50
325.6448534167716
 51
0.0
  0
LINE
  5
1ACD6
330
18
100
AcDbEntity
  8
0
100
AcDbLine
 10
612.7451532640018
 20
169.9110760993127
 30
0.0
 11
612.7451532640017
 21
228.6276785612501
 31
0.0
  0
LINE
  5
1ACD7
330
18
100
AcDbEntity
  8
0
100
AcDbLine
 10
586.6342651014636
 20
169.7632246103618
 30
0.0
 11
586.6342651014636
 21
202.2672888680387
 31
0.0
  0
LINE
  5
1ACD8
330
18
100
AcDbEntity
  8
0
100
AcDbLine
 10
608.5451532640018
 20
228.6276785612501
 30
0.0
 11
608.5451532640013
 21
169.9137045913772
 31
0.0
  0
LINE
  5
1ACD9
330
18
100
AcDbEntity
  8
0
100
AcDbLine
 10
590.8342651014634
 20
202.2672888680387
 30
0.0
 11
590.6342651014663
 21
170.1036545307406
 31
0.0
  0
LINE
  5
1ACDA
330
18
100
AcDbEntity
  8
中心線
100
AcDbLine
 10
553.8657886766677
 20
248.5709693491025
 30
0.0
 11
517.361652373472
 21
248.570969349102
 31
0.0
  0
LINE
  5
1B0EA
330
18
100
AcDbEntity
  8
0
100
AcDbLine
 10
525.5402552046059
 20
109.5672895836339
 30
0.0
 11
525.040254489011
 21
109.0672888680389
 31
0.0
  0
LINE
  5
1B19C
330
18
100
AcDbEntity
  8
0
100
AcDbLine
 10
513.3402552046068
 20
112.0492205613247
 30
0.0
 11
520.5402552046067
 21
112.0492205613247
 31
0.0
  0
LINE
  5
1B19D
330
18
100
AcDbEntity
  8
0
100
AcDbLine
 10
520.5402552046067
 20
112.0492205613247
 30
0.0
 11
520.5402552046066
 21
109.0672888680389
 31
0.0
  0
LINE
  5
1B19E
330
18
100
AcDbEntity
  8
0
100
AcDbLine
 10
513.3402552046068
 20
112.0492205613247
 30
0.0
 11
513.3402552046068
 21
109.0672888680389
 31
0.0
  0
CIRCLE
  5
1B880
330
18
100
AcDbEntity
  8
細線
100
AcDbCircle
 10
126.3226647907831
 20
312.2672888680397
 30
0.0
 40
201.0
  0
LINE
  5
1B882
330
18
100
AcDbEntity
  8
0
100
AcDbLine
 10
473.3402552046059
 20
110.7672888680395
 30
0.0
 11
474.3402552046059
 21
109.7672888680395
 31
0.0
  0
LINE
  5
1B883
330
18
100
AcDbEntity
  8
0
100
AcDbLine
 10
474.340255204606
 20
514.7672888680387
 30
0.0
 11
473.3402552046059
 21
513.7672888680388
 31
0.0
  0
CIRCLE
  5
1BB2C
330
18
100
AcDbEntity
  8
0
100
AcDbCircle
 10
126.3226647907851
 20
312.2672888680394
 30
0.0
 40
32.50000000000178
  0
CIRCLE
  5
1BB2D
330
18
100
AcDbEntity
  8
0
100
AcDbCircle
 10
126.3226647907851
 20
312.2672888680394
 30
0.0
 40
75.0
  0
VIEWPORT
  5
23
330
15
100
AcDbEntity
 67
     1
  8
0
100
AcDbViewport
 10
199.9945013113343
 20
143.9742298991478
 30
0.0
 40
434.0998984574337
 41
284.1118936747988
 68
     1
 69
     1
1001
ACAD
1000
MVIEW
1002
{
1070
    16
1010
0.0
1020
0.0
1030
0.0
1010
0.0
1020
0.0
1030
1.0
1040
0.0
1040
284.1118936747988
1040
199.9945013113343
1040
143.9742298991478
1040
50.0
1040
0.0
1040
0.0
1070
     0
1070
   100
1070
     1
1070
     0
1070
     0
1070
     0
1070
     0
1070
     0
1040
0.0
1040
0.0
1040
0.0
1040
10.0
1040
10.0
1040
10.0
1040
10.0
1070
     0
1002
{
1002
}
1002
}
  0
VIEWPORT
  5
2E
330
15
100
AcDbEntity
 67
     1
  8
M_VIEW
100
AcDbViewport
 10
200.0
 20
143.9738594570302
 30
0.0
 40
400.0
 41
281.9447520639378
 68
     2
 69
     2
1001
ACAD
1000
MVIEW
1002
{
1070
    16
1010
0.0
1020
0.0
1030
0.0
1010
0.0
1020
0.0
1030
1.0
1040
0.0
1040
845.8342581051422
1040
496.9228627599971
1040
200.4276576775859
1040
50.0
1040
0.0
1040
0.0
1070
     0
1070
   100
1070
     1
1070
     0
1070
     0
1070
     0
1070
     0
1070
     0
1040
0.0
1040
0.0
1040
0.0
1040
10.0
1040
10.0
1040
10.0
1040
10.0
1070
     0
1002
{
1002
}
1002
}
  0
INSERT
  5
115F
330
15
100
AcDbEntity
 67
     1
  8
FRAME025
100
AcDbBlockReference
  2
機械A4横_LBP
 10
82.74908858651452
 20
152.030959079227
 30
0.0
  0
TEXT
  5
AA6A
330
15
100
AcDbEntity
 67
     1
  8
文字
  6
BYBLOCK
 62
     0
100
AcDbText
 10
32.81885892396519
 20
73.01882819621747
 30
0.0
 40
3.2
  1

 50
90.0
 41
0.625
  7
MSｺ_ｼｯｸ
100
AcDbText
  0
TEXT
  5
AA6C
330
15
100
AcDbEntity
 67
     1
  8
文字
  6
BYBLOCK
 62
     0
100
AcDbText
 10
37.25020936743055
 20
73.01882819621747
 30
0.0
 40
3.2
  1

 50
90.0
 41
0.625
  7
MSｺ_ｼｯｸ
100
AcDbText
  0
TEXT
  5
FCA5
330
15
100
AcDbEntity
 67
     1
  8
FRAME020
  6
CONTINUOUS
100
AcDbText
 10
126.6213117262079
 20
29.63926951973459
 30
0.0
 40
2.5
  1

 41
0.625
  7
MSｺ_ｼｯｸ
100
AcDbText
  0
TEXT
  5
12229
330
15
100
AcDbEntity
 67
     1
  8
文字
100
AcDbText
 10
313.9805426470137
 20
10.13598751547351
 30
0.0
 40
7.0
  1
ＳＥ－３１２６３Ａ
 41
0.95
  7
MSｺ_ｼｯｸ
100
AcDbText
  0
MTEXT
  5
1BB24
330
15
100
AcDbEntity
 67
     1
  8
DIMENSION
100
AcDbMText
 10
247.5490417534721
 20
26.61095621284448
 30
0.0
 40
6.0
 41
149.2739941663459
 71
     1
 72
     5
  1
{\fＭＳ ゴシック|b0|i0|c128|p49;τDISCﾓｰﾀ D400-040-L NMR-FUDBA2C-801A}
1001
ACAD
1000
MTEXTBEGIN
1070
    73
1070
     1
1070
    44
1040
1.0
1070
    74
1070
     0
1000
MTEXTEND
1000
MTEXTBEGIN
1070
    73
1070
     1
1070
    44
1040
1.0
1070
    74
1070
     0
1000
MTEXTEND
  0
ENDSEC
  0
SECTION
  2
OBJECTS
  0
DICTIONARY
  5
C
330
0
100
AcDbDictionary
  3
ACAD_GROUP
350
D
  3
ACAD_LAYOUT
350
DB2
  3
ACAD_MLINESTYLE
350
1B
  3
ACAD_PLOTSETTINGS
350
DB3
  3
ACAD_PLOTSTYLENAME
350
FB5B
  3
ACADDIM
350
1A8BC
  3
ACDBHEADERROUNDTRIPXREC
350
1BB2F
  3
ACDBVARIABLEDICTIONARY
350
106A6
  3
DWGPROPS
350
15EC9
1001
ACAD
1000
TREAT_AS_HARD
1070
     0
  0
DICTIONARY
  5
1B0B2
330
2
100
AcDbDictionary
280
     1
  3
ACAD_LAYERFILTERS
360
1B0B3
  3
ACAD_LAYERSTATES
360
1B0C0
  0
DICTIONARY
  5
EFC6
330
18
100
AcDbDictionary
280
     1
  3
ACAD_LAYOUTSELFREF
360
1BB51
  0
DICTIONARY
  5
EFC4
330
15
100
AcDbDictionary
280
     1
  3
ACAD_LAYOUTSELFREF
360
1BB50
  0
DICTIONARY
  5
D
102
{ACAD_REACTORS
330
C
102
}
330
C
100
AcDbDictionary
  3
*A1
350
AC8A
  3
*A10
350
19A69
  3
*A11
350
1738A
  3
*A12
350
18FA7
  3
*A13
350
19F98
  3
*A14
350
FC9B
  3
*A15
350
1ABAE
  3
*A16
350
ACBD
  3
*A17
350
173BE
  3
*A18
350
FB6B
  3
*A19
350
ACA1
  3
*A2
350
196C2
  3
*A20
350
18F22
  3
*A21
350
1ABA5
  3
*A22
350
1ABC9
  3
*A23
350
18FA8
  3
*A24
350
1B73F
  3
*A25
350
1B740
  3
*A26
350
17B11
  3
*A27
350
1B741
  3
*A28
350
1ABC0
  3
*A29
350
19787
  3
*A3
350
ACA2
  3
*A30
350
19729
  3
*A31
350
1B742
  3
*A32
350
18F1F
  3
*A33
350
1B7CB
  3
*A34
350
16069
  3
*A35
350
19F12
  3
*A36
350
FC95
  3
*A37
350
1B84B
  3
*A38
350
ACB4
  3
*A39
350
1606A
  3
*A4
350
16068
  3
*A40
350
ACAB
  3
*A41
350
173BD
  3
*A42
350
19A08
  3
*A43
350
FCB8
  3
*A44
350
18F21
  3
*A45
350
16059
  3
*A46
350
17389
  3
*A47
350
19256
  3
*A48
350
106C6
  3
*A49
350
198F1
  3
*A5
350
AC9A
  3
*A50
350
173BF
  3
*A51
350
FB6C
  3
*A52
350
1738B
  3
*A53
350
19F5D
  3
*A54
350
106C7
  3
*A55
350
1AB9C
  3
*A56
350
17901
  3
*A57
350
16058
  3
*A58
350
17BFF
  3
*A59
350
1ABB7
  3
*A6
350
19F5C
  3
*A60
350
18F20
  3
*A61
350
18F23
  3
*A62
350
18FA6
  3
*A63
350
19255
  3
*A64
350
106B3
  3
*A65
350
FC91
  3
*A66
350
FBFF
  3
*A67
350
19881
  3
*A68
350
FC9A
  3
*A69
350
19786
  3
*A7
350
1AB93
  3
*A70
350
169DA
  3
*A71
350
19794
  3
*A72
350
1606B
  3
*A8
350
106A5
  3
*A9
350
19259
1001
ACAD
1000
TREAT_AS_HARD
1070
     0
  0
DICTIONARY
  5
DB2
102
{ACAD_REACTORS
330
C
102
}
330
C
100
AcDbDictionary
1001
ACAD
1000
TREAT_AS_HARD
1070
     0
  0
DICTIONARY
  5
1B
102
{ACAD_REACTORS
330
C
102
}
330
C
100
AcDbDictionary
  3
STANDARD
350
1C
1001
ACAD
1000
TREAT_AS_HARD
1070
     0
  0
DICTIONARY
  5
DB3
102
{ACAD_REACTORS
330
C
102
}
330
C
100
AcDbDictionary
1001
ACAD
1000
TREAT_AS_HARD
1070
     0
  0
ACDBDICTIONARYWDFLT
  5
FB5B
102
{ACAD_REACTORS
330
C
102
}
330
C
100
AcDbDictionary
281
     1
  3
Normal
350
FB5C
100
AcDbDictionaryWithDefault
340
FB5C
  0
XRECORD
  5
1A8BC
102
{ACAD_REACTORS
330
C
102
}
330
C
100
AcDbXrecord
 90
   990106
  3

 60
     0
 61
     0
 62
     4
 63
     4
 64
     1
 65
     0
 66
     0
 67
     3
 68
     1
 69
     0
 70
     0
 71
     0
 72
     0
 40
0.0
170
     0
340
1A8C0
  0
DICTIONARY
  5
1BB2F
102
{ACAD_REACTORS
330
C
102
}
330
C
100
AcDbDictionary
  3
CEPSNTYPE
350
1BB39
  3
DIMSTYLEDATA
350
1BB3D
  3
FINGERPRINTGUID
350
1BB3A
  3
HYPERLINKBASE
350
1BB32
  3
INSUNITS
350
1BB38
  3
LAYOUTDICT
350
1BB34
  3
LWETCUNION
350
1BB37
  3
PLOTSETDICT
350
1BB35
  3
PLOTSTYLNAMDICT
350
1BB36
  3
PSVPSCALE
350
1BB3C
  3
PUCSBASE
350
1BB40
  3
PUCSORGBACK
350
1BB46
  3
PUCSORGBOTTOM
350
1BB42
  3
PUCSORGFRONT
350
1BB45
  3
PUCSORGLEFT
350
1BB43
  3
PUCSORGRIGHT
350
1BB44
  3
PUCSORGTOP
350
1BB41
  3
PUCSORTHOREF
350
1BB3E
  3
PUCSORTHOVIEW
350
1BB3F
  3
STYLESHEET
350
1BB33
  3
TSTACKALIGN
350
1BB30
  3
TSTACKSIZE
350
1BB31
  3
UCSBASE
350
1BB49
  3
UCSORGBACK
350
1BB4F
  3
UCSORGBOTTOM
350
1BB4B
  3
UCSORGFRONT
350
1BB4E
  3
UCSORGLEFT
350
1BB4C
  3
UCSORGRIGHT
350
1BB4D
  3
UCSORGTOP
350
1BB4A
  3
UCSORTHOREF
350
1BB47
  3
UCSORTHOVIEW
350
1BB48
  3
VERSIONGUID
350
1BB3B
  0
DICTIONARY
  5
106A6
102
{ACAD_REACTORS
330
C
102
}
330
C
100
AcDbDictionary
  3
SORTENTS
350
106A7
  0
XRECORD
  5
15EC9
102
{ACAD_REACTORS
330
C
102
}
330
C
100
AcDbXrecord
  1
DWGPROPS COOKIE
  2

  3

  4

  6

  7

  8

  9

300
=
301
=
302
=
303
=
304
=
305
=
306
=
307
=
308
=
309
=
 40
12.65185717592592
 41
2451224.660162384
 42
2452395.660827315
  1

 90
        0
  0
DICTIONARY
  5
1B0B3
102
{ACAD_REACTORS
330
1B0B2
102
}
330
1B0B2
100
AcDbDictionary
280
     1
  3
0
360
1B0B4
  3
11
360
1B0B5
  3
150_
360
1B0B6
  3
160_
360
1B0B7
  3
170_
360
1B0B8
  3
171_
360
1B0B9
  3
350_
360
1B0BA
  3
4
360
1B0BB
  3
5
360
1B0BC
  3
7
360
1B0BD
  3
KISEKI
360
1B0BE
  0
DICTIONARY
  5
1B0C0
102
{ACAD_REACTORS
330
1B0B2
102
}
330
1B0B2
100
AcDbDictionary
  0
XRECORD
  5
1BB51
102
{ACAD_REACTORS
330
EFC6
102
}
330
EFC6
100
AcDbXrecord
340
18
  0
XRECORD
  5
1BB50
102
{ACAD_REACTORS
330
EFC4
102
}
330
EFC4
100
AcDbXrecord
340
15
  0
GROUP
  5
AC8A
102
{ACAD_REACTORS
330
D
102
}
330
D
100
AcDbGroup
300

 70
     1
 71
     1
  0
GROUP
  5
19A69
102
{ACAD_REACTORS
330
D
102
}
330
D
100
AcDbGroup
300

 70
     1
 71
     1
  0
GROUP
  5
1738A
102
{ACAD_REACTORS
330
D
102
}
330
D
100
AcDbGroup
300

 70
     1
 71
     1
  0
GROUP
  5
18FA7
102
{ACAD_REACTORS
330
D
102
}
330
D
100
AcDbGroup
300

 70
     1
 71
     1
  0
GROUP
  5
19F98
102
{ACAD_REACTORS
330
D
102
}
330
D
100
AcDbGroup
300

 70
     1
 71
     1
  0
GROUP
  5
FC9B
102
{ACAD_REACTORS
330
D
102
}
330
D
100
AcDbGroup
300

 70
     1
 71
     1
  0
GROUP
  5
1ABAE
102
{ACAD_REACTORS
330
D
102
}
330
D
100
AcDbGroup
300

 70
     1
 71
     1
340
1ABA6
340
1ABA7
340
1ABA8
340
1ABA9
340
1ABAA
340
1ABAB
340
1ABAC
340
1ABAD
  0
GROUP
  5
ACBD
102
{ACAD_REACTORS
330
D
102
}
330
D
100
AcDbGroup
300

 70
     1
 71
     1
  0
GROUP
  5
173BE
102
{ACAD_REACTORS
330
D
102
}
330
D
100
AcDbGroup
300

 70
     1
 71
     1
  0
GROUP
  5
FB6B
102
{ACAD_REACTORS
330
D
102
}
330
D
100
AcDbGroup
300

 70
     1
 71
     1
  0
GROUP
  5
ACA1
102
{ACAD_REACTORS
330
D
102
}
330
D
100
AcDbGroup
300

 70
     1
 71
     1
  0
GROUP
  5
196C2
102
{ACAD_REACTORS
330
D
102
}
330
D
100
AcDbGroup
300

 70
     1
 71
     1
  0
GROUP
  5
18F22
102
{ACAD_REACTORS
330
D
102
}
330
D
100
AcDbGroup
300

 70
     1
 71
     1
  0
GROUP
  5
1ABA5
102
{ACAD_REACTORS
330
D
102
}
330
D
100
AcDbGroup
300

 70
     1
 71
     1
340
1AB9D
340
1AB9E
340
1AB9F
340
1ABA0
340
1ABA1
340
1ABA2
340
1ABA3
340
1ABA4
  0
GROUP
  5
1ABC9
102
{ACAD_REACTORS
330
D
102
}
330
D
100
AcDbGroup
300

 70
     1
 71
     1
340
1ABC1
340
1ABC2
340
1ABC3
340
1ABC4
340
1ABC5
340
1ABC6
340
1ABC7
340
1ABC8
  0
GROUP
  5
18FA8
102
{ACAD_REACTORS
330
D
102
}
330
D
100
AcDbGroup
300

 70
     1
 71
     1
  0
GROUP
  5
1B73F
102
{ACAD_REACTORS
330
D
102
}
330
D
100
AcDbGroup
300

 70
     1
 71
     1
  0
GROUP
  5
1B740
102
{ACAD_REACTORS
330
D
102
}
330
D
100
AcDbGroup
300

 70
     1
 71
     1
  0
GROUP
  5
17B11
102
{ACAD_REACTORS
330
D
102
}
330
D
100
AcDbGroup
300

 70
     1
 71
     1
  0
GROUP
  5
1B741
102
{ACAD_REACTORS
330
D
102
}
330
D
100
AcDbGroup
300

 70
     1
 71
     1
  0
GROUP
  5
1ABC0
102
{ACAD_REACTORS
330
D
102
}
330
D
100
AcDbGroup
300

 70
     1
 71
     1
340
1ABB8
340
1ABB9
340
1ABBA
340
1ABBB
340
1ABBC
340
1ABBD
340
1ABBE
340
1ABBF
  0
GROUP
  5
19787
102
{ACAD_REACTORS
330
D
102
}
330
D
100
AcDbGroup
300

 70
     1
 71
     1
  0
GROUP
  5
ACA2
102
{ACAD_REACTORS
330
D
102
}
330
D
100
AcDbGroup
300

 70
     1
 71
     1
  0
GROUP
  5
19729
102
{ACAD_REACTORS
330
D
102
}
330
D
100
AcDbGroup
300

 70
     1
 71
     1
  0
GROUP
  5
1B742
102
{ACAD_REACTORS
330
D
102
}
330
D
100
AcDbGroup
300

 70
     1
 71
     1
  0
GROUP
  5
18F1F
102
{ACAD_REACTORS
330
D
102
}
330
D
100
AcDbGroup
300

 70
     1
 71
     1
  0
GROUP
  5
1B7CB
102
{ACAD_REACTORS
330
D
102
}
330
D
100
AcDbGroup
300

 70
     1
 71
     1
  0
GROUP
  5
16069
102
{ACAD_REACTORS
330
D
102
}
330
D
100
AcDbGroup
300

 70
     1
 71
     1
  0
GROUP
  5
19F12
102
{ACAD_REACTORS
330
D
102
}
330
D
100
AcDbGroup
300

 70
     1
 71
     1
  0
GROUP
  5
FC95
102
{ACAD_REACTORS
330
D
102
}
330
D
100
AcDbGroup
300

 70
     1
 71
     1
  0
GROUP
  5
1B84B
102
{ACAD_REACTORS
330
D
102
}
330
D
100
AcDbGroup
300

 70
     1
 71
     1
  0
GROUP
  5
ACB4
102
{ACAD_REACTORS
330
D
102
}
330
D
100
AcDbGroup
300

 70
     1
 71
     1
  0
GROUP
  5
1606A
102
{ACAD_REACTORS
330
D
102
}
330
D
100
AcDbGroup
300

 70
     1
 71
     1
  0
GROUP
  5
16068
102
{ACAD_REACTORS
330
D
102
}
330
D
100
AcDbGroup
300

 70
     1
 71
     1
  0
GROUP
  5
ACAB
102
{ACAD_REACTORS
330
D
102
}
330
D
100
AcDbGroup
300

 70
     1
 71
     1
  0
GROUP
  5
173BD
102
{ACAD_REACTORS
330
D
102
}
330
D
100
AcDbGroup
300

 70
     1
 71
     1
340
1739D
340
1739E
340
1739F
340
173A0
340
173A1
340
173A2
340
173A3
340
173A4
340
173A5
340
173A6
340
173A7
340
173A8
340
173A9
340
173AA
340
173AB
  0
GROUP
  5
19A08
102
{ACAD_REACTORS
330
D
102
}
330
D
100
AcDbGroup
300

 70
     1
 71
     1
  0
GROUP
  5
FCB8
102
{ACAD_REACTORS
330
D
102
}
330
D
100
AcDbGroup
300

 70
     1
 71
     1
  0
GROUP
  5
18F21
102
{ACAD_REACTORS
330
D
102
}
330
D
100
AcDbGroup
300

 70
     1
 71
     1
  0
GROUP
  5
16059
102
{ACAD_REACTORS
330
D
102
}
330
D
100
AcDbGroup
300

 70
     1
 71
     1
  0
GROUP
  5
17389
102
{ACAD_REACTORS
330
D
102
}
330
D
100
AcDbGroup
300

 70
     1
 71
     1
  0
GROUP
  5
19256
102
{ACAD_REACTORS
330
D
102
}
330
D
100
AcDbGroup
300

 70
     1
 71
     1
  0
GROUP
  5
106C6
102
{ACAD_REACTORS
330
D
102
}
330
D
100
AcDbGroup
300

 70
     1
 71
     1
  0
GROUP
  5
198F1
102
{ACAD_REACTORS
330
D
102
}
330
D
100
AcDbGroup
300

 70
     1
 71
     1
  0
GROUP
  5
AC9A
102
{ACAD_REACTORS
330
D
102
}
330
D
100
AcDbGroup
300

 70
     1
 71
     1
  0
GROUP
  5
173BF
102
{ACAD_REACTORS
330
D
102
}
330
D
100
AcDbGroup
300

 70
     1
 71
     1
  0
GROUP
  5
FB6C
102
{ACAD_REACTORS
330
D
102
}
330
D
100
AcDbGroup
300

 70
     1
 71
     1
  0
GROUP
  5
1738B
102
{ACAD_REACTORS
330
D
102
}
330
D
100
AcDbGroup
300

 70
     1
 71
     1
  0
GROUP
  5
19F5D
102
{ACAD_REACTORS
330
D
102
}
330
D
100
AcDbGroup
300

 70
     1
 71
     1
340
19DCD
340
19DCC
340
19DCE
340
19DC8
340
19DC9
340
19DC6
340
19DD4
340
19DD3
340
19DCF
340
19DD0
340
19DD2
340
19DD1
340
19DC7
340
19DE3
340
19DCA
340
19DE6
340
19DE8
340
19DDA
340
19DD9
340
19DE5
340
19DD5
340
19DD6
340
19DD7
340
19DD8
340
19DCB
340
19DE7
340
19DE4
340
19DE1
340
19DE2
340
19DE9
  0
GROUP
  5
106C7
102
{ACAD_REACTORS
330
D
102
}
330
D
100
AcDbGroup
300

 70
     1
 71
     1
  0
GROUP
  5
1AB9C
102
{ACAD_REACTORS
330
D
102
}
330
D
100
AcDbGroup
300

 70
     1
 71
     1
340
1AB94
340
1AB95
340
1AB96
340
1AB97
340
1AB98
340
1AB99
340
1AB9A
340
1AB9B
  0
GROUP
  5
17901
102
{ACAD_REACTORS
330
D
102
}
330
D
100
AcDbGroup
300

 70
     1
 71
     1
  0
GROUP
  5
16058
102
{ACAD_REACTORS
330
D
102
}
330
D
100
AcDbGroup
300

 70
     1
 71
     1
  0
GROUP
  5
17BFF
102
{ACAD_REACTORS
330
D
102
}
330
D
100
AcDbGroup
300

 70
     1
 71
     1
  0
GROUP
  5
1ABB7
102
{ACAD_REACTORS
330
D
102
}
330
D
100
AcDbGroup
300

 70
     1
 71
     1
340
1ABAF
340
1ABB0
340
1ABB1
340
1ABB2
340
1ABB3
340
1ABB4
340
1ABB5
340
1ABB6
  0
GROUP
  5
19F5C
102
{ACAD_REACTORS
330
D
102
}
330
D
100
AcDbGroup
300

 70
     1
 71
     1
340
19E51
340
19E48
340
19E47
340
19E40
340
19E41
340
19E4A
340
19E46
340
19E52
340
19E4B
340
19E4C
340
19E49
340
19E45
340
19E5A
340
19E57
340
19E3F
340
19E55
340
19E53
340
19E4D
340
19E50
340
19E43
340
19E3E
340
19E4E
340
19E4F
340
19E44
340
19E42
340
19E5B
340
19E59
340
19E56
340
19E58
340
19E54
  0
GROUP
  5
18F20
102
{ACAD_REACTORS
330
D
102
}
330
D
100
AcDbGroup
300

 70
     1
 71
     1
  0
GROUP
  5
18F23
102
{ACAD_REACTORS
330
D
102
}
330
D
100
AcDbGroup
300

 70
     1
 71
     1
  0
GROUP
  5
18FA6
102
{ACAD_REACTORS
330
D
102
}
330
D
100
AcDbGroup
300

 70
     1
 71
     1
  0
GROUP
  5
19255
102
{ACAD_REACTORS
330
D
102
}
330
D
100
AcDbGroup
300

 70
     1
 71
     1
  0
GROUP
  5
106B3
102
{ACAD_REACTORS
330
D
102
}
330
D
100
AcDbGroup
300

 70
     1
 71
     1
  0
GROUP
  5
FC91
102
{ACAD_REACTORS
330
D
102
}
330
D
100
AcDbGroup
300

 70
     1
 71
     1
  0
GROUP
  5
FBFF
102
{ACAD_REACTORS
330
D
102
}
330
D
100
AcDbGroup
300

 70
     1
 71
     1
  0
GROUP
  5
19881
102
{ACAD_REACTORS
330
D
102
}
330
D
100
AcDbGroup
300

 70
     1
 71
     1
  0
GROUP
  5
FC9A
102
{ACAD_REACTORS
330
D
102
}
330
D
100
AcDbGroup
300

 70
     1
 71
     1
  0
GROUP
  5
19786
102
{ACAD_REACTORS
330
D
102
}
330
D
100
AcDbGroup
300

 70
     1
 71
     1
  0
GROUP
  5
1AB93
102
{ACAD_REACTORS
330
D
102
}
330
D
100
AcDbGroup
300

 70
     1
 71
     1
340
1A55B
340
1A55A
340
1A559
340
1A558
340
1A557
340
1A556
340
1A555
340
1A554
  0
GROUP
  5
169DA
102
{ACAD_REACTORS
330
D
102
}
330
D
100
AcDbGroup
300

 70
     1
 71
     1
  0
GROUP
  5
19794
102
{ACAD_REACTORS
330
D
102
}
330
D
100
AcDbGroup
300

 70
     1
 71
     1
  0
GROUP
  5
1606B
102
{ACAD_REACTORS
330
D
102
}
330
D
100
AcDbGroup
300

 70
     1
 71
     1
  0
GROUP
  5
106A5
102
{ACAD_REACTORS
330
D
102
}
330
D
100
AcDbGroup
300

 70
     1
 71
     1
  0
GROUP
  5
19259
102
{ACAD_REACTORS
330
D
102
}
330
D
100
AcDbGroup
300

 70
     1
 71
     1
  0
MLINESTYLE
  5
1C
102
{ACAD_REACTORS
330
1B
102
}
330
1B
100
AcDbMlineStyle
  2
STANDARD
 70
     0
  3

 62
   256
 51
90.0
 52
90.0
 71
     2
 49
0.5
 62
   256
  6
BYLAYER
 49
-0.5
 62
   256
  6
BYLAYER
  0
ACDBPLACEHOLDER
  5
FB5C
102
{ACAD_REACTORS
330
FB5B
102
}
330
FB5B
100
AcDbPlaceHolder
280
     0
  0
XRECORD
  5
1BB39
102
{ACAD_REACTORS
330
1BB2F
102
}
330
1BB2F
100
AcDbXrecord
 90
        0
  0
XRECORD
  5
1BB3D
102
{ACAD_REACTORS
330
1BB2F
102
}
330
1BB2F
100
AcDbXrecord
1000
DSTYLE
1002
{
1070
    79
 70
     2
1070
   179
 70
     2
1070
   341
340
1215D
1070
   342
340
1215D
1070
   371
 70
    13
1070
   372
 70
    13
1002
}
  0
XRECORD
  5
1BB3A
102
{ACAD_REACTORS
330
1BB2F
102
}
330
1BB2F
100
AcDbXrecord
  1
{D14EE3FF-941A-415A-9907-344E0A80D794}
  0
XRECORD
  5
1BB32
102
{ACAD_REACTORS
330
1BB2F
102
}
330
1BB2F
100
AcDbXrecord
  1

  0
XRECORD
  5
1BB38
102
{ACAD_REACTORS
330
1BB2F
102
}
330
1BB2F
100
AcDbXrecord
 90
        0
  0
XRECORD
  5
1BB34
102
{ACAD_REACTORS
330
1BB2F
102
}
330
1BB2F
100
AcDbXrecord
340
DB2
  0
XRECORD
  5
1BB37
102
{ACAD_REACTORS
330
1BB2F
102
}
330
1BB2F
100
AcDbXrecord
 90
    10269
  0
XRECORD
  5
1BB35
102
{ACAD_REACTORS
330
1BB2F
102
}
330
1BB2F
100
AcDbXrecord
340
DB3
  0
XRECORD
  5
1BB36
102
{ACAD_REACTORS
330
1BB2F
102
}
330
1BB2F
100
AcDbXrecord
340
FB5B
  0
XRECORD
  5
1BB3C
102
{ACAD_REACTORS
330
1BB2F
102
}
330
1BB2F
100
AcDbXrecord
 40
0.0
  0
XRECORD
  5
1BB40
102
{ACAD_REACTORS
330
1BB2F
102
}
330
1BB2F
100
AcDbXrecord
340
0
  0
XRECORD
  5
1BB46
102
{ACAD_REACTORS
330
1BB2F
102
}
330
1BB2F
100
AcDbXrecord
 10
0.0
 20
0.0
 30
0.0
  0
XRECORD
  5
1BB42
102
{ACAD_REACTORS
330
1BB2F
102
}
330
1BB2F
100
AcDbXrecord
 10
0.0
 20
0.0
 30
0.0
  0
XRECORD
  5
1BB45
102
{ACAD_REACTORS
330
1BB2F
102
}
330
1BB2F
100
AcDbXrecord
 10
0.0
 20
0.0
 30
0.0
  0
XRECORD
  5
1BB43
102
{ACAD_REACTORS
330
1BB2F
102
}
330
1BB2F
100
AcDbXrecord
 10
0.0
 20
0.0
 30
0.0
  0
XRECORD
  5
1BB44
102
{ACAD_REACTORS
330
1BB2F
102
}
330
1BB2F
100
AcDbXrecord
 10
0.0
 20
0.0
 30
0.0
  0
XRECORD
  5
1BB41
102
{ACAD_REACTORS
330
1BB2F
102
}
330
1BB2F
100
AcDbXrecord
 10
0.0
 20
0.0
 30
0.0
  0
XRECORD
  5
1BB3E
102
{ACAD_REACTORS
330
1BB2F
102
}
330
1BB2F
100
AcDbXrecord
340
0
  0
XRECORD
  5
1BB3F
102
{ACAD_REACTORS
330
1BB2F
102
}
330
1BB2F
100
AcDbXrecord
 70
     0
  0
XRECORD
  5
1BB33
102
{ACAD_REACTORS
330
1BB2F
102
}
330
1BB2F
100
AcDbXrecord
  1

  0
XRECORD
  5
1BB30
102
{ACAD_REACTORS
330
1BB2F
102
}
330
1BB2F
100
AcDbXrecord
 90
        1
  0
XRECORD
  5
1BB31
102
{ACAD_REACTORS
330
1BB2F
102
}
330
1BB2F
100
AcDbXrecord
 90
       70
  0
XRECORD
  5
1BB49
102
{ACAD_REACTORS
330
1BB2F
102
}
330
1BB2F
100
AcDbXrecord
340
0
  0
XRECORD
  5
1BB4F
102
{ACAD_REACTORS
330
1BB2F
102
}
330
1BB2F
100
AcDbXrecord
 10
0.0
 20
0.0
 30
0.0
  0
XRECORD
  5
1BB4B
102
{ACAD_REACTORS
330
1BB2F
102
}
330
1BB2F
100
AcDbXrecord
 10
0.0
 20
0.0
 30
0.0
  0
XRECORD
  5
1BB4E
102
{ACAD_REACTORS
330
1BB2F
102
}
330
1BB2F
100
AcDbXrecord
 10
0.0
 20
0.0
 30
0.0
  0
XRECORD
  5
1BB4C
102
{ACAD_REACTORS
330
1BB2F
102
}
330
1BB2F
100
AcDbXrecord
 10
0.0
 20
0.0
 30
0.0
  0
XRECORD
  5
1BB4D
102
{ACAD_REACTORS
330
1BB2F
102
}
330
1BB2F
100
AcDbXrecord
 10
0.0
 20
0.0
 30
0.0
  0
XRECORD
  5
1BB4A
102
{ACAD_REACTORS
330
1BB2F
102
}
330
1BB2F
100
AcDbXrecord
 10
0.0
 20
0.0
 30
0.0
  0
XRECORD
  5
1BB47
102
{ACAD_REACTORS
330
1BB2F
102
}
330
1BB2F
100
AcDbXrecord
340
0
  0
XRECORD
  5
1BB48
102
{ACAD_REACTORS
330
1BB2F
102
}
330
1BB2F
100
AcDbXrecord
 70
     0
  0
XRECORD
  5
1BB3B
102
{ACAD_REACTORS
330
1BB2F
102
}
330
1BB2F
100
AcDbXrecord
  1
{636059DC-D6A8-483C-8B58-C1B32A3D9896}
  0
DICTIONARYVAR
  5
106A7
102
{ACAD_REACTORS
330
106A6
102
}
330
106A6
100
DictionaryVariables
280
     0
  1
96
  0
XRECORD
  5
1B0B4
102
{ACAD_REACTORS
330
1B0B3
102
}
330
1B0B3
100
AcDbXrecord
  1
0
  1
*0
  1
*
  1
*
 70
     0
  1
*
  1
*
  0
XRECORD
  5
1B0B5
102
{ACAD_REACTORS
330
1B0B3
102
}
330
1B0B3
100
AcDbXrecord
  1
11
  1
*11
  1
*
  1
*
 70
     0
  1
*
  1
*
  0
XRECORD
  5
1B0B6
102
{ACAD_REACTORS
330
1B0B3
102
}
330
1B0B3
100
AcDbXrecord
  1
150_
  1
150_*
  1
*
  1
*
 70
     0
  1
*
  1
*
  0
XRECORD
  5
1B0B7
102
{ACAD_REACTORS
330
1B0B3
102
}
330
1B0B3
100
AcDbXrecord
  1
160_
  1
160_*
  1
*
  1
*
 70
     0
  1
*
  1
*
  0
XRECORD
  5
1B0B8
102
{ACAD_REACTORS
330
1B0B3
102
}
330
1B0B3
100
AcDbXrecord
  1
170_
  1
170_*
  1
*
  1
*
 70
     0
  1
*
  1
*
  0
XRECORD
  5
1B0B9
102
{ACAD_REACTORS
330
1B0B3
102
}
330
1B0B3
100
AcDbXrecord
  1
171_
  1
171_*
  1
*
  1
*
 70
     0
  1
*
  1
*
  0
XRECORD
  5
1B0BA
102
{ACAD_REACTORS
330
1B0B3
102
}
330
1B0B3
100
AcDbXrecord
  1
350_
  1
350_*
  1
*
  1
*
 70
     0
  1
*
  1
*
  0
XRECORD
  5
1B0BB
102
{ACAD_REACTORS
330
1B0B3
102
}
330
1B0B3
100
AcDbXrecord
  1
4
  1
*4
  1
*
  1
*
 70
     0
  1
*
  1
*
  0
XRECORD
  5
1B0BC
102
{ACAD_REACTORS
330
1B0B3
102
}
330
1B0B3
100
AcDbXrecord
  1
5
  1
*5
  1
*
  1
*
 70
     0
  1
*
  1
*
  0
XRECORD
  5
1B0BD
102
{ACAD_REACTORS
330
1B0B3
102
}
330
1B0B3
100
AcDbXrecord
  1
7
  1
*7
  1
*
  1
*
 70
     0
  1
*
  1
*
  0
XRECORD
  5
1B0BE
102
{ACAD_REACTORS
330
1B0B3
102
}
330
1B0B3
100
AcDbXrecord
  1
kiseki
  1
kiseki*
  1
*
  1
*
 70
     0
  1
*
  1
*
  0
ENDSEC
  0
EOF
