  0
SECTION
  2
HEADER
  9
$ACADVER
  1
AC1014
  9
$ACADMAINTVER
 70
     9
  9
$DWGCODEPAGE
  3
ANSI_932
  9
$INSBASE
 10
0.0
 20
0.0
 30
0.0
  9
$EXTMIN
 10
34.15307311197295
 20
110.9910635207061
 30
0.0
  9
$EXTMAX
 10
837.7151239966504
 20
535.8386347758335
 30
0.0
  9
$LIMMIN
 10
0.0
 20
0.0
  9
$LIMMAX
 10
420.0
 20
297.0
  9
$ORTHOMODE
 70
     1
  9
$REGENMODE
 70
     1
  9
$FILLMODE
 70
     1
  9
$QTEXTMODE
 70
     0
  9
$MIRRTEXT
 70
     0
  9
$DRAGMODE
 70
     2
  9
$LTSCALE
 40
20.0
  9
$OSMODE
 70
    37
  9
$ATTMODE
 70
     1
  9
$TEXTSIZE
 40
2.5
  9
$TRACEWID
 40
1.0
  9
$TEXTSTYLE
  7
STANDARD
  9
$CLAYER
  8
HIDDEN
  9
$CELTYPE
  6
BYLAYER
  9
$CECOLOR
 62
   256
  9
$CELTSCALE
 40
1.0
  9
$DELOBJ
 70
     1
  9
$DISPSILH
 70
     0
  9
$DIMSCALE
 40
2.5
  9
$DIMASZ
 40
2.0
  9
$DIMEXO
 40
0.75
  9
$DIMDLI
 40
5.0
  9
$DIMRND
 40
0.0005
  9
$DIMDLE
 40
0.0
  9
$DIMEXE
 40
1.0
  9
$DIMTP
 40
0.0
  9
$DIMTM
 40
0.000000001
  9
$DIMTXT
 40
3.2
  9
$DIMCEN
 40
0.0
  9
$DIMTSZ
 40
0.0
  9
$DIMTOL
 70
     0
  9
$DIMLIM
 70
     0
  9
$DIMTIH
 70
     0
  9
$DIMTOH
 70
     0
  9
$DIMSE1
 70
     0
  9
$DIMSE2
 70
     0
  9
$DIMTAD
 70
     1
  9
$DIMZIN
 70
     9
  9
$DIMBLK
  1
OPEN30
  9
$DIMASO
 70
     1
  9
$DIMSHO
 70
     1
  9
$DIMPOST
  1

  9
$DIMAPOST
  1

  9
$DIMALT
 70
     0
  9
$DIMALTD
 70
     4
  9
$DIMALTF
 40
0.0394
  9
$DIMLFAC
 40
1.0
  9
$DIMTOFL
 70
     1
  9
$DIMTVP
 40
0.0
  9
$DIMTIX
 70
     0
  9
$DIMSOXD
 70
     0
  9
$DIMSAH
 70
     0
  9
$DIMBLK1
  1

  9
$DIMBLK2
  1

  9
$DIMSTYLE
  2
STANDARD
  9
$DIMCLRD
 70
     4
  9
$DIMCLRE
 70
     4
  9
$DIMCLRT
 70
     2
  9
$DIMTFAC
 40
1.0
  9
$DIMGAP
 40
0.75
  9
$DIMJUST
 70
     0
  9
$DIMSD1
 70
     0
  9
$DIMSD2
 70
     0
  9
$DIMTOLJ
 70
     1
  9
$DIMTZIN
 70
     9
  9
$DIMALTZ
 70
     0
  9
$DIMALTTZ
 70
     0
  9
$DIMFIT
 70
     5
  9
$DIMUPT
 70
     0
  9
$DIMUNIT
 70
     2
  9
$DIMDEC
 70
     2
  9
$DIMTDEC
 70
     2
  9
$DIMALTU
 70
     8
  9
$DIMALTTD
 70
     4
  9
$DIMTXSTY
  7
STANDARD
  9
$DIMAUNIT
 70
     0
  9
$LUNITS
 70
     2
  9
$LUPREC
 70
     4
  9
$SKETCHINC
 40
1.0
  9
$FILLETRAD
 40
0.0
  9
$AUNITS
 70
     0
  9
$AUPREC
 70
     0
  9
$MENU
  1
.
  9
$ELEVATION
 40
0.0
  9
$PELEVATION
 40
0.0
  9
$THICKNESS
 40
0.0
  9
$LIMCHECK
 70
     0
  9
$BLIPMODE
 70
     0
  9
$CHAMFERA
 40
0.5
  9
$CHAMFERB
 40
0.5
  9
$CHAMFERC
 40
20.0
  9
$CHAMFERD
 40
0.0
  9
$SKPOLY
 70
     0
  9
$TDCREATE
 40
2451224.660162384
  9
$TDUPDATE
 40
2455573.781129375
  9
$TDINDWG
 40
14.4921887731
  9
$TDUSRTIMER
 40
14.4921884144
  9
$USRTIMER
 70
     1
  9
$ANGBASE
 50
0.0
  9
$ANGDIR
 70
     0
  9
$PDMODE
 70
     0
  9
$PDSIZE
 40
0.0
  9
$PLINEWID
 40
0.0
  9
$COORDS
 70
     0
  9
$SPLFRAME
 70
     0
  9
$SPLINETYPE
 70
     6
  9
$SPLINESEGS
 70
     8
  9
$ATTDIA
 70
     0
  9
$ATTREQ
 70
     1
  9
$HANDLING
 70
-16383
  9
$HANDSEED
  5
1B54A
  9
$SURFTAB1
 70
     6
  9
$SURFTAB2
 70
     6
  9
$SURFTYPE
 70
     6
  9
$SURFU
 70
     6
  9
$SURFV
 70
     6
  9
$UCSNAME
  2

  9
$UCSORG
 10
0.0
 20
0.0
 30
0.0
  9
$UCSXDIR
 10
1.0
 20
0.0
 30
0.0
  9
$UCSYDIR
 10
0.0
 20
1.0
 30
0.0
  9
$PUCSNAME
  2

  9
$PUCSORG
 10
0.0
 20
0.0
 30
0.0
  9
$PUCSXDIR
 10
1.0
 20
0.0
 30
0.0
  9
$PUCSYDIR
 10
0.0
 20
1.0
 30
0.0
  9
$USERI1
 70
     0
  9
$USERI2
 70
     0
  9
$USERI3
 70
     0
  9
$USERI4
 70
     0
  9
$USERI5
 70
     0
  9
$USERR1
 40
0.0
  9
$USERR2
 40
0.0
  9
$USERR3
 40
0.0
  9
$USERR4
 40
0.0
  9
$USERR5
 40
0.0
  9
$WORLDVIEW
 70
     1
  9
$SHADEDGE
 70
     3
  9
$SHADEDIF
 70
    70
  9
$TILEMODE
 70
     0
  9
$MAXACTVP
 70
    48
  9
$PINSBASE
 10
0.0
 20
0.0
 30
0.0
  9
$PLIMCHECK
 70
     0
  9
$PEXTMIN
 10
-0.0244413539539892
 20
-0.0123407690967952
 30
-0.0015258207003583
  9
$PEXTMAX
 10
400.0109519825275
 20
288.0072069642157
 30
0.0000000349246037
  9
$PLIMMIN
 10
-7.911365267150768
 20
-4.347575849568631
  9
$PLIMMAX
 10
418.2035398883042
 20
296.9397199407365
  9
$UNITMODE
 70
     0
  9
$VISRETAIN
 70
     1
  9
$PLINEGEN
 70
     0
  9
$PSLTSCALE
 70
     0
  9
$TREEDEPTH
 70
  3020
  9
$PICKSTYLE
 70
     0
  9
$CMLSTYLE
  2
STANDARD
  9
$CMLJUST
 70
     0
  9
$CMLSCALE
 40
20.0
  9
$PROXYGRAPHICS
 70
     1
  9
$MEASUREMENT
 70
     0
  0
ENDSEC
  0
SECTION
  2
CLASSES
  0
CLASS
  1
HATCH
  2
AcDbHatch
  3
AutoCAD 2000
 90
        0
280
     0
281
     1
  0
CLASS
  1
LWPOLYLINE
  2
AcDbPolyline
  3
AutoCAD 2000
 90
        0
280
     0
281
     1
  0
CLASS
  1
ACDBDICTIONARYWDFLT
  2
AcDbDictionaryWithDefault
  3
AutoCAD 2000
 90
        0
280
     0
281
     0
  0
CLASS
  1
ACDBPLACEHOLDER
  2
AcDbPlaceHolder
  3
AutoCAD 2000
 90
        0
280
     0
281
     0
  0
CLASS
  1
LAYOUT
  2
AcDbLayout
  3
AutoCAD 2000
 90
        0
280
     0
281
     0
  0
CLASS
  1
LONG_TRANSACTION
  2
AcDbLongTransaction
  3
AutoCAD 2000
 90
        0
280
     0
281
     0
  0
CLASS
  1
LWPOLYLINE
  2
AcDbPolyline
  3
AutoCAD 2000
 90
        0
280
     0
281
     1
  0
CLASS
  1
HATCH
  2
AcDbHatch
  3
AutoCAD 2000
 90
        0
280
     0
281
     1
  0
CLASS
  1
XRECORD
  2
AcDbXrecord
  3
AutoCAD 2000
 90
        0
280
     0
281
     0
  0
CLASS
  1
DICTIONARYVAR
  2
AcDbDictionaryVar
  3
AutoCAD 2000
 90
        0
280
     0
281
     0
  0
CLASS
  1
LONG_TRANSACTION
  2
AcDbLongTransaction
  3
AutoCAD 2000
 90
        0
280
     0
281
     0
  0
CLASS
  1
LWPOLYLINE
  2
AcDbPolyline
  3
AutoCAD 2000
 90
        0
280
     0
281
     1
  0
CLASS
  1
HATCH
  2
AcDbHatch
  3
AutoCAD 2000
 90
        0
280
     0
281
     1
  0
CLASS
  1
XRECORD
  2
AcDbXrecord
  3
AutoCAD 2000
 90
        0
280
     0
281
     0
  0
ENDSEC
  0
SECTION
  2
TABLES
  0
TABLE
  2
VPORT
  5
8
330
0
100
AcDbSymbolTable
 70
     2
  0
VPORT
  5
1B4E0
330
8
100
AcDbSymbolTableRecord
100
AcDbViewportTableRecord
  2
*ACTIVE
 70
     0
 10
0.0
 20
0.0
 11
1.0
 21
1.0
 12
435.9320220864717
 22
323.413175323085
 13
0.0
 23
0.0
 14
10.0
 24
10.0
 15
10.0
 25
10.0
 16
0.0
 26
0.0
 36
1.0
 17
0.0
 27
0.0
 37
0.0
 40
528.5880370340489
 41
1.527918781725888
 42
50.0
 43
0.0
 44
0.0
 50
0.0
 51
0.0
 71
     0
 72
   100
 73
     1
 74
     0
 75
     0
 76
     0
 77
     0
 78
     0
  0
ENDTAB
  0
TABLE
  2
LTYPE
  5
5
330
0
100
AcDbSymbolTable
 70
     8
  0
LTYPE
  5
12
330
5
100
AcDbSymbolTableRecord
100
AcDbLinetypeTableRecord
  2
BYBLOCK
 70
     0
  3

 72
    65
 73
     0
 40
0.0
  0
LTYPE
  5
13
330
5
100
AcDbSymbolTableRecord
100
AcDbLinetypeTableRecord
  2
BYLAYER
 70
     0
  3

 72
    65
 73
     0
 40
0.0
  0
LTYPE
  5
14
330
5
100
AcDbSymbolTableRecord
100
AcDbLinetypeTableRecord
  2
CONTINUOUS
 70
     0
  3
Solid line
 72
    65
 73
     0
 40
0.0
  0
LTYPE
  5
126C
330
5
100
AcDbSymbolTableRecord
100
AcDbLinetypeTableRecord
  2
CENTER
 70
     0
  3
____ _ ____ _ ____ _ ____ _ ____ _ ____ _ ____
 72
    65
 73
     4
 40
2.0
 49
1.25
 74
     0
 49
-0.25
 74
     0
 49
0.25
 74
     0
 49
-0.25
 74
     0
  0
LTYPE
  5
126E
330
5
100
AcDbSymbolTableRecord
100
AcDbLinetypeTableRecord
  2
DASHDOT
 70
     0
  3
__ . __ . __ . __ . __ . __ . __ . __ . __ . __
 72
    65
 73
     4
 40
1.0
 49
0.5
 74
     0
 49
-0.25
 74
     0
 49
0.0
 74
     0
 49
-0.25
 74
     0
  0
LTYPE
  5
1541F
330
5
100
AcDbSymbolTableRecord
100
AcDbLinetypeTableRecord
  2
HIDDEN
 70
     0
  3
_ _ _ _ _ _ _ _ _ _ _ _ _ _ _ _ _ _ _ _ _ _ _
 72
    65
 73
     2
 40
0.375
 49
0.25
 74
     0
 49
-0.125
 74
     0
  0
LTYPE
  5
15420
330
5
100
AcDbSymbolTableRecord
100
AcDbLinetypeTableRecord
  2
CENTER2
 70
     0
  3
Center (.5x) ___ _ ___ _ ___ _ ___ _ ___ _ ___
 72
    65
 73
     4
 40
1.125
 49
0.75
 74
     0
 49
-0.125
 74
     0
 49
0.125
 74
     0
 49
-0.125
 74
     0
  0
LTYPE
  5
15421
330
5
100
AcDbSymbolTableRecord
100
AcDbLinetypeTableRecord
  2
PHANTOM2
 70
     0
  3
Phantom (.5x) ___ _ _ ___ _ _ ___ _ _ ___ _ _
 72
    65
 73
     6
 40
1.25
 49
0.625
 74
     0
 49
-0.125
 74
     0
 49
0.125
 74
     0
 49
-0.125
 74
     0
 49
0.125
 74
     0
 49
-0.125
 74
     0
  0
LTYPE
  5
17303
330
5
100
AcDbSymbolTableRecord
100
AcDbLinetypeTableRecord
  2
HIDDEN2
 70
     0
  3
Hidden (.5x) _ _ _ _ _ _ _ _ _ _ _ _ _ _ _ _ _
 72
    65
 73
     2
 40
0.1875
 49
0.125
 74
     0
 49
-0.0625
 74
     0
  0
LTYPE
  5
19C54
330
5
100
AcDbSymbolTableRecord
100
AcDbLinetypeTableRecord
  2
PHANTOM
 70
     0
  3
Phantom ______  __  __  ______  __  __  ______
 72
    65
 73
     6
 40
2.5
 49
1.25
 74
     0
 49
-0.25
 74
     0
 49
0.25
 74
     0
 49
-0.25
 74
     0
 49
0.25
 74
     0
 49
-0.25
 74
     0
  0
ENDTAB
  0
TABLE
  2
LAYER
  5
2
102
{ACAD_XDICTIONARY
360
1B2AE
102
}
330
0
100
AcDbSymbolTable
 70
    19
  0
LAYER
  5
E
330
2
100
AcDbSymbolTableRecord
100
AcDbLayerTableRecord
  2
0
 70
     2
 62
     7
  6
CONTINUOUS
  0
LAYER
  5
2C
330
2
100
AcDbSymbolTableRecord
100
AcDbLayerTableRecord
  2
M_VIEW
 70
     4
 62
    -1
  6
CONTINUOUS
  0
LAYER
  5
30
330
2
100
AcDbSymbolTableRecord
100
AcDbLayerTableRecord
  2
FRAME025
 70
     0
 62
     7
  6
CONTINUOUS
  0
LAYER
  5
12B
330
2
100
AcDbSymbolTableRecord
100
AcDbLayerTableRecord
  2
DEFPOINTS
 70
     4
 62
    -7
  6
CONTINUOUS
  0
LAYER
  5
651
330
2
100
AcDbSymbolTableRecord
100
AcDbLayerTableRecord
  2
FRAME020
 70
     0
 62
     7
  6
CONTINUOUS
  0
LAYER
  5
1271
330
2
100
AcDbSymbolTableRecord
100
AcDbLayerTableRecord
  2
A
 70
     0
 62
     7
  6
CONTINUOUS
  0
LAYER
  5
A9BB
330
2
100
AcDbSymbolTableRecord
100
AcDbLayerTableRecord
  2
文字
 70
     0
 62
     7
  6
CONTINUOUS
  0
LAYER
  5
15422
330
2
100
AcDbSymbolTableRecord
100
AcDbLayerTableRecord
  2
細線
 70
     0
 62
     7
  6
CONTINUOUS
  0
LAYER
  5
15424
330
2
100
AcDbSymbolTableRecord
100
AcDbLayerTableRecord
  2
HIDDEN
 70
     0
 62
     7
  6
HIDDEN
  0
LAYER
  5
15425
330
2
100
AcDbSymbolTableRecord
100
AcDbLayerTableRecord
  2
中心線
 70
     0
 62
     7
  6
CENTER2
  0
LAYER
  5
15426
330
2
100
AcDbSymbolTableRecord
100
AcDbLayerTableRecord
  2
仮想線
 70
     0
 62
     7
  6
PHANTOM2
  0
LAYER
  5
17304
330
2
100
AcDbSymbolTableRecord
100
AcDbLayerTableRecord
  2
破線
 70
     0
 62
     7
  6
HIDDEN2
  0
LAYER
  5
199DC
330
2
100
AcDbSymbolTableRecord
100
AcDbLayerTableRecord
  2
ﾍ__ｽ
 70
     0
 62
     7
  6
CONTINUOUS
  0
LAYER
  5
19C55
330
2
100
AcDbSymbolTableRecord
100
AcDbLayerTableRecord
  2
２点鎖線
 70
     0
 62
     7
  6
PHANTOM
  0
LAYER
  5
1A772
330
2
100
AcDbSymbolTableRecord
100
AcDbLayerTableRecord
  2
ｷｬｯﾌ_ﾎ_ﾙﾄ
 70
     0
 62
     7
  6
CONTINUOUS
  0
ENDTAB
  0
TABLE
  2
STYLE
  5
3
330
0
100
AcDbSymbolTable
 70
     4
  0
STYLE
  5
F
330
3
100
AcDbSymbolTableRecord
100
AcDbTextStyleTableRecord
  2
STANDARD
 70
     0
 40
0.0
 41
1.0
 50
0.0
 71
     0
 42
2.5
  3
isocp.shx
  4
bigfont.shx
  0
STYLE
  5
35
330
3
100
AcDbSymbolTableRecord
100
AcDbTextStyleTableRecord
  2
MSｺ_ｼｯｸ
 70
     0
 40
0.0
 41
1.0
 50
0.0
 71
     0
 42
5.0
  3
MS Gothic.ttf
  4

1001
ACAD
1000
MS Gothic
1071
    32817
  0
STYLE
  5
1275
330
3
100
AcDbSymbolTableRecord
100
AcDbTextStyleTableRecord
  2
BIGFONT
 70
     0
 40
2.0
 41
1.0
 50
0.0
 71
     0
 42
2.0
  3
txt.shx
  4
bigfont.shx
  0
ENDTAB
  0
TABLE
  2
VIEW
  5
6
330
0
100
AcDbSymbolTable
 70
     0
  0
ENDTAB
  0
TABLE
  2
UCS
  5
7
330
0
100
AcDbSymbolTable
 70
     0
  0
ENDTAB
  0
TABLE
  2
APPID
  5
9
330
0
100
AcDbSymbolTable
 70
     3
  0
APPID
  5
10
330
9
100
AcDbSymbolTableRecord
100
AcDbRegAppTableRecord
  2
ACAD
 70
     0
  0
APPID
  5
F013
330
9
100
AcDbSymbolTableRecord
100
AcDbRegAppTableRecord
  2
CONTENTBLOCKDESCRIPTION
 70
     0
  0
APPID
  5
F014
330
9
100
AcDbSymbolTableRecord
100
AcDbRegAppTableRecord
  2
CONTENTBLOCKICON
 70
     0
  0
ENDTAB
  0
TABLE
  2
DIMSTYLE
  5
A
330
0
100
AcDbSymbolTable
 70
     2
  0
DIMSTYLE
105
1D
330
A
100
AcDbSymbolTableRecord
100
AcDbDimStyleTableRecord
  2
STANDARD
 70
     0
  3

  4

  5

  6

  7

 40
1.0
 41
0.18
 42
0.0625
 43
0.38
 44
0.18
 45
0.0
 46
0.0
 47
0.0
 48
0.0
140
0.18
141
0.09
142
0.0
143
25.4
144
1.0
145
0.0
146
1.0
147
0.09
 71
     0
 72
     0
 73
     1
 74
     1
 75
     0
 76
     0
 77
     0
 78
     0
170
     0
171
     2
172
     0
173
     0
174
     0
175
     0
176
     0
177
     0
178
     0
270
     2
271
     4
272
     4
273
     2
274
     2
340
F
275
     0
280
     0
281
     0
282
     0
283
     1
284
     0
285
     0
286
     0
287
     3
288
     0
  0
ENDTAB
  0
TABLE
  2
BLOCK_RECORD
  5
1
330
0
100
AcDbSymbolTable
 70
    37
  0
BLOCK_RECORD
  5
18
102
{ACAD_XDICTIONARY
360
EFC6
102
}
330
1
100
AcDbSymbolTableRecord
100
AcDbBlockTableRecord
  2
*MODEL_SPACE
  0
BLOCK_RECORD
  5
15
102
{ACAD_XDICTIONARY
360
EFC4
102
}
330
1
100
AcDbSymbolTableRecord
100
AcDbBlockTableRecord
  2
*PAPER_SPACE
  0
BLOCK_RECORD
  5
115C
330
1
100
AcDbSymbolTableRecord
100
AcDbBlockTableRecord
  2
機械A4横_LBP
  0
BLOCK_RECORD
  5
1215D
330
1
100
AcDbSymbolTableRecord
100
AcDbBlockTableRecord
  2
_OPEN30
  0
ENDTAB
  0
ENDSEC
  0
SECTION
  2
BLOCKS
  0
BLOCK
  5
19
330
18
100
AcDbEntity
  8
0
100
AcDbBlockBegin
  2
*MODEL_SPACE
 70
     0
 10
0.0
 20
0.0
 30
0.0
  3
*MODEL_SPACE
  1

  0
ENDBLK
  5
1A
330
18
100
AcDbEntity
  8
0
100
AcDbBlockEnd
  0
BLOCK
  5
16
330
15
100
AcDbEntity
 67
     1
  8
0
100
AcDbBlockBegin
  2
*PAPER_SPACE
 70
     0
 10
0.0
 20
0.0
 30
0.0
  3
*PAPER_SPACE
  1

  0
ENDBLK
  5
17
330
15
100
AcDbEntity
 67
     1
  8
0
100
AcDbBlockEnd
  0
BLOCK
  5
115D
330
115C
100
AcDbEntity
  8
0
100
AcDbBlockBegin
  2
機械A4横_LBP
 70
     0
 10
0.0
 20
0.0
 30
0.0
  3
機械A4横_LBP
  1

  0
ENDBLK
  5
115E
330
115C
100
AcDbEntity
  8
0
100
AcDbBlockEnd
  0
BLOCK
  5
12161
330
1215D
100
AcDbEntity
  8
0
100
AcDbBlockBegin
  2
_OPEN30
 70
     0
 10
0.0
 20
0.0
 30
0.0
  3
_OPEN30
  1

  0
LINE
  5
1215E
330
1215D
100
AcDbEntity
  8
0
  6
BYBLOCK
 62
     0
100
AcDbLine
 10
-1.0
 20
0.26794919
 30
0.0
 11
0.0
 21
0.0
 31
0.0
  0
LINE
  5
1215F
330
1215D
100
AcDbEntity
  8
0
  6
BYBLOCK
 62
     0
100
AcDbLine
 10
0.0
 20
0.0
 30
0.0
 11
-1.0
 21
-0.26794919
 31
0.0
  0
LINE
  5
12160
330
1215D
100
AcDbEntity
  8
0
  6
BYBLOCK
 62
     0
100
AcDbLine
 10
0.0
 20
0.0
 30
0.0
 11
-1.0
 21
0.0
 31
0.0
  0
ENDBLK
  5
12162
330
1215D
100
AcDbEntity
  8
0
100
AcDbBlockEnd
  0
ENDSEC
  0
SECTION
  2
ENTITIES
  0
INSERT
  5
1160
330
18
100
AcDbEntity
  8
FRAME025
100
AcDbBlockReference
  2
機械A4横_LBP
 10
66.00059629174575
 20
114.4379043572399
 30
0.0
  0
MTEXT
  5
1405
330
18
100
AcDbEntity
  8
0
  6
DASHDOT
100
AcDbMText
 10
163.682726410024
 20
430.5785054452221
 30
0.0
 40
1.0
 41
2.0
 71
     1
 72
     5
  1

  7
BIGFONT
1001
ACAD
1000
MTEXTBEGIN
1070
    73
1070
     1
1070
    44
1040
1.0
1070
    74
1070
     0
1000
MTEXTEND
1000
MTEXTBEGIN
1070
    73
1070
     1
1070
    44
1040
1.0
1070
    74
1070
     0
1000
MTEXTEND
  0
MTEXT
  5
1406
330
18
100
AcDbEntity
  8
0
  6
CENTER
100
AcDbMText
 10
401.3606673541956
 20
323.7890106174461
 30
0.0
 40
2.0
 41
15.6417
 71
     1
 72
     5
  1

  7
BIGFONT
1001
ACAD
1000
MTEXTBEGIN
1070
    73
1070
     1
1070
    44
1040
1.0
1070
    74
1070
     0
1000
MTEXTEND
1000
MTEXTBEGIN
1070
    73
1070
     1
1070
    44
1040
1.0
1070
    74
1070
     0
1000
MTEXTEND
  0
MTEXT
  5
1407
330
18
100
AcDbEntity
  8
0
100
AcDbMText
 10
75.77239017043272
 20
222.8564838730205
 30
0.0
 40
2.0
 41
0.0
 71
     1
 72
     5
  1

1001
ACAD
1000
MTEXTBEGIN
1070
    73
1070
     1
1070
    44
1040
1.0
1070
    74
1070
     0
1000
MTEXTEND
1000
MTEXTBEGIN
1070
    73
1070
     1
1070
    44
1040
1.0
1070
    74
1070
     0
1000
MTEXTEND
  0
MTEXT
  5
1408
330
18
100
AcDbEntity
  8
0
100
AcDbMText
 10
120.1718819235825
 20
254.48796746601
 30
0.0
 40
2.0
 41
10.1453
 71
     1
 72
     5
  1

 11
-0.0000000000000002
 21
-1.0
 31
0.0
1001
ACAD
1000
MTEXTBEGIN
1070
    73
1070
     1
1070
    44
1040
1.0
1070
    74
1070
     0
1000
MTEXTEND
1000
MTEXTBEGIN
1070
    73
1070
     1
1070
    44
1040
1.0
1070
    74
1070
     0
1000
MTEXTEND
  0
MTEXT
  5
142F
330
18
100
AcDbEntity
  8
0
  6
BYBLOCK
100
AcDbMText
 10
155.9513799082503
 20
329.2674780082993
 30
0.0
 40
2.0
 41
0.0
 71
     7
 72
     5
  1

 11
0.0000000000000001
 21
1.0
 31
0.0
1001
ACAD
1000
MTEXTBEGIN
1070
    73
1070
     1
1070
    44
1040
1.0
1070
    74
1070
     0
1000
MTEXTEND
1000
MTEXTBEGIN
1070
    73
1070
     1
1070
    44
1040
1.0
1070
    74
1070
     0
1000
MTEXTEND
  0
MTEXT
  5
1430
330
18
100
AcDbEntity
  8
0
  6
BYBLOCK
100
AcDbMText
 10
120.4859915450975
 20
340.0607863667167
 30
0.0
 40
2.0
 41
0.0
 71
     4
 72
     5
  1

 11
-0.0000000000000002
 21
-1.0
 31
0.0
1001
ACAD
1000
MTEXTBEGIN
1070
    73
1070
     1
1070
    44
1040
1.0
1070
    74
1070
     0
1000
MTEXTEND
1000
MTEXTBEGIN
1070
    73
1070
     1
1070
    44
1040
1.0
1070
    74
1070
     0
1000
MTEXTEND
  0
MTEXT
  5
1532
330
18
100
AcDbEntity
  8
0
  6
DASHDOT
100
AcDbMText
 10
163.6828134149741
 20
430.5785054452221
 30
0.0
 40
1.0
 41
2.0
 71
     1
 72
     5
  1

  7
BIGFONT
1001
ACAD
1000
MTEXTBEGIN
1070
    73
1070
     1
1070
    44
1040
1.0
1070
    74
1070
     0
1000
MTEXTEND
1000
MTEXTBEGIN
1070
    73
1070
     1
1070
    44
1040
1.0
1070
    74
1070
     0
1000
MTEXTEND
  0
MTEXT
  5
1533
330
18
100
AcDbEntity
  8
0
  6
CENTER
100
AcDbMText
 10
401.360754359146
 20
323.7890106174461
 30
0.0
 40
2.0
 41
15.6417
 71
     1
 72
     5
  1

  7
BIGFONT
1001
ACAD
1000
MTEXTBEGIN
1070
    73
1070
     1
1070
    44
1040
1.0
1070
    74
1070
     0
1000
MTEXTEND
1000
MTEXTBEGIN
1070
    73
1070
     1
1070
    44
1040
1.0
1070
    74
1070
     0
1000
MTEXTEND
  0
MTEXT
  5
1534
330
18
100
AcDbEntity
  8
0
100
AcDbMText
 10
75.77247717538298
 20
222.8564838730205
 30
0.0
 40
2.0
 41
0.0
 71
     1
 72
     5
  1

1001
ACAD
1000
MTEXTBEGIN
1070
    73
1070
     1
1070
    44
1040
1.0
1070
    74
1070
     0
1000
MTEXTEND
1000
MTEXTBEGIN
1070
    73
1070
     1
1070
    44
1040
1.0
1070
    74
1070
     0
1000
MTEXTEND
  0
MTEXT
  5
1535
330
18
100
AcDbEntity
  8
0
100
AcDbMText
 10
120.1719689285329
 20
254.48796746601
 30
0.0
 40
2.0
 41
10.1453
 71
     1
 72
     5
  1

 11
-0.0000000000000002
 21
-1.0
 31
0.0
1001
ACAD
1000
MTEXTBEGIN
1070
    73
1070
     1
1070
    44
1040
1.0
1070
    74
1070
     0
1000
MTEXTEND
1000
MTEXTBEGIN
1070
    73
1070
     1
1070
    44
1040
1.0
1070
    74
1070
     0
1000
MTEXTEND
  0
MTEXT
  5
155C
330
18
100
AcDbEntity
  8
0
  6
BYBLOCK
100
AcDbMText
 10
155.9514669132003
 20
329.2674780082993
 30
0.0
 40
2.0
 41
0.0
 71
     7
 72
     5
  1

 11
0.0000000000000001
 21
1.0
 31
0.0
1001
ACAD
1000
MTEXTBEGIN
1070
    73
1070
     1
1070
    44
1040
1.0
1070
    74
1070
     0
1000
MTEXTEND
1000
MTEXTBEGIN
1070
    73
1070
     1
1070
    44
1040
1.0
1070
    74
1070
     0
1000
MTEXTEND
  0
MTEXT
  5
155D
330
18
100
AcDbEntity
  8
0
  6
BYBLOCK
100
AcDbMText
 10
120.4860785500478
 20
340.0607863667167
 30
0.0
 40
2.0
 41
0.0
 71
     4
 72
     5
  1

 11
-0.0000000000000002
 21
-1.0
 31
0.0
1001
ACAD
1000
MTEXTBEGIN
1070
    73
1070
     1
1070
    44
1040
1.0
1070
    74
1070
     0
1000
MTEXTEND
1000
MTEXTBEGIN
1070
    73
1070
     1
1070
    44
1040
1.0
1070
    74
1070
     0
1000
MTEXTEND
  0
TEXT
  5
2279
330
18
100
AcDbEntity
  8
A
100
AcDbText
 10
-37.81881037320381
 20
322.0637567728283
 30
0.0
 40
3.524999999999999
  1
�    
100
AcDbText
  0
TEXT
  5
2283
330
18
100
AcDbEntity
  8
A
100
AcDbText
 10
-185.7439103235753
 20
-107.9032633455339
 30
0.0
 40
2.5
  1

 41
0.5
  7
MSｺ_ｼｯｸ
100
AcDbText
  0
TEXT
  5
2293
330
18
100
AcDbEntity
  8
A
100
AcDbText
 10
-177.9189103235753
 20
-107.9032633455339
 30
0.0
 40
2.5
  1

  7
MSｺ_ｼｯｸ
100
AcDbText
  0
LINE
  5
15869
330
18
100
AcDbEntity
  8
0
100
AcDbLine
 10
369.7560831073638
 20
439.8438627962954
 30
0.0
 11
370.2560831073636
 21
439.8438627962953
 31
0.0
  0
LINE
  5
1586A
330
18
100
AcDbEntity
  8
破線
100
AcDbLine
 10
367.4562163617585
 20
280.3527994879971
 30
0.0
 11
480.9562162443371
 21
280.3527994879971
 31
0.0
  0
LINE
  5
1586B
330
18
100
AcDbEntity
  8
破線
100
AcDbLine
 10
367.4562163617585
 20
345.3527994879972
 30
0.0
 11
480.9562162443371
 21
345.3527994879966
 31
0.0
  0
LINE
  5
1586C
330
18
100
AcDbEntity
  8
0
100
AcDbLine
 10
370.7471464156617
 20
185.852799487997
 30
0.0
 11
448.6562162443371
 21
185.8527994879968
 31
0.0
  0
LINE
  5
15873
330
18
100
AcDbEntity
  8
0
100
AcDbLine
 10
369.7560831073638
 20
185.8438627962955
 30
0.0
 11
369.7560831073638
 21
439.8438627962953
 31
0.0
  0
LINE
  5
15874
330
18
100
AcDbEntity
  8
0
100
AcDbLine
 10
370.2560831073636
 20
185.8438627962955
 30
0.0
 11
370.2560831073636
 21
439.8438627962953
 31
0.0
  0
LINE
  5
15875
330
18
100
AcDbEntity
  8
0
100
AcDbLine
 10
368.4562163617544
 20
220.3527994879971
 30
0.0
 11
368.4562163617562
 21
405.3527994879972
 31
0.0
  0
LINE
  5
15876
330
18
100
AcDbEntity
  8
0
100
AcDbLine
 10
365.4562163617585
 20
232.3527994879973
 30
0.0
 11
365.4562163617585
 21
393.3527994879955
 31
0.0
  0
LINE
  5
15967
330
18
100
AcDbEntity
  8
0
100
AcDbLine
 10
368.4562163617544
 20
220.3527994879971
 30
0.0
 11
369.7560831073638
 21
220.3527994879971
 31
0.0
  0
LINE
  5
15968
330
18
100
AcDbEntity
  8
0
100
AcDbLine
 10
365.9562163617586
 20
231.8527994879969
 30
0.0
 11
368.4562163617545
 21
231.8527994879969
 31
0.0
  0
LINE
  5
1596A
330
18
100
AcDbEntity
  8
0
100
AcDbLine
 10
365.9562163617586
 20
231.8527994879969
 30
0.0
 11
365.4562163617586
 21
232.352799487997
 31
0.0
  0
LINE
  5
15A78
330
18
100
AcDbEntity
  8
0
100
AcDbLine
 10
365.9562163617601
 20
393.8527994879972
 30
0.0
 11
368.456216361756
 21
393.8527994879972
 31
0.0
  0
LINE
  5
15A7A
330
18
100
AcDbEntity
  8
0
100
AcDbLine
 10
365.9562163617601
 20
393.8527994879972
 30
0.0
 11
365.4562163617601
 21
393.3527994879972
 31
0.0
  0
LINE
  5
15A7C
330
18
100
AcDbEntity
  8
0
100
AcDbLine
 10
368.4562163617562
 20
405.3527994879972
 30
0.0
 11
369.7560831073638
 21
405.3527994879972
 31
0.0
  0
LINE
  5
15AA7
330
18
100
AcDbEntity
  8
0
100
AcDbLine
 10
483.9562162443358
 20
390.3524994879956
 30
0.0
 11
483.9562162443358
 21
235.3530994879958
 31
0.0
  0
LINE
  5
15AA9
330
18
100
AcDbEntity
  8
0
100
AcDbLine
 10
480.9562162443371
 20
186.3527994879966
 30
0.0
 11
480.9562162443373
 21
439.1027994879961
 31
0.0
  0
LINE
  5
15AF1
330
18
100
AcDbEntity
  8
0
100
AcDbLine
 10
480.9562162443371
 20
186.3527994879966
 30
0.0
 11
480.4562162443371
 21
185.8527994879964
 31
0.0
  0
LINE
  5
15B1A
330
18
100
AcDbEntity
  8
0
100
AcDbLine
 10
483.4562162443358
 20
234.8530994879959
 30
0.0
 11
480.9562162443373
 21
234.8530994879959
 31
0.0
  0
LINE
  5
15B1B
330
18
100
AcDbEntity
  8
0
100
AcDbLine
 10
497.4562162443373
 20
260.8527994879971
 30
0.0
 11
501.9562162443376
 21
255.5813709165693
 31
0.0
  0
ARC
  5
15B1C
330
18
100
AcDbEntity
  8
0
100
AcDbCircle
 10
489.4824197267683
 20
260.5517146745873
 30
0.0
 40
9.015903847971632
100
AcDbArc
 50
332.1795611441597
 51
354.4603666814933
  0
LINE
  5
15B1D
330
18
100
AcDbEntity
  8
0
100
AcDbLine
 10
497.4562162443373
 20
239.852799487997
 30
0.0
 11
501.9562162443376
 21
245.124228059425
 31
0.0
  0
ARC
  5
15B1E
330
18
100
AcDbEntity
  8
0
100
AcDbCircle
 10
489.4824197267683
 20
240.153884301407
 30
0.0
 40
9.015903847971632
100
AcDbArc
 50
5.539633318506646
 51
27.82043885584017
  0
LINE
  5
15B20
330
18
100
AcDbEntity
  8
0
100
AcDbLine
 10
498.4562162443372
 20
259.6813709165684
 30
0.0
 11
498.4562162443376
 21
241.024228059426
 31
0.0
  0
LINE
  5
15B21
330
18
100
AcDbEntity
  8
0
100
AcDbLine
 10
486.4562162443376
 20
260.8527994879971
 30
0.0
 11
486.4562162443376
 21
239.852799487997
 31
0.0
  0
LINE
  5
15B22
330
18
100
AcDbEntity
  8
0
100
AcDbLine
 10
491.4562162443377
 20
260.8527994879971
 30
0.0
 11
491.4562162443377
 21
239.852799487997
 31
0.0
  0
LINE
  5
15B23
330
18
100
AcDbEntity
  8
0
100
AcDbLine
 10
488.4562162443374
 20
259.8527994879971
 30
0.0
 11
488.4562162443374
 21
240.8527994879971
 31
0.0
  0
LINE
  5
15B24
330
18
100
AcDbEntity
  8
0
100
AcDbLine
 10
488.4562162443374
 20
240.8527994879971
 30
0.0
 11
491.4562162443377
 21
240.8527994879971
 31
0.0
  0
LINE
  5
15B25
330
18
100
AcDbEntity
  8
0
100
AcDbLine
 10
486.4562162443376
 20
242.9527994879967
 30
0.0
 11
488.4562162443374
 21
242.9527994879967
 31
0.0
  0
LINE
  5
15B26
330
18
100
AcDbEntity
  8
0
100
AcDbLine
 10
483.9562162443371
 20
239.852799487997
 30
0.0
 11
486.4562162443376
 21
239.852799487997
 31
0.0
  0
LINE
  5
15B27
330
18
100
AcDbEntity
  8
0
100
AcDbLine
 10
491.4562162443377
 20
239.852799487997
 30
0.0
 11
497.4562162443373
 21
239.852799487997
 31
0.0
  0
ARC
  5
15B28
330
18
100
AcDbEntity
  8
0
100
AcDbCircle
 10
487.9562162443374
 20
250.352799487997
 30
0.0
 40
10.50000000000042
100
AcDbArc
 50
334.7912347032388
 51
25.20876529676096
  0
LINE
  5
15B29
330
18
100
AcDbEntity
  8
0
100
AcDbLine
 10
486.4562162443376
 20
244.3616261295454
 30
0.0
 11
483.9562162443371
 21
244.3616261295454
 31
0.0
  0
LINE
  5
15B2A
330
18
100
AcDbEntity
  8
0
100
AcDbLine
 10
486.4562162443376
 20
245.8806635329978
 30
0.0
 11
483.9562162443371
 21
245.8806635329978
 31
0.0
  0
LINE
  5
15B2B
330
18
100
AcDbEntity
  8
0
100
AcDbLine
 10
497.4562162443374
 20
245.8806635329978
 30
0.0
 11
497.4562162443374
 21
244.3616261295454
 31
0.0
  0
LINE
  5
15B2C
330
18
100
AcDbEntity
  8
0
100
AcDbLine
 10
497.4562162443374
 20
245.8806635329978
 30
0.0
 11
491.4562162443377
 21
245.8806635329978
 31
0.0
  0
LINE
  5
15B2D
330
18
100
AcDbEntity
  8
0
100
AcDbLine
 10
497.4562162443374
 20
244.3616261295454
 30
0.0
 11
491.4562162443377
 21
244.3616261295454
 31
0.0
  0
LINE
  5
15B2E
330
18
100
AcDbEntity
  8
0
100
AcDbLine
 10
488.4562162443374
 20
259.8527994879971
 30
0.0
 11
491.4562162443377
 21
259.8527994879971
 31
0.0
  0
LINE
  5
15B2F
330
18
100
AcDbEntity
  8
0
100
AcDbLine
 10
483.9562162443371
 20
254.824935442997
 30
0.0
 11
486.4562162443376
 21
254.824935442997
 31
0.0
  0
LINE
  5
15B30
330
18
100
AcDbEntity
  8
0
100
AcDbLine
 10
483.9562162443371
 20
256.3439728464493
 30
0.0
 11
486.4562162443376
 21
256.3439728464493
 31
0.0
  0
LINE
  5
15B31
330
18
100
AcDbEntity
  8
0
100
AcDbLine
 10
486.4562162443376
 20
257.7527994879968
 30
0.0
 11
488.4562162443374
 21
257.7527994879968
 31
0.0
  0
LINE
  5
15B32
330
18
100
AcDbEntity
  8
0
100
AcDbLine
 10
483.9562162443371
 20
260.8527994879971
 30
0.0
 11
486.4562162443376
 21
260.8527994879971
 31
0.0
  0
LINE
  5
15B33
330
18
100
AcDbEntity
  8
0
100
AcDbLine
 10
497.4562162443374
 20
256.3439728464493
 30
0.0
 11
497.4562162443374
 21
254.824935442997
 31
0.0
  0
LINE
  5
15B34
330
18
100
AcDbEntity
  8
0
100
AcDbLine
 10
491.4562162443377
 20
254.824935442997
 30
0.0
 11
497.4562162443374
 21
254.824935442997
 31
0.0
  0
LINE
  5
15B35
330
18
100
AcDbEntity
  8
0
100
AcDbLine
 10
491.4562162443377
 20
256.3439728464493
 30
0.0
 11
497.4562162443374
 21
256.3439728464493
 31
0.0
  0
LINE
  5
15B36
330
18
100
AcDbEntity
  8
0
100
AcDbLine
 10
491.4562162443377
 20
260.8527994879971
 30
0.0
 11
497.4562162443374
 21
260.8527994879971
 31
0.0
  0
LINE
  5
15B39
330
18
100
AcDbEntity
  8
0
100
AcDbLine
 10
501.9562162443376
 20
255.5813709165693
 30
0.0
 11
501.9562162443376
 21
245.124228059425
 31
0.0
  0
ARC
  5
15BA1
330
18
100
AcDbEntity
  8
0
100
AcDbCircle
 10
487.9562162443384
 20
375.3527994879973
 30
0.0
 40
10.50000000000042
100
AcDbArc
 50
334.7912347032388
 51
25.20876529676096
  0
LINE
  5
15BA2
330
18
100
AcDbEntity
  8
0
100
AcDbLine
 10
501.9562162443381
 20
370.1242280594247
 30
0.0
 11
501.9562162443386
 21
380.5813709165689
 31
0.0
  0
LINE
  5
15BA3
330
18
100
AcDbEntity
  8
0
100
AcDbLine
 10
491.4562162443381
 20
364.8527994879973
 30
0.0
 11
491.4562162443386
 21
385.8527994879973
 31
0.0
  0
LINE
  5
15BA4
330
18
100
AcDbEntity
  8
0
100
AcDbLine
 10
498.456216244338
 20
366.024228059426
 30
0.0
 11
498.4562162443386
 21
384.6813709165685
 31
0.0
  0
LINE
  5
15BA5
330
18
100
AcDbEntity
  8
0
100
AcDbLine
 10
488.4562162443381
 20
365.8527994879972
 30
0.0
 11
488.4562162443386
 21
384.8527994879972
 31
0.0
  0
LINE
  5
15BA6
330
18
100
AcDbEntity
  8
0
100
AcDbLine
 10
486.4562162443381
 20
364.8527994879973
 30
0.0
 11
486.4562162443386
 21
385.8527994879973
 31
0.0
  0
ARC
  5
15BAA
330
18
100
AcDbEntity
  8
0
100
AcDbCircle
 10
489.4824197267688
 20
365.1538843014073
 30
0.0
 40
9.015903847971632
100
AcDbArc
 50
5.539633318506646
 51
27.82043885584017
  0
LINE
  5
15BAB
330
18
100
AcDbEntity
  8
0
100
AcDbLine
 10
497.4562162443374
 20
364.8527994879973
 30
0.0
 11
501.9562162443381
 21
370.1242280594247
 31
0.0
  0
LINE
  5
15BAF
330
18
100
AcDbEntity
  8
0
100
AcDbLine
 10
483.9562162443371
 20
364.8527994879973
 30
0.0
 11
486.4562162443381
 21
364.8527994879973
 31
0.0
  0
LINE
  5
15BB0
330
18
100
AcDbEntity
  8
0
100
AcDbLine
 10
491.4562162443381
 20
364.8527994879973
 30
0.0
 11
497.4562162443381
 21
364.8527994879973
 31
0.0
  0
LINE
  5
15BB1
330
18
100
AcDbEntity
  8
0
100
AcDbLine
 10
488.4562162443381
 20
365.8527994879972
 30
0.0
 11
491.4562162443381
 21
365.8527994879972
 31
0.0
  0
LINE
  5
15BB2
330
18
100
AcDbEntity
  8
0
100
AcDbLine
 10
483.9562162443371
 20
370.8806635329973
 30
0.0
 11
486.4562162443381
 21
370.8806635329973
 31
0.0
  0
LINE
  5
15BB3
330
18
100
AcDbEntity
  8
0
100
AcDbLine
 10
486.4562162443381
 20
367.9527994879975
 30
0.0
 11
488.4562162443381
 21
367.9527994879975
 31
0.0
  0
LINE
  5
15BB4
330
18
100
AcDbEntity
  8
0
100
AcDbLine
 10
483.9562162443371
 20
369.3616261295451
 30
0.0
 11
486.4562162443381
 21
369.3616261295451
 31
0.0
  0
LINE
  5
15BB5
330
18
100
AcDbEntity
  8
0
100
AcDbLine
 10
497.4562162443381
 20
369.3616261295446
 30
0.0
 11
497.4562162443381
 21
370.8806635329973
 31
0.0
  0
LINE
  5
15BB6
330
18
100
AcDbEntity
  8
0
100
AcDbLine
 10
491.4562162443381
 20
369.3616261295451
 30
0.0
 11
497.4562162443381
 21
369.3616261295446
 31
0.0
  0
LINE
  5
15BB7
330
18
100
AcDbEntity
  8
0
100
AcDbLine
 10
491.4562162443381
 20
370.8806635329973
 30
0.0
 11
497.4562162443381
 21
370.8806635329973
 31
0.0
  0
ARC
  5
15BBB
330
18
100
AcDbEntity
  8
0
100
AcDbCircle
 10
489.4824197267693
 20
385.5517146745873
 30
0.0
 40
9.015903847971632
100
AcDbArc
 50
332.1795611441597
 51
354.4603666814933
  0
LINE
  5
15BBC
330
18
100
AcDbEntity
  8
0
100
AcDbLine
 10
497.4562162443381
 20
385.8527994879973
 30
0.0
 11
501.9562162443386
 21
380.5813709165689
 31
0.0
  0
LINE
  5
15BBD
330
18
100
AcDbEntity
  8
0
100
AcDbLine
 10
488.4562162443386
 20
384.8527994879972
 30
0.0
 11
491.4562162443386
 21
384.8527994879972
 31
0.0
  0
LINE
  5
15BBE
330
18
100
AcDbEntity
  8
0
100
AcDbLine
 10
486.4562162443386
 20
382.7527994879979
 30
0.0
 11
488.4562162443386
 21
382.7527994879979
 31
0.0
  0
LINE
  5
15BBF
330
18
100
AcDbEntity
  8
0
100
AcDbLine
 10
486.4562162443386
 20
381.3439728464491
 30
0.0
 11
483.9562162443371
 21
381.3439728464491
 31
0.0
  0
LINE
  5
15BC0
330
18
100
AcDbEntity
  8
0
100
AcDbLine
 10
486.4562162443386
 20
379.8249354429966
 30
0.0
 11
483.9562162443371
 21
379.8249354429966
 31
0.0
  0
LINE
  5
15BC1
330
18
100
AcDbEntity
  8
0
100
AcDbLine
 10
497.4562162443386
 20
379.8249354429966
 30
0.0
 11
497.4562162443386
 21
381.3439728464491
 31
0.0
  0
LINE
  5
15BC2
330
18
100
AcDbEntity
  8
0
100
AcDbLine
 10
497.4562162443386
 20
381.3439728464491
 30
0.0
 11
491.4562162443386
 21
381.3439728464491
 31
0.0
  0
LINE
  5
15BC3
330
18
100
AcDbEntity
  8
0
100
AcDbLine
 10
497.4562162443386
 20
379.8249354429966
 30
0.0
 11
491.4562162443386
 21
379.8249354429966
 31
0.0
  0
LINE
  5
15BC4
330
18
100
AcDbEntity
  8
0
100
AcDbLine
 10
483.9562162443371
 20
385.8527994879973
 30
0.0
 11
486.4562162443386
 21
385.8527994879973
 31
0.0
  0
LINE
  5
15BC5
330
18
100
AcDbEntity
  8
0
100
AcDbLine
 10
491.4562162443386
 20
385.8527994879973
 30
0.0
 11
497.4562162443381
 21
385.8527994879973
 31
0.0
  0
LINE
  5
15BC6
330
18
100
AcDbEntity
  8
0
100
AcDbLine
 10
483.4562162443358
 20
390.8524994879956
 30
0.0
 11
480.9562162443376
 21
390.8524994879956
 31
0.0
  0
LINE
  5
15BCB
330
18
100
AcDbEntity
  8
0
100
AcDbLine
 10
480.9562162443373
 20
439.3527994879963
 30
0.0
 11
480.4562162443373
 21
439.8527994879962
 31
0.0
  0
LINE
  5
16B87
330
18
100
AcDbEntity
  8
0
100
AcDbLine
 10
483.4562162443358
 20
234.8530994879959
 30
0.0
 11
483.9562162443358
 21
235.3530994879958
 31
0.0
  0
LINE
  5
16B88
330
18
100
AcDbEntity
  8
0
100
AcDbLine
 10
483.4562162443358
 20
390.8524994879956
 30
0.0
 11
483.9562162443358
 21
390.3524994879956
 31
0.0
  0
TEXT
  5
17C7B
330
18
100
AcDbEntity
  8
A
100
AcDbText
 10
44.01850172702464
 20
644.310732626116
 30
0.0
 40
2.5
  1

  7
MSｺ_ｼｯｸ
100
AcDbText
  0
TEXT
  5
17C7C
330
18
100
AcDbEntity
  8
A
100
AcDbText
 10
36.19350172702461
 20
644.310732626116
 30
0.0
 40
2.5
  1

 41
0.5
  7
MSｺ_ｼｯｸ
100
AcDbText
  0
TEXT
  5
17C7D
330
18
100
AcDbEntity
  8
A
100
AcDbText
 10
184.1186016773961
 20
1074.277752744478
 30
0.0
 40
3.524999999999999
  1
�    
100
AcDbText
  0
MTEXT
  5
17C7E
330
18
100
AcDbEntity
  8
0
  6
BYBLOCK
100
AcDbMText
 10
342.4234906006477
 20
1092.274782338366
 30
0.0
 40
2.0
 41
0.0
 71
     4
 72
     5
  1

 11
-0.0000000000000002
 21
-1.0
 31
0.0
1001
ACAD
1000
MTEXTBEGIN
1070
    73
1070
     1
1070
    44
1040
1.0
1070
    74
1070
     0
1000
MTEXTEND
1000
MTEXTBEGIN
1070
    73
1070
     1
1070
    44
1040
1.0
1070
    74
1070
     0
1000
MTEXTEND
  0
MTEXT
  5
17C7F
330
18
100
AcDbEntity
  8
0
  6
BYBLOCK
100
AcDbMText
 10
377.8888789638005
 20
1081.481473979948
 30
0.0
 40
2.0
 41
0.0
 71
     7
 72
     5
  1

 11
0.0000000000000001
 21
1.0
 31
0.0
1001
ACAD
1000
MTEXTBEGIN
1070
    73
1070
     1
1070
    44
1040
1.0
1070
    74
1070
     0
1000
MTEXTEND
1000
MTEXTBEGIN
1070
    73
1070
     1
1070
    44
1040
1.0
1070
    74
1070
     0
1000
MTEXTEND
  0
MTEXT
  5
17C80
330
18
100
AcDbEntity
  8
0
100
AcDbMText
 10
342.1093809791329
 20
1006.701963437659
 30
0.0
 40
2.0
 41
10.1453
 71
     1
 72
     5
  1

 11
-0.0000000000000002
 21
-1.0
 31
0.0
1001
ACAD
1000
MTEXTBEGIN
1070
    73
1070
     1
1070
    44
1040
1.0
1070
    74
1070
     0
1000
MTEXTEND
1000
MTEXTBEGIN
1070
    73
1070
     1
1070
    44
1040
1.0
1070
    74
1070
     0
1000
MTEXTEND
  0
MTEXT
  5
17C81
330
18
100
AcDbEntity
  8
0
100
AcDbMText
 10
297.7098892259828
 20
975.0704798446705
 30
0.0
 40
2.0
 41
0.0
 71
     1
 72
     5
  1

1001
ACAD
1000
MTEXTBEGIN
1070
    73
1070
     1
1070
    44
1040
1.0
1070
    74
1070
     0
1000
MTEXTEND
1000
MTEXTBEGIN
1070
    73
1070
     1
1070
    44
1040
1.0
1070
    74
1070
     0
1000
MTEXTEND
  0
MTEXT
  5
17C82
330
18
100
AcDbEntity
  8
0
  6
CENTER
100
AcDbMText
 10
623.2981664097457
 20
1076.003006589096
 30
0.0
 40
2.0
 41
15.6417
 71
     1
 72
     5
  1

  7
BIGFONT
1001
ACAD
1000
MTEXTBEGIN
1070
    73
1070
     1
1070
    44
1040
1.0
1070
    74
1070
     0
1000
MTEXTEND
1000
MTEXTBEGIN
1070
    73
1070
     1
1070
    44
1040
1.0
1070
    74
1070
     0
1000
MTEXTEND
  0
MTEXT
  5
17C83
330
18
100
AcDbEntity
  8
0
  6
DASHDOT
100
AcDbMText
 10
385.6202254655741
 20
1182.792501416872
 30
0.0
 40
1.0
 41
2.0
 71
     1
 72
     5
  1

  7
BIGFONT
1001
ACAD
1000
MTEXTBEGIN
1070
    73
1070
     1
1070
    44
1040
1.0
1070
    74
1070
     0
1000
MTEXTEND
1000
MTEXTBEGIN
1070
    73
1070
     1
1070
    44
1040
1.0
1070
    74
1070
     0
1000
MTEXTEND
  0
MTEXT
  5
17C84
330
18
100
AcDbEntity
  8
0
  6
BYBLOCK
100
AcDbMText
 10
342.4234035956974
 20
1092.274782338366
 30
0.0
 40
2.0
 41
0.0
 71
     4
 72
     5
  1

 11
-0.0000000000000002
 21
-1.0
 31
0.0
1001
ACAD
1000
MTEXTBEGIN
1070
    73
1070
     1
1070
    44
1040
1.0
1070
    74
1070
     0
1000
MTEXTEND
1000
MTEXTBEGIN
1070
    73
1070
     1
1070
    44
1040
1.0
1070
    74
1070
     0
1000
MTEXTEND
  0
MTEXT
  5
17C85
330
18
100
AcDbEntity
  8
0
  6
BYBLOCK
100
AcDbMText
 10
377.8887919588503
 20
1081.481473979948
 30
0.0
 40
2.0
 41
0.0
 71
     7
 72
     5
  1

 11
0.0000000000000001
 21
1.0
 31
0.0
1001
ACAD
1000
MTEXTBEGIN
1070
    73
1070
     1
1070
    44
1040
1.0
1070
    74
1070
     0
1000
MTEXTEND
1000
MTEXTBEGIN
1070
    73
1070
     1
1070
    44
1040
1.0
1070
    74
1070
     0
1000
MTEXTEND
  0
MTEXT
  5
17C86
330
18
100
AcDbEntity
  8
0
100
AcDbMText
 10
342.1092939741825
 20
1006.701963437659
 30
0.0
 40
2.0
 41
10.1453
 71
     1
 72
     5
  1

 11
-0.0000000000000002
 21
-1.0
 31
0.0
1001
ACAD
1000
MTEXTBEGIN
1070
    73
1070
     1
1070
    44
1040
1.0
1070
    74
1070
     0
1000
MTEXTEND
1000
MTEXTBEGIN
1070
    73
1070
     1
1070
    44
1040
1.0
1070
    74
1070
     0
1000
MTEXTEND
  0
MTEXT
  5
17C87
330
18
100
AcDbEntity
  8
0
100
AcDbMText
 10
297.7098022210326
 20
975.0704798446705
 30
0.0
 40
2.0
 41
0.0
 71
     1
 72
     5
  1

1001
ACAD
1000
MTEXTBEGIN
1070
    73
1070
     1
1070
    44
1040
1.0
1070
    74
1070
     0
1000
MTEXTEND
1000
MTEXTBEGIN
1070
    73
1070
     1
1070
    44
1040
1.0
1070
    74
1070
     0
1000
MTEXTEND
  0
MTEXT
  5
17C88
330
18
100
AcDbEntity
  8
0
  6
CENTER
100
AcDbMText
 10
623.2980794047955
 20
1076.003006589096
 30
0.0
 40
2.0
 41
15.6417
 71
     1
 72
     5
  1

  7
BIGFONT
1001
ACAD
1000
MTEXTBEGIN
1070
    73
1070
     1
1070
    44
1040
1.0
1070
    74
1070
     0
1000
MTEXTEND
1000
MTEXTBEGIN
1070
    73
1070
     1
1070
    44
1040
1.0
1070
    74
1070
     0
1000
MTEXTEND
  0
MTEXT
  5
17C89
330
18
100
AcDbEntity
  8
0
  6
DASHDOT
100
AcDbMText
 10
385.6201384606237
 20
1182.792501416872
 30
0.0
 40
1.0
 41
2.0
 71
     1
 72
     5
  1

  7
BIGFONT
1001
ACAD
1000
MTEXTBEGIN
1070
    73
1070
     1
1070
    44
1040
1.0
1070
    74
1070
     0
1000
MTEXTEND
1000
MTEXTBEGIN
1070
    73
1070
     1
1070
    44
1040
1.0
1070
    74
1070
     0
1000
MTEXTEND
  0
INSERT
  5
17C8A
330
18
100
AcDbEntity
  8
FRAME025
100
AcDbBlockReference
  2
機械A4横_LBP
 10
287.9380083423457
 20
866.6519003288902
 30
0.0
  0
LINE
  5
1856B
330
18
100
AcDbEntity
  8
0
100
AcDbLine
 10
552.1568828137405
 20
170.8527994879968
 30
0.0
 11
558.0368828137401
 21
170.8527994879968
 31
0.0
  0
LINE
  5
1856C
330
18
100
AcDbEntity
  8
0
100
AcDbLine
 10
558.0368828137401
 20
157.0911086221813
 30
0.0
 11
552.1568828137405
 21
157.0911086221813
 31
0.0
  0
LINE
  5
1856D
330
18
100
AcDbEntity
  8
0
100
AcDbLine
 10
552.1568828137405
 20
157.0911086221813
 30
0.0
 11
552.1568828137405
 21
170.8527994879968
 31
0.0
  0
LINE
  5
1856E
330
18
100
AcDbEntity
  8
0
100
AcDbLine
 10
558.0368828137401
 20
157.0911086221813
 30
0.0
 11
558.0368828137401
 21
170.8527994879968
 31
0.0
  0
ARC
  5
18571
330
18
100
AcDbEntity
  8
0
100
AcDbCircle
 10
524.1502226182871
 20
230.3527994879968
 30
0.0
 40
17.89999999999969
100
AcDbArc
 50
0.0
 51
90.0
  0
ARC
  5
18572
330
18
100
AcDbEntity
  8
0
100
AcDbCircle
 10
524.1502226182871
 20
230.3527994879968
 30
0.0
 40
22.09999999999948
100
AcDbArc
 50
0.0
 51
90.0
  0
LINE
  5
1859E
330
18
100
AcDbEntity
  8
0
100
AcDbLine
 10
501.9562162443378
 20
248.2527994879964
 30
0.0
 11
524.1502226182865
 21
248.2527994879971
 31
0.0
  0
LINE
  5
1859F
330
18
100
AcDbEntity
  8
0
100
AcDbLine
 10
501.9562162443373
 20
252.4527994879964
 30
0.0
 11
524.1502226182865
 21
252.4527994879969
 31
0.0
  0
LINE
  5
185A0
330
18
100
AcDbEntity
  8
中心線
100
AcDbLine
 10
508.9222861348813
 20
250.352799487997
 30
0.0
 11
472.7776098902948
 21
250.3527994879969
 31
0.0
  0
LINE
  5
185BB
330
18
100
AcDbEntity
  8
0
100
AcDbLine
 10
558.8289967954831
 20
395.3527994879968
 30
0.0
 11
558.8289967954831
 21
466.9386347758331
 31
0.0
  0
LINE
  5
185BD
330
18
100
AcDbEntity
  8
0
100
AcDbLine
 10
551.328996799083
 20
395.3527994879968
 30
0.0
 11
551.328996799083
 21
466.9386347758331
 31
0.0
  0
LINE
  5
185C5
330
18
100
AcDbEntity
  8
0
100
AcDbLine
 10
557.4789967972828
 20
466.9386347758331
 30
0.0
 11
553.7789967972828
 21
488.8386347758332
 31
0.0
  0
LINE
  5
185C6
330
18
100
AcDbEntity
  8
0
100
AcDbLine
 10
555.0789967972827
 20
466.9386347758331
 30
0.0
 11
551.3789967972829
 21
488.8386347758332
 31
0.0
  0
LINE
  5
185C7
330
18
100
AcDbEntity
  8
0
100
AcDbLine
 10
555.4789967972826
 20
466.9386347758331
 30
0.0
 11
551.7789967972828
 21
488.8386347758332
 31
0.0
  0
LINE
  5
185C9
330
18
100
AcDbEntity
  8
0
100
AcDbLine
 10
551.328996799083
 20
466.9386347758331
 30
0.0
 11
558.8289967954831
 21
466.9386347758331
 31
0.0
  0
LINE
  5
185CA
330
18
100
AcDbEntity
  8
0
100
AcDbLine
 10
553.0789967972826
 20
466.9386347758331
 30
0.0
 11
549.3789967972827
 21
488.8386347758332
 31
0.0
  0
LINE
  5
185CB
330
18
100
AcDbEntity
  8
0
100
AcDbLine
 10
552.8289967972831
 20
466.9386347758331
 30
0.0
 11
552.9548357234574
 21
467.6735341046922
 31
0.0
  0
LINE
  5
185CD
330
18
100
AcDbEntity
  8
0
100
AcDbLine
 10
557.3789967972827
 20
467.5305266677248
 30
0.0
 11
560.9789967972828
 21
488.8386347758332
 31
0.0
  0
LINE
  5
185CE
330
18
100
AcDbEntity
  8
0
100
AcDbLine
 10
554.9789967972826
 20
467.5305266677248
 30
0.0
 11
555.178996797283
 21
468.7143104515091
 31
0.0
  0
LINE
  5
185CF
330
18
100
AcDbEntity
  8
0
100
AcDbLine
 10
555.2289967972828
 20
466.9386347758331
 30
0.0
 11
555.3548357234575
 21
467.6735341046922
 31
0.0
  0
LINE
  5
185D0
330
18
100
AcDbEntity
  8
0
100
AcDbLine
 10
553.9615471328533
 20
473.5527287355646
 30
0.0
 11
554.1628894147322
 21
474.7285676617391
 31
0.0
  0
LINE
  5
185D1
330
18
100
AcDbEntity
  8
0
100
AcDbLine
 10
556.178996797283
 20
474.6332293704282
 30
0.0
 11
558.5789967972831
 21
488.8386347758332
 31
0.0
  0
LINE
  5
185D2
330
18
100
AcDbEntity
  8
0
100
AcDbLine
 10
556.3615471328533
 20
473.5527287355646
 30
0.0
 11
558.9789967972826
 21
488.8386347758332
 31
0.0
  0
LINE
  5
185D3
330
18
100
AcDbEntity
  8
0
100
AcDbLine
 10
555.1696008241286
 20
480.6077622926116
 30
0.0
 11
556.5789967972831
 21
488.8386347758332
 31
0.0
  0
ARC
  5
1860C
330
18
100
AcDbEntity
  8
0
100
AcDbCircle
 10
535.0789967972834
 20
395.3527994879968
 30
0.0
 40
16.25000000180011
100
AcDbArc
 50
270.0
 51
0.0
  0
ARC
  5
1860D
330
18
100
AcDbEntity
  8
0
100
AcDbCircle
 10
535.0789967972834
 20
395.3527994879968
 30
0.0
 40
23.7499999982003
100
AcDbArc
 50
270.0
 51
0.0
  0
LINE
  5
1860E
330
18
100
AcDbEntity
  8
0
100
AcDbLine
 10
535.0789967972834
 20
371.6027994897966
 30
0.0
 11
501.9562162443384
 21
371.6027994897966
 31
0.0
  0
LINE
  5
1860F
330
18
100
AcDbEntity
  8
0
100
AcDbLine
 10
535.0789967972834
 20
379.102799486197
 30
0.0
 11
501.9562162443384
 21
379.102799486197
 31
0.0
  0
LINE
  5
18610
330
18
100
AcDbEntity
  8
中心線
100
AcDbLine
 10
510.1873031505402
 20
375.3527994879969
 30
0.0
 11
472.7776098902952
 21
375.3527994879969
 31
0.0
  0
LINE
  5
18869
330
18
100
AcDbEntity
  8
0
100
AcDbLine
 10
370.2560831073636
 20
186.3438627962953
 30
0.0
 11
370.7560831073636
 21
185.8438627962953
 31
0.0
  0
LINE
  5
1886A
330
18
100
AcDbEntity
  8
0
100
AcDbLine
 10
369.7560831073638
 20
185.8438627962955
 30
0.0
 11
370.2560831073635
 21
185.8438627962955
 31
0.0
  0
LINE
  5
1886C
330
18
100
AcDbEntity
  8
0
100
AcDbLine
 10
480.9562162443371
 20
439.3527994879977
 30
0.0
 11
480.4562162443371
 21
439.8527994879977
 31
0.0
  0
LINE
  5
18870
330
18
100
AcDbEntity
  8
0
100
AcDbLine
 10
370.2560831073636
 20
439.3438627962954
 30
0.0
 11
370.7560831073636
 21
439.8438627962954
 31
0.0
  0
LINE
  5
18871
330
18
100
AcDbEntity
  8
0
100
AcDbLine
 10
370.7650197990655
 20
439.8527994879972
 30
0.0
 11
448.6562162443373
 21
439.8527994879962
 31
0.0
  0
LWPOLYLINE
  5
18E9C
102
{ACAD_REACTORS
330
18EC9
102
}
330
18
100
AcDbEntity
  8
0
100
AcDbPolyline
 90
        4
 70
     1
 43
0.0
 10
571.9289967972827
 20
530.8386347758335
 10
571.9289967972827
 20
526.8386347758335
 10
538.2289967972828
 20
526.8386347758335
 10
538.2289967972828
 20
530.8386347758335
  0
LWPOLYLINE
  5
18E9D
102
{ACAD_REACTORS
330
18EC9
102
}
330
18
100
AcDbEntity
  8
0
100
AcDbPolyline
 90
        4
 70
     1
 43
0.0
 10
569.8289967972827
 20
535.8386347758335
 10
569.8289967972827
 20
530.8386347758335
 10
540.3289967972827
 20
530.8386347758335
 10
540.3289967972827
 20
535.8386347758335
  0
LINE
  5
18E9E
102
{ACAD_REACTORS
330
18EC9
102
}
330
18
100
AcDbEntity
  8
0
100
AcDbLine
 10
569.8289967972827
 20
513.8386347758332
 30
0.0
 11
565.5789967972826
 21
513.8386347758332
 31
0.0
  0
LINE
  5
18E9F
102
{ACAD_REACTORS
330
18EC9
102
}
330
18
100
AcDbEntity
  8
0
100
AcDbLine
 10
569.8289967972827
 20
513.8386347758332
 30
0.0
 11
566.0789967972826
 21
512.8386347758334
 31
0.0
  0
LINE
  5
18EA0
102
{ACAD_REACTORS
330
18EC9
102
}
330
18
100
AcDbEntity
  8
0
100
AcDbLine
 10
566.0789967972829
 20
512.8386347758334
 30
0.0
 11
566.0789967972826
 21
488.8386347758332
 31
0.0
  0
LINE
  5
18EA1
102
{ACAD_REACTORS
330
18EC9
102
}
330
18
100
AcDbEntity
  8
0
100
AcDbLine
 10
544.0789967972826
 20
512.8386347758334
 30
0.0
 11
544.0789967972826
 21
488.8386347758332
 31
0.0
  0
LINE
  5
18EA2
102
{ACAD_REACTORS
330
18EC9
102
}
330
18
100
AcDbEntity
  8
0
100
AcDbLine
 10
550.5789967972827
 20
513.8386347758332
 30
0.0
 11
547.5789967972827
 21
513.8386347758332
 31
0.0
  0
LINE
  5
18EA3
102
{ACAD_REACTORS
330
18EC9
102
}
330
18
100
AcDbEntity
  8
0
100
AcDbLine
 10
540.3289967972827
 20
526.8386347758335
 30
0.0
 11
540.3289967972827
 21
513.8386347758332
 31
0.0
  0
LINE
  5
18EA4
102
{ACAD_REACTORS
330
18EC9
102
}
330
18
100
AcDbEntity
  8
0
100
AcDbLine
 10
547.5789967972827
 20
513.8386347758332
 30
0.0
 11
547.5789967972827
 21
526.8386347758335
 31
0.0
  0
LINE
  5
18EA5
102
{ACAD_REACTORS
330
18EC9
102
}
330
18
100
AcDbEntity
  8
0
100
AcDbLine
 10
544.5789967972826
 20
513.8386347758332
 30
0.0
 11
544.5789967972826
 21
526.8386347758335
 31
0.0
  0
LINE
  5
18EA6
102
{ACAD_REACTORS
330
18EC9
102
}
330
18
100
AcDbEntity
  8
0
100
AcDbLine
 10
544.0789967972826
 20
512.8386347758334
 30
0.0
 11
544.5789967972826
 21
513.8386347758332
 31
0.0
  0
LINE
  5
18EA7
102
{ACAD_REACTORS
330
18EC9
102
}
330
18
100
AcDbEntity
  8
0
100
AcDbLine
 10
544.5789967972826
 20
513.8386347758332
 30
0.0
 11
540.3289967972827
 21
513.8386347758332
 31
0.0
  0
LINE
  5
18EA8
102
{ACAD_REACTORS
330
18EC9
102
}
330
18
100
AcDbEntity
  8
0
100
AcDbLine
 10
540.3289967972827
 20
513.8386347758332
 30
0.0
 11
544.0789967972826
 21
512.8386347758334
 31
0.0
  0
LINE
  5
18EA9
102
{ACAD_REACTORS
330
18EC9
102
}
330
18
100
AcDbEntity
  8
0
100
AcDbLine
 10
550.5789967972827
 20
513.8386347758332
 30
0.0
 11
550.5789967972827
 21
526.8386347758335
 31
0.0
  0
LINE
  5
18EAA
102
{ACAD_REACTORS
330
18EC9
102
}
330
18
100
AcDbEntity
  8
0
100
AcDbLine
 10
553.5789967972826
 20
513.8386347758332
 30
0.0
 11
553.5789967972826
 21
526.8386347758335
 31
0.0
  0
LINE
  5
18EAB
102
{ACAD_REACTORS
330
18EC9
102
}
330
18
100
AcDbEntity
  8
0
100
AcDbLine
 10
559.5789967972827
 20
513.8386347758332
 30
0.0
 11
559.5789967972827
 21
526.8386347758335
 31
0.0
  0
LINE
  5
18EAC
102
{ACAD_REACTORS
330
18EC9
102
}
330
18
100
AcDbEntity
  8
0
100
AcDbLine
 10
562.5789967972827
 20
513.8386347758332
 30
0.0
 11
562.5789967972827
 21
526.8386347758335
 31
0.0
  0
LINE
  5
18EAD
102
{ACAD_REACTORS
330
18EC9
102
}
330
18
100
AcDbEntity
  8
0
100
AcDbLine
 10
556.5789967972826
 20
513.8386347758332
 30
0.0
 11
556.5789967972826
 21
526.8386347758335
 31
0.0
  0
LINE
  5
18EAE
102
{ACAD_REACTORS
330
18EC9
102
}
330
18
100
AcDbEntity
  8
0
100
AcDbLine
 10
565.5789967972826
 20
513.8386347758332
 30
0.0
 11
565.5789967972826
 21
526.8386347758335
 31
0.0
  0
LINE
  5
18EAF
102
{ACAD_REACTORS
330
18EC9
102
}
330
18
100
AcDbEntity
  8
0
100
AcDbLine
 10
556.5789967972826
 20
513.8386347758332
 30
0.0
 11
553.5789967972826
 21
513.8386347758332
 31
0.0
  0
LINE
  5
18EB0
102
{ACAD_REACTORS
330
18EC9
102
}
330
18
100
AcDbEntity
  8
0
100
AcDbLine
 10
562.5789967972827
 20
513.8386347758332
 30
0.0
 11
559.5789967972827
 21
513.8386347758332
 31
0.0
  0
LINE
  5
18EB1
102
{ACAD_REACTORS
330
18EC9
102
}
330
18
100
AcDbEntity
  8
0
100
AcDbLine
 10
566.0789967972826
 20
512.8386347758334
 30
0.0
 11
565.5789967972826
 21
513.8386347758332
 31
0.0
  0
LINE
  5
18EB2
102
{ACAD_REACTORS
330
18EC9
102
}
330
18
100
AcDbEntity
  8
0
100
AcDbLine
 10
562.4539967972826
 20
488.8386347758332
 30
0.0
 11
547.7039967972826
 21
488.8386347758332
 31
0.0
  0
LWPOLYLINE
  5
18EB3
102
{ACAD_REACTORS
330
18EC9
102
}
330
18
100
AcDbEntity
  8
0
100
AcDbPolyline
 90
        4
 70
     1
 43
0.0
 10
547.3289967972826
 20
493.3386347758335
 10
547.3289967972826
 20
488.8386347758332
 10
551.8289967972826
 20
488.8386347758332
 10
551.8289967972826
 20
493.3386347758335
  0
LWPOLYLINE
  5
18EB4
102
{ACAD_REACTORS
330
18EC9
102
}
330
18
100
AcDbEntity
  8
0
100
AcDbPolyline
 90
        4
 70
     1
 43
0.0
 10
546.3289967972826
 20
506.4606091529488
 10
546.3289967972826
 20
496.4606091529486
 10
563.8289967972826
 20
496.4606091529486
 10
563.8289967972826
 20
506.4606091529488
  0
TEXT
  5
18EB5
102
{ACAD_REACTORS
330
18EC9
102
}
330
18
100
AcDbEntity
  8
FRAME020
  6
CONTINUOUS
100
AcDbText
 10
548.6453424491601
 20
500.7171525567612
 30
0.0
 40
4.0
  1
ＡＭＰ
100
AcDbText
  0
TEXT
  5
18EB6
102
{ACAD_REACTORS
330
18EC9
102
}
330
18
100
AcDbEntity
  8
FRAME020
  6
CONTINUOUS
100
AcDbText
 10
547.3623940643562
 20
489.3367072129652
 30
0.0
 40
3.0
  1
B2
100
AcDbText
  0
LINE
  5
18EB7
102
{ACAD_REACTORS
330
18EC9
102
}
330
18
100
AcDbEntity
  8
0
100
AcDbLine
 10
566.0789967972826
 20
488.8386347758332
 30
0.0
 11
544.0789967972826
 21
488.8386347758332
 31
0.0
  0
LWPOLYLINE
  5
18EB8
102
{ACAD_REACTORS
330
18EC9
102
}
330
18
100
AcDbEntity
  8
0
100
AcDbPolyline
 90
        4
 70
     1
 43
0.0
 10
558.3289967972826
 20
493.3386347758335
 10
558.3289967972826
 20
488.8386347758332
 10
562.8289967972826
 20
488.8386347758332
 10
562.8289967972826
 20
493.3386347758335
  0
TEXT
  5
18EB9
102
{ACAD_REACTORS
330
18EC9
102
}
330
18
100
AcDbEntity
  8
FRAME020
  6
CONTINUOUS
100
AcDbText
 10
558.3623940643564
 20
489.3367072129652
 30
0.0
 40
3.0
  1
B1
100
AcDbText
  0
TEXT
  5
18EBA
102
{ACAD_REACTORS
330
18EC9
102
}
330
18
100
AcDbEntity
  8
FRAME020
  6
CONTINUOUS
100
AcDbText
 10
549.4538326259678
 20
497.1446884088225
 30
0.0
 40
2.799999999999998
  1
0-5200
100
AcDbText
  0
LINE
  5
18EBB
102
{ACAD_REACTORS
330
18EC9
102
}
330
18
100
AcDbEntity
  8
0
100
AcDbLine
 10
569.8289967972827
 20
513.8386347758332
 30
0.0
 11
569.8289967972827
 21
526.8386347758335
 31
0.0
  0
LINE
  5
18F11
330
18
100
AcDbEntity
  8
中心線
100
AcDbLine
 10
337.6109158252607
 20
312.8527994879965
 30
0.0
 11
494.5084920185673
 21
312.8527994879965
 31
0.0
  0
LINE
  5
19AA9
330
18
100
AcDbEntity
  8
中心線
100
AcDbLine
 10
695.375552946723
 20
444.1027989900856
 30
0.0
 11
695.3984179347472
 21
181.6027999859095
 31
0.0
  0
CIRCLE
  5
19AAE
330
18
100
AcDbEntity
  8
中心線
100
AcDbCircle
 10
695.3869854407355
 20
312.8527994879977
 30
0.0
 40
118.0
  0
CIRCLE
  5
19AB1
330
18
100
AcDbEntity
  8
細線
 48
5.0
100
AcDbCircle
 10
663.5522428931253
 20
194.0439228544421
 30
0.0
 40
3.5
  0
LWPOLYLINE
  5
19AB3
330
18
100
AcDbEntity
  8
細線
 48
5.0
100
AcDbPolyline
 90
        6
 70
     1
 43
0.0
 10
664.7769877633764
 20
192.8191779841894
 10
663.1039551574581
 20
192.3708902485229
 10
661.8792102872061
 20
193.5956351187744
 10
662.3274980228725
 20
195.2686677246936
 10
664.0005306287913
 20
195.7169554603604
 10
665.225275499043
 20
194.4922105901089
  0
LINE
  5
19AB7
330
18
100
AcDbEntity
  8
中心線
100
AcDbLine
 10
640.3869854407353
 20
217.590005071709
 30
0.0
 11
632.3869854407353
 21
203.7335986111583
 31
0.0
  0
CIRCLE
  5
19AB8
330
18
100
AcDbEntity
  8
細線
100
AcDbCircle
 10
636.3869854407355
 20
210.6618018414335
 30
0.0
 40
4.0
  0
CIRCLE
  5
19AB9
330
18
100
AcDbEntity
  8
ﾍ__ｽ
 62
     0
100
AcDbCircle
 10
636.3869854407355
 20
210.6618018414335
 30
0.0
 40
3.3235
  0
CIRCLE
  5
19AD1
330
18
100
AcDbEntity
  8
細線
 48
5.0
100
AcDbCircle
 10
727.2217279883456
 20
194.0439228544421
 30
0.0
 40
3.5
  0
LWPOLYLINE
  5
19ADA
330
18
100
AcDbEntity
  8
細線
 48
5.0
100
AcDbPolyline
 90
        6
 70
     1
 43
0.0
 10
728.8947605942638
 20
193.5956351187741
 10
727.6700157240119
 20
192.3708902485229
 10
725.9969831180933
 20
192.8191779841894
 10
725.548695382426
 20
194.4922105901085
 10
726.7734402526776
 20
195.71695546036
 10
728.4464728585966
 20
195.2686677246936
  0
CIRCLE
  5
19AE0
330
18
100
AcDbEntity
  8
細線
 48
5.0
100
AcDbCircle
 10
782.3611195266805
 20
225.878665402052
 30
0.0
 40
3.5
  0
LINE
  5
19AE3
330
18
100
AcDbEntity
  8
中心線
100
AcDbLine
 10
750.3869854407353
 20
217.590005071709
 30
0.0
 11
758.3869854407353
 21
203.7335986111583
 31
0.0
  0
CIRCLE
  5
19AE4
330
18
100
AcDbEntity
  8
ﾍ__ｽ
 62
     0
100
AcDbCircle
 10
754.3869854407355
 20
210.6618018414335
 30
0.0
 40
3.3235
  0
CIRCLE
  5
19AE5
330
18
100
AcDbEntity
  8
細線
100
AcDbCircle
 10
754.3869854407355
 20
210.6618018414335
 30
0.0
 40
4.0
  0
LWPOLYLINE
  5
19AEA
330
18
100
AcDbEntity
  8
細線
 48
5.0
100
AcDbPolyline
 90
        6
 70
     1
 43
0.0
 10
784.0341521325992
 20
226.326953137718
 10
783.5858643969325
 20
224.6539205317998
 10
781.9128317910142
 20
224.2056327961325
 10
780.6880869207616
 20
225.4303776663845
 10
781.1363746564283
 20
227.1034102723032
 10
782.809407262347
 20
227.5516980079704
  0
CIRCLE
  5
19AF4
330
18
100
AcDbEntity
  8
細線
 48
5.0
100
AcDbCircle
 10
663.5522428931255
 20
431.6616761215526
 30
0.0
 40
3.5
  0
LWPOLYLINE
  5
19AF8
330
18
100
AcDbEntity
  8
細線
 48
5.0
100
AcDbPolyline
 90
        6
 70
     1
 43
0.0
 10
661.8792102872066
 20
432.1099638572203
 10
663.1039551574584
 20
433.3347087274717
 10
664.7769877633772
 20
432.8864209918052
 10
665.2252754990444
 20
431.2133883858858
 10
664.0005306287926
 20
429.9886435156349
 10
662.3274980228737
 20
430.4369312513006
  0
LINE
  5
19AF9
330
18
100
AcDbEntity
  8
中心線
100
AcDbLine
 10
826.6369849428231
 20
312.8642319820095
 30
0.0
 11
564.1369859386473
 21
312.8413669939853
 31
0.0
  0
HATCH
  5
19AFC
330
18
100
AcDbEntity
  8
0
100
AcDbHatch
 10
0.0
 20
0.0
 30
0.0
210
0.0
220
0.0
230
1.0
  2
SOLID
 70
     1
 71
     0
 91
        2
 92
        7
 72
     1
 73
     1
 93
        3
 10
692.891858490917
 20
256.8527999149281
 42
0.0
 10
695.3918584909167
 20
256.8527997000209
 42
0.0
 10
695.3918582760093
 20
254.3527997000201
 42
-0.4142135623730919
 97
        0
 92
        7
 72
     1
 73
     1
 93
        3
 10
695.3918584909169
 20
256.8527997000201
 42
0.0
 10
695.3918587058247
 20
259.3527997000204
 42
-0.4142135623730951
 10
697.8918584909171
 20
256.8527994851131
 42
0.0
 97
        0
 75
     0
 76
     1
 47
0.0576142688807724
 98
        2
 10
694.5623898514829
 20
255.4708337104126
 10
696.2332039398666
 20
257.199992276337
  0
CIRCLE
  5
19AFD
330
18
100
AcDbEntity
  8
0
100
AcDbCircle
 10
695.3918584909169
 20
256.8527997000206
 30
0.0
 40
4.5
  0
CIRCLE
  5
19AFE
330
18
100
AcDbEntity
  8
0
100
AcDbCircle
 10
695.3918584909169
 20
256.8527997000206
 30
0.0
 40
2.5
  0
LWPOLYLINE
  5
19AFF
330
18
100
AcDbEntity
  8
0
100
AcDbPolyline
 90
       12
 70
   129
 43
0.0
 10
704.891858106478
 20
252.3806629283714
 42
-0.0418357922730061
 10
704.0148413221051
 20
250.8616256003104
 10
696.2688742452516
 20
246.3894903111776
 42
-0.041835792273005
 10
694.5148409376665
 20
246.3894904619595
 10
686.7688746296899
 20
250.8616270828257
 42
-0.0418357922730106
 10
685.8918581064787
 20
252.3806645616695
 10
685.8918588753556
 20
261.3249364716685
 42
-0.0418357922730243
 10
686.7688756597292
 20
262.8439737997306
 10
694.5148427365824
 20
267.3161090888632
 42
-0.041835792273011
 10
696.2688760441669
 20
267.316108938081
 10
704.0148423521441
 20
262.8439723172149
 42
-0.0418357922730047
 10
704.8918588753552
 20
261.3249348383714
  0
CIRCLE
  5
19B00
330
18
100
AcDbEntity
  8
0
100
AcDbCircle
 10
695.3918584909169
 20
256.8527997000206
 30
0.0
 40
5.2
  0
CIRCLE
  5
19B01
330
18
100
AcDbEntity
  8
0
100
AcDbCircle
 10
695.3918584909169
 20
256.8527997000206
 30
0.0
 40
9.5
  0
ARC
  5
19B02
330
18
100
AcDbEntity
  8
中心線
100
AcDbCircle
 10
695.3869854407363
 20
312.8527994879973
 30
0.0
 40
56.0
100
AcDbArc
 50
238.4046152107025
 51
284.3961616623666
  0
LINE
  5
19B15
330
18
100
AcDbEntity
  8
中心線
100
AcDbLine
 10
640.3869854407353
 20
408.1155939042853
 30
0.0
 11
632.3869854407353
 21
421.9720003648361
 31
0.0
  0
CIRCLE
  5
19B16
330
18
100
AcDbEntity
  8
細線
100
AcDbCircle
 10
636.3869854407353
 20
415.0437971345606
 30
0.0
 40
4.0
  0
CIRCLE
  5
19B17
330
18
100
AcDbEntity
  8
ﾍ__ｽ
 62
     0
100
AcDbCircle
 10
636.3869854407353
 20
415.0437971345606
 30
0.0
 40
3.3235
  0
LWPOLYLINE
  5
19B1A
330
18
100
AcDbEntity
  8
0
100
AcDbPolyline
 90
       12
 70
   129
 43
0.0
 10
704.8821127749922
 20
373.3249344143254
 42
0.0418357922730061
 10
704.0050962517811
 20
374.8439718931685
 10
696.2591299438038
 20
379.3161085140353
 42
0.041835792273005
 10
694.5050966362193
 20
379.3161086648172
 10
686.7591295593661
 20
374.8439733756846
 42
0.0418357922730106
 10
685.8821127749921
 20
373.324936047623
 10
685.8821120061157
 20
364.3806641376239
 42
0.0418357922730243
 10
686.7591285293272
 20
362.8616266587797
 10
694.5050948373034
 20
358.3894900379131
 42
0.041835792273011
 10
696.2591281448882
 20
358.3894898871316
 10
704.005095221742
 20
362.861625176264
 42
0.0418357922730047
 10
704.8821120061151
 20
364.3806625043254
  0
CIRCLE
  5
19B1B
330
18
100
AcDbEntity
  8
0
100
AcDbCircle
 10
695.3821123905543
 20
368.8527992759738
 30
0.0
 40
9.5
  0
ARC
  5
19B1C
330
18
100
AcDbEntity
  8
中心線
100
AcDbCircle
 10
695.3869854407352
 20
312.8527994879975
 30
0.0
 40
56.0
100
AcDbArc
 50
57.79588442501758
 51
103.7395454799914
  0
CIRCLE
  5
19B1D
330
18
100
AcDbEntity
  8
ﾍ__ｽ
 62
     0
100
AcDbCircle
 10
813.3869854407356
 20
312.8527994879977
 30
0.0
 40
3.3235
  0
CIRCLE
  5
19B1E
330
18
100
AcDbEntity
  8
細線
100
AcDbCircle
 10
813.3869854407356
 20
312.8527994879977
 30
0.0
 40
4.0
  0
CIRCLE
  5
19B1F
330
18
100
AcDbEntity
  8
0
100
AcDbCircle
 10
695.3821123905543
 20
368.8527992759738
 30
0.0
 40
2.5
  0
HATCH
  5
19B20
330
18
100
AcDbEntity
  8
0
100
AcDbHatch
 10
0.0
 20
0.0
 30
0.0
210
0.0
220
0.0
230
1.0
  2
SOLID
 70
     1
 71
     0
 91
        2
 92
        7
 72
     1
 73
     1
 93
        3
 10
692.8821123905537
 20
368.852799490882
 42
0.0
 10
695.3821123905539
 20
368.8527992759741
 42
0.0
 10
695.3821126054615
 20
371.3527992759743
 42
0.4142135623730919
 97
        0
 92
        7
 72
     1
 73
     1
 93
        3
 10
695.3821123905539
 20
368.8527992759743
 42
0.0
 10
695.3821121756462
 20
366.3527992759743
 42
0.4142135623730951
 10
697.8821123905537
 20
368.8527990610666
 42
0.0
 97
        0
 75
     0
 76
     1
 47
0.0576142688807724
 98
        2
 10
694.5526439887157
 20
370.2347654081898
 10
696.2234577798124
 20
368.5056065550083
  0
CIRCLE
  5
19B21
330
18
100
AcDbEntity
  8
0
100
AcDbCircle
 10
695.3821123905543
 20
368.8527992759738
 30
0.0
 40
4.5
  0
CIRCLE
  5
19B22
330
18
100
AcDbEntity
  8
0
100
AcDbCircle
 10
695.3821123905543
 20
368.8527992759738
 30
0.0
 40
5.2
  0
CIRCLE
  5
19B23
330
18
100
AcDbEntity
  8
細線
 48
5.0
100
AcDbCircle
 10
814.1958620742908
 20
281.0180569403872
 30
0.0
 40
3.5
  0
LWPOLYLINE
  5
19B27
330
18
100
AcDbEntity
  8
細線
 48
5.0
100
AcDbPolyline
 90
        6
 70
     1
 43
0.0
 10
815.4206069445431
 20
282.2428018106382
 10
815.8688946802094
 20
280.5697692047205
 10
814.644149809958
 20
279.3450243344679
 10
812.9711172040387
 20
279.7933120701348
 10
812.522829468372
 20
281.4663446760531
 10
813.7475743386232
 20
282.6910895463053
  0
LWPOLYLINE
  5
19B2C
330
18
100
AcDbEntity
  8
細線
 48
5.0
100
AcDbPolyline
 90
        6
 70
     1
 43
0.0
 10
814.6441498099584
 20
346.3605746415258
 10
815.8688946802099
 20
345.1358297712739
 10
815.4206069445431
 20
343.4627971653552
 10
813.7475743386239
 20
343.014509429688
 10
812.5228294683724
 20
344.2392542999395
 10
812.9711172040387
 20
345.9122869058585
  0
CIRCLE
  5
19B2D
330
18
100
AcDbEntity
  8
細線
 48
5.0
100
AcDbCircle
 10
814.1958620742908
 20
344.6875420356072
 30
0.0
 40
3.5
  0
CIRCLE
  5
19B3D
330
18
100
AcDbEntity
  8
細線
 48
5.0
100
AcDbCircle
 10
727.2217279883456
 20
431.6616761215526
 30
0.0
 40
3.5
  0
LWPOLYLINE
  5
19B41
330
18
100
AcDbEntity
  8
細線
 48
5.0
100
AcDbPolyline
 90
        6
 70
     1
 43
0.0
 10
725.9969831180942
 20
432.8864209918052
 10
727.6700157240124
 20
433.3347087274713
 10
728.8947605942643
 20
432.1099638572203
 10
728.4464728585976
 20
430.4369312513006
 10
726.7734402526794
 20
429.9886435156338
 10
725.5486953824271
 20
431.2133883858858
  0
CIRCLE
  5
19B43
330
18
100
AcDbEntity
  8
細線
 48
5.0
100
AcDbCircle
 10
782.3611195266805
 20
399.8269335739426
 30
0.0
 40
3.5
  0
CIRCLE
  5
19B4F
330
18
100
AcDbEntity
  8
細線
100
AcDbCircle
 10
754.3869854407355
 20
415.0437971345611
 30
0.0
 40
4.0
  0
LINE
  5
19B50
330
18
100
AcDbEntity
  8
中心線
100
AcDbLine
 10
750.3869854407353
 20
408.1155939042853
 30
0.0
 11
758.3869854407353
 21
421.9720003648361
 31
0.0
  0
CIRCLE
  5
19B51
330
18
100
AcDbEntity
  8
ﾍ__ｽ
 62
     0
100
AcDbCircle
 10
754.3869854407355
 20
415.0437971345611
 30
0.0
 40
3.3235
  0
LWPOLYLINE
  5
19B52
330
18
100
AcDbEntity
  8
細線
 48
5.0
100
AcDbPolyline
 90
        6
 70
     1
 43
0.0
 10
781.9128317910149
 20
401.4999661798619
 10
783.5858643969325
 20
401.0516784441946
 10
784.0341521325998
 20
399.3786458382759
 10
782.8094072623479
 20
398.1539009680235
 10
781.1363746564296
 20
398.6021887036903
 10
780.6880869207624
 20
400.275221309609
  0
LWPOLYLINE
  5
19B55
330
18
100
AcDbEntity
  8
細線
 48
5.0
100
AcDbPolyline
 90
        6
 70
     1
 43
0.0
 10
608.8611390904556
 20
224.205632796133
 10
607.1881064845379
 20
224.6539205318
 10
606.7398187488707
 20
226.3269531377185
 10
607.9645636191226
 20
227.5516980079709
 10
609.6375962250406
 20
227.103410272304
 10
610.0858839607078
 20
225.4303776663854
  0
CIRCLE
  5
19B57
330
18
100
AcDbEntity
  8
細線
 48
5.0
100
AcDbCircle
 10
608.4128513547901
 20
225.878665402052
 30
0.0
 40
3.5
  0
CIRCLE
  5
19B5C
330
18
100
AcDbEntity
  8
ﾍ__ｽ
 62
     0
100
AcDbCircle
 10
577.3869854407357
 20
312.8527994879977
 30
0.0
 40
3.3235
  0
CIRCLE
  5
19B5D
330
18
100
AcDbEntity
  8
細線
100
AcDbCircle
 10
577.3869854407357
 20
312.8527994879977
 30
0.0
 40
4.0
  0
CIRCLE
  5
19B5E
330
18
100
AcDbEntity
  8
細線
 48
5.0
100
AcDbCircle
 10
576.5781088071803
 20
281.0180569403872
 30
0.0
 40
3.5
  0
LWPOLYLINE
  5
19B62
330
18
100
AcDbEntity
  8
細線
 48
5.0
100
AcDbPolyline
 90
        6
 70
     1
 43
0.0
 10
576.129821071512
 20
279.3450243344685
 10
574.9050762012606
 20
280.5697692047205
 10
575.3533639369274
 20
282.2428018106392
 10
577.0263965428461
 20
282.6910895463063
 10
578.2511414130981
 20
281.4663446760549
 10
577.8028536774315
 20
279.7933120701362
  0
LWPOLYLINE
  5
19B63
330
18
100
AcDbEntity
  8
細線
 48
5.0
100
AcDbPolyline
 90
        6
 70
     1
 43
0.0
 10
575.3533639369269
 20
343.4627971653561
 10
574.9050762012606
 20
345.1358297712743
 10
576.129821071512
 20
346.3605746415263
 10
577.8028536774315
 20
345.9122869058599
 10
578.2511414130985
 20
344.2392542999413
 10
577.0263965428466
 20
343.0145094296893
  0
CIRCLE
  5
19B64
330
18
100
AcDbEntity
  8
細線
 48
5.0
100
AcDbCircle
 10
576.5781088071803
 20
344.6875420356075
 30
0.0
 40
3.5
  0
CIRCLE
  5
19B69
330
18
100
AcDbEntity
  8
細線
 48
5.0
100
AcDbCircle
 10
608.4128513547901
 20
399.8269335739426
 30
0.0
 40
3.5
  0
LWPOLYLINE
  5
19B6C
330
18
100
AcDbEntity
  8
細線
 48
5.0
100
AcDbPolyline
 90
        6
 70
     1
 43
0.0
 10
606.7398187488707
 20
399.3786458382762
 10
607.1881064845379
 20
401.0516784441946
 10
608.8611390904566
 20
401.4999661798619
 10
610.085883960709
 20
400.2752213096099
 10
609.6375962250422
 20
398.6021887036916
 10
607.9645636191234
 20
398.1539009680242
  0
ARC
  5
1A0FC
330
18
100
AcDbEntity
  8
中心線
100
AcDbCircle
 10
187.3303672247516
 20
312.8527994879977
 30
0.0
 40
75.00000000000074
100
AcDbArc
 50
281.5042192596797
 51
258.3787824751485
  0
CIRCLE
  5
1A0FE
330
18
100
AcDbEntity
  8
0
100
AcDbCircle
 10
187.3303672247516
 20
312.8527994879977
 30
0.0
 40
80.99999999999964
  0
CIRCLE
  5
1A0FF
330
18
100
AcDbEntity
  8
0
100
AcDbCircle
 10
187.3303672247516
 20
312.8527994879977
 30
0.0
 40
92.34999999999994
  0
LINE
  5
1A102
330
18
100
AcDbEntity
  8
中心線
100
AcDbLine
 10
56.15239892423574
 20
312.8527994879977
 30
0.0
 11
318.5850935476632
 21
312.8527994879971
 31
0.0
  0
LINE
  5
1A105
102
{ACAD_REACTORS
330
1A294
102
}
330
18
100
AcDbEntity
  8
仮想線
 48
0.5
100
AcDbLine
 10
48.78037253224886
 20
298.8235151876883
 30
0.0
 11
49.08037253224904
 21
298.5235151876882
 31
0.0
  0
LINE
  5
1A106
102
{ACAD_REACTORS
330
1A294
102
}
330
18
100
AcDbEntity
  8
仮想線
 48
0.5
100
AcDbLine
 10
53.78037253224886
 20
298.2529048029688
 30
0.0
 11
53.78037253224886
 21
307.4529048029686
 31
0.0
  0
LINE
  5
1A107
102
{ACAD_REACTORS
330
1A294
102
}
330
18
100
AcDbEntity
  8
仮想線
 48
0.5
100
AcDbLine
 10
55.08037253224904
 20
297.8529048029686
 30
0.0
 11
55.08037253224802
 21
302.8529048029686
 31
0.0
  0
LINE
  5
1A108
102
{ACAD_REACTORS
330
1A294
102
}
330
18
100
AcDbEntity
  8
仮想線
  6
BYBLOCK
 48
0.5
100
AcDbLine
 10
60.58037779799793
 20
292.7735151876877
 30
0.0
 11
60.58035673500376
 21
332.7735151876876
 31
0.0
  0
LINE
  5
1A109
102
{ACAD_REACTORS
330
1A294
102
}
330
18
100
AcDbEntity
  8
仮想線
 48
0.5
100
AcDbLine
 10
56.08037779799713
 20
292.7735151876876
 30
0.0
 11
56.08035673500331
 21
332.7735151876883
 31
0.0
  0
LINE
  5
1A10A
330
18
100
AcDbEntity
  8
中心線
100
AcDbLine
 10
187.3303672247515
 20
454.661426263098
 30
0.0
 11
187.3303672247515
 21
170.5195861638
 31
0.0
  0
LINE
  5
1A143
102
{ACAD_REACTORS
330
1A294
102
}
330
18
100
AcDbEntity
  8
仮想線
 48
0.5
100
AcDbLine
 10
60.58037779799781
 20
292.7735151876877
 30
0.0
 11
56.08037779799713
 21
292.7735151876876
 31
0.0
  0
LINE
  5
1A144
102
{ACAD_REACTORS
330
1A294
102
}
330
18
100
AcDbEntity
  8
仮想線
 48
0.5
100
AcDbLine
 10
53.78037253224886
 20
298.5235151876882
 30
0.0
 11
49.08037253224904
 21
298.5235151876882
 31
0.0
  0
LINE
  5
1A145
102
{ACAD_REACTORS
330
1A294
102
}
330
18
100
AcDbEntity
  8
仮想線
 48
0.5
100
AcDbLine
 10
55.08037253224859
 20
298.2529048029688
 30
0.0
 11
53.78037253224886
 21
298.2529048029688
 31
0.0
  0
LINE
  5
1A146
102
{ACAD_REACTORS
330
1A294
102
}
330
18
100
AcDbEntity
  8
仮想線
 48
0.5
100
AcDbLine
 10
56.08037253224904
 20
297.8529048029688
 30
0.0
 11
55.08037253224904
 21
297.8529048029686
 31
0.0
  0
CIRCLE
  5
1A147
330
18
100
AcDbEntity
  8
0
100
AcDbCircle
 10
126.4198501451284
 20
252.0587245564701
 30
0.0
 40
4.75
  0
CIRCLE
  5
1A148
330
18
100
AcDbEntity
  8
細線
100
AcDbCircle
 10
126.4198501451284
 20
252.0587245564701
 30
0.0
 40
4.25
  0
LWPOLYLINE
  5
1A149
330
18
100
AcDbEntity
  8
細線
100
AcDbPolyline
 90
        6
 70
     1
 43
0.0
 10
124.1894855911801
 20
252.6577379254184
 10
124.7859029240268
 20
250.426680276383
 10
127.0162641918224
 20
249.8276640133679
 10
128.650208126771
 20
251.4597053993878
 10
128.0537907939249
 20
253.6907630484229
 10
125.8234295261292
 20
254.2897793114381
  0
CIRCLE
  5
1A14A
330
18
100
AcDbEntity
  8
細線
100
AcDbCircle
 10
164.9596712888383
 20
229.7779163702438
 30
0.0
 40
4.25
  0
CIRCLE
  5
1A14B
330
18
100
AcDbEntity
  8
0
100
AcDbCircle
 10
164.9596712888383
 20
229.7779163702438
 30
0.0
 40
4.75
  0
LWPOLYLINE
  5
1A14C
330
18
100
AcDbEntity
  8
細線
100
AcDbPolyline
 90
        6
 70
     1
 43
0.0
 10
162.7286122409447
 20
229.1814948879852
 10
164.3606536269649
 20
227.5475509530362
 10
166.5917112760004
 20
228.1439682858829
 10
167.1907275390158
 20
230.374329553678
 10
165.5586861529956
 20
232.0082734886272
 10
163.3276285039605
 20
231.4118561557806
  0
LINE
  5
1A14D
330
18
100
AcDbEntity
  8
中心線
100
AcDbLine
 10
152.553236361155
 20
252.4325030592164
 30
0.0
 11
146.6616267808126
 21
242.3704653121148
 31
0.0
  0
CIRCLE
  5
1A14E
330
18
100
AcDbEntity
  8
0
100
AcDbCircle
 10
149.839899127258
 20
247.8954006148986
 30
0.0
 40
3.0
  0
CIRCLE
  5
1A14F
330
18
100
AcDbEntity
  8
細線
100
AcDbCircle
 10
149.839899127258
 20
247.8954006148986
 30
0.0
 40
4.0
  0
CIRCLE
  5
1A151
330
18
100
AcDbEntity
  8
細線
100
AcDbCircle
 10
209.4765395497131
 20
229.7520810359783
 30
0.0
 40
4.25
  0
CIRCLE
  5
1A152
330
18
100
AcDbEntity
  8
0
100
AcDbCircle
 10
209.4765395497131
 20
229.7520810359783
 30
0.0
 40
4.75
  0
LWPOLYLINE
  5
1A153
330
18
100
AcDbEntity
  8
細線
100
AcDbPolyline
 90
        6
 70
     1
 43
0.0
 10
207.8425964780231
 20
228.1200353570329
 10
210.0729577458188
 20
227.5210190940176
 10
211.7069016807677
 20
229.1530604800378
 10
211.1104843479212
 20
231.3841181290729
 10
208.8801230801256
 20
231.9831343920887
 10
207.2461791451768
 20
230.3510930060681
  0
LINE
  5
1A162
330
18
100
AcDbEntity
  8
中心線
100
AcDbLine
 10
152.553236361155
 20
373.2730959167783
 30
0.0
 11
146.6616267808126
 21
383.3351336638802
 31
0.0
  0
LINE
  5
1A165
102
{ACAD_REACTORS
330
1A294
102
}
330
18
100
AcDbEntity
  8
仮想線
 48
0.5
100
AcDbLine
 10
48.78037253224886
 20
326.8822944182486
 30
0.0
 11
48.78037253224886
 21
318.9822944182491
 31
0.0
  0
LINE
  5
1A166
102
{ACAD_REACTORS
330
1A294
102
}
330
18
100
AcDbEntity
  8
仮想線
 48
0.5
100
AcDbLine
 10
53.78037253224886
 20
327.4529048029683
 30
0.0
 11
53.78037253224886
 21
318.2529048029686
 31
0.0
  0
LINE
  5
1A167
102
{ACAD_REACTORS
330
1A294
102
}
330
18
100
AcDbEntity
  8
仮想線
 48
0.5
100
AcDbLine
 10
55.08037253224802
 20
322.8529048029686
 30
0.0
 11
55.08037253224904
 21
317.8529048029685
 31
0.0
  0
LINE
  5
1A168
102
{ACAD_REACTORS
330
1A294
102
}
330
18
100
AcDbEntity
  8
中心線
 48
0.5
100
AcDbLine
 10
71.1133718505456
 20
302.8529048029688
 30
0.0
 11
46.02250880837357
 21
302.8529048029686
 31
0.0
  0
LINE
  5
1A169
102
{ACAD_REACTORS
330
1A294
102
}
330
18
100
AcDbEntity
  8
仮想線
 48
0.5
100
AcDbLine
 10
53.78037253224886
 20
307.0235151876882
 30
0.0
 11
49.08037253224859
 21
307.0235151876882
 31
0.0
  0
LINE
  5
1A16A
102
{ACAD_REACTORS
330
1A294
102
}
330
18
100
AcDbEntity
  8
仮想線
 48
0.5
100
AcDbLine
 10
49.08037253224859
 20
307.0235151876882
 30
0.0
 11
48.78037253224886
 21
306.7235151876881
 31
0.0
  0
LINE
  5
1A16B
102
{ACAD_REACTORS
330
1A294
102
}
330
18
100
AcDbEntity
  8
仮想線
 48
0.5
100
AcDbLine
 10
48.78037253224886
 20
298.8235151876883
 30
0.0
 11
48.78037253224886
 21
306.7235151876881
 31
0.0
  0
LINE
  5
1A16C
102
{ACAD_REACTORS
330
1A294
102
}
330
18
100
AcDbEntity
  8
仮想線
 48
0.5
100
AcDbLine
 10
55.08037253224859
 20
307.4529048029686
 30
0.0
 11
53.78037253224886
 21
307.4529048029686
 31
0.0
  0
LINE
  5
1A16D
102
{ACAD_REACTORS
330
1A294
102
}
330
18
100
AcDbEntity
  8
仮想線
 48
0.5
100
AcDbLine
 10
55.08037253224802
 20
302.8529048029686
 30
0.0
 11
55.08037253224904
 21
307.8529048029686
 31
0.0
  0
LINE
  5
1A16E
102
{ACAD_REACTORS
330
1A294
102
}
330
18
100
AcDbEntity
  8
仮想線
 48
0.5
100
AcDbLine
 10
56.08037253224904
 20
307.8529048029686
 30
0.0
 11
55.08037253224904
 21
307.8529048029686
 31
0.0
  0
LINE
  5
1A16F
102
{ACAD_REACTORS
330
1A294
102
}
330
18
100
AcDbEntity
  8
仮想線
 48
0.5
100
AcDbLine
 10
53.78037253224886
 20
318.6822944182488
 30
0.0
 11
49.08037253224859
 21
318.6822944182488
 31
0.0
  0
LINE
  5
1A170
102
{ACAD_REACTORS
330
1A294
102
}
330
18
100
AcDbEntity
  8
仮想線
 48
0.5
100
AcDbLine
 10
49.08037253224859
 20
318.6822944182488
 30
0.0
 11
48.78037253224886
 21
318.9822944182491
 31
0.0
  0
LINE
  5
1A171
102
{ACAD_REACTORS
330
1A294
102
}
330
18
100
AcDbEntity
  8
仮想線
 48
0.5
100
AcDbLine
 10
55.08037253224859
 20
318.2529048029686
 30
0.0
 11
53.78037253224886
 21
318.2529048029686
 31
0.0
  0
LINE
  5
1A172
102
{ACAD_REACTORS
330
1A294
102
}
330
18
100
AcDbEntity
  8
仮想線
 48
0.5
100
AcDbLine
 10
56.08037253224904
 20
317.8529048029685
 30
0.0
 11
55.08037253224904
 21
317.8529048029685
 31
0.0
  0
LINE
  5
1A184
102
{ACAD_REACTORS
330
1A294
102
}
330
18
100
AcDbEntity
  8
仮想線
  6
BYBLOCK
 48
0.5
100
AcDbLine
 10
56.08035673500331
 20
332.7735151876883
 30
0.0
 11
60.58035673500376
 21
332.7735151876876
 31
0.0
  0
LINE
  5
1A185
102
{ACAD_REACTORS
330
1A294
102
}
330
18
100
AcDbEntity
  8
中心線
 48
0.5
100
AcDbLine
 10
71.1133718505456
 20
322.8529048029685
 30
0.0
 11
46.02250880837357
 21
322.8529048029685
 31
0.0
  0
LINE
  5
1A186
102
{ACAD_REACTORS
330
1A294
102
}
330
18
100
AcDbEntity
  8
仮想線
 48
0.5
100
AcDbLine
 10
53.78037253224886
 20
327.1822944182488
 30
0.0
 11
49.08037253224904
 21
327.1822944182488
 31
0.0
  0
LINE
  5
1A187
102
{ACAD_REACTORS
330
1A294
102
}
330
18
100
AcDbEntity
  8
仮想線
 48
0.5
100
AcDbLine
 10
48.78037253224886
 20
326.8822944182486
 30
0.0
 11
49.08037253224904
 21
327.1822944182488
 31
0.0
  0
LINE
  5
1A188
102
{ACAD_REACTORS
330
1A294
102
}
330
18
100
AcDbEntity
  8
仮想線
 48
0.5
100
AcDbLine
 10
55.08037253224904
 20
327.8529048029685
 30
0.0
 11
55.08037253224813
 21
322.8529048029686
 31
0.0
  0
LINE
  5
1A189
102
{ACAD_REACTORS
330
1A294
102
}
330
18
100
AcDbEntity
  8
仮想線
 48
0.5
100
AcDbLine
 10
55.08037253224859
 20
327.4529048029683
 30
0.0
 11
53.78037253224886
 21
327.4529048029683
 31
0.0
  0
LINE
  5
1A18A
102
{ACAD_REACTORS
330
1A294
102
}
330
18
100
AcDbEntity
  8
仮想線
 48
0.5
100
AcDbLine
 10
56.08037253224904
 20
327.8529048029681
 30
0.0
 11
55.08037253224904
 21
327.8529048029685
 31
0.0
  0
SOLID
  5
1A18C
330
18
100
AcDbEntity
  8
0
  6
BYBLOCK
 62
     0
100
AcDbTrace
 10
99.33036722475174
 20
315.1622005679976
 30
0.0
 11
95.33036722475172
 21
312.8527994879975
 31
0.0
 12
99.33036722475174
 22
310.5433984079975
 32
0.0
 13
99.33036722475174
 23
310.5433984079975
 33
0.0
  0
SOLID
  5
1A18D
330
18
100
AcDbEntity
  8
0
  6
BYBLOCK
 62
     0
100
AcDbTrace
 10
90.33036722475173
 20
315.1622005679976
 30
0.0
 11
94.3303672247517
 21
312.8527994879975
 31
0.0
 12
90.33036722475173
 22
310.5433984079975
 32
0.0
 13
90.33036722475173
 23
310.5433984079975
 33
0.0
  0
CIRCLE
  5
1A18E
330
18
100
AcDbEntity
  8
細線
100
AcDbCircle
 10
112.3303672247508
 20
312.8527994879977
 30
0.0
 40
4.0
  0
CIRCLE
  5
1A18F
330
18
100
AcDbEntity
  8
0
100
AcDbCircle
 10
112.3303672247508
 20
312.8527994879977
 30
0.0
 40
3.0
  0
CIRCLE
  5
1A190
330
18
100
AcDbEntity
  8
細線
100
AcDbCircle
 10
104.2096254047454
 20
290.5279622543367
 30
0.0
 40
4.25
  0
CIRCLE
  5
1A191
330
18
100
AcDbEntity
  8
0
100
AcDbCircle
 10
104.2096254047454
 20
290.5279622543367
 30
0.0
 40
4.75
  0
LWPOLYLINE
  5
1A192
330
18
100
AcDbEntity
  8
細線
100
AcDbPolyline
 90
        6
 70
     1
 43
0.0
 10
103.6132039224869
 20
288.2969032064431
 10
101.979259987538
 20
289.9289445924633
 10
102.5756773203847
 20
292.1600022414986
 10
104.8060385881798
 20
292.7590185045136
 10
106.4399825231289
 20
291.1269771184941
 10
105.8435651902822
 20
288.8959194694582
  0
CIRCLE
  5
1A1A9
330
18
100
AcDbEntity
  8
細線
100
AcDbCircle
 10
207.4615138620256
 20
347.4586750038273
 30
0.0
 40
5.5
  0
CIRCLE
  5
1A1AA
330
18
100
AcDbEntity
  8
細線
100
AcDbCircle
 10
207.4615138620292
 20
347.4586750038282
 30
0.0
 40
2.25
  0
CIRCLE
  5
1A1AB
330
18
100
AcDbEntity
  8
細線
100
AcDbCircle
 10
207.4615138620292
 20
347.4586750038282
 30
0.0
 40
3.0
  0
CIRCLE
  5
1A1AC
330
18
100
AcDbEntity
  8
細線
100
AcDbCircle
 10
104.196693748471
 20
335.0930436536456
 30
0.0
 40
4.25
  0
CIRCLE
  5
1A1AD
330
18
100
AcDbEntity
  8
0
100
AcDbCircle
 10
104.196693748471
 20
335.0930436536456
 30
0.0
 40
4.75
  0
LWPOLYLINE
  5
1A1AE
330
18
100
AcDbEntity
  8
細線
100
AcDbPolyline
 90
        6
 70
     1
 43
0.0
 10
102.563700086774
 20
333.4600480135583
 10
101.9659783130638
 20
335.690756544378
 10
103.5989676823371
 20
337.3237530502156
 10
105.8296788253207
 20
336.726041025234
 10
106.4274005990308
 20
334.4953324944143
 10
104.7944112297572
 20
332.8623359885765
  0
CIRCLE
  5
1A1AF
330
18
100
AcDbEntity
  8
0
100
AcDbCircle
 10
149.839899127258
 20
377.8101983610956
 30
0.0
 40
3.0
  0
CIRCLE
  5
1A1B0
330
18
100
AcDbEntity
  8
細線
100
AcDbCircle
 10
149.839899127258
 20
377.8101983610956
 30
0.0
 40
4.0
  0
CIRCLE
  5
1A1C7
330
18
100
AcDbEntity
  8
細線
100
AcDbCircle
 10
126.4198501451283
 20
373.6104869931867
 30
0.0
 40
4.25
  0
CIRCLE
  5
1A1C8
330
18
100
AcDbEntity
  8
0
100
AcDbCircle
 10
126.4198501451283
 20
373.6104869931867
 30
0.0
 40
4.75
  0
LWPOLYLINE
  5
1A1C9
330
18
100
AcDbEntity
  8
細線
100
AcDbPolyline
 90
        6
 70
     1
 43
0.0
 10
124.1894855911802
 20
373.0114736242382
 10
124.7859029240268
 20
375.2425312732737
 10
127.0162641918224
 20
375.8415475362888
 10
128.650208126771
 20
374.2095061502688
 10
128.0537907939248
 20
371.9784485012335
 10
125.8234295261292
 20
371.3794322382184
  0
LINE
  5
1A1DB
102
{ACAD_REACTORS
330
1A295
102
}
330
18
100
AcDbEntity
  8
仮想線
 48
0.5
100
AcDbLine
 10
325.8803619172545
 20
298.8233045577463
 30
0.0
 11
325.5803619172544
 21
298.5233045577463
 31
0.0
  0
LINE
  5
1A1DC
102
{ACAD_REACTORS
330
1A295
102
}
330
18
100
AcDbEntity
  8
仮想線
 48
0.5
100
AcDbLine
 10
320.8803619172545
 20
298.2526941730266
 30
0.0
 11
320.8803619172545
 21
307.4526941730263
 31
0.0
  0
LINE
  5
1A1DD
102
{ACAD_REACTORS
330
1A295
102
}
330
18
100
AcDbEntity
  8
仮想線
 48
0.5
100
AcDbLine
 10
319.5803619172544
 20
297.8526941730267
 30
0.0
 11
319.5803619172552
 21
302.8526941730265
 31
0.0
  0
LINE
  5
1A1DE
102
{ACAD_REACTORS
330
1A295
102
}
330
18
100
AcDbEntity
  8
仮想線
 48
0.5
100
AcDbLine
 10
318.5803566515062
 20
332.9320837883076
 30
0.0
 11
318.5803777145001
 21
292.9320837883068
 31
0.0
  0
LINE
  5
1A1DF
102
{ACAD_REACTORS
330
1A295
102
}
330
18
100
AcDbEntity
  8
仮想線
  6
BYBLOCK
 48
0.5
100
AcDbLine
 10
314.0803566515055
 20
332.9320837883073
 30
0.0
 11
314.0803777144995
 21
292.9320837883071
 31
0.0
  0
LWPOLYLINE
  5
1A1F5
330
18
100
AcDbEntity
  8
細線
100
AcDbPolyline
 90
        6
 70
     1
 43
0.0
 10
270.9194256961734
 20
337.3723083432139
 10
272.553369631122
 20
335.7402669571937
 10
271.9569522982756
 20
333.5092093081581
 10
269.7265910304804
 20
332.9101930451432
 10
268.0926470955311
 20
334.5422344311628
 10
268.6890644283781
 20
336.7732920801983
  0
CIRCLE
  5
1A1F6
330
18
100
AcDbEntity
  8
細線
100
AcDbCircle
 10
270.323004213915
 20
335.1412492953203
 30
0.0
 40
4.25
  0
CIRCLE
  5
1A1F7
330
18
100
AcDbEntity
  8
0
100
AcDbCircle
 10
270.323004213915
 20
335.1412492953203
 30
0.0
 40
4.75
  0
CIRCLE
  5
1A1F9
330
18
100
AcDbEntity
  8
0
100
AcDbCircle
 10
248.1127794735322
 20
252.0587245564701
 30
0.0
 40
4.75
  0
CIRCLE
  5
1A1FA
330
18
100
AcDbEntity
  8
細線
100
AcDbCircle
 10
248.1127794735322
 20
252.0587245564701
 30
0.0
 40
4.25
  0
LWPOLYLINE
  5
1A1FB
330
18
100
AcDbEntity
  8
細線
100
AcDbPolyline
 90
        6
 70
     1
 43
0.0
 10
250.3431440274802
 20
252.6577379254184
 10
249.7467266946336
 20
250.426680276383
 10
247.516365426838
 20
249.8276640133678
 10
245.8824214918895
 20
251.4597053993877
 10
246.4788388247354
 20
253.6907630484234
 10
248.7092000925313
 20
254.2897793114381
  0
CIRCLE
  5
1A1FD
330
18
100
AcDbEntity
  8
細線
100
AcDbCircle
 10
224.7784266573375
 20
247.8709339812759
 30
0.0
 40
4.0
  0
LINE
  5
1A1FE
330
18
100
AcDbEntity
  8
中心線
100
AcDbLine
 10
222.0650894234404
 20
252.4080364255936
 30
0.0
 11
227.9566990037827
 21
242.3459986784918
 31
0.0
  0
CIRCLE
  5
1A1FF
330
18
100
AcDbEntity
  8
0
100
AcDbCircle
 10
224.7784266573375
 20
247.8709339812759
 30
0.0
 40
3.0
  0
CIRCLE
  5
1A200
330
18
100
AcDbEntity
  8
細線
100
AcDbCircle
 10
270.33593587019
 20
290.5761678960116
 30
0.0
 40
4.25
  0
CIRCLE
  5
1A201
330
18
100
AcDbEntity
  8
0
100
AcDbCircle
 10
270.33593587019
 20
290.5761678960116
 30
0.0
 40
4.75
  0
LWPOLYLINE
  5
1A202
330
18
100
AcDbEntity
  8
細線
100
AcDbPolyline
 90
        6
 70
     1
 43
0.0
 10
271.9689295318866
 20
292.209163536099
 10
272.5666513055967
 20
289.9784550052793
 10
270.9336619363231
 20
288.3454584994412
 10
268.70295079334
 20
288.9431705244231
 10
268.1052290196296
 20
291.1738790552428
 10
269.738218388903
 20
292.8068755610805
  0
LINE
  5
1A21D
102
{ACAD_REACTORS
330
1A295
102
}
330
18
100
AcDbEntity
  8
仮想線
  6
BYBLOCK
 48
0.5
100
AcDbLine
 10
318.5803777145001
 20
292.9320837883068
 30
0.0
 11
314.0803777144995
 21
292.9320837883071
 31
0.0
  0
LINE
  5
1A21E
102
{ACAD_REACTORS
330
1A295
102
}
330
18
100
AcDbEntity
  8
仮想線
 48
0.5
100
AcDbLine
 10
320.8803619172545
 20
298.5233045577463
 30
0.0
 11
325.5803619172544
 21
298.5233045577463
 31
0.0
  0
LINE
  5
1A21F
102
{ACAD_REACTORS
330
1A295
102
}
330
18
100
AcDbEntity
  8
仮想線
 48
0.5
100
AcDbLine
 10
319.5803619172548
 20
298.2526941730266
 30
0.0
 11
320.8803619172545
 21
298.2526941730266
 31
0.0
  0
LINE
  5
1A220
102
{ACAD_REACTORS
330
1A295
102
}
330
18
100
AcDbEntity
  8
仮想線
 48
0.5
100
AcDbLine
 10
318.5803619172542
 20
297.8526941730267
 30
0.0
 11
319.5803619172544
 21
297.8526941730267
 31
0.0
  0
LINE
  5
1A222
330
18
100
AcDbEntity
  8
中心線
100
AcDbLine
 10
222.0650894234404
 20
373.2975625504008
 30
0.0
 11
227.9566990037827
 21
383.3596002975031
 31
0.0
  0
LWPOLYLINE
  5
1A223
330
18
100
AcDbEntity
  8
細線
100
AcDbPolyline
 90
        6
 70
     1
 43
0.0
 10
250.3431440274802
 20
373.0114736242386
 10
249.7467266946336
 20
375.2425312732738
 10
247.5163654268377
 20
375.8415475362892
 10
245.8824214918892
 20
374.209506150269
 10
246.4788388247354
 20
371.9784485012339
 10
248.709200092531
 20
371.3794322382188
  0
CIRCLE
  5
1A224
330
18
100
AcDbEntity
  8
0
100
AcDbCircle
 10
248.1127794735321
 20
373.6104869931867
 30
0.0
 40
4.75
  0
CIRCLE
  5
1A225
330
18
100
AcDbEntity
  8
細線
100
AcDbCircle
 10
248.1127794735321
 20
373.6104869931867
 30
0.0
 40
4.25
  0
CIRCLE
  5
1A22B
330
18
100
AcDbEntity
  8
細線
100
AcDbCircle
 10
262.3303672247526
 20
312.8527994879977
 30
0.0
 40
4.0
  0
CIRCLE
  5
1A22C
330
18
100
AcDbEntity
  8
0
100
AcDbCircle
 10
262.3303672247526
 20
312.8527994879977
 30
0.0
 40
3.0
  0
CIRCLE
  5
1A230
330
18
100
AcDbEntity
  8
細線
100
AcDbCircle
 10
224.7784266573375
 20
377.8346649947187
 30
0.0
 40
4.0
  0
CIRCLE
  5
1A231
330
18
100
AcDbEntity
  8
0
100
AcDbCircle
 10
224.7784266573375
 20
377.8346649947187
 30
0.0
 40
3.0
  0
CIRCLE
  5
1A234
330
18
100
AcDbEntity
  8
細線
100
AcDbCircle
 10
209.524752688147
 20
395.904226835688
 30
0.0
 40
4.25
  0
CIRCLE
  5
1A235
330
18
100
AcDbEntity
  8
0
100
AcDbCircle
 10
209.524752688147
 20
395.904226835688
 30
0.0
 40
4.75
  0
LWPOLYLINE
  5
1A236
330
18
100
AcDbEntity
  8
細線
100
AcDbPolyline
 90
        6
 70
     1
 43
0.0
 10
211.75546522758
 20
396.501943010893
 10
210.1224758583066
 20
398.1349395167306
 10
207.8917647153229
 20
397.5372274917491
 10
207.294042941613
 20
395.3065189609294
 10
208.9270323108866
 20
393.6735224550914
 10
211.1577434538699
 20
394.271234480073
  0
LINE
  5
1A237
102
{ACAD_REACTORS
330
1A295
102
}
330
18
100
AcDbEntity
  8
中心線
 48
0.5
100
AcDbLine
 10
303.5473625989578
 20
322.8526941730263
 30
0.0
 11
328.6382256411296
 21
322.8526941730265
 31
0.0
  0
LINE
  5
1A238
102
{ACAD_REACTORS
330
1A295
102
}
330
18
100
AcDbEntity
  8
中心線
 48
0.5
100
AcDbLine
 10
303.5473625989578
 20
302.8526941730266
 30
0.0
 11
328.6382256411296
 21
302.8526941730266
 31
0.0
  0
LINE
  5
1A23A
102
{ACAD_REACTORS
330
1A295
102
}
330
18
100
AcDbEntity
  8
仮想線
 48
0.5
100
AcDbLine
 10
325.8803619172545
 20
326.8820837883067
 30
0.0
 11
325.8803619172545
 21
318.9820837883071
 31
0.0
  0
LINE
  5
1A23B
102
{ACAD_REACTORS
330
1A295
102
}
330
18
100
AcDbEntity
  8
仮想線
 48
0.5
100
AcDbLine
 10
320.8803619172545
 20
327.4526941730263
 30
0.0
 11
320.8803619172545
 21
318.2526941730266
 31
0.0
  0
LINE
  5
1A23C
102
{ACAD_REACTORS
330
1A295
102
}
330
18
100
AcDbEntity
  8
仮想線
 48
0.5
100
AcDbLine
 10
319.5803619172554
 20
322.8526941730265
 30
0.0
 11
319.5803619172544
 21
317.8526941730265
 31
0.0
  0
LINE
  5
1A23D
102
{ACAD_REACTORS
330
1A295
102
}
330
18
100
AcDbEntity
  8
仮想線
 48
0.5
100
AcDbLine
 10
319.5803619172554
 20
302.8526941730265
 30
0.0
 11
319.5803619172544
 21
307.8526941730267
 31
0.0
  0
LINE
  5
1A23E
102
{ACAD_REACTORS
330
1A295
102
}
330
18
100
AcDbEntity
  8
仮想線
 48
0.5
100
AcDbLine
 10
320.8803619172545
 20
307.0233045577463
 30
0.0
 11
325.5803619172549
 21
307.0233045577463
 31
0.0
  0
LINE
  5
1A23F
102
{ACAD_REACTORS
330
1A295
102
}
330
18
100
AcDbEntity
  8
仮想線
 48
0.5
100
AcDbLine
 10
325.5803619172549
 20
307.0233045577463
 30
0.0
 11
325.8803619172545
 21
306.7233045577461
 31
0.0
  0
LINE
  5
1A240
102
{ACAD_REACTORS
330
1A295
102
}
330
18
100
AcDbEntity
  8
仮想線
 48
0.5
100
AcDbLine
 10
319.5803619172548
 20
307.4526941730263
 30
0.0
 11
320.8803619172545
 21
307.4526941730263
 31
0.0
  0
LINE
  5
1A241
102
{ACAD_REACTORS
330
1A295
102
}
330
18
100
AcDbEntity
  8
仮想線
 48
0.5
100
AcDbLine
 10
318.5803619172542
 20
307.8526941730267
 30
0.0
 11
319.5803619172544
 21
307.8526941730267
 31
0.0
  0
LINE
  5
1A242
102
{ACAD_REACTORS
330
1A295
102
}
330
18
100
AcDbEntity
  8
仮想線
 48
0.5
100
AcDbLine
 10
325.8803619172545
 20
298.8233045577463
 30
0.0
 11
325.8803619172545
 21
306.7233045577461
 31
0.0
  0
LINE
  5
1A253
102
{ACAD_REACTORS
330
1A295
102
}
330
18
100
AcDbEntity
  8
仮想線
 48
0.5
100
AcDbLine
 10
320.8803619172545
 20
318.6820837883069
 30
0.0
 11
325.5803619172549
 21
318.6820837883069
 31
0.0
  0
LINE
  5
1A254
102
{ACAD_REACTORS
330
1A295
102
}
330
18
100
AcDbEntity
  8
仮想線
 48
0.5
100
AcDbLine
 10
319.5803619172548
 20
318.2526941730266
 30
0.0
 11
320.8803619172545
 21
318.2526941730266
 31
0.0
  0
LINE
  5
1A255
102
{ACAD_REACTORS
330
1A295
102
}
330
18
100
AcDbEntity
  8
仮想線
 48
0.5
100
AcDbLine
 10
318.5803619172542
 20
317.8526941730265
 30
0.0
 11
319.5803619172544
 21
317.8526941730265
 31
0.0
  0
LINE
  5
1A256
102
{ACAD_REACTORS
330
1A295
102
}
330
18
100
AcDbEntity
  8
仮想線
 48
0.5
100
AcDbLine
 10
325.5803619172549
 20
318.6820837883069
 30
0.0
 11
325.8803619172545
 21
318.9820837883071
 31
0.0
  0
LINE
  5
1A257
102
{ACAD_REACTORS
330
1A295
102
}
330
18
100
AcDbEntity
  8
仮想線
 48
0.5
100
AcDbLine
 10
319.5803619172544
 20
327.8526941730265
 30
0.0
 11
319.5803619172554
 21
322.8526941730265
 31
0.0
  0
LINE
  5
1A258
102
{ACAD_REACTORS
330
1A295
102
}
330
18
100
AcDbEntity
  8
仮想線
 48
0.5
100
AcDbLine
 10
320.8803619172545
 20
327.1820837883069
 30
0.0
 11
325.5803619172544
 21
327.1820837883069
 31
0.0
  0
LINE
  5
1A259
102
{ACAD_REACTORS
330
1A295
102
}
330
18
100
AcDbEntity
  8
仮想線
 48
0.5
100
AcDbLine
 10
325.8803619172545
 20
326.8820837883067
 30
0.0
 11
325.5803619172544
 21
327.1820837883069
 31
0.0
  0
LINE
  5
1A25A
102
{ACAD_REACTORS
330
1A295
102
}
330
18
100
AcDbEntity
  8
仮想線
 48
0.5
100
AcDbLine
 10
319.5803619172548
 20
327.4526941730263
 30
0.0
 11
320.8803619172545
 21
327.4526941730263
 31
0.0
  0
LINE
  5
1A25B
102
{ACAD_REACTORS
330
1A295
102
}
330
18
100
AcDbEntity
  8
仮想線
 48
0.5
100
AcDbLine
 10
318.5803619172542
 20
327.8526941730262
 30
0.0
 11
319.5803619172544
 21
327.8526941730265
 31
0.0
  0
LINE
  5
1A25C
102
{ACAD_REACTORS
330
1A295
102
}
330
18
100
AcDbEntity
  8
仮想線
 48
0.5
100
AcDbLine
 10
314.0803566515056
 20
332.9320837883073
 30
0.0
 11
318.5803566515062
 21
332.9320837883076
 31
0.0
  0
CIRCLE
  5
1A26F
330
18
100
AcDbEntity
  8
細線
100
AcDbCircle
 10
165.0560900689474
 20
395.9171305136789
 30
0.0
 40
4.25
  0
CIRCLE
  5
1A270
330
18
100
AcDbEntity
  8
0
100
AcDbCircle
 10
165.0560900689474
 20
395.9171305136789
 30
0.0
 40
4.75
  0
CIRCLE
  5
1A271
330
18
100
AcDbEntity
  8
細線
100
AcDbCircle
 10
206.7417956074409
 20
385.2972364596785
 30
0.0
 40
2.5
  0
CIRCLE
  5
1A272
330
18
100
AcDbEntity
  8
細線
100
AcDbCircle
 10
206.7417956074409
 20
385.2972364596785
 30
0.0
 40
2.0
  0
LWPOLYLINE
  5
1A273
330
18
100
AcDbEntity
  8
細線
100
AcDbPolyline
 90
        6
 70
     1
 43
0.0
 10
166.6900331406374
 20
397.5491761926237
 10
164.4596718728418
 20
398.148192455639
 10
162.8257279378928
 20
396.5161510696186
 10
163.4221452707393
 20
394.2850934205837
 10
165.6525065385345
 20
393.6860771575684
 10
167.2864504734835
 20
395.3181185435886
  0
CIRCLE
  5
1A2E9
330
18
100
AcDbEntity
  8
２点鎖線
 48
0.5
100
AcDbCircle
 10
354.2862200032315
 20
312.8288768239928
 30
0.0
 40
10.0
  0
LINE
  5
1A2EA
330
18
100
AcDbEntity
  8
２点鎖線
 48
0.5
100
AcDbLine
 10
384.4562163617581
 20
329.8288768239133
 30
0.0
 11
384.4562163617581
 21
295.828876823913
 31
0.0
  0
LINE
  5
1A2EB
330
18
100
AcDbEntity
  8
中心線
100
AcDbLine
 10
377.4562163617576
 20
328.8085861906342
 30
0.0
 11
377.4562163617576
 21
296.0148145173929
 31
0.0
  0
LINE
  5
1A2EC
330
18
100
AcDbEntity
  8
中心線
100
AcDbLine
 10
354.2862200032312
 20
336.9473301602678
 30
0.0
 11
354.2862200032312
 21
288.8649137367733
 31
0.0
  0
LINE
  5
1A2ED
330
18
100
AcDbEntity
  8
２点鎖線
 48
0.5
100
AcDbLine
 10
334.286220003231
 20
302.8288768239132
 30
0.0
 11
334.286220003231
 21
322.8288768239132
 31
0.0
  0
LINE
  5
1A2EE
330
18
100
AcDbEntity
  8
２点鎖線
 48
0.5
100
AcDbLine
 10
381.456216361758
 20
292.8288768239131
 30
0.0
 11
344.286220003231
 21
292.8288768239132
 31
0.0
  0
LINE
  5
1A2EF
330
18
100
AcDbEntity
  8
中心線
100
AcDbLine
 10
371.3757311606578
 20
302.8527994879963
 30
0.0
 11
383.4038443597183
 21
302.8527994879963
 31
0.0
  0
CIRCLE
  5
1A2F0
330
18
100
AcDbEntity
  8
２点鎖線
 48
0.5
100
AcDbCircle
 10
377.4562163617576
 20
302.8527994879963
 30
0.0
 40
4.25
  0
LINE
  5
1A2F1
330
18
100
AcDbEntity
  8
２点鎖線
 48
0.5
100
AcDbLine
 10
384.4562163617581
 20
295.828876823913
 30
0.0
 11
381.456216361758
 21
292.8288768239131
 31
0.0
  0
LINE
  5
1A2F2
330
18
100
AcDbEntity
  8
２点鎖線
 48
0.5
100
AcDbLine
 10
334.286220003231
 20
302.8288768239132
 30
0.0
 11
344.286220003231
 21
292.8288768239132
 31
0.0
  0
LINE
  5
1A2F3
330
18
100
AcDbEntity
  8
２点鎖線
 48
0.5
100
AcDbLine
 10
344.286220003231
 20
332.8288768239132
 30
0.0
 11
381.456216361758
 21
332.8288768239133
 31
0.0
  0
CIRCLE
  5
1A2F4
330
18
100
AcDbEntity
  8
２点鎖線
 48
0.5
100
AcDbCircle
 10
377.4562163617576
 20
322.8527994879963
 30
0.0
 40
4.25
  0
LINE
  5
1A2F5
330
18
100
AcDbEntity
  8
中心線
100
AcDbLine
 10
371.3757311606578
 20
322.8527994879963
 30
0.0
 11
383.4038443597183
 21
322.8527994879963
 31
0.0
  0
LINE
  5
1A2F6
330
18
100
AcDbEntity
  8
２点鎖線
 48
0.5
100
AcDbLine
 10
384.4562163617581
 20
329.8288768239133
 30
0.0
 11
381.456216361758
 21
332.8288768239133
 31
0.0
  0
LINE
  5
1A2F7
330
18
100
AcDbEntity
  8
２点鎖線
 48
0.5
100
AcDbLine
 10
344.286220003231
 20
332.8288768239132
 30
0.0
 11
334.286220003231
 21
322.8288768239132
 31
0.0
  0
LINE
  5
1A346
330
18
100
AcDbEntity
  8
細線
100
AcDbLine
 10
208.2086600510582
 20
344.6702874656763
 30
0.0
 11
205.4202723131735
 21
345.4174339117733
 31
0.0
  0
CIRCLE
  5
1A347
330
18
100
AcDbEntity
  8
細線
100
AcDbCircle
 10
207.4615138620256
 20
347.4586750038273
 30
0.0
 40
5.0
  0
CIRCLE
  5
1A348
330
18
100
AcDbEntity
  8
0
100
AcDbCircle
 10
207.4615138620256
 20
347.4586750038273
 30
0.0
 40
5.5
  0
LINE
  5
1A349
330
18
100
AcDbEntity
  8
細線
100
AcDbLine
 10
204.6731261759048
 20
348.2058212567391
 30
0.0
 11
205.4202724167011
 21
345.4174335254029
 31
0.0
  0
LINE
  5
1A34A
330
18
100
AcDbEntity
  8
細線
100
AcDbLine
 10
209.5027553073502
 20
349.4999164822516
 30
0.0
 11
210.2499015481462
 21
346.7115287509155
 31
0.0
  0
LINE
  5
1A34B
330
18
100
AcDbEntity
  8
細線
100
AcDbLine
 10
206.7143675435834
 20
350.2470630249411
 30
0.0
 11
209.5027552814681
 21
349.4999165788442
 31
0.0
  0
LINE
  5
1A34C
330
18
100
AcDbEntity
  8
細線
100
AcDbLine
 10
206.7143676729931
 20
350.2470625419783
 30
0.0
 11
204.6731262794323
 21
348.2058208703686
 31
0.0
  0
LINE
  5
1A34D
330
18
100
AcDbEntity
  8
細線
100
AcDbLine
 10
210.2499015740283
 20
346.7115286543228
 30
0.0
 11
208.2086601804677
 21
344.6702869827134
 31
0.0
  0
LINE
  5
1A38A
330
18
100
AcDbEntity
  8
0
100
AcDbLine
 10
454.9562162443371
 20
185.8527994879968
 30
0.0
 11
454.9562162443374
 21
439.8527994879962
 31
0.0
  0
LINE
  5
1A38B
330
18
100
AcDbEntity
  8
0
100
AcDbLine
 10
448.6562162443371
 20
185.8527994879968
 30
0.0
 11
448.6562162443373
 21
439.8527994879962
 31
0.0
  0
LINE
  5
1A38E
330
18
100
AcDbEntity
  8
0
100
AcDbLine
 10
448.6562162443371
 20
439.1027994879961
 30
0.0
 11
454.9562162443371
 21
439.1027994879961
 31
0.0
  0
LINE
  5
1A38F
330
18
100
AcDbEntity
  8
0
100
AcDbLine
 10
454.9562162443374
 20
439.8527994879962
 30
0.0
 11
480.4562162443374
 21
439.8527994879962
 31
0.0
  0
LINE
  5
1A390
330
18
100
AcDbEntity
  8
0
100
AcDbLine
 10
448.6562162443371
 20
186.6027994879964
 30
0.0
 11
454.9562162443371
 21
186.6027994879966
 31
0.0
  0
LINE
  5
1A391
330
18
100
AcDbEntity
  8
0
100
AcDbLine
 10
454.9562162443371
 20
185.8527994879968
 30
0.0
 11
480.4562162443371
 21
185.8527994879968
 31
0.0
  0
CIRCLE
  5
1A570
330
18
100
AcDbEntity
  8
0
100
AcDbCircle
 10
695.3869854407351
 20
312.8527994879966
 30
0.0
 40
127.0
  0
CIRCLE
  5
1A599
330
18
100
AcDbEntity
  8
0
100
AcDbCircle
 10
743.8868443941363
 20
284.8570197792601
 30
0.0
 40
2.5
  0
HATCH
  5
1A59A
330
18
100
AcDbEntity
  8
0
100
AcDbHatch
 10
0.0
 20
0.0
 30
0.0
210
0.0
220
0.0
230
1.0
  2
SOLID
 70
     1
 71
     0
 91
        2
 92
        7
 72
     1
 73
     1
 93
        3
 10
742.6368442080212
 20
282.6919563772526
 42
0.0
 10
743.886844394136
 20
284.8570197792601
 42
0.0
 10
746.0519077961439
 20
283.6070195931446
 42
-0.4142135623730919
 97
        0
 92
        7
 72
     1
 73
     1
 93
        3
 10
743.8868443941365
 20
284.85701977926
 42
0.0
 10
741.7217809921293
 20
286.1070199653756
 42
-0.4142135623730951
 10
745.136844580252
 20
287.0220831812678
 42
0.0
 97
        0
 75
     0
 76
     1
 47
0.0576142688807724
 98
        2
 10
744.668927728586
 20
283.4476958710638
 10
744.0068395275158
 20
285.7592425995671
  0
CIRCLE
  5
1A59B
330
18
100
AcDbEntity
  8
0
100
AcDbCircle
 10
743.8868443941363
 20
284.8570197792601
 30
0.0
 40
9.5
  0
LWPOLYLINE
  5
1A59C
330
18
100
AcDbEntity
  8
0
100
AcDbPolyline
 90
       12
 70
   129
 43
0.0
 10
752.509828255364
 20
290.8481923964541
 42
-0.0418357922730061
 10
753.3868447785749
 20
289.3291549176112
 10
753.3868440096979
 20
280.3848830076115
 42
-0.041835792273005
 10
752.5098272253246
 20
278.86584567955
 10
744.7638601484713
 20
274.3937103904169
 42
-0.0418357922730106
 10
743.0098268408861
 20
274.3937105411989
 10
735.2638605329101
 20
278.8658471620655
 42
-0.0418357922730243
 10
734.3868440096984
 20
280.3848846409095
 10
734.3868447785751
 20
289.3291565509087
 42
-0.041835792273011
 10
735.2638615629485
 20
290.8481938789701
 10
743.009828639802
 20
295.3203291681031
 42
-0.0418357922730047
 10
744.7638619473868
 20
295.320329017321
  0
CIRCLE
  5
1A59D
330
18
100
AcDbEntity
  8
0
100
AcDbCircle
 10
743.8868443941363
 20
284.8570197792601
 30
0.0
 40
4.5
  0
CIRCLE
  5
1A59E
330
18
100
AcDbEntity
  8
0
100
AcDbCircle
 10
743.8868443941363
 20
284.8570197792601
 30
0.0
 40
5.2
  0
ARC
  5
1A59F
330
18
100
AcDbEntity
  8
中心線
100
AcDbCircle
 10
695.3869854407351
 20
312.8527994879982
 30
0.0
 40
56.0
100
AcDbArc
 50
298.4046152107024
 51
344.3961616623663
  0
LINE
  5
1A5A0
330
18
100
AcDbEntity
  8
中心線
100
AcDbLine
 10
695.3869854407351
 20
312.8527994879966
 30
0.0
 11
752.9805679478994
 21
279.607811083872
 31
0.0
  0
ARC
  5
1A641
330
18
100
AcDbEntity
  8
0
100
AcDbCircle
 10
546.0611107808245
 20
264.8570197792603
 30
0.0
 40
17.9
100
AcDbArc
 50
0.0
 51
90.0
  0
ARC
  5
1A642
330
18
100
AcDbEntity
  8
0
100
AcDbCircle
 10
546.0611107808245
 20
264.8570197792603
 30
0.0
 40
22.1
100
AcDbArc
 50
0.0
 51
90.0
  0
LINE
  5
1A643
330
18
100
AcDbEntity
  8
0
100
AcDbLine
 10
501.9562162443362
 20
286.9570197792593
 30
0.0
 11
546.0611107808232
 21
286.9570197792603
 31
0.0
  0
LINE
  5
1A644
330
18
100
AcDbEntity
  8
0
100
AcDbLine
 10
501.9562162443366
 20
282.7570197792595
 30
0.0
 11
546.0611107808237
 21
282.7570197792602
 31
0.0
  0
ARC
  5
1A645
330
18
100
AcDbEntity
  8
0
100
AcDbCircle
 10
487.956216244336
 20
284.8570197792601
 30
0.0
 40
10.50000000000042
100
AcDbArc
 50
334.7912347032373
 51
25.20876529676261
  0
LINE
  5
1A646
330
18
100
AcDbEntity
  8
0
100
AcDbLine
 10
498.4562162443357
 20
294.1855912078314
 30
0.0
 11
498.4562162443362
 21
275.528448350689
 31
0.0
  0
LINE
  5
1A647
330
18
100
AcDbEntity
  8
0
100
AcDbLine
 10
488.4562162443359
 20
294.3570197792601
 30
0.0
 11
488.4562162443359
 21
275.3570197792601
 31
0.0
  0
LINE
  5
1A648
330
18
100
AcDbEntity
  8
0
100
AcDbLine
 10
491.4562162443361
 20
295.3570197792601
 30
0.0
 11
491.4562162443361
 21
274.3570197792601
 31
0.0
  0
LINE
  5
1A649
330
18
100
AcDbEntity
  8
0
100
AcDbLine
 10
486.4562162443362
 20
295.3570197792601
 30
0.0
 11
486.4562162443362
 21
274.3570197792601
 31
0.0
  0
LINE
  5
1A64A
330
18
100
AcDbEntity
  8
0
100
AcDbLine
 10
501.9562162443362
 20
290.0855912078323
 30
0.0
 11
501.9562162443362
 21
279.628448350688
 31
0.0
  0
LINE
  5
1A64B
330
18
100
AcDbEntity
  8
0
100
AcDbLine
 10
483.9562162443358
 20
295.3570197792601
 30
0.0
 11
483.9562162443358
 21
274.3570197792601
 31
0.0
  0
LINE
  5
1A64D
330
18
100
AcDbEntity
  8
0
100
AcDbLine
 10
491.4562162443361
 20
274.3570197792601
 30
0.0
 11
497.4562162443358
 21
274.3570197792601
 31
0.0
  0
LINE
  5
1A64E
330
18
100
AcDbEntity
  8
0
100
AcDbLine
 10
497.456216244336
 20
278.8658464208081
 30
0.0
 11
491.4562162443361
 21
278.8658464208081
 31
0.0
  0
LINE
  5
1A64F
330
18
100
AcDbEntity
  8
0
100
AcDbLine
 10
497.456216244336
 20
280.3848838242606
 30
0.0
 11
491.4562162443361
 21
280.3848838242606
 31
0.0
  0
LINE
  5
1A650
330
18
100
AcDbEntity
  8
0
100
AcDbLine
 10
488.4562162443359
 20
275.3570197792601
 30
0.0
 11
491.4562162443361
 21
275.3570197792601
 31
0.0
  0
LINE
  5
1A651
330
18
100
AcDbEntity
  8
0
100
AcDbLine
 10
486.4562162443362
 20
277.4570197792596
 30
0.0
 11
488.4562162443359
 21
277.4570197792596
 31
0.0
  0
LINE
  5
1A652
330
18
100
AcDbEntity
  8
0
100
AcDbLine
 10
483.9562162443358
 20
274.3570197792601
 30
0.0
 11
486.4562162443362
 21
274.3570197792601
 31
0.0
  0
LINE
  5
1A653
330
18
100
AcDbEntity
  8
0
100
AcDbLine
 10
486.4562162443362
 20
278.8658464208081
 30
0.0
 11
483.9562162443358
 21
278.8658464208081
 31
0.0
  0
LINE
  5
1A654
330
18
100
AcDbEntity
  8
0
100
AcDbLine
 10
486.4562162443362
 20
280.3848838242606
 30
0.0
 11
483.9562162443358
 21
280.3848838242606
 31
0.0
  0
ARC
  5
1A655
330
18
100
AcDbEntity
  8
0
100
AcDbCircle
 10
489.4824197267666
 20
274.6581045926701
 30
0.0
 40
9.015903847971632
100
AcDbArc
 50
5.539633318506221
 51
27.82043885583854
  0
LINE
  5
1A656
330
18
100
AcDbEntity
  8
0
100
AcDbLine
 10
497.4562162443358
 20
274.3570197792601
 30
0.0
 11
501.9562162443362
 21
279.628448350688
 31
0.0
  0
LINE
  5
1A657
330
18
100
AcDbEntity
  8
0
100
AcDbLine
 10
497.456216244336
 20
280.3848838242606
 30
0.0
 11
497.456216244336
 21
278.8658464208081
 31
0.0
  0
LINE
  5
1A658
330
18
100
AcDbEntity
  8
0
100
AcDbLine
 10
491.4562162443361
 20
290.8481931377123
 30
0.0
 11
497.456216244336
 21
290.8481931377123
 31
0.0
  0
LINE
  5
1A659
330
18
100
AcDbEntity
  8
0
100
AcDbLine
 10
491.4562162443361
 20
295.3570197792601
 30
0.0
 11
497.456216244336
 21
295.3570197792601
 31
0.0
  0
LINE
  5
1A65A
330
18
100
AcDbEntity
  8
0
100
AcDbLine
 10
491.4562162443361
 20
289.3291557342601
 30
0.0
 11
497.456216244336
 21
289.3291557342601
 31
0.0
  0
LINE
  5
1A65B
330
18
100
AcDbEntity
  8
0
100
AcDbLine
 10
488.4562162443359
 20
294.3570197792601
 30
0.0
 11
491.4562162443361
 21
294.3570197792601
 31
0.0
  0
LINE
  5
1A65C
330
18
100
AcDbEntity
  8
0
100
AcDbLine
 10
486.4562162443362
 20
292.2570197792598
 30
0.0
 11
488.4562162443359
 21
292.2570197792598
 31
0.0
  0
LINE
  5
1A65D
330
18
100
AcDbEntity
  8
0
100
AcDbLine
 10
483.9562162443358
 20
290.8481931377123
 30
0.0
 11
486.4562162443362
 21
290.8481931377123
 31
0.0
  0
LINE
  5
1A65E
330
18
100
AcDbEntity
  8
0
100
AcDbLine
 10
483.9562162443358
 20
295.3570197792601
 30
0.0
 11
486.4562162443362
 21
295.3570197792601
 31
0.0
  0
LINE
  5
1A65F
330
18
100
AcDbEntity
  8
0
100
AcDbLine
 10
483.9562162443358
 20
289.3291557342601
 30
0.0
 11
486.4562162443362
 21
289.3291557342601
 31
0.0
  0
ARC
  5
1A660
330
18
100
AcDbEntity
  8
0
100
AcDbCircle
 10
489.4824197267666
 20
295.0559349658501
 30
0.0
 40
9.015903847971632
100
AcDbArc
 50
332.1795611441613
 51
354.4603666814936
  0
LINE
  5
1A661
330
18
100
AcDbEntity
  8
0
100
AcDbLine
 10
497.4562162443358
 20
295.3570197792601
 30
0.0
 11
501.9562162443362
 21
290.0855912078323
 31
0.0
  0
LINE
  5
1A662
330
18
100
AcDbEntity
  8
0
100
AcDbLine
 10
497.456216244336
 20
290.8481931377123
 30
0.0
 11
497.456216244336
 21
289.3291557342601
 31
0.0
  0
LINE
  5
1A6C0
330
18
100
AcDbEntity
  8
中心線
100
AcDbLine
 10
472.7729348820226
 20
284.8570197792601
 30
0.0
 11
508.7367657764011
 21
284.8570197792603
 31
0.0
  0
CIRCLE
  5
1A731
330
18
100
AcDbEntity
  8
0
100
AcDbCircle
 10
187.3303672247515
 20
312.8527994879973
 30
0.0
 40
127.0
  0
CIRCLE
  5
1A76A
330
18
100
AcDbEntity
  8
細線
100
AcDbCircle
 10
187.3303672247515
 20
189.8527994879975
 30
0.0
 40
3.5
  0
ARC
  5
1A76B
330
18
100
AcDbEntity
  8
細線
100
AcDbCircle
 10
187.3303672247515
 20
190.9327994879975
 30
0.0
 40
0.5
100
AcDbArc
 50
222.3463876628239
 51
317.6536123371758
  0
ARC
  5
1A76C
330
18
100
AcDbEntity
  8
細線
100
AcDbCircle
 10
187.3303672247515
 20
188.7727994879974
 30
0.0
 40
0.5
100
AcDbArc
 50
42.3463876628241
 51
137.6536123371759
  0
ARC
  5
1A76D
330
18
100
AcDbEntity
  8
細線
100
AcDbCircle
 10
188.2656746608385
 20
189.3127994879975
 30
0.0
 40
0.5
100
AcDbArc
 50
102.3463876628252
 51
197.653612337176
  0
ARC
  5
1A76E
330
18
100
AcDbEntity
  8
細線
100
AcDbCircle
 10
188.2656746608385
 20
190.3927994879975
 30
0.0
 40
0.5
100
AcDbArc
 50
162.3463876628238
 51
257.6536123371762
  0
CIRCLE
  5
1A76F
330
18
100
AcDbEntity
  8
細線
100
AcDbCircle
 10
187.3303672247515
 20
189.8527994879975
 30
0.0
 40
0.8299999999999998
  0
ARC
  5
1A770
330
18
100
AcDbEntity
  8
細線
100
AcDbCircle
 10
186.3950597886643
 20
190.3927994879975
 30
0.0
 40
0.5
100
AcDbArc
 50
282.3463876628252
 51
17.65361233717626
  0
ARC
  5
1A771
330
18
100
AcDbEntity
  8
細線
100
AcDbCircle
 10
186.3950597886643
 20
189.3127994879975
 30
0.0
 40
0.5
100
AcDbArc
 50
342.3463876628237
 51
77.65361233717634
  0
LINE
  5
1A789
330
18
100
AcDbEntity
  8
中心線
100
AcDbLine
 10
365.6930890608901
 20
189.8438627962945
 30
0.0
 11
377.5219559981883
 21
189.8438627962945
 31
0.0
  0
LINE
  5
1A78A
330
18
100
AcDbEntity
  8
ｷｬｯﾌ_ﾎ_ﾙﾄ
100
AcDbLine
 10
369.2560831073642
 20
193.3438627962945
 30
0.0
 11
369.7560831073638
 21
193.3438627962945
 31
0.0
  0
LINE
  5
1A78B
330
18
100
AcDbEntity
  8
ｷｬｯﾌ_ﾎ_ﾙﾄ
100
AcDbLine
 10
368.9560831073638
 20
192.2938627962944
 30
0.0
 11
368.9560831073638
 21
187.3938627962948
 31
0.0
  0
LINE
  5
1A78C
330
18
100
AcDbEntity
  8
ｷｬｯﾌ_ﾎ_ﾙﾄ
100
AcDbLine
 10
369.2560831073642
 20
186.3438627962946
 30
0.0
 11
369.7560831073638
 21
186.3438627962946
 31
0.0
  0
LINE
  5
1A78D
330
18
100
AcDbEntity
  8
ｷｬｯﾌ_ﾎ_ﾙﾄ
100
AcDbLine
 10
369.2560831073642
 20
186.3438627962946
 30
0.0
 11
368.9560831073638
 21
187.3938627962948
 31
0.0
  0
LINE
  5
1A78E
330
18
100
AcDbEntity
  8
ｷｬｯﾌ_ﾎ_ﾙﾄ
100
AcDbLine
 10
369.2560831073642
 20
193.3438627962945
 30
0.0
 11
369.2560831073642
 21
186.3438627962946
 31
0.0
  0
LINE
  5
1A78F
330
18
100
AcDbEntity
  8
ｷｬｯﾌ_ﾎ_ﾙﾄ
100
AcDbLine
 10
369.7560831073638
 20
193.3438627962945
 30
0.0
 11
369.7560831073638
 21
186.3438627962946
 31
0.0
  0
LINE
  5
1A790
330
18
100
AcDbEntity
  8
ｷｬｯﾌ_ﾎ_ﾙﾄ
100
AcDbLine
 10
369.2560831073642
 20
193.3438627962945
 30
0.0
 11
368.9560831073638
 21
192.2938627962944
 31
0.0
  0
LINE
  5
1A791
330
18
100
AcDbEntity
  8
中心線
100
AcDbLine
 10
365.6930890608902
 20
435.8438627962946
 30
0.0
 11
377.5219559981883
 21
435.8438627962946
 31
0.0
  0
LINE
  5
1A792
330
18
100
AcDbEntity
  8
ｷｬｯﾌ_ﾎ_ﾙﾄ
100
AcDbLine
 10
369.2560831073643
 20
439.3438627962946
 30
0.0
 11
369.7560831073638
 21
439.3438627962946
 31
0.0
  0
LINE
  5
1A793
330
18
100
AcDbEntity
  8
ｷｬｯﾌ_ﾎ_ﾙﾄ
100
AcDbLine
 10
368.9560831073641
 20
438.2938627962944
 30
0.0
 11
368.9560831073641
 21
433.3938627962948
 31
0.0
  0
LINE
  5
1A794
330
18
100
AcDbEntity
  8
ｷｬｯﾌ_ﾎ_ﾙﾄ
100
AcDbLine
 10
369.2560831073643
 20
432.3438627962945
 30
0.0
 11
369.7560831073638
 21
432.3438627962945
 31
0.0
  0
LINE
  5
1A795
330
18
100
AcDbEntity
  8
ｷｬｯﾌ_ﾎ_ﾙﾄ
100
AcDbLine
 10
369.2560831073643
 20
432.3438627962945
 30
0.0
 11
368.9560831073641
 21
433.3938627962948
 31
0.0
  0
LINE
  5
1A796
330
18
100
AcDbEntity
  8
ｷｬｯﾌ_ﾎ_ﾙﾄ
100
AcDbLine
 10
369.2560831073643
 20
439.3438627962946
 30
0.0
 11
369.2560831073643
 21
432.3438627962945
 31
0.0
  0
LINE
  5
1A797
330
18
100
AcDbEntity
  8
ｷｬｯﾌ_ﾎ_ﾙﾄ
100
AcDbLine
 10
369.7560831073638
 20
439.3438627962946
 30
0.0
 11
369.7560831073638
 21
432.3438627962945
 31
0.0
  0
LINE
  5
1A798
330
18
100
AcDbEntity
  8
ｷｬｯﾌ_ﾎ_ﾙﾄ
100
AcDbLine
 10
369.2560831073643
 20
439.3438627962946
 30
0.0
 11
368.9560831073641
 21
438.2938627962944
 31
0.0
  0
CIRCLE
  5
1A7C4
330
18
100
AcDbEntity
  8
細線
100
AcDbCircle
 10
274.3045013106966
 20
225.878665402052
 30
0.0
 40
3.5
  0
ARC
  5
1A7C5
330
18
100
AcDbEntity
  8
細線
100
AcDbCircle
 10
273.540825987015
 20
226.6423407257336
 30
0.0
 40
0.5
100
AcDbArc
 50
267.3463876628241
 51
2.653612337175879
  0
ARC
  5
1A7C6
330
18
100
AcDbEntity
  8
細線
100
AcDbCircle
 10
274.5840258794072
 20
226.9218652944442
 30
0.0
 40
0.5
100
AcDbArc
 50
207.346387662824
 51
302.6536123371763
  0
ARC
  5
1A7C7
330
18
100
AcDbEntity
  8
細線
100
AcDbCircle
 10
273.2613014183044
 20
225.5991408333414
 30
0.0
 40
0.5
100
AcDbArc
 50
327.3463876628251
 51
62.65361233717627
  0
ARC
  5
1A7C8
330
18
100
AcDbEntity
  8
細線
100
AcDbCircle
 10
275.0681766343781
 20
225.1149900783707
 30
0.0
 40
0.5
100
AcDbArc
 50
87.3463876628241
 51
182.6536123371757
  0
ARC
  5
1A7C9
330
18
100
AcDbEntity
  8
細線
100
AcDbCircle
 10
275.3477012030887
 20
226.1581899707628
 30
0.0
 40
0.5
100
AcDbArc
 50
147.3463876628251
 51
242.6536123371759
  0
CIRCLE
  5
1A7CA
330
18
100
AcDbEntity
  8
細線
100
AcDbCircle
 10
274.3045013106966
 20
225.878665402052
 30
0.0
 40
0.8299999999999998
  0
ARC
  5
1A7CB
330
18
100
AcDbEntity
  8
細線
100
AcDbCircle
 10
274.024976741986
 20
224.83546550966
 30
0.0
 40
0.5
100
AcDbArc
 50
27.34638766282377
 51
122.6536123371763
  0
CIRCLE
  5
1A7CC
330
18
100
AcDbEntity
  8
細線
100
AcDbCircle
 10
310.3303672247513
 20
312.8527994879973
 30
0.0
 40
3.5
  0
ARC
  5
1A7CD
330
18
100
AcDbEntity
  8
細線
100
AcDbCircle
 10
309.2503672247512
 20
312.8527994879973
 30
0.0
 40
0.5
100
AcDbArc
 50
312.3463876628242
 51
47.65361233717587
  0
ARC
  5
1A7CE
330
18
100
AcDbEntity
  8
細線
100
AcDbCircle
 10
309.7903672247514
 20
313.7881069240846
 30
0.0
 40
0.5
100
AcDbArc
 50
252.3463876628238
 51
347.6536123371761
  0
ARC
  5
1A7CF
330
18
100
AcDbEntity
  8
細線
100
AcDbCircle
 10
309.7903672247514
 20
311.9174920519101
 30
0.0
 40
0.5
100
AcDbArc
 50
12.34638766282526
 51
107.6536123371762
  0
ARC
  5
1A7D0
330
18
100
AcDbEntity
  8
細線
100
AcDbCircle
 10
311.4103672247514
 20
312.8527994879973
 30
0.0
 40
0.5
100
AcDbArc
 50
132.346387662824
 51
227.6536123371759
  0
ARC
  5
1A7D1
330
18
100
AcDbEntity
  8
細線
100
AcDbCircle
 10
310.8703672247512
 20
313.7881069240845
 30
0.0
 40
0.5
100
AcDbArc
 50
192.3463876628252
 51
287.653612337176
  0
CIRCLE
  5
1A7D2
330
18
100
AcDbEntity
  8
細線
100
AcDbCircle
 10
310.3303672247513
 20
312.8527994879973
 30
0.0
 40
0.8299999999999998
  0
ARC
  5
1A7D3
330
18
100
AcDbEntity
  8
細線
100
AcDbCircle
 10
310.8703672247512
 20
311.9174920519101
 30
0.0
 40
0.5
100
AcDbArc
 50
72.34638766282376
 51
167.6536123371763
  0
CIRCLE
  5
1A7D4
330
18
100
AcDbEntity
  8
細線
100
AcDbCircle
 10
274.304501310697
 20
399.8269335739426
 30
0.0
 40
3.5
  0
ARC
  5
1A7D5
330
18
100
AcDbEntity
  8
細線
100
AcDbCircle
 10
273.5408259870154
 20
399.0632582502611
 30
0.0
 40
0.5
100
AcDbArc
 50
357.346387662824
 51
92.65361233717589
  0
ARC
  5
1A7D6
330
18
100
AcDbEntity
  8
細線
100
AcDbCircle
 10
273.2613014183046
 20
400.1064581426532
 30
0.0
 40
0.5
100
AcDbArc
 50
297.3463876628238
 51
32.65361233717632
  0
ARC
  5
1A7D7
330
18
100
AcDbEntity
  8
細線
100
AcDbCircle
 10
274.5840258794075
 20
398.7837336815502
 30
0.0
 40
0.5
100
AcDbArc
 50
57.34638766282518
 51
152.6536123371759
  0
ARC
  5
1A7D8
330
18
100
AcDbEntity
  8
細線
100
AcDbCircle
 10
275.0681766343784
 20
400.5906088976241
 30
0.0
 40
0.5
100
AcDbArc
 50
177.3463876628239
 51
272.6536123371758
  0
ARC
  5
1A7D9
330
18
100
AcDbEntity
  8
細線
100
AcDbCircle
 10
274.024976741986
 20
400.8701334663347
 30
0.0
 40
0.5
100
AcDbArc
 50
237.3463876628252
 51
332.653612337176
  0
CIRCLE
  5
1A7DA
330
18
100
AcDbEntity
  8
細線
100
AcDbCircle
 10
274.304501310697
 20
399.8269335739426
 30
0.0
 40
0.8299999999999998
  0
ARC
  5
1A7DB
330
18
100
AcDbEntity
  8
細線
100
AcDbCircle
 10
275.3477012030891
 20
399.5474090052319
 30
0.0
 40
0.5
100
AcDbArc
 50
117.3463876628235
 51
212.6536123371763
  0
CIRCLE
  5
1A7DC
102
{ACAD_REACTORS
330
1AE47
102
}
330
18
100
AcDbEntity
  8
細線
100
AcDbCircle
 10
187.3303672247516
 20
435.8527994879972
 30
0.0
 40
3.5
  0
ARC
  5
1A7DD
102
{ACAD_REACTORS
330
1AE47
102
}
330
18
100
AcDbEntity
  8
細線
100
AcDbCircle
 10
187.3303672247516
 20
434.7727994879972
 30
0.0
 40
0.5
100
AcDbArc
 50
42.34638766282411
 51
137.6536123371759
  0
ARC
  5
1A7DE
102
{ACAD_REACTORS
330
1AE47
102
}
330
18
100
AcDbEntity
  8
細線
100
AcDbCircle
 10
186.3950597886643
 20
435.3127994879971
 30
0.0
 40
0.5
100
AcDbArc
 50
342.3463876628238
 51
77.65361233717626
  0
ARC
  5
1A7DF
102
{ACAD_REACTORS
330
1AE47
102
}
330
18
100
AcDbEntity
  8
細線
100
AcDbCircle
 10
188.2656746608389
 20
435.3127994879971
 30
0.0
 40
0.5
100
AcDbArc
 50
102.3463876628252
 51
197.6536123371761
  0
ARC
  5
1A7E0
102
{ACAD_REACTORS
330
1AE47
102
}
330
18
100
AcDbEntity
  8
細線
100
AcDbCircle
 10
187.3303672247516
 20
436.9327994879973
 30
0.0
 40
0.5
100
AcDbArc
 50
222.3463876628239
 51
317.6536123371758
  0
ARC
  5
1A7E1
102
{ACAD_REACTORS
330
1AE47
102
}
330
18
100
AcDbEntity
  8
細線
100
AcDbCircle
 10
186.3950597886645
 20
436.3927994879973
 30
0.0
 40
0.5
100
AcDbArc
 50
282.3463876628252
 51
17.65361233717596
  0
CIRCLE
  5
1A7E2
102
{ACAD_REACTORS
330
1AE47
102
}
330
18
100
AcDbEntity
  8
細線
100
AcDbCircle
 10
187.3303672247516
 20
435.8527994879972
 30
0.0
 40
0.8299999999999998
  0
ARC
  5
1A7E3
102
{ACAD_REACTORS
330
1AE47
102
}
330
18
100
AcDbEntity
  8
細線
100
AcDbCircle
 10
188.2656746608389
 20
436.3927994879973
 30
0.0
 40
0.5
100
AcDbArc
 50
162.3463876628234
 51
257.6536123371762
  0
CIRCLE
  5
1A7E4
330
18
100
AcDbEntity
  8
細線
100
AcDbCircle
 10
100.3562331388064
 20
399.8269335739426
 30
0.0
 40
3.5
  0
ARC
  5
1A7E5
330
18
100
AcDbEntity
  8
細線
100
AcDbCircle
 10
101.1199084624879
 20
399.0632582502611
 30
0.0
 40
0.5
100
AcDbArc
 50
87.34638766282406
 51
182.6536123371757
  0
ARC
  5
1A7E6
330
18
100
AcDbEntity
  8
細線
100
AcDbCircle
 10
100.0767085700957
 20
398.7837336815502
 30
0.0
 40
0.5
100
AcDbArc
 50
27.34638766282395
 51
122.6536123371763
  0
ARC
  5
1A7E7
330
18
100
AcDbEntity
  8
細線
100
AcDbCircle
 10
101.3994330311986
 20
400.1064581426532
 30
0.0
 40
0.5
100
AcDbArc
 50
147.3463876628251
 51
242.6536123371759
  0
ARC
  5
1A7E8
330
18
100
AcDbEntity
  8
細線
100
AcDbCircle
 10
99.59255781512503
 20
400.5906088976241
 30
0.0
 40
0.5
100
AcDbArc
 50
267.3463876628241
 51
2.653612337175863
  0
ARC
  5
1A7E9
330
18
100
AcDbEntity
  8
細線
100
AcDbCircle
 10
99.31303324641431
 20
399.5474090052319
 30
0.0
 40
0.5
100
AcDbArc
 50
327.3463876628251
 51
62.653612337176
  0
CIRCLE
  5
1A7EA
330
18
100
AcDbEntity
  8
細線
100
AcDbCircle
 10
100.3562331388064
 20
399.8269335739426
 30
0.0
 40
0.8299999999999998
  0
ARC
  5
1A7EB
330
18
100
AcDbEntity
  8
細線
100
AcDbCircle
 10
100.6357577075172
 20
400.8701334663347
 30
0.0
 40
0.5
100
AcDbArc
 50
207.3463876628235
 51
302.6536123371763
  0
CIRCLE
  5
1A7EC
330
18
100
AcDbEntity
  8
細線
100
AcDbCircle
 10
64.33036722475185
 20
312.8527994879975
 30
0.0
 40
3.5
  0
ARC
  5
1A7ED
330
18
100
AcDbEntity
  8
細線
100
AcDbCircle
 10
65.41036722475189
 20
312.8527994879975
 30
0.0
 40
0.5
100
AcDbArc
 50
132.346387662824
 51
227.6536123371759
  0
ARC
  5
1A7EE
330
18
100
AcDbEntity
  8
細線
100
AcDbCircle
 10
64.87036722475181
 20
311.9174920519103
 30
0.0
 40
0.5
100
AcDbArc
 50
72.3463876628239
 51
167.6536123371763
  0
ARC
  5
1A7EF
330
18
100
AcDbEntity
  8
細線
100
AcDbCircle
 10
64.87036722475181
 20
313.7881069240847
 30
0.0
 40
0.5
100
AcDbArc
 50
192.3463876628251
 51
287.6536123371761
  0
ARC
  5
1A7F0
330
18
100
AcDbEntity
  8
細線
100
AcDbCircle
 10
63.25036722475181
 20
312.8527994879975
 30
0.0
 40
0.5
100
AcDbArc
 50
312.3463876628238
 51
47.65361233717579
  0
ARC
  5
1A7F1
330
18
100
AcDbEntity
  8
細線
100
AcDbCircle
 10
63.79036722475189
 20
311.9174920519103
 30
0.0
 40
0.5
100
AcDbArc
 50
12.34638766282518
 51
107.6536123371757
  0
CIRCLE
  5
1A7F2
330
18
100
AcDbEntity
  8
細線
100
AcDbCircle
 10
64.33036722475185
 20
312.8527994879975
 30
0.0
 40
0.8299999999999998
  0
ARC
  5
1A7F3
330
18
100
AcDbEntity
  8
細線
100
AcDbCircle
 10
63.79036722475189
 20
313.7881069240847
 30
0.0
 40
0.5
100
AcDbArc
 50
252.3463876628237
 51
347.6536123371761
  0
CIRCLE
  5
1A7F4
330
18
100
AcDbEntity
  8
細線
100
AcDbCircle
 10
100.3562331388062
 20
225.8786654020524
 30
0.0
 40
3.5
  0
ARC
  5
1A7F5
330
18
100
AcDbEntity
  8
細線
100
AcDbCircle
 10
101.1199084624877
 20
226.6423407257339
 30
0.0
 40
0.5
100
AcDbArc
 50
177.3463876628239
 51
272.6536123371758
  0
ARC
  5
1A7F6
330
18
100
AcDbEntity
  8
細線
100
AcDbCircle
 10
101.3994330311984
 20
225.5991408333416
 30
0.0
 40
0.5
100
AcDbArc
 50
117.3463876628239
 51
212.6536123371763
  0
ARC
  5
1A7F7
330
18
100
AcDbEntity
  8
細線
100
AcDbCircle
 10
100.0767085700955
 20
226.9218652944446
 30
0.0
 40
0.5
100
AcDbArc
 50
237.346387662825
 51
332.6536123371762
  0
ARC
  5
1A7F8
330
18
100
AcDbEntity
  8
細線
100
AcDbCircle
 10
99.5925578151248
 20
225.1149900783709
 30
0.0
 40
0.5
100
AcDbArc
 50
357.346387662824
 51
92.65361233717577
  0
ARC
  5
1A7F9
330
18
100
AcDbEntity
  8
細線
100
AcDbCircle
 10
100.6357577075169
 20
224.8354655096601
 30
0.0
 40
0.5
100
AcDbArc
 50
57.34638766282518
 51
152.6536123371759
  0
CIRCLE
  5
1A7FA
330
18
100
AcDbEntity
  8
細線
100
AcDbCircle
 10
100.3562331388062
 20
225.8786654020524
 30
0.0
 40
0.8299999999999998
  0
ARC
  5
1A7FB
330
18
100
AcDbEntity
  8
細線
100
AcDbCircle
 10
99.31303324641408
 20
226.1581899707631
 30
0.0
 40
0.5
100
AcDbArc
 50
297.3463876628236
 51
32.65361233717626
  0
CIRCLE
  5
1A7FE
330
18
100
AcDbEntity
  8
0
100
AcDbCircle
 10
187.3303672247515
 20
312.8527994879973
 30
0.0
 40
55.0
  0
CIRCLE
  5
1A801
330
18
100
AcDbEntity
  8
細線
100
AcDbCircle
 10
167.4615138620257
 20
347.4586750038273
 30
0.0
 40
5.5
  0
CIRCLE
  5
1A802
330
18
100
AcDbEntity
  8
0
100
AcDbCircle
 10
167.4615138620257
 20
347.4586750038273
 30
0.0
 40
5.5
  0
CIRCLE
  5
1A803
330
18
100
AcDbEntity
  8
細線
100
AcDbCircle
 10
167.4615138620257
 20
347.4586750038273
 30
0.0
 40
5.0
  0
LINE
  5
1A804
330
18
100
AcDbEntity
  8
細線
100
AcDbLine
 10
169.5027554370426
 20
349.4999164232698
 30
0.0
 11
170.2499018831395
 21
346.7115286853853
 31
0.0
  0
LINE
  5
1A805
330
18
100
AcDbEntity
  8
細線
100
AcDbLine
 10
166.7143676091139
 20
350.247062689948
 30
0.0
 11
169.5027553404501
 21
349.4999164491516
 31
0.0
  0
CIRCLE
  5
1A806
330
18
100
AcDbEntity
  8
細線
100
AcDbCircle
 10
167.4615138620267
 20
347.458675003831
 30
0.0
 40
3.0
  0
LINE
  5
1A807
330
18
100
AcDbEntity
  8
細線
100
AcDbLine
 10
164.6731258409118
 20
348.2058213222693
 30
0.0
 11
166.7143675125214
 21
350.2470627158301
 31
0.0
  0
LINE
  5
1A808
330
18
100
AcDbEntity
  8
細線
100
AcDbLine
 10
170.2499014001767
 20
346.7115288147948
 30
0.0
 11
168.2086597285671
 21
344.670287421234
 31
0.0
  0
CIRCLE
  5
1A809
330
18
100
AcDbEntity
  8
細線
100
AcDbCircle
 10
167.4615138620267
 20
347.458675003831
 30
0.0
 40
2.25
  0
LINE
  5
1A80A
330
18
100
AcDbEntity
  8
細線
100
AcDbLine
 10
165.4202723836012
 20
345.4174335585028
 30
0.0
 11
168.2086601149375
 21
344.6702873177063
 31
0.0
  0
LINE
  5
1A80B
330
18
100
AcDbEntity
  8
細線
100
AcDbLine
 10
164.6731263238747
 20
348.2058211928598
 30
0.0
 11
165.4202727699717
 21
345.4174334549751
 31
0.0
  0
CIRCLE
  5
1A80C
330
18
100
AcDbEntity
  8
細線
100
AcDbCircle
 10
147.4615138620258
 20
312.8176588524498
 30
0.0
 40
5.5
  0
CIRCLE
  5
1A80D
330
18
100
AcDbEntity
  8
0
100
AcDbCircle
 10
147.4615138620258
 20
312.8176588524498
 30
0.0
 40
5.5
  0
CIRCLE
  5
1A80E
330
18
100
AcDbEntity
  8
細線
100
AcDbCircle
 10
147.4615138620258
 20
312.8176588524498
 30
0.0
 40
5.0
  0
LINE
  5
1A80F
330
18
100
AcDbEntity
  8
細線
100
AcDbLine
 10
146.71436772504
 20
315.6060466213966
 30
0.0
 11
149.5027555646975
 21
314.8589005551216
 31
0.0
  0
LINE
  5
1A810
330
18
100
AcDbEntity
  8
細線
100
AcDbLine
 10
144.6731261637896
 20
313.5648050601461
 30
0.0
 11
146.7143676543294
 21
315.606046550686
 31
0.0
  0
CIRCLE
  5
1A811
330
18
100
AcDbEntity
  8
細線
100
AcDbCircle
 10
147.4615138620231
 20
312.8176588524524
 30
0.0
 40
3.0
  0
LINE
  5
1A812
330
18
100
AcDbEntity
  8
細線
100
AcDbLine
 10
145.4202721593538
 20
310.7764171497781
 30
0.0
 11
144.6731260930788
 21
313.5648049894356
 31
0.0
  0
LINE
  5
1A813
330
18
100
AcDbEntity
  8
細線
100
AcDbLine
 10
149.5027552111443
 20
314.8589002015683
 30
0.0
 11
150.2499012774193
 21
312.0705123619105
 31
0.0
  0
CIRCLE
  5
1A814
330
18
100
AcDbEntity
  8
細線
100
AcDbCircle
 10
147.4615138620231
 20
312.8176588524524
 30
0.0
 40
2.25
  0
LINE
  5
1A815
330
18
100
AcDbEntity
  8
細線
100
AcDbLine
 10
148.2086600697222
 20
310.0292711542132
 30
0.0
 11
150.249901560262
 21
312.0705126447532
 31
0.0
  0
LINE
  5
1A816
330
18
100
AcDbEntity
  8
細線
100
AcDbLine
 10
145.4202725129073
 20
310.7764175033313
 30
0.0
 11
148.208660352565
 21
310.0292714370563
 31
0.0
  0
CIRCLE
  5
1A817
330
18
100
AcDbEntity
  8
細線
100
AcDbCircle
 10
167.4615138620257
 20
278.1766427010722
 30
0.0
 40
5.5
  0
CIRCLE
  5
1A818
330
18
100
AcDbEntity
  8
0
100
AcDbCircle
 10
167.4615138620257
 20
278.1766427010722
 30
0.0
 40
5.5
  0
CIRCLE
  5
1A819
330
18
100
AcDbEntity
  8
細線
100
AcDbCircle
 10
167.4615138620257
 20
278.1766427010722
 30
0.0
 40
5.0
  0
LINE
  5
1A81A
330
18
100
AcDbEntity
  8
細線
100
AcDbLine
 10
164.673126150023
 20
278.9237890505765
 30
0.0
 11
166.7143675435836
 21
280.9650307221861
 31
0.0
  0
LINE
  5
1A81B
330
18
100
AcDbEntity
  8
細線
100
AcDbLine
 10
165.4202724167013
 20
276.1354012226478
 30
0.0
 11
164.6731261759049
 21
278.9237889539839
 31
0.0
  0
CIRCLE
  5
1A81C
330
18
100
AcDbEntity
  8
細線
100
AcDbCircle
 10
167.461513862022
 20
278.1766427010712
 30
0.0
 40
3.0
  0
LINE
  5
1A81D
330
18
100
AcDbEntity
  8
細線
100
AcDbLine
 10
168.2086601804678
 20
275.3882546799583
 30
0.0
 11
165.4202724425832
 21
276.1354011260551
 31
0.0
  0
LINE
  5
1A81E
330
18
100
AcDbEntity
  8
細線
100
AcDbLine
 10
166.7143676729932
 20
280.9650302392231
 30
0.0
 11
169.5027554108779
 21
280.2178837931261
 31
0.0
  0
CIRCLE
  5
1A81F
330
18
100
AcDbEntity
  8
細線
100
AcDbCircle
 10
167.461513862022
 20
278.1766427010712
 30
0.0
 40
2.25
  0
LINE
  5
1A820
330
18
100
AcDbEntity
  8
細線
100
AcDbLine
 10
170.2499015481467
 20
277.4294964481604
 30
0.0
 11
169.5027553073503
 21
280.2178841794964
 31
0.0
  0
LINE
  5
1A821
330
18
100
AcDbEntity
  8
細線
100
AcDbLine
 10
168.2086600510583
 20
275.3882551629211
 30
0.0
 11
170.249901444619
 21
277.4294968345308
 31
0.0
  0
CIRCLE
  5
1A822
330
18
100
AcDbEntity
  8
細線
100
AcDbCircle
 10
207.4615138620256
 20
278.1766427010722
 30
0.0
 40
5.5
  0
CIRCLE
  5
1A823
330
18
100
AcDbEntity
  8
0
100
AcDbCircle
 10
207.4615138620256
 20
278.1766427010722
 30
0.0
 40
5.5
  0
CIRCLE
  5
1A824
330
18
100
AcDbEntity
  8
細線
100
AcDbCircle
 10
207.4615138620256
 20
278.1766427010722
 30
0.0
 40
5.0
  0
LINE
  5
1A825
330
18
100
AcDbEntity
  8
細線
100
AcDbLine
 10
205.4202722870088
 20
276.1354012816297
 30
0.0
 11
204.6731258409119
 21
278.9237890195144
 31
0.0
  0
LINE
  5
1A826
330
18
100
AcDbEntity
  8
細線
100
AcDbLine
 10
208.2086601149376
 20
275.3882550149514
 30
0.0
 11
205.4202723836012
 21
276.1354012557479
 31
0.0
  0
CIRCLE
  5
1A827
330
18
100
AcDbEntity
  8
細線
100
AcDbCircle
 10
207.4615138620247
 20
278.1766427010686
 30
0.0
 40
3.0
  0
LINE
  5
1A828
330
18
100
AcDbEntity
  8
細線
100
AcDbLine
 10
210.2499018831396
 20
277.4294963826302
 30
0.0
 11
208.2086602115301
 21
275.3882549890696
 31
0.0
  0
LINE
  5
1A829
330
18
100
AcDbEntity
  8
細線
100
AcDbLine
 10
204.6731263238747
 20
278.9237888901049
 30
0.0
 11
206.7143679954843
 21
280.9650302836653
 31
0.0
  0
CIRCLE
  5
1A82A
330
18
100
AcDbEntity
  8
細線
100
AcDbCircle
 10
207.4615138620247
 20
278.1766427010686
 30
0.0
 40
2.25
  0
LINE
  5
1A82B
330
18
100
AcDbEntity
  8
細線
100
AcDbLine
 10
209.5027553404501
 20
280.2178841463969
 30
0.0
 11
206.7143676091139
 21
280.9650303871931
 31
0.0
  0
LINE
  5
1A82C
330
18
100
AcDbEntity
  8
細線
100
AcDbLine
 10
210.2499014001766
 20
277.4294965120394
 30
0.0
 11
209.5027549540796
 21
280.2178842499245
 31
0.0
  0
CIRCLE
  5
1A82D
330
18
100
AcDbEntity
  8
細線
100
AcDbCircle
 10
227.4615138620255
 20
312.8176588524498
 30
0.0
 40
5.5
  0
CIRCLE
  5
1A82E
330
18
100
AcDbEntity
  8
0
100
AcDbCircle
 10
227.4615138620255
 20
312.8176588524498
 30
0.0
 40
5.5
  0
CIRCLE
  5
1A82F
330
18
100
AcDbEntity
  8
細線
100
AcDbCircle
 10
227.4615138620255
 20
312.8176588524498
 30
0.0
 40
5.0
  0
LINE
  5
1A830
330
18
100
AcDbEntity
  8
細線
100
AcDbLine
 10
228.2086599990115
 20
310.0292710835028
 30
0.0
 11
225.4202721593539
 21
310.776417149778
 31
0.0
  0
LINE
  5
1A831
330
18
100
AcDbEntity
  8
細線
100
AcDbLine
 10
230.2499015602619
 20
312.0705126447532
 30
0.0
 11
228.208660069722
 21
310.0292711542132
 31
0.0
  0
CIRCLE
  5
1A832
330
18
100
AcDbEntity
  8
細線
100
AcDbCircle
 10
227.4615138620284
 20
312.817658852447
 30
0.0
 40
3.0
  0
LINE
  5
1A833
330
18
100
AcDbEntity
  8
細線
100
AcDbLine
 10
229.5027555646975
 20
314.8589005551215
 30
0.0
 11
230.2499016309724
 21
312.0705127154638
 31
0.0
  0
LINE
  5
1A834
330
18
100
AcDbEntity
  8
細線
100
AcDbLine
 10
225.4202725129072
 20
310.7764175033313
 30
0.0
 11
224.673126446632
 21
313.564805342989
 31
0.0
  0
CIRCLE
  5
1A835
330
18
100
AcDbEntity
  8
細線
100
AcDbCircle
 10
227.4615138620284
 20
312.817658852447
 30
0.0
 40
2.25
  0
LINE
  5
1A836
330
18
100
AcDbEntity
  8
細線
100
AcDbLine
 10
226.7143676543291
 20
315.606046550686
 30
0.0
 11
224.6731261637891
 21
313.5648050601461
 31
0.0
  0
LINE
  5
1A837
330
18
100
AcDbEntity
  8
細線
100
AcDbLine
 10
229.5027552111441
 20
314.8589002015682
 30
0.0
 11
226.7143673714862
 21
315.6060462678433
 31
0.0
  0
CIRCLE
  5
1A840
330
18
100
AcDbEntity
  8
細線
100
AcDbCircle
 10
167.9189388420622
 20
385.2972364596785
 30
0.0
 40
2.5
  0
CIRCLE
  5
1A841
330
18
100
AcDbEntity
  8
細線
100
AcDbCircle
 10
167.9189388420622
 20
385.2972364596785
 30
0.0
 40
2.0
  0
CIRCLE
  5
1A842
330
18
100
AcDbEntity
  8
細線
100
AcDbCircle
 10
134.2973586357598
 20
365.8858080769892
 30
0.0
 40
2.5
  0
CIRCLE
  5
1A843
330
18
100
AcDbEntity
  8
細線
100
AcDbCircle
 10
134.2973586357598
 20
365.8858080769892
 30
0.0
 40
2.0
  0
CIRCLE
  5
1A844
330
18
100
AcDbEntity
  8
細線
100
AcDbCircle
 10
114.8859302530705
 20
332.2642278706867
 30
0.0
 40
2.5
  0
CIRCLE
  5
1A845
330
18
100
AcDbEntity
  8
細線
100
AcDbCircle
 10
114.8859302530705
 20
332.2642278706867
 30
0.0
 40
2.0
  0
CIRCLE
  5
1A846
330
18
100
AcDbEntity
  8
細線
100
AcDbCircle
 10
114.8859302530706
 20
293.4413711053081
 30
0.0
 40
2.5
  0
CIRCLE
  5
1A847
330
18
100
AcDbEntity
  8
細線
100
AcDbCircle
 10
114.8859302530706
 20
293.4413711053081
 30
0.0
 40
2.0
  0
CIRCLE
  5
1A848
330
18
100
AcDbEntity
  8
細線
100
AcDbCircle
 10
134.2973586357599
 20
259.8197908990055
 30
0.0
 40
2.5
  0
CIRCLE
  5
1A849
330
18
100
AcDbEntity
  8
細線
100
AcDbCircle
 10
134.2973586357599
 20
259.8197908990055
 30
0.0
 40
2.0
  0
CIRCLE
  5
1A84A
330
18
100
AcDbEntity
  8
細線
100
AcDbCircle
 10
167.9189388420622
 20
240.4083625163161
 30
0.0
 40
2.5
  0
CIRCLE
  5
1A84B
330
18
100
AcDbEntity
  8
細線
100
AcDbCircle
 10
167.9189388420622
 20
240.4083625163161
 30
0.0
 40
2.0
  0
CIRCLE
  5
1A84C
330
18
100
AcDbEntity
  8
細線
100
AcDbCircle
 10
206.7417956074409
 20
240.4083625163161
 30
0.0
 40
2.5
  0
CIRCLE
  5
1A84D
330
18
100
AcDbEntity
  8
細線
100
AcDbCircle
 10
206.7417956074409
 20
240.4083625163161
 30
0.0
 40
2.0
  0
CIRCLE
  5
1A84E
330
18
100
AcDbEntity
  8
細線
100
AcDbCircle
 10
240.3633758137434
 20
259.8197908990055
 30
0.0
 40
2.5
  0
CIRCLE
  5
1A84F
330
18
100
AcDbEntity
  8
細線
100
AcDbCircle
 10
240.3633758137434
 20
259.8197908990055
 30
0.0
 40
2.0
  0
CIRCLE
  5
1A850
330
18
100
AcDbEntity
  8
細線
100
AcDbCircle
 10
259.7748041964327
 20
293.4413711053081
 30
0.0
 40
2.5
  0
CIRCLE
  5
1A851
330
18
100
AcDbEntity
  8
細線
100
AcDbCircle
 10
259.7748041964327
 20
293.4413711053081
 30
0.0
 40
2.0
  0
CIRCLE
  5
1A852
330
18
100
AcDbEntity
  8
細線
100
AcDbCircle
 10
259.7748041964327
 20
332.2642278706867
 30
0.0
 40
2.5
  0
CIRCLE
  5
1A853
330
18
100
AcDbEntity
  8
細線
100
AcDbCircle
 10
259.7748041964327
 20
332.2642278706867
 30
0.0
 40
2.0
  0
CIRCLE
  5
1A854
330
18
100
AcDbEntity
  8
細線
100
AcDbCircle
 10
240.3633758137434
 20
365.8858080769892
 30
0.0
 40
2.5
  0
CIRCLE
  5
1A855
330
18
100
AcDbEntity
  8
細線
100
AcDbCircle
 10
240.3633758137434
 20
365.8858080769892
 30
0.0
 40
2.0
  0
CIRCLE
  5
1AE48
102
{ACAD_REACTORS
330
1AE50
102
}
330
18
100
AcDbEntity
  8
細線
100
AcDbCircle
 10
645.5359573670834
 20
362.703827561648
 30
0.0
 40
3.5
  0
ARC
  5
1AE49
102
{ACAD_REACTORS
330
1AE50
102
}
330
18
100
AcDbEntity
  8
細線
100
AcDbCircle
 10
646.4712648031706
 20
363.2438275616481
 30
0.0
 40
0.5
100
AcDbArc
 50
162.3463876628234
 51
257.6536123371762
  0
CIRCLE
  5
1AE4A
102
{ACAD_REACTORS
330
1AE50
102
}
330
18
100
AcDbEntity
  8
細線
100
AcDbCircle
 10
645.5359573670834
 20
362.703827561648
 30
0.0
 40
0.8299999999999998
  0
ARC
  5
1AE4B
102
{ACAD_REACTORS
330
1AE50
102
}
330
18
100
AcDbEntity
  8
細線
100
AcDbCircle
 10
644.6006499309963
 20
363.2438275616481
 30
0.0
 40
0.5
100
AcDbArc
 50
282.3463876628252
 51
17.65361233717596
  0
ARC
  5
1AE4C
102
{ACAD_REACTORS
330
1AE50
102
}
330
18
100
AcDbEntity
  8
細線
100
AcDbCircle
 10
645.5359573670834
 20
363.7838275616481
 30
0.0
 40
0.5
100
AcDbArc
 50
222.3463876628239
 51
317.6536123371758
  0
ARC
  5
1AE4D
102
{ACAD_REACTORS
330
1AE50
102
}
330
18
100
AcDbEntity
  8
細線
100
AcDbCircle
 10
646.4712648031706
 20
362.163827561648
 30
0.0
 40
0.5
100
AcDbArc
 50
102.3463876628252
 51
197.6536123371761
  0
ARC
  5
1AE4E
102
{ACAD_REACTORS
330
1AE50
102
}
330
18
100
AcDbEntity
  8
細線
100
AcDbCircle
 10
644.6006499309961
 20
362.163827561648
 30
0.0
 40
0.5
100
AcDbArc
 50
342.3463876628238
 51
77.65361233717626
  0
ARC
  5
1AE4F
102
{ACAD_REACTORS
330
1AE50
102
}
330
18
100
AcDbEntity
  8
細線
100
AcDbCircle
 10
645.5359573670834
 20
361.6238275616481
 30
0.0
 40
0.5
100
AcDbArc
 50
42.34638766282411
 51
137.6536123371759
  0
CIRCLE
  5
1AE51
102
{ACAD_REACTORS
330
1AE59
102
}
330
18
100
AcDbEntity
  8
細線
100
AcDbCircle
 10
645.5359573670846
 20
263.0017714143448
 30
0.0
 40
3.5
  0
ARC
  5
1AE52
102
{ACAD_REACTORS
330
1AE59
102
}
330
18
100
AcDbEntity
  8
細線
100
AcDbCircle
 10
646.4712648031719
 20
263.5417714143449
 30
0.0
 40
0.5
100
AcDbArc
 50
162.3463876628234
 51
257.6536123371762
  0
CIRCLE
  5
1AE53
102
{ACAD_REACTORS
330
1AE59
102
}
330
18
100
AcDbEntity
  8
細線
100
AcDbCircle
 10
645.5359573670846
 20
263.0017714143448
 30
0.0
 40
0.8299999999999998
  0
ARC
  5
1AE54
102
{ACAD_REACTORS
330
1AE59
102
}
330
18
100
AcDbEntity
  8
細線
100
AcDbCircle
 10
644.6006499309975
 20
263.5417714143449
 30
0.0
 40
0.5
100
AcDbArc
 50
282.3463876628252
 51
17.65361233717596
  0
ARC
  5
1AE55
102
{ACAD_REACTORS
330
1AE59
102
}
330
18
100
AcDbEntity
  8
細線
100
AcDbCircle
 10
645.5359573670846
 20
264.0817714143449
 30
0.0
 40
0.5
100
AcDbArc
 50
222.3463876628239
 51
317.6536123371758
  0
ARC
  5
1AE56
102
{ACAD_REACTORS
330
1AE59
102
}
330
18
100
AcDbEntity
  8
細線
100
AcDbCircle
 10
646.4712648031719
 20
262.4617714143449
 30
0.0
 40
0.5
100
AcDbArc
 50
102.3463876628252
 51
197.6536123371761
  0
ARC
  5
1AE57
102
{ACAD_REACTORS
330
1AE59
102
}
330
18
100
AcDbEntity
  8
細線
100
AcDbCircle
 10
644.6006499309975
 20
262.4617714143449
 30
0.0
 40
0.5
100
AcDbArc
 50
342.3463876628238
 51
77.65361233717626
  0
ARC
  5
1AE58
102
{ACAD_REACTORS
330
1AE59
102
}
330
18
100
AcDbEntity
  8
細線
100
AcDbCircle
 10
645.5359573670846
 20
261.9217714143449
 30
0.0
 40
0.5
100
AcDbArc
 50
42.34638766282411
 51
137.6536123371759
  0
CIRCLE
  5
1AE5A
102
{ACAD_REACTORS
330
1AE62
102
}
330
18
100
AcDbEntity
  8
細線
100
AcDbCircle
 10
745.2380135143862
 20
362.7038275616494
 30
0.0
 40
3.5
  0
ARC
  5
1AE5B
102
{ACAD_REACTORS
330
1AE62
102
}
330
18
100
AcDbEntity
  8
細線
100
AcDbCircle
 10
746.1733209504735
 20
363.2438275616495
 30
0.0
 40
0.5
100
AcDbArc
 50
162.3463876628234
 51
257.6536123371762
  0
CIRCLE
  5
1AE5C
102
{ACAD_REACTORS
330
1AE62
102
}
330
18
100
AcDbEntity
  8
細線
100
AcDbCircle
 10
745.2380135143862
 20
362.7038275616494
 30
0.0
 40
0.8299999999999998
  0
ARC
  5
1AE5D
102
{ACAD_REACTORS
330
1AE62
102
}
330
18
100
AcDbEntity
  8
細線
100
AcDbCircle
 10
744.302706078299
 20
363.2438275616495
 30
0.0
 40
0.5
100
AcDbArc
 50
282.3463876628252
 51
17.65361233717596
  0
ARC
  5
1AE5E
102
{ACAD_REACTORS
330
1AE62
102
}
330
18
100
AcDbEntity
  8
細線
100
AcDbCircle
 10
745.2380135143862
 20
363.7838275616495
 30
0.0
 40
0.5
100
AcDbArc
 50
222.3463876628239
 51
317.6536123371758
  0
ARC
  5
1AE5F
102
{ACAD_REACTORS
330
1AE62
102
}
330
18
100
AcDbEntity
  8
細線
100
AcDbCircle
 10
746.1733209504735
 20
362.1638275616493
 30
0.0
 40
0.5
100
AcDbArc
 50
102.3463876628252
 51
197.6536123371761
  0
ARC
  5
1AE60
102
{ACAD_REACTORS
330
1AE62
102
}
330
18
100
AcDbEntity
  8
細線
100
AcDbCircle
 10
744.302706078299
 20
362.1638275616493
 30
0.0
 40
0.5
100
AcDbArc
 50
342.3463876628238
 51
77.65361233717626
  0
ARC
  5
1AE61
102
{ACAD_REACTORS
330
1AE62
102
}
330
18
100
AcDbEntity
  8
細線
100
AcDbCircle
 10
745.2380135143862
 20
361.6238275616495
 30
0.0
 40
0.5
100
AcDbArc
 50
42.34638766282411
 51
137.6536123371759
  0
CIRCLE
  5
1AE63
102
{ACAD_REACTORS
330
1AE6B
102
}
330
18
100
AcDbEntity
  8
細線
100
AcDbCircle
 10
745.238013514388
 20
263.0017714143467
 30
0.0
 40
3.5
  0
ARC
  5
1AE64
102
{ACAD_REACTORS
330
1AE6B
102
}
330
18
100
AcDbEntity
  8
細線
100
AcDbCircle
 10
746.1733209504752
 20
263.5417714143465
 30
0.0
 40
0.5
100
AcDbArc
 50
162.3463876628234
 51
257.6536123371762
  0
CIRCLE
  5
1AE65
102
{ACAD_REACTORS
330
1AE6B
102
}
330
18
100
AcDbEntity
  8
細線
100
AcDbCircle
 10
745.238013514388
 20
263.0017714143467
 30
0.0
 40
0.8299999999999998
  0
ARC
  5
1AE66
102
{ACAD_REACTORS
330
1AE6B
102
}
330
18
100
AcDbEntity
  8
細線
100
AcDbCircle
 10
744.3027060783008
 20
263.5417714143465
 30
0.0
 40
0.5
100
AcDbArc
 50
282.3463876628252
 51
17.65361233717596
  0
ARC
  5
1AE67
102
{ACAD_REACTORS
330
1AE6B
102
}
330
18
100
AcDbEntity
  8
細線
100
AcDbCircle
 10
745.238013514388
 20
264.0817714143468
 30
0.0
 40
0.5
100
AcDbArc
 50
222.3463876628239
 51
317.6536123371758
  0
ARC
  5
1AE68
102
{ACAD_REACTORS
330
1AE6B
102
}
330
18
100
AcDbEntity
  8
細線
100
AcDbCircle
 10
746.1733209504752
 20
262.4617714143468
 30
0.0
 40
0.5
100
AcDbArc
 50
102.3463876628252
 51
197.6536123371761
  0
ARC
  5
1AE69
102
{ACAD_REACTORS
330
1AE6B
102
}
330
18
100
AcDbEntity
  8
細線
100
AcDbCircle
 10
744.3027060783008
 20
262.4617714143468
 30
0.0
 40
0.5
100
AcDbArc
 50
342.3463876628238
 51
77.65361233717626
  0
ARC
  5
1AE6A
102
{ACAD_REACTORS
330
1AE6B
102
}
330
18
100
AcDbEntity
  8
細線
100
AcDbCircle
 10
745.238013514388
 20
261.9217714143467
 30
0.0
 40
0.5
100
AcDbArc
 50
42.34638766282411
 51
137.6536123371759
  0
LINE
  5
1AEEE
330
18
100
AcDbEntity
  8
0
100
AcDbLine
 10
556.388092859402
 20
157.0911086221813
 30
0.0
 11
560.1725677452466
 21
134.6911086221814
 31
0.0
  0
LINE
  5
1AEEF
330
18
100
AcDbEntity
  8
0
100
AcDbLine
 10
555.0968828137397
 20
134.6911086221814
 30
0.0
 11
555.0968828137397
 21
157.0911086221813
 31
0.0
  0
LINE
  5
1AEF0
330
18
100
AcDbEntity
  8
0
100
AcDbLine
 10
553.8056727680781
 20
157.0911086221813
 30
0.0
 11
550.0211978822333
 21
134.6911086221814
 31
0.0
  0
LINE
  5
1AEF1
330
18
100
AcDbEntity
  8
0
100
AcDbLine
 10
545.8683174382116
 20
117.1882063778494
 30
0.0
 11
545.8683174382116
 21
120.4910635207065
 31
0.0
  0
LINE
  5
1AEF2
330
18
100
AcDbEntity
  8
0
100
AcDbLine
 10
547.0340317239259
 20
117.0910635207059
 30
0.0
 11
547.0340317239259
 21
120.4910635207065
 31
0.0
  0
LINE
  5
1AEF3
330
18
100
AcDbEntity
  8
0
100
AcDbLine
 10
544.4791745810688
 20
117.6059206635637
 30
0.0
 11
544.4791745810688
 21
127.9710635207061
 31
0.0
  0
LINE
  5
1AEF4
330
18
100
AcDbEntity
  8
0
100
AcDbLine
 10
544.8968888667831
 20
115.7310635207064
 30
0.0
 11
544.8968888667827
 21
126.9996349492778
 31
0.0
  0
LINE
  5
1AEF5
330
18
100
AcDbEntity
  8
0
100
AcDbLine
 10
549.2718888667829
 20
110.9910635207061
 30
0.0
 11
549.2718888667829
 21
120.4910635207065
 31
0.0
  0
LINE
  5
1AEF6
330
18
100
AcDbEntity
  8
0
100
AcDbLine
 10
557.4718888667828
 20
110.9910635207061
 30
0.0
 11
557.4718888667828
 21
120.4910635207065
 31
0.0
  0
LINE
  5
1AEF7
330
18
100
AcDbEntity
  8
0
100
AcDbLine
 10
556.8218888667833
 20
110.9910635207061
 30
0.0
 11
556.8218888667828
 21
120.4910635207065
 31
0.0
  0
LINE
  5
1AEF8
330
18
100
AcDbEntity
  8
0
100
AcDbLine
 10
553.371888866783
 20
110.9910635207061
 30
0.0
 11
553.371888866783
 21
120.4910635207065
 31
0.0
  0
LINE
  5
1AEF9
330
18
100
AcDbEntity
  8
0
100
AcDbLine
 10
552.7218888667833
 20
110.9910635207061
 30
0.0
 11
552.7218888667833
 21
120.4910635207065
 31
0.0
  0
LINE
  5
1AEFA
330
18
100
AcDbEntity
  8
0
100
AcDbLine
 10
560.9218888667832
 20
110.9910635207061
 30
0.0
 11
560.9218888667832
 21
120.4910635207065
 31
0.0
  0
LINE
  5
1AEFB
330
18
100
AcDbEntity
  8
0
100
AcDbLine
 10
560.9218888667832
 20
110.9910635207066
 30
0.0
 11
557.4718888667821
 21
110.9910635207061
 31
0.0
  0
LINE
  5
1AEFC
330
18
100
AcDbEntity
  8
0
100
AcDbLine
 10
552.7218888667833
 20
110.9910635207061
 30
0.0
 11
549.2718888667829
 21
110.9910635207061
 31
0.0
  0
LINE
  5
1AEFD
330
18
100
AcDbEntity
  8
0
100
AcDbLine
 10
547.1311745810687
 20
114.7596349492777
 30
0.0
 11
545.8683174382116
 21
114.7596349492777
 31
0.0
  0
LINE
  5
1AEFE
330
18
100
AcDbEntity
  8
0
100
AcDbLine
 10
544.8968888667831
 20
117.1882063778494
 30
0.0
 11
544.4791745810688
 21
117.6059206635637
 31
0.0
  0
LINE
  5
1AEFF
330
18
100
AcDbEntity
  8
0
100
AcDbLine
 10
545.8683174382116
 20
117.1882063778494
 30
0.0
 11
544.8968888667831
 21
117.1882063778494
 31
0.0
  0
LINE
  5
1AF00
330
18
100
AcDbEntity
  8
0
100
AcDbLine
 10
544.8968888667831
 20
115.7310635207064
 30
0.0
 11
545.8683174382116
 21
114.7596349492777
 31
0.0
  0
LINE
  5
1AF01
330
18
100
AcDbEntity
  8
0
100
AcDbLine
 10
548.1026031524974
 20
115.7310635207064
 30
0.0
 11
548.1026031524974
 21
117.1882063778489
 31
0.0
  0
LINE
  5
1AF02
330
18
100
AcDbEntity
  8
0
100
AcDbLine
 10
548.1026031524974
 20
117.1882063778494
 30
0.0
 11
547.0340317239259
 21
117.0910635207059
 31
0.0
  0
LINE
  5
1AF03
330
18
100
AcDbEntity
  8
0
100
AcDbLine
 10
547.1311745810687
 20
114.7596349492777
 30
0.0
 11
548.1026031524974
 21
115.7310635207064
 31
0.0
  0
LINE
  5
1AF04
330
18
100
AcDbEntity
  8
0
100
AcDbLine
 10
556.8218888667833
 20
110.9910635207061
 30
0.0
 11
553.371888866783
 21
110.9910635207061
 31
0.0
  0
LINE
  5
1AF05
330
18
100
AcDbEntity
  8
0
100
AcDbLine
 10
561.8968888667827
 20
120.4910635207065
 30
0.0
 11
548.2968888667832
 21
120.4910635207065
 31
0.0
  0
LINE
  5
1AF06
330
18
100
AcDbEntity
  8
0
100
AcDbLine
 10
562.8968828137401
 20
134.6911086221812
 30
0.0
 11
547.2968828137399
 21
134.691108622182
 31
0.0
  0
LINE
  5
1AF07
330
18
100
AcDbEntity
  8
0
100
AcDbLine
 10
548.2968888667832
 20
133.5911086221827
 30
0.0
 11
548.2968888667832
 21
120.4910635207065
 31
0.0
  0
LINE
  5
1AF08
330
18
100
AcDbEntity
  8
0
100
AcDbLine
 10
544.8968888667827
 20
126.9996349492778
 30
0.0
 11
544.4791745810688
 21
126.9996349492778
 31
0.0
  0
LINE
  5
1AF09
330
18
100
AcDbEntity
  8
0
100
AcDbLine
 10
545.8683174382116
 20
127.9710635207069
 30
0.0
 11
544.4791745810688
 21
127.9710635207065
 31
0.0
  0
LINE
  5
1AF0A
330
18
100
AcDbEntity
  8
0
100
AcDbLine
 10
548.2968888667832
 20
120.4910635207065
 30
0.0
 11
544.4791745810688
 21
120.4910635207065
 31
0.0
  0
ARC
  5
1AF0B
330
18
100
AcDbEntity
  8
0
100
AcDbCircle
 10
547.811174581069
 20
122.5893492349924
 30
0.0
 40
0.4857142857142857
100
AcDbArc
 50
270.000000000013
 51
0.0
  0
ARC
  5
1AF0C
330
18
100
AcDbEntity
  8
0
100
AcDbCircle
 10
547.3104660807343
 20
122.5893492349919
 30
0.0
 40
0.4857142857142857
100
AcDbArc
 50
190.0000000000042
 51
270.000000000013
  0
LINE
  5
1AF0D
330
18
100
AcDbEntity
  8
0
100
AcDbLine
 10
547.811174581069
 20
122.1036349492782
 30
0.0
 11
547.3104660807347
 21
122.1036349492779
 31
0.0
  0
LINE
  5
1AF0E
330
18
100
AcDbEntity
  8
0
100
AcDbLine
 10
546.832130886414
 20
122.5050058344109
 30
0.0
 11
545.8683174382116
 21
127.9710635207069
 31
0.0
  0
LINE
  5
1AF0F
330
18
100
AcDbEntity
  8
0
100
AcDbLine
 10
547.2968828137399
 20
134.691108622182
 30
0.0
 11
547.2968828137399
 21
133.5911086221827
 31
0.0
  0
LINE
  5
1AF10
330
18
100
AcDbEntity
  8
0
100
AcDbLine
 10
548.2968888667832
 20
133.5911086221827
 30
0.0
 11
547.2968828137399
 21
133.5911086221827
 31
0.0
  0
LINE
  5
1AF11
330
18
100
AcDbEntity
  8
0
100
AcDbLine
 10
561.8968888667827
 20
133.5911086221813
 30
0.0
 11
561.8968888667827
 21
120.4910635207065
 31
0.0
  0
LINE
  5
1AF12
330
18
100
AcDbEntity
  8
0
100
AcDbLine
 10
562.8968828137401
 20
133.5911086221817
 30
0.0
 11
561.8968888667827
 21
133.5911086221813
 31
0.0
  0
LINE
  5
1AF13
330
18
100
AcDbEntity
  8
0
100
AcDbLine
 10
562.8968828137401
 20
134.691108622182
 30
0.0
 11
562.8968828137401
 21
133.5911086221827
 31
0.0
  0
LINE
  5
1AF14
330
18
100
AcDbEntity
  8
0
100
AcDbLine
 10
551.2099705724822
 20
181.3850841186228
 30
0.0
 11
543.8013628266287
 21
192.1957437976734
 31
0.0
  0
LINE
  5
1AF15
330
18
100
AcDbEntity
  8
0
100
AcDbLine
 10
558.9168765473057
 20
181.3817964139196
 30
0.0
 11
566.4166660214301
 21
192.3533777324166
 31
0.0
  0
LINE
  5
1AF16
330
18
100
AcDbEntity
  8
0
100
AcDbLine
 10
554.7082641597844
 20
181.3831283719471
 30
0.0
 11
562.2139574018643
 21
192.3520457743887
 31
0.0
  0
LINE
  5
1AF17
330
18
100
AcDbEntity
  8
0
100
AcDbLine
 10
555.0676431484653
 20
181.908329484739
 30
0.0
 11
547.7951974438123
 21
192.5451807984209
 31
0.0
  0
ARC
  5
1AF18
330
18
100
AcDbEntity
  8
0
100
AcDbCircle
 10
567.1724317879111
 20
175.7385874270653
 30
0.0
 40
10.0
100
AcDbArc
 50
145.6448534167714
 51
180.0
  0
ARC
  5
1AF19
330
18
100
AcDbEntity
  8
0
100
AcDbCircle
 10
542.9611107808247
 20
175.7320926859761
 30
0.0
 40
10.0
100
AcDbArc
 50
0.0
 51
34.42306692944868
  0
ARC
  5
1AF1A
330
18
100
AcDbEntity
  8
0
100
AcDbCircle
 10
562.9611107808247
 20
175.735958935
 30
0.0
 40
10.0
100
AcDbArc
 50
145.6173623158439
 51
180.0
  0
LINE
  5
1AF1B
330
18
100
AcDbEntity
  8
0
100
AcDbLine
 10
552.9611107808245
 20
170.8527994879968
 30
0.0
 11
552.9611107808246
 21
175.735958935
 31
0.0
  0
LINE
  5
1AF1C
330
18
100
AcDbEntity
  8
0
100
AcDbLine
 10
552.9611107808245
 20
170.8527994879968
 30
0.0
 11
552.9611107808246
 21
175.732092685976
 31
0.0
  0
LINE
  5
1AF1D
330
18
100
AcDbEntity
  8
0
100
AcDbLine
 10
557.1724317879111
 20
170.8527994879968
 30
0.0
 11
557.1724317879111
 21
175.7385874270655
 31
0.0
  0
ARC
  5
1AF1E
330
18
100
AcDbEntity
  8
0
100
AcDbCircle
 10
556.0502226182892
 20
198.1891651506988
 30
0.0
 40
10.0
100
AcDbArc
 50
180.0
 51
214.3605280011013
  0
ARC
  5
1AF1F
330
18
100
AcDbEntity
  8
0
100
AcDbCircle
 10
552.0502226182864
 20
197.8487352303199
 30
0.0
 40
10.0
100
AcDbArc
 50
180.0
 51
214.4230669294485
  0
ARC
  5
1AF20
330
18
100
AcDbEntity
  8
0
100
AcDbCircle
 10
558.1611107808246
 20
197.9965867192709
 30
0.0
 40
10.0
100
AcDbArc
 50
325.6448534167714
 51
0.0
  0
ARC
  5
1AF21
330
18
100
AcDbEntity
  8
0
100
AcDbCircle
 10
553.9611107808242
 20
197.9992152113354
 30
0.0
 40
10.0
100
AcDbArc
 50
325.6173623158439
 51
0.0
  0
LINE
  5
1AF30
330
18
100
AcDbEntity
  8
0
100
AcDbLine
 10
568.1611107808247
 20
197.9965867192709
 30
0.0
 11
568.1611107808247
 21
264.8570197792603
 31
0.0
  0
LINE
  5
1AF31
330
18
100
AcDbEntity
  8
0
100
AcDbLine
 10
542.0502226182865
 20
197.8487352303199
 30
0.0
 11
542.0502226182865
 21
230.3527994879968
 31
0.0
  0
LINE
  5
1AF32
330
18
100
AcDbEntity
  8
0
100
AcDbLine
 10
563.9611107808242
 20
197.9992152113354
 30
0.0
 11
563.9611107808247
 21
264.8570197792603
 31
0.0
  0
LINE
  5
1AF33
330
18
100
AcDbEntity
  8
0
100
AcDbLine
 10
546.2502226182865
 20
230.3527994879968
 30
0.0
 11
546.0502226182892
 21
198.1891651506988
 31
0.0
  0
LINE
  5
1B2E6
330
18
100
AcDbEntity
  8
0
100
AcDbLine
 10
480.9562162443371
 20
186.3528002035917
 30
0.0
 11
480.456215528742
 21
185.8527994879964
 31
0.0
  0
LINE
  5
1B335
330
18
100
AcDbEntity
  8
0
100
AcDbLine
 10
468.7562162443406
 20
186.4705612689993
 30
0.0
 11
475.9562162443405
 21
186.4705612689993
 31
0.0
  0
LINE
  5
1B336
330
18
100
AcDbEntity
  8
0
100
AcDbLine
 10
468.7562162443405
 20
192.0848992488745
 30
0.0
 11
475.9562162443402
 21
192.0848992488745
 31
0.0
  0
LINE
  5
1B337
330
18
100
AcDbEntity
  8
0
100
AcDbLine
 10
475.9562162443402
 20
192.0848992488745
 30
0.0
 11
475.9562162443405
 21
186.4705612689993
 31
0.0
  0
LINE
  5
1B338
330
18
100
AcDbEntity
  8
0
100
AcDbLine
 10
468.7562162443405
 20
192.0848992488745
 30
0.0
 11
468.7562162443405
 21
186.4705612689993
 31
0.0
  0
ARC
  5
1B418
102
{ACAD_REACTORS
330
1B41C
102
}
330
18
100
AcDbEntity
  8
0
100
AcDbCircle
 10
663.5522428931255
 20
431.6616761215526
 30
0.0
 40
4.0
100
AcDbArc
 50
195.9316797492509
 51
14.0683202507474
  0
LINE
  5
1B41A
102
{ACAD_REACTORS
330
1B41C
102
}
330
18
100
AcDbEntity
  8
0
100
AcDbLine
 10
667.4327844103938
 20
432.6341112388518
 30
0.0
 11
666.3969776250663
 21
436.4997947885193
 31
0.0
  0
LINE
  5
1B41B
102
{ACAD_REACTORS
330
1B41C
102
}
330
18
100
AcDbEntity
  8
0
100
AcDbLine
 10
659.7053778000815
 20
430.5635588780317
 30
0.0
 11
658.6695710147539
 21
434.4292424276992
 31
0.0
  0
LINE
  5
1B41D
102
{ACAD_REACTORS
330
1B420
102
}
330
18
100
AcDbEntity
  8
0
100
AcDbLine
 10
611.2872813305351
 20
402.6093578476908
 30
0.0
 11
608.4574045661951
 21
405.4392346120307
 31
0.0
  0
ARC
  5
1B41E
102
{ACAD_REACTORS
330
1B420
102
}
330
18
100
AcDbEntity
  8
0
100
AcDbCircle
 10
608.4128513547901
 20
399.8269335739436
 30
0.0
 40
4.0
100
AcDbArc
 50
225.9316797492509
 51
44.0683202507474
  0
LINE
  5
1B41F
102
{ACAD_REACTORS
330
1B420
102
}
330
18
100
AcDbEntity
  8
0
100
AcDbLine
 10
605.6304270810426
 20
396.9525035981986
 30
0.0
 11
602.8005503167031
 21
399.7823803625383
 31
0.0
  0
LINE
  5
1B421
102
{ACAD_REACTORS
330
1B424
102
}
330
18
100
AcDbEntity
  8
0
100
AcDbLine
 10
577.6762260507005
 20
348.5344071286531
 30
0.0
 11
573.810542501033
 21
349.5702139139808
 31
0.0
  0
ARC
  5
1B422
102
{ACAD_REACTORS
330
1B424
102
}
330
18
100
AcDbEntity
  8
0
100
AcDbCircle
 10
576.5781088071795
 20
344.6875420356092
 30
0.0
 40
4.0
100
AcDbArc
 50
255.9316797492511
 51
74.06832025074739
  0
LINE
  5
1B423
102
{ACAD_REACTORS
330
1B424
102
}
330
18
100
AcDbEntity
  8
0
100
AcDbLine
 10
575.6056736898804
 20
340.8070005183406
 30
0.0
 11
571.7399901402126
 21
341.8428073036685
 31
0.0
  0
LINE
  5
1B425
102
{ACAD_REACTORS
330
1B428
102
}
330
18
100
AcDbEntity
  8
0
100
AcDbLine
 10
575.6056736898793
 20
284.8985984576576
 30
0.0
 11
571.7399901402119
 21
283.86279167233
 31
0.0
  0
ARC
  5
1B426
102
{ACAD_REACTORS
330
1B428
102
}
330
18
100
AcDbEntity
  8
0
100
AcDbCircle
 10
576.5781088071785
 20
281.0180569403893
 30
0.0
 40
4.0
100
AcDbArc
 50
285.9316797492511
 51
104.0683202507474
  0
LINE
  5
1B427
102
{ACAD_REACTORS
330
1B428
102
}
330
18
100
AcDbEntity
  8
0
100
AcDbLine
 10
577.6762260506992
 20
277.1711918473452
 30
0.0
 11
573.8105425010319
 21
276.1353850620175
 31
0.0
  0
LINE
  5
1B429
102
{ACAD_REACTORS
330
1B42C
102
}
330
18
100
AcDbEntity
  8
0
100
AcDbLine
 10
605.6304270810401
 20
228.7530953777987
 30
0.0
 11
602.8005503167004
 21
225.9232186134588
 31
0.0
  0
ARC
  5
1B42A
102
{ACAD_REACTORS
330
1B42C
102
}
330
18
100
AcDbEntity
  8
0
100
AcDbCircle
 10
608.4128513547877
 20
225.8786654020541
 30
0.0
 40
4.0
100
AcDbArc
 50
315.9316797492511
 51
134.0683202507472
  0
LINE
  5
1B42B
102
{ACAD_REACTORS
330
1B42C
102
}
330
18
100
AcDbEntity
  8
0
100
AcDbLine
 10
611.2872813305324
 20
223.0962411283065
 30
0.0
 11
608.4574045661926
 21
220.2663643639666
 31
0.0
  0
LINE
  5
1B42D
102
{ACAD_REACTORS
330
1B430
102
}
330
18
100
AcDbEntity
  8
0
100
AcDbLine
 10
659.705377800078
 20
195.1420400979641
 30
0.0
 11
658.6695710147502
 21
191.2763565482965
 31
0.0
  0
ARC
  5
1B42E
102
{ACAD_REACTORS
330
1B430
102
}
330
18
100
AcDbEntity
  8
0
100
AcDbCircle
 10
663.5522428931221
 20
194.043922854443
 30
0.0
 40
4.0
100
AcDbArc
 50
345.931679749251
 51
164.0683202507473
  0
LINE
  5
1B42F
102
{ACAD_REACTORS
330
1B430
102
}
330
18
100
AcDbEntity
  8
0
100
AcDbLine
 10
667.4327844103901
 20
193.0714877371439
 30
0.0
 11
666.3969776250626
 21
189.2058041874764
 31
0.0
  0
LINE
  5
1B431
102
{ACAD_REACTORS
330
1B434
102
}
330
18
100
AcDbEntity
  8
0
100
AcDbLine
 10
723.3411864710736
 20
193.0714877371429
 30
0.0
 11
724.3769932564013
 21
189.2058041874753
 31
0.0
  0
ARC
  5
1B432
102
{ACAD_REACTORS
330
1B434
102
}
330
18
100
AcDbEntity
  8
0
100
AcDbCircle
 10
727.2217279883416
 20
194.0439228544421
 30
0.0
 40
4.0
100
AcDbArc
 50
15.93167974925109
 51
194.0683202507471
  0
LINE
  5
1B433
102
{ACAD_REACTORS
330
1B434
102
}
330
18
100
AcDbEntity
  8
0
100
AcDbLine
 10
731.068593081386
 20
195.1420400979627
 30
0.0
 11
732.1043998667136
 21
191.2763565482955
 31
0.0
  0
LINE
  5
1B435
102
{ACAD_REACTORS
330
1B438
102
}
330
18
100
AcDbEntity
  8
0
100
AcDbLine
 10
779.4866895509323
 20
223.0962411283039
 30
0.0
 11
782.3165663152722
 21
220.266364363964
 31
0.0
  0
ARC
  5
1B436
102
{ACAD_REACTORS
330
1B438
102
}
330
18
100
AcDbEntity
  8
0
100
AcDbCircle
 10
782.3611195266773
 20
225.8786654020513
 30
0.0
 40
4.0
100
AcDbArc
 50
45.93167974925107
 51
224.0683202507471
  0
LINE
  5
1B437
102
{ACAD_REACTORS
330
1B438
102
}
330
18
100
AcDbEntity
  8
0
100
AcDbLine
 10
785.1435438004245
 20
228.7530953777963
 30
0.0
 11
787.9734205647645
 21
225.9232186134564
 31
0.0
  0
LINE
  5
1B439
102
{ACAD_REACTORS
330
1B43C
102
}
330
18
100
AcDbEntity
  8
0
100
AcDbLine
 10
813.0977448307671
 20
277.1711918473414
 30
0.0
 11
816.9634283804347
 21
276.1353850620138
 31
0.0
  0
ARC
  5
1B43A
102
{ACAD_REACTORS
330
1B43C
102
}
330
18
100
AcDbEntity
  8
0
100
AcDbCircle
 10
814.1958620742881
 20
281.0180569403858
 30
0.0
 40
4.0
100
AcDbArc
 50
75.93167974925113
 51
254.0683202507473
  0
LINE
  5
1B43B
102
{ACAD_REACTORS
330
1B43C
102
}
330
18
100
AcDbEntity
  8
0
100
AcDbLine
 10
815.1682971915871
 20
284.8985984576541
 30
0.0
 11
819.0339807412547
 21
283.8627916723264
 31
0.0
  0
LINE
  5
1B43D
102
{ACAD_REACTORS
330
1B440
102
}
330
18
100
AcDbEntity
  8
0
100
AcDbLine
 10
815.168297191588
 20
340.8070005183373
 30
0.0
 11
819.0339807412556
 21
341.8428073036648
 31
0.0
  0
ARC
  5
1B43E
102
{ACAD_REACTORS
330
1B440
102
}
330
18
100
AcDbEntity
  8
0
100
AcDbCircle
 10
814.1958620742892
 20
344.6875420356054
 30
0.0
 40
4.0
100
AcDbArc
 50
105.9316797492511
 51
284.0683202507473
  0
LINE
  5
1B43F
102
{ACAD_REACTORS
330
1B440
102
}
330
18
100
AcDbEntity
  8
0
100
AcDbLine
 10
813.097744830768
 20
348.5344071286496
 30
0.0
 11
816.9634283804356
 21
349.5702139139773
 31
0.0
  0
LINE
  5
1B441
102
{ACAD_REACTORS
330
1B444
102
}
330
18
100
AcDbEntity
  8
0
100
AcDbLine
 10
785.1435438004272
 20
396.9525035981961
 30
0.0
 11
787.9734205647673
 21
399.7823803625357
 31
0.0
  0
ARC
  5
1B442
102
{ACAD_REACTORS
330
1B444
102
}
330
18
100
AcDbEntity
  8
0
100
AcDbCircle
 10
782.3611195266801
 20
399.8269335739408
 30
0.0
 40
4.0
100
AcDbArc
 50
135.9316797492509
 51
314.0683202507474
  0
LINE
  5
1B443
102
{ACAD_REACTORS
330
1B444
102
}
330
18
100
AcDbEntity
  8
0
100
AcDbLine
 10
779.4866895509351
 20
402.6093578476881
 30
0.0
 11
782.3165663152749
 21
405.4392346120281
 31
0.0
  0
LINE
  5
1B445
102
{ACAD_REACTORS
330
1B448
102
}
330
18
100
AcDbEntity
  8
0
100
AcDbLine
 10
731.0685930813895
 20
430.5635588780304
 30
0.0
 11
732.1043998667173
 21
434.4292424276982
 31
0.0
  0
ARC
  5
1B446
102
{ACAD_REACTORS
330
1B448
102
}
330
18
100
AcDbEntity
  8
0
100
AcDbCircle
 10
727.2217279883456
 20
431.6616761215517
 30
0.0
 40
4.0
100
AcDbArc
 50
165.9316797492509
 51
344.0683202507473
  0
LINE
  5
1B447
102
{ACAD_REACTORS
330
1B448
102
}
330
18
100
AcDbEntity
  8
0
100
AcDbLine
 10
723.341186471077
 20
432.634111238851
 30
0.0
 11
724.3769932564048
 21
436.4997947885184
 31
0.0
  0
CIRCLE
  5
1B4D8
330
18
100
AcDbEntity
  8
0
100
AcDbCircle
 10
695.3869854407351
 20
312.8527994879966
 30
0.0
 40
74.19999999999913
  0
CIRCLE
  5
1B4D9
330
18
100
AcDbEntity
  8
0
100
AcDbCircle
 10
695.3869854407351
 20
312.8527994879966
 30
0.0
 40
78.00003452892721
  0
CIRCLE
  5
1B4DA
330
18
100
AcDbEntity
  8
0
100
AcDbCircle
 10
695.3869854407351
 20
312.8527994879966
 30
0.0
 40
32.50000000000105
  0
CIRCLE
  5
1B4DB
330
18
100
AcDbEntity
  8
0
100
AcDbCircle
 10
695.3869854407351
 20
312.8527994879966
 30
0.0
 40
34.40000000000105
  0
CIRCLE
  5
1B4DC
330
18
100
AcDbEntity
  8
0
100
AcDbCircle
 10
187.3303672247516
 20
312.8527994879977
 30
0.0
 40
32.49999999999999
  0
LINE
  5
1B4DD
330
18
100
AcDbEntity
  8
破線
100
AcDbLine
 10
367.4562163617585
 20
367.8527994879973
 30
0.0
 11
365.4562163617585
 21
367.8527994879973
 31
0.0
  0
LINE
  5
1B4DE
330
18
100
AcDbEntity
  8
破線
100
AcDbLine
 10
367.4562163617585
 20
257.8527994879973
 30
0.0
 11
365.4562163617585
 21
257.8527994879973
 31
0.0
  0
LINE
  5
1B4DF
330
18
100
AcDbEntity
  8
破線
100
AcDbLine
 10
367.4562163617585
 20
257.8527994879973
 30
0.0
 11
367.4562163617585
 21
367.8527994879973
 31
0.0
  0
VIEWPORT
  5
23
330
15
100
AcDbEntity
 67
     1
  8
0
100
AcDbViewport
 10
199.9932553142867
 20
143.9974330975594
 30
0.0
 40
443.4170200333455
 41
290.2098104537178
 68
     1
 69
     1
1001
ACAD
1000
MVIEW
1002
{
1070
    16
1010
0.0
1020
0.0
1030
0.0
1010
0.0
1020
0.0
1030
1.0
1040
0.0
1040
290.2098104537178
1040
199.9932553142867
1040
143.9974330975594
1040
50.0
1040
0.0
1040
0.0
1070
     0
1070
   100
1070
     1
1070
     0
1070
     0
1070
     0
1070
     0
1070
     0
1040
0.0
1040
0.0
1040
0.0
1040
10.0
1040
10.0
1040
10.0
1040
10.0
1070
     0
1002
{
1002
}
1002
}
  0
VIEWPORT
  5
2E
330
15
100
AcDbEntity
 67
     1
  8
M_VIEW
100
AcDbViewport
 10
200.0
 20
144.0
 30
0.0
 40
400.0
 41
288.0
 68
     2
 69
     2
1001
ACAD
1000
MVIEW
1002
{
1070
    16
1010
0.0
1020
0.0
1030
0.0
1010
0.0
1020
0.0
1030
1.0
1040
0.0
1040
576.0000001230439
1040
442.6162922934961
1040
293.1881212042798
1040
50.0
1040
0.0
1040
0.0
1070
     0
1070
   100
1070
     1
1070
     0
1070
     0
1070
     0
1070
     0
1070
     0
1040
0.0
1040
0.0
1040
0.0
1040
10.0
1040
10.0
1040
10.0
1040
10.0
1070
     0
1002
{
1002
}
1002
}
  0
INSERT
  5
115F
330
15
100
AcDbEntity
 67
     1
  8
FRAME025
100
AcDbBlockReference
  2
機械A4横_LBP
 10
82.74908858651452
 20
152.030959079227
 30
0.0
  0
TEXT
  5
AA6A
330
15
100
AcDbEntity
 67
     1
  8
文字
  6
BYBLOCK
 62
     0
100
AcDbText
 10
32.81885892396519
 20
73.01882819621747
 30
0.0
 40
3.2
  1

 50
90.0
 41
0.625
  7
MSｺ_ｼｯｸ
100
AcDbText
  0
TEXT
  5
AA6C
330
15
100
AcDbEntity
 67
     1
  8
文字
  6
BYBLOCK
 62
     0
100
AcDbText
 10
37.25020936743055
 20
73.01882819621747
 30
0.0
 40
3.2
  1

 50
90.0
 41
0.625
  7
MSｺ_ｼｯｸ
100
AcDbText
  0
TEXT
  5
FCA5
330
15
100
AcDbEntity
 67
     1
  8
FRAME020
  6
CONTINUOUS
100
AcDbText
 10
126.6213117262079
 20
29.63926951973459
 30
0.0
 40
2.5
  1

 41
0.625
  7
MSｺ_ｼｯｸ
100
AcDbText
  0
TEXT
  5
12229
330
15
100
AcDbEntity
 67
     1
  8
0
100
AcDbText
 10
324.703280378293
 20
10.63168299257869
 30
0.0
 40
6.0
  1
ＳＥ－３１２５３
 41
1.1
100
AcDbText
  0
MTEXT
  5
1B4C1
330
15
100
AcDbEntity
 67
     1
  8
HIDDEN
100
AcDbMText
 10
232.7811719173145
 20
26.6867304603935
 30
0.0
 40
6.0
 41
158.4129983681745
 71
     1
 72
     5
  1
{\Fisocp.shx,extfont.shx;\C7;τDISCﾓｰﾀ D250-100-L NMR-FTFBA2C-122A}
1001
ACAD
1000
MTEXTBEGIN
1070
    73
1070
     1
1070
    44
1040
1.0
1070
    74
1070
     0
1000
MTEXTEND
  0
ENDSEC
  0
SECTION
  2
OBJECTS
  0
DICTIONARY
  5
C
330
0
100
AcDbDictionary
  3
ACAD_GROUP
350
D
  3
ACAD_LAYOUT
350
DB2
  3
ACAD_MLINESTYLE
350
1B
  3
ACAD_PLOTSETTINGS
350
DB3
  3
ACAD_PLOTSTYLENAME
350
FB5B
  3
ACADDIM
350
1ABE9
  3
ACDBHEADERROUNDTRIPXREC
350
1B527
  3
ACDBVARIABLEDICTIONARY
350
106A6
  3
DWGPROPS
350
15EC9
1001
ACAD
1000
TREAT_AS_HARD
1070
     0
  0
DICTIONARY
  5
1B2AE
330
2
100
AcDbDictionary
280
     1
  3
ACAD_LAYERFILTERS
360
1B2AF
  3
ACAD_LAYERSTATES
360
1B2BC
  0
DICTIONARY
  5
EFC6
330
18
100
AcDbDictionary
280
     1
  3
ACAD_LAYOUTSELFREF
360
1B549
  0
DICTIONARY
  5
EFC4
330
15
100
AcDbDictionary
280
     1
  3
ACAD_LAYOUTSELFREF
360
1B548
  0
DICTIONARY
  5
D
102
{ACAD_REACTORS
330
C
102
}
330
C
100
AcDbDictionary
  3
*A1
350
AC8A
  3
*A10
350
18D1B
  3
*A11
350
ACA1
  3
*A12
350
18B8D
  3
*A13
350
1606B
  3
*A14
350
18122
  3
*A15
350
18518
  3
*A16
350
1606A
  3
*A17
350
18EF6
  3
*A18
350
18EC9
  3
*A19
350
AC9A
  3
*A2
350
1629A
  3
*A20
350
18E0B
  3
*A21
350
185B3
  3
*A22
350
18C1A
  3
*A23
350
16B69
  3
*A24
350
18ECA
  3
*A25
350
FCB8
  3
*A26
350
ACB4
  3
*A27
350
160D1
  3
*A28
350
1A2D3
  3
*A29
350
1A0FB
  3
*A3
350
16B68
  3
*A30
350
FC9B
  3
*A31
350
1943E
  3
*A32
350
18B72
  3
*A33
350
18515
  3
*A34
350
185B2
  3
*A35
350
FC9A
  3
*A36
350
170B6
  3
*A37
350
16F4A
  3
*A38
350
106A5
  3
*A39
350
16069
  3
*A4
350
18B6E
  3
*A40
350
FB6C
  3
*A41
350
19862
  3
*A42
350
1629C
  3
*A43
350
18121
  3
*A44
350
106C7
  3
*A45
350
ACBD
  3
*A46
350
16059
  3
*A47
350
FC91
  3
*A48
350
FC95
  3
*A49
350
18516
  3
*A5
350
18B75
  3
*A50
350
FB6B
  3
*A51
350
199B8
  3
*A52
350
FBFF
  3
*A53
350
18624
  3
*A54
350
18B71
  3
*A55
350
18517
  3
*A56
350
16068
  3
*A57
350
106C6
  3
*A58
350
16F49
  3
*A59
350
18625
  3
*A6
350
106B3
  3
*A60
350
1B41C
  3
*A61
350
171B1
  3
*A62
350
18B74
  3
*A63
350
1B420
  3
*A64
350
18D1A
  3
*A65
350
1AE47
  3
*A66
350
1B424
  3
*A67
350
18EC8
  3
*A68
350
1AE59
  3
*A69
350
1B428
  3
*A7
350
ACAB
  3
*A70
350
1AE6B
  3
*A71
350
1B42C
  3
*A72
350
1621E
  3
*A73
350
1B430
  3
*A74
350
1A0F8
  3
*A75
350
1B434
  3
*A76
350
1A295
  3
*A77
350
1B438
  3
*A78
350
16058
  3
*A79
350
18125
  3
*A8
350
18CB7
  3
*A80
350
1A0F7
  3
*A81
350
1A294
  3
*A82
350
1A2D2
  3
*A83
350
1AE50
  3
*A84
350
1AE62
  3
*A85
350
1AE6C
  3
*A86
350
1AE6D
  3
*A87
350
1AE6E
  3
*A88
350
1AE6F
  3
*A89
350
1943F
  3
*A9
350
ACA2
  3
*A90
350
1B43C
  3
*A91
350
1B440
  3
*A92
350
1B444
  3
*A93
350
1B448
1001
ACAD
1000
TREAT_AS_HARD
1070
     0
  0
DICTIONARY
  5
DB2
102
{ACAD_REACTORS
330
C
102
}
330
C
100
AcDbDictionary
1001
ACAD
1000
TREAT_AS_HARD
1070
     0
  0
DICTIONARY
  5
1B
102
{ACAD_REACTORS
330
C
102
}
330
C
100
AcDbDictionary
  3
STANDARD
350
1C
1001
ACAD
1000
TREAT_AS_HARD
1070
     0
  0
DICTIONARY
  5
DB3
102
{ACAD_REACTORS
330
C
102
}
330
C
100
AcDbDictionary
1001
ACAD
1000
TREAT_AS_HARD
1070
     0
  0
ACDBDICTIONARYWDFLT
  5
FB5B
102
{ACAD_REACTORS
330
C
102
}
330
C
100
AcDbDictionary
281
     1
  3
Normal
350
FB5C
100
AcDbDictionaryWithDefault
340
FB5C
  0
XRECORD
  5
1ABE9
102
{ACAD_REACTORS
330
C
102
}
330
C
100
AcDbXrecord
 90
   990106
  3

 60
     0
 61
     0
 62
     4
 63
     4
 64
     1
 65
     0
 66
     0
 67
     3
 68
     1
 69
     0
 70
     0
 71
     0
 72
     0
 40
0.0
170
     0
340
1ABEF
  0
DICTIONARY
  5
1B527
102
{ACAD_REACTORS
330
C
102
}
330
C
100
AcDbDictionary
  3
CEPSNTYPE
350
1B531
  3
DIMSTYLEDATA
350
1B535
  3
FINGERPRINTGUID
350
1B532
  3
HYPERLINKBASE
350
1B52A
  3
INSUNITS
350
1B530
  3
LAYOUTDICT
350
1B52C
  3
LWETCUNION
350
1B52F
  3
PLOTSETDICT
350
1B52D
  3
PLOTSTYLNAMDICT
350
1B52E
  3
PSVPSCALE
350
1B534
  3
PUCSBASE
350
1B538
  3
PUCSORGBACK
350
1B53E
  3
PUCSORGBOTTOM
350
1B53A
  3
PUCSORGFRONT
350
1B53D
  3
PUCSORGLEFT
350
1B53B
  3
PUCSORGRIGHT
350
1B53C
  3
PUCSORGTOP
350
1B539
  3
PUCSORTHOREF
350
1B536
  3
PUCSORTHOVIEW
350
1B537
  3
STYLESHEET
350
1B52B
  3
TSTACKALIGN
350
1B528
  3
TSTACKSIZE
350
1B529
  3
UCSBASE
350
1B541
  3
UCSORGBACK
350
1B547
  3
UCSORGBOTTOM
350
1B543
  3
UCSORGFRONT
350
1B546
  3
UCSORGLEFT
350
1B544
  3
UCSORGRIGHT
350
1B545
  3
UCSORGTOP
350
1B542
  3
UCSORTHOREF
350
1B53F
  3
UCSORTHOVIEW
350
1B540
  3
VERSIONGUID
350
1B533
  0
DICTIONARY
  5
106A6
102
{ACAD_REACTORS
330
C
102
}
330
C
100
AcDbDictionary
  3
SORTENTS
350
106A7
  0
XRECORD
  5
15EC9
102
{ACAD_REACTORS
330
C
102
}
330
C
100
AcDbXrecord
  1
DWGPROPS COOKIE
  2

  3

  4

  6

  7

  8

  9

300
=
301
=
302
=
303
=
304
=
305
=
306
=
307
=
308
=
309
=
 40
12.65185717592592
 41
2451224.660162384
 42
2452395.660827315
  1

 90
        0
  0
DICTIONARY
  5
1B2AF
102
{ACAD_REACTORS
330
1B2AE
102
}
330
1B2AE
100
AcDbDictionary
280
     1
  3
0
360
1B2B0
  3
11
360
1B2B1
  3
150_
360
1B2B2
  3
160_
360
1B2B3
  3
170_
360
1B2B4
  3
171_
360
1B2B5
  3
350_
360
1B2B6
  3
4
360
1B2B7
  3
5
360
1B2B8
  3
7
360
1B2B9
  3
KISEKI
360
1B2BA
  0
DICTIONARY
  5
1B2BC
102
{ACAD_REACTORS
330
1B2AE
102
}
330
1B2AE
100
AcDbDictionary
  0
XRECORD
  5
1B549
102
{ACAD_REACTORS
330
EFC6
102
}
330
EFC6
100
AcDbXrecord
340
18
  0
XRECORD
  5
1B548
102
{ACAD_REACTORS
330
EFC4
102
}
330
EFC4
100
AcDbXrecord
340
15
  0
GROUP
  5
AC8A
102
{ACAD_REACTORS
330
D
102
}
330
D
100
AcDbGroup
300

 70
     1
 71
     1
  0
GROUP
  5
18D1B
102
{ACAD_REACTORS
330
D
102
}
330
D
100
AcDbGroup
300

 70
     1
 71
     1
  0
GROUP
  5
ACA1
102
{ACAD_REACTORS
330
D
102
}
330
D
100
AcDbGroup
300

 70
     1
 71
     1
  0
GROUP
  5
18B8D
102
{ACAD_REACTORS
330
D
102
}
330
D
100
AcDbGroup
300

 70
     1
 71
     1
  0
GROUP
  5
1606B
102
{ACAD_REACTORS
330
D
102
}
330
D
100
AcDbGroup
300

 70
     1
 71
     1
  0
GROUP
  5
18122
102
{ACAD_REACTORS
330
D
102
}
330
D
100
AcDbGroup
300

 70
     1
 71
     1
  0
GROUP
  5
18518
102
{ACAD_REACTORS
330
D
102
}
330
D
100
AcDbGroup
300

 70
     1
 71
     1
  0
GROUP
  5
1606A
102
{ACAD_REACTORS
330
D
102
}
330
D
100
AcDbGroup
300

 70
     1
 71
     1
  0
GROUP
  5
18EF6
102
{ACAD_REACTORS
330
D
102
}
330
D
100
AcDbGroup
300

 70
     1
 71
     1
  0
GROUP
  5
18EC9
102
{ACAD_REACTORS
330
D
102
}
330
D
100
AcDbGroup
300

 70
     1
 71
     1
340
18EB8
340
18EB3
340
18EA1
340
18EA0
340
18EB7
340
18EB2
340
18EB6
340
18EB9
340
18E9D
340
18E9C
340
18EB1
340
18EA8
340
18EA6
340
18E9F
340
18EBA
340
18EB5
340
18EB4
340
18EAD
340
18EAA
340
18EA9
340
18EA5
340
18EA4
340
18EA3
340
18EA2
340
18EA7
340
18EAF
340
18EBB
340
18EAE
340
18EAC
340
18EAB
340
18E9E
340
18EB0
  0
GROUP
  5
AC9A
102
{ACAD_REACTORS
330
D
102
}
330
D
100
AcDbGroup
300

 70
     1
 71
     1
  0
GROUP
  5
1629A
102
{ACAD_REACTORS
330
D
102
}
330
D
100
AcDbGroup
300

 70
     1
 71
     1
  0
GROUP
  5
18E0B
102
{ACAD_REACTORS
330
D
102
}
330
D
100
AcDbGroup
300

 70
     1
 71
     1
  0
GROUP
  5
185B3
102
{ACAD_REACTORS
330
D
102
}
330
D
100
AcDbGroup
300

 70
     1
 71
     1
  0
GROUP
  5
18C1A
102
{ACAD_REACTORS
330
D
102
}
330
D
100
AcDbGroup
300

 70
     1
 71
     1
  0
GROUP
  5
16B69
102
{ACAD_REACTORS
330
D
102
}
330
D
100
AcDbGroup
300

 70
     1
 71
     1
  0
GROUP
  5
18ECA
102
{ACAD_REACTORS
330
D
102
}
330
D
100
AcDbGroup
300

 70
     1
 71
     1
  0
GROUP
  5
FCB8
102
{ACAD_REACTORS
330
D
102
}
330
D
100
AcDbGroup
300

 70
     1
 71
     1
  0
GROUP
  5
ACB4
102
{ACAD_REACTORS
330
D
102
}
330
D
100
AcDbGroup
300

 70
     1
 71
     1
  0
GROUP
  5
160D1
102
{ACAD_REACTORS
330
D
102
}
330
D
100
AcDbGroup
300

 70
     1
 71
     1
  0
GROUP
  5
1A2D3
102
{ACAD_REACTORS
330
D
102
}
330
D
100
AcDbGroup
300

 70
     1
 71
     1
  0
GROUP
  5
1A0FB
102
{ACAD_REACTORS
330
D
102
}
330
D
100
AcDbGroup
300

 70
     1
 71
     1
  0
GROUP
  5
16B68
102
{ACAD_REACTORS
330
D
102
}
330
D
100
AcDbGroup
300

 70
     1
 71
     1
  0
GROUP
  5
FC9B
102
{ACAD_REACTORS
330
D
102
}
330
D
100
AcDbGroup
300

 70
     1
 71
     1
  0
GROUP
  5
1943E
102
{ACAD_REACTORS
330
D
102
}
330
D
100
AcDbGroup
300

 70
     1
 71
     1
  0
GROUP
  5
18B72
102
{ACAD_REACTORS
330
D
102
}
330
D
100
AcDbGroup
300

 70
     1
 71
     1
  0
GROUP
  5
18515
102
{ACAD_REACTORS
330
D
102
}
330
D
100
AcDbGroup
300

 70
     1
 71
     1
  0
GROUP
  5
185B2
102
{ACAD_REACTORS
330
D
102
}
330
D
100
AcDbGroup
300

 70
     1
 71
     1
  0
GROUP
  5
FC9A
102
{ACAD_REACTORS
330
D
102
}
330
D
100
AcDbGroup
300

 70
     1
 71
     1
  0
GROUP
  5
170B6
102
{ACAD_REACTORS
330
D
102
}
330
D
100
AcDbGroup
300

 70
     1
 71
     1
  0
GROUP
  5
16F4A
102
{ACAD_REACTORS
330
D
102
}
330
D
100
AcDbGroup
300

 70
     1
 71
     1
  0
GROUP
  5
106A5
102
{ACAD_REACTORS
330
D
102
}
330
D
100
AcDbGroup
300

 70
     1
 71
     1
  0
GROUP
  5
16069
102
{ACAD_REACTORS
330
D
102
}
330
D
100
AcDbGroup
300

 70
     1
 71
     1
  0
GROUP
  5
18B6E
102
{ACAD_REACTORS
330
D
102
}
330
D
100
AcDbGroup
300

 70
     1
 71
     1
  0
GROUP
  5
FB6C
102
{ACAD_REACTORS
330
D
102
}
330
D
100
AcDbGroup
300

 70
     1
 71
     1
  0
GROUP
  5
19862
102
{ACAD_REACTORS
330
D
102
}
330
D
100
AcDbGroup
300

 70
     1
 71
     1
  0
GROUP
  5
1629C
102
{ACAD_REACTORS
330
D
102
}
330
D
100
AcDbGroup
300

 70
     1
 71
     1
  0
GROUP
  5
18121
102
{ACAD_REACTORS
330
D
102
}
330
D
100
AcDbGroup
300

 70
     1
 71
     1
  0
GROUP
  5
106C7
102
{ACAD_REACTORS
330
D
102
}
330
D
100
AcDbGroup
300

 70
     1
 71
     1
  0
GROUP
  5
ACBD
102
{ACAD_REACTORS
330
D
102
}
330
D
100
AcDbGroup
300

 70
     1
 71
     1
  0
GROUP
  5
16059
102
{ACAD_REACTORS
330
D
102
}
330
D
100
AcDbGroup
300

 70
     1
 71
     1
  0
GROUP
  5
FC91
102
{ACAD_REACTORS
330
D
102
}
330
D
100
AcDbGroup
300

 70
     1
 71
     1
  0
GROUP
  5
FC95
102
{ACAD_REACTORS
330
D
102
}
330
D
100
AcDbGroup
300

 70
     1
 71
     1
  0
GROUP
  5
18516
102
{ACAD_REACTORS
330
D
102
}
330
D
100
AcDbGroup
300

 70
     1
 71
     1
  0
GROUP
  5
18B75
102
{ACAD_REACTORS
330
D
102
}
330
D
100
AcDbGroup
300

 70
     1
 71
     1
  0
GROUP
  5
FB6B
102
{ACAD_REACTORS
330
D
102
}
330
D
100
AcDbGroup
300

 70
     1
 71
     1
  0
GROUP
  5
199B8
102
{ACAD_REACTORS
330
D
102
}
330
D
100
AcDbGroup
300

 70
     1
 71
     1
  0
GROUP
  5
FBFF
102
{ACAD_REACTORS
330
D
102
}
330
D
100
AcDbGroup
300

 70
     1
 71
     1
  0
GROUP
  5
18624
102
{ACAD_REACTORS
330
D
102
}
330
D
100
AcDbGroup
300

 70
     1
 71
     1
  0
GROUP
  5
18B71
102
{ACAD_REACTORS
330
D
102
}
330
D
100
AcDbGroup
300

 70
     1
 71
     1
  0
GROUP
  5
18517
102
{ACAD_REACTORS
330
D
102
}
330
D
100
AcDbGroup
300

 70
     1
 71
     1
  0
GROUP
  5
16068
102
{ACAD_REACTORS
330
D
102
}
330
D
100
AcDbGroup
300

 70
     1
 71
     1
  0
GROUP
  5
106C6
102
{ACAD_REACTORS
330
D
102
}
330
D
100
AcDbGroup
300

 70
     1
 71
     1
  0
GROUP
  5
16F49
102
{ACAD_REACTORS
330
D
102
}
330
D
100
AcDbGroup
300

 70
     1
 71
     1
  0
GROUP
  5
18625
102
{ACAD_REACTORS
330
D
102
}
330
D
100
AcDbGroup
300

 70
     1
 71
     1
  0
GROUP
  5
106B3
102
{ACAD_REACTORS
330
D
102
}
330
D
100
AcDbGroup
300

 70
     1
 71
     1
  0
GROUP
  5
1B41C
102
{ACAD_REACTORS
330
D
102
}
330
D
100
AcDbGroup
300

 70
     1
 71
     1
340
1B41A
340
1B418
340
1B41B
  0
GROUP
  5
171B1
102
{ACAD_REACTORS
330
D
102
}
330
D
100
AcDbGroup
300

 70
     1
 71
     1
  0
GROUP
  5
18B74
102
{ACAD_REACTORS
330
D
102
}
330
D
100
AcDbGroup
300

 70
     1
 71
     1
  0
GROUP
  5
1B420
102
{ACAD_REACTORS
330
D
102
}
330
D
100
AcDbGroup
300

 70
     1
 71
     1
340
1B41D
340
1B41E
340
1B41F
  0
GROUP
  5
18D1A
102
{ACAD_REACTORS
330
D
102
}
330
D
100
AcDbGroup
300

 70
     1
 71
     1
  0
GROUP
  5
1AE47
102
{ACAD_REACTORS
330
D
102
}
330
D
100
AcDbGroup
300

 70
     1
 71
     1
340
1A7DC
340
1A7E3
340
1A7E2
340
1A7E1
340
1A7E0
340
1A7DF
340
1A7DE
340
1A7DD
  0
GROUP
  5
1B424
102
{ACAD_REACTORS
330
D
102
}
330
D
100
AcDbGroup
300

 70
     1
 71
     1
340
1B421
340
1B422
340
1B423
  0
GROUP
  5
18EC8
102
{ACAD_REACTORS
330
D
102
}
330
D
100
AcDbGroup
300

 70
     1
 71
     1
  0
GROUP
  5
1AE59
102
{ACAD_REACTORS
330
D
102
}
330
D
100
AcDbGroup
300

 70
     1
 71
     1
340
1AE51
340
1AE52
340
1AE53
340
1AE54
340
1AE55
340
1AE56
340
1AE57
340
1AE58
  0
GROUP
  5
1B428
102
{ACAD_REACTORS
330
D
102
}
330
D
100
AcDbGroup
300

 70
     1
 71
     1
340
1B425
340
1B426
340
1B427
  0
GROUP
  5
ACAB
102
{ACAD_REACTORS
330
D
102
}
330
D
100
AcDbGroup
300

 70
     1
 71
     1
  0
GROUP
  5
1AE6B
102
{ACAD_REACTORS
330
D
102
}
330
D
100
AcDbGroup
300

 70
     1
 71
     1
340
1AE63
340
1AE64
340
1AE65
340
1AE66
340
1AE67
340
1AE68
340
1AE69
340
1AE6A
  0
GROUP
  5
1B42C
102
{ACAD_REACTORS
330
D
102
}
330
D
100
AcDbGroup
300

 70
     1
 71
     1
340
1B429
340
1B42A
340
1B42B
  0
GROUP
  5
1621E
102
{ACAD_REACTORS
330
D
102
}
330
D
100
AcDbGroup
300

 70
     1
 71
     1
  0
GROUP
  5
1B430
102
{ACAD_REACTORS
330
D
102
}
330
D
100
AcDbGroup
300

 70
     1
 71
     1
340
1B42D
340
1B42E
340
1B42F
  0
GROUP
  5
1A0F8
102
{ACAD_REACTORS
330
D
102
}
330
D
100
AcDbGroup
300

 70
     1
 71
     1
  0
GROUP
  5
1B434
102
{ACAD_REACTORS
330
D
102
}
330
D
100
AcDbGroup
300

 70
     1
 71
     1
340
1B431
340
1B432
340
1B433
  0
GROUP
  5
1A295
102
{ACAD_REACTORS
330
D
102
}
330
D
100
AcDbGroup
300

 70
     1
 71
     1
340
1A23C
340
1A256
340
1A23B
340
1A1DF
340
1A1DE
340
1A238
340
1A1DD
340
1A242
340
1A1DC
340
1A21D
340
1A220
340
1A21F
340
1A1DB
340
1A21E
340
1A241
340
1A240
340
1A23F
340
1A23E
340
1A23D
340
1A255
340
1A254
340
1A253
340
1A237
340
1A25C
340
1A25B
340
1A25A
340
1A259
340
1A258
340
1A257
340
1A23A
  0
GROUP
  5
1B438
102
{ACAD_REACTORS
330
D
102
}
330
D
100
AcDbGroup
300

 70
     1
 71
     1
340
1B435
340
1B436
340
1B437
  0
GROUP
  5
16058
102
{ACAD_REACTORS
330
D
102
}
330
D
100
AcDbGroup
300

 70
     1
 71
     1
  0
GROUP
  5
18125
102
{ACAD_REACTORS
330
D
102
}
330
D
100
AcDbGroup
300

 70
     1
 71
     1
  0
GROUP
  5
18CB7
102
{ACAD_REACTORS
330
D
102
}
330
D
100
AcDbGroup
300

 70
     1
 71
     1
  0
GROUP
  5
1A0F7
102
{ACAD_REACTORS
330
D
102
}
330
D
100
AcDbGroup
300

 70
     1
 71
     1
  0
GROUP
  5
1A294
102
{ACAD_REACTORS
330
D
102
}
330
D
100
AcDbGroup
300

 70
     1
 71
     1
340
1A109
340
1A108
340
1A167
340
1A170
340
1A166
340
1A146
340
1A168
340
1A172
340
1A16E
340
1A143
340
1A16B
340
1A107
340
1A106
340
1A105
340
1A144
340
1A145
340
1A169
340
1A16A
340
1A16D
340
1A16C
340
1A16F
340
1A171
340
1A18A
340
1A185
340
1A184
340
1A186
340
1A187
340
1A189
340
1A165
340
1A188
  0
GROUP
  5
1A2D2
102
{ACAD_REACTORS
330
D
102
}
330
D
100
AcDbGroup
300

 70
     1
 71
     1
  0
GROUP
  5
1AE50
102
{ACAD_REACTORS
330
D
102
}
330
D
100
AcDbGroup
300

 70
     1
 71
     1
340
1AE48
340
1AE49
340
1AE4A
340
1AE4B
340
1AE4C
340
1AE4D
340
1AE4E
340
1AE4F
  0
GROUP
  5
1AE62
102
{ACAD_REACTORS
330
D
102
}
330
D
100
AcDbGroup
300

 70
     1
 71
     1
340
1AE5A
340
1AE5B
340
1AE5C
340
1AE5D
340
1AE5E
340
1AE5F
340
1AE60
340
1AE61
  0
GROUP
  5
1AE6C
102
{ACAD_REACTORS
330
D
102
}
330
D
100
AcDbGroup
300

 70
     1
 71
     1
  0
GROUP
  5
1AE6D
102
{ACAD_REACTORS
330
D
102
}
330
D
100
AcDbGroup
300

 70
     1
 71
     1
  0
GROUP
  5
1AE6E
102
{ACAD_REACTORS
330
D
102
}
330
D
100
AcDbGroup
300

 70
     1
 71
     1
  0
GROUP
  5
1AE6F
102
{ACAD_REACTORS
330
D
102
}
330
D
100
AcDbGroup
300

 70
     1
 71
     1
  0
GROUP
  5
1943F
102
{ACAD_REACTORS
330
D
102
}
330
D
100
AcDbGroup
300

 70
     1
 71
     1
  0
GROUP
  5
ACA2
102
{ACAD_REACTORS
330
D
102
}
330
D
100
AcDbGroup
300

 70
     1
 71
     1
  0
GROUP
  5
1B43C
102
{ACAD_REACTORS
330
D
102
}
330
D
100
AcDbGroup
300

 70
     1
 71
     1
340
1B439
340
1B43A
340
1B43B
  0
GROUP
  5
1B440
102
{ACAD_REACTORS
330
D
102
}
330
D
100
AcDbGroup
300

 70
     1
 71
     1
340
1B43D
340
1B43E
340
1B43F
  0
GROUP
  5
1B444
102
{ACAD_REACTORS
330
D
102
}
330
D
100
AcDbGroup
300

 70
     1
 71
     1
340
1B441
340
1B442
340
1B443
  0
GROUP
  5
1B448
102
{ACAD_REACTORS
330
D
102
}
330
D
100
AcDbGroup
300

 70
     1
 71
     1
340
1B445
340
1B446
340
1B447
  0
MLINESTYLE
  5
1C
102
{ACAD_REACTORS
330
1B
102
}
330
1B
100
AcDbMlineStyle
  2
STANDARD
 70
     0
  3

 62
   256
 51
90.0
 52
90.0
 71
     2
 49
0.5
 62
   256
  6
BYLAYER
 49
-0.5
 62
   256
  6
BYLAYER
  0
ACDBPLACEHOLDER
  5
FB5C
102
{ACAD_REACTORS
330
FB5B
102
}
330
FB5B
100
AcDbPlaceHolder
280
     0
  0
XRECORD
  5
1B531
102
{ACAD_REACTORS
330
1B527
102
}
330
1B527
100
AcDbXrecord
 90
        0
  0
XRECORD
  5
1B535
102
{ACAD_REACTORS
330
1B527
102
}
330
1B527
100
AcDbXrecord
1000
DSTYLE
1002
{
1070
    79
 70
     2
1070
   179
 70
     2
1070
   279
 70
     2
1070
   341
340
1215D
1070
   342
340
1215D
1002
}
  0
XRECORD
  5
1B532
102
{ACAD_REACTORS
330
1B527
102
}
330
1B527
100
AcDbXrecord
  1
{D14EE3FF-941A-415A-9907-344E0A80D794}
  0
XRECORD
  5
1B52A
102
{ACAD_REACTORS
330
1B527
102
}
330
1B527
100
AcDbXrecord
  1

  0
XRECORD
  5
1B530
102
{ACAD_REACTORS
330
1B527
102
}
330
1B527
100
AcDbXrecord
 90
        0
  0
XRECORD
  5
1B52C
102
{ACAD_REACTORS
330
1B527
102
}
330
1B527
100
AcDbXrecord
340
DB2
  0
XRECORD
  5
1B52F
102
{ACAD_REACTORS
330
1B527
102
}
330
1B527
100
AcDbXrecord
 90
    10781
  0
XRECORD
  5
1B52D
102
{ACAD_REACTORS
330
1B527
102
}
330
1B527
100
AcDbXrecord
340
DB3
  0
XRECORD
  5
1B52E
102
{ACAD_REACTORS
330
1B527
102
}
330
1B527
100
AcDbXrecord
340
FB5B
  0
XRECORD
  5
1B534
102
{ACAD_REACTORS
330
1B527
102
}
330
1B527
100
AcDbXrecord
 40
0.0
  0
XRECORD
  5
1B538
102
{ACAD_REACTORS
330
1B527
102
}
330
1B527
100
AcDbXrecord
340
0
  0
XRECORD
  5
1B53E
102
{ACAD_REACTORS
330
1B527
102
}
330
1B527
100
AcDbXrecord
 10
0.0
 20
0.0
 30
0.0
  0
XRECORD
  5
1B53A
102
{ACAD_REACTORS
330
1B527
102
}
330
1B527
100
AcDbXrecord
 10
0.0
 20
0.0
 30
0.0
  0
XRECORD
  5
1B53D
102
{ACAD_REACTORS
330
1B527
102
}
330
1B527
100
AcDbXrecord
 10
0.0
 20
0.0
 30
0.0
  0
XRECORD
  5
1B53B
102
{ACAD_REACTORS
330
1B527
102
}
330
1B527
100
AcDbXrecord
 10
0.0
 20
0.0
 30
0.0
  0
XRECORD
  5
1B53C
102
{ACAD_REACTORS
330
1B527
102
}
330
1B527
100
AcDbXrecord
 10
0.0
 20
0.0
 30
0.0
  0
XRECORD
  5
1B539
102
{ACAD_REACTORS
330
1B527
102
}
330
1B527
100
AcDbXrecord
 10
0.0
 20
0.0
 30
0.0
  0
XRECORD
  5
1B536
102
{ACAD_REACTORS
330
1B527
102
}
330
1B527
100
AcDbXrecord
340
0
  0
XRECORD
  5
1B537
102
{ACAD_REACTORS
330
1B527
102
}
330
1B527
100
AcDbXrecord
 70
     0
  0
XRECORD
  5
1B52B
102
{ACAD_REACTORS
330
1B527
102
}
330
1B527
100
AcDbXrecord
  1

  0
XRECORD
  5
1B528
102
{ACAD_REACTORS
330
1B527
102
}
330
1B527
100
AcDbXrecord
 90
        1
  0
XRECORD
  5
1B529
102
{ACAD_REACTORS
330
1B527
102
}
330
1B527
100
AcDbXrecord
 90
       70
  0
XRECORD
  5
1B541
102
{ACAD_REACTORS
330
1B527
102
}
330
1B527
100
AcDbXrecord
340
0
  0
XRECORD
  5
1B547
102
{ACAD_REACTORS
330
1B527
102
}
330
1B527
100
AcDbXrecord
 10
0.0
 20
0.0
 30
0.0
  0
XRECORD
  5
1B543
102
{ACAD_REACTORS
330
1B527
102
}
330
1B527
100
AcDbXrecord
 10
0.0
 20
0.0
 30
0.0
  0
XRECORD
  5
1B546
102
{ACAD_REACTORS
330
1B527
102
}
330
1B527
100
AcDbXrecord
 10
0.0
 20
0.0
 30
0.0
  0
XRECORD
  5
1B544
102
{ACAD_REACTORS
330
1B527
102
}
330
1B527
100
AcDbXrecord
 10
0.0
 20
0.0
 30
0.0
  0
XRECORD
  5
1B545
102
{ACAD_REACTORS
330
1B527
102
}
330
1B527
100
AcDbXrecord
 10
0.0
 20
0.0
 30
0.0
  0
XRECORD
  5
1B542
102
{ACAD_REACTORS
330
1B527
102
}
330
1B527
100
AcDbXrecord
 10
0.0
 20
0.0
 30
0.0
  0
XRECORD
  5
1B53F
102
{ACAD_REACTORS
330
1B527
102
}
330
1B527
100
AcDbXrecord
340
0
  0
XRECORD
  5
1B540
102
{ACAD_REACTORS
330
1B527
102
}
330
1B527
100
AcDbXrecord
 70
     0
  0
XRECORD
  5
1B533
102
{ACAD_REACTORS
330
1B527
102
}
330
1B527
100
AcDbXrecord
  1
{C1B6BF2A-D3FA-4362-BA44-015621F182A0}
  0
DICTIONARYVAR
  5
106A7
102
{ACAD_REACTORS
330
106A6
102
}
330
106A6
100
DictionaryVariables
280
     0
  1
96
  0
XRECORD
  5
1B2B0
102
{ACAD_REACTORS
330
1B2AF
102
}
330
1B2AF
100
AcDbXrecord
  1
0
  1
*0
  1
*
  1
*
 70
     0
  1
*
  1
*
  0
XRECORD
  5
1B2B1
102
{ACAD_REACTORS
330
1B2AF
102
}
330
1B2AF
100
AcDbXrecord
  1
11
  1
*11
  1
*
  1
*
 70
     0
  1
*
  1
*
  0
XRECORD
  5
1B2B2
102
{ACAD_REACTORS
330
1B2AF
102
}
330
1B2AF
100
AcDbXrecord
  1
150_
  1
150_*
  1
*
  1
*
 70
     0
  1
*
  1
*
  0
XRECORD
  5
1B2B3
102
{ACAD_REACTORS
330
1B2AF
102
}
330
1B2AF
100
AcDbXrecord
  1
160_
  1
160_*
  1
*
  1
*
 70
     0
  1
*
  1
*
  0
XRECORD
  5
1B2B4
102
{ACAD_REACTORS
330
1B2AF
102
}
330
1B2AF
100
AcDbXrecord
  1
170_
  1
170_*
  1
*
  1
*
 70
     0
  1
*
  1
*
  0
XRECORD
  5
1B2B5
102
{ACAD_REACTORS
330
1B2AF
102
}
330
1B2AF
100
AcDbXrecord
  1
171_
  1
171_*
  1
*
  1
*
 70
     0
  1
*
  1
*
  0
XRECORD
  5
1B2B6
102
{ACAD_REACTORS
330
1B2AF
102
}
330
1B2AF
100
AcDbXrecord
  1
350_
  1
350_*
  1
*
  1
*
 70
     0
  1
*
  1
*
  0
XRECORD
  5
1B2B7
102
{ACAD_REACTORS
330
1B2AF
102
}
330
1B2AF
100
AcDbXrecord
  1
4
  1
*4
  1
*
  1
*
 70
     0
  1
*
  1
*
  0
XRECORD
  5
1B2B8
102
{ACAD_REACTORS
330
1B2AF
102
}
330
1B2AF
100
AcDbXrecord
  1
5
  1
*5
  1
*
  1
*
 70
     0
  1
*
  1
*
  0
XRECORD
  5
1B2B9
102
{ACAD_REACTORS
330
1B2AF
102
}
330
1B2AF
100
AcDbXrecord
  1
7
  1
*7
  1
*
  1
*
 70
     0
  1
*
  1
*
  0
XRECORD
  5
1B2BA
102
{ACAD_REACTORS
330
1B2AF
102
}
330
1B2AF
100
AcDbXrecord
  1
kiseki
  1
kiseki*
  1
*
  1
*
 70
     0
  1
*
  1
*
  0
ENDSEC
  0
EOF
