  0
SECTION
  2
HEADER
  9
$ACADVER
  1
AC1014
  9
$ACADMAINTVER
 70
     9
  9
$DWGCODEPAGE
  3
ANSI_932
  9
$INSBASE
 10
0.0
 20
0.0
 30
0.0
  9
$EXTMIN
 10
109.0022935841943
 20
11.08433050106727
 30
0.0
  9
$EXTMAX
 10
778.1519182653095
 20
354.8078024356528
 30
0.0
  9
$LIMMIN
 10
0.0
 20
0.0
  9
$LIMMAX
 10
420.0
 20
297.0
  9
$ORTHOMODE
 70
     1
  9
$REGENMODE
 70
     1
  9
$FILLMODE
 70
     1
  9
$QTEXTMODE
 70
     0
  9
$MIRRTEXT
 70
     0
  9
$DRAGMODE
 70
     2
  9
$LTSCALE
 40
20.0
  9
$OSMODE
 70
    37
  9
$ATTMODE
 70
     1
  9
$TEXTSIZE
 40
5.0
  9
$TRACEWID
 40
1.0
  9
$TEXTSTYLE
  7
ROMAN
  9
$CLAYER
  8
DIMENSION
  9
$CELTYPE
  6
BYLAYER
  9
$CECOLOR
 62
   256
  9
$CELTSCALE
 40
1.0
  9
$DELOBJ
 70
     1
  9
$DISPSILH
 70
     0
  9
$DIMSCALE
 40
2.0
  9
$DIMASZ
 40
2.0
  9
$DIMEXO
 40
0.0
  9
$DIMDLI
 40
5.0
  9
$DIMRND
 40
0.0005
  9
$DIMDLE
 40
0.0
  9
$DIMEXE
 40
1.0
  9
$DIMTP
 40
0.0
  9
$DIMTM
 40
0.000000001
  9
$DIMTXT
 40
3.2
  9
$DIMCEN
 40
0.0
  9
$DIMTSZ
 40
0.0
  9
$DIMTOL
 70
     0
  9
$DIMLIM
 70
     0
  9
$DIMTIH
 70
     0
  9
$DIMTOH
 70
     0
  9
$DIMSE1
 70
     0
  9
$DIMSE2
 70
     0
  9
$DIMTAD
 70
     1
  9
$DIMZIN
 70
     9
  9
$DIMBLK
  1
OPEN30
  9
$DIMASO
 70
     1
  9
$DIMSHO
 70
     1
  9
$DIMPOST
  1

  9
$DIMAPOST
  1

  9
$DIMALT
 70
     0
  9
$DIMALTD
 70
     4
  9
$DIMALTF
 40
0.0394
  9
$DIMLFAC
 40
1.0
  9
$DIMTOFL
 70
     1
  9
$DIMTVP
 40
0.0
  9
$DIMTIX
 70
     0
  9
$DIMSOXD
 70
     0
  9
$DIMSAH
 70
     0
  9
$DIMBLK1
  1

  9
$DIMBLK2
  1

  9
$DIMSTYLE
  2
STANDARD
  9
$DIMCLRD
 70
     4
  9
$DIMCLRE
 70
     4
  9
$DIMCLRT
 70
     2
  9
$DIMTFAC
 40
1.0
  9
$DIMGAP
 40
0.75
  9
$DIMJUST
 70
     0
  9
$DIMSD1
 70
     0
  9
$DIMSD2
 70
     0
  9
$DIMTOLJ
 70
     1
  9
$DIMTZIN
 70
     9
  9
$DIMALTZ
 70
     0
  9
$DIMALTTZ
 70
     0
  9
$DIMFIT
 70
     5
  9
$DIMUPT
 70
     0
  9
$DIMUNIT
 70
     2
  9
$DIMDEC
 70
     2
  9
$DIMTDEC
 70
     2
  9
$DIMALTU
 70
     8
  9
$DIMALTTD
 70
     4
  9
$DIMTXSTY
  7
STANDARD
  9
$DIMAUNIT
 70
     0
  9
$LUNITS
 70
     2
  9
$LUPREC
 70
     4
  9
$SKETCHINC
 40
1.0
  9
$FILLETRAD
 40
20.0
  9
$AUNITS
 70
     0
  9
$AUPREC
 70
     0
  9
$MENU
  1
.
  9
$ELEVATION
 40
0.0
  9
$PELEVATION
 40
0.0
  9
$THICKNESS
 40
0.0
  9
$LIMCHECK
 70
     0
  9
$BLIPMODE
 70
     0
  9
$CHAMFERA
 40
0.5
  9
$CHAMFERB
 40
0.5
  9
$CHAMFERC
 40
20.0
  9
$CHAMFERD
 40
0.0
  9
$SKPOLY
 70
     0
  9
$TDCREATE
 40
2451224.660162384
  9
$TDUPDATE
 40
2455573.780469282
  9
$TDINDWG
 40
15.4376385532
  9
$TDUSRTIMER
 40
15.4376376389
  9
$USRTIMER
 70
     1
  9
$ANGBASE
 50
0.0
  9
$ANGDIR
 70
     0
  9
$PDMODE
 70
     0
  9
$PDSIZE
 40
0.0
  9
$PLINEWID
 40
0.0
  9
$COORDS
 70
     0
  9
$SPLFRAME
 70
     0
  9
$SPLINETYPE
 70
     6
  9
$SPLINESEGS
 70
     8
  9
$ATTDIA
 70
     0
  9
$ATTREQ
 70
     1
  9
$HANDLING
 70
-16383
  9
$HANDSEED
  5
1928A
  9
$SURFTAB1
 70
     6
  9
$SURFTAB2
 70
     6
  9
$SURFTYPE
 70
     6
  9
$SURFU
 70
     6
  9
$SURFV
 70
     6
  9
$UCSNAME
  2

  9
$UCSORG
 10
0.0
 20
0.0
 30
0.0
  9
$UCSXDIR
 10
1.0
 20
0.0
 30
0.0
  9
$UCSYDIR
 10
0.0
 20
1.0
 30
0.0
  9
$PUCSNAME
  2

  9
$PUCSORG
 10
0.0
 20
0.0
 30
0.0
  9
$PUCSXDIR
 10
1.0
 20
0.0
 30
0.0
  9
$PUCSYDIR
 10
0.0
 20
1.0
 30
0.0
  9
$USERI1
 70
     0
  9
$USERI2
 70
     0
  9
$USERI3
 70
     0
  9
$USERI4
 70
     0
  9
$USERI5
 70
     0
  9
$USERR1
 40
0.0
  9
$USERR2
 40
0.0
  9
$USERR3
 40
0.0
  9
$USERR4
 40
0.0
  9
$USERR5
 40
0.0
  9
$WORLDVIEW
 70
     1
  9
$SHADEDGE
 70
     3
  9
$SHADEDIF
 70
    70
  9
$TILEMODE
 70
     0
  9
$MAXACTVP
 70
    48
  9
$PINSBASE
 10
0.0
 20
0.0
 30
0.0
  9
$PLIMCHECK
 70
     0
  9
$PEXTMIN
 10
0.0
 20
0.0
 30
0.0
  9
$PEXTMAX
 10
400.0
 20
288.0
 30
0.0
  9
$PLIMMIN
 10
-7.925684231485393
 20
-4.34281050667244
  9
$PLIMMAX
 10
418.1572208285403
 20
296.921859409484
  9
$UNITMODE
 70
     0
  9
$VISRETAIN
 70
     1
  9
$PLINEGEN
 70
     0
  9
$PSLTSCALE
 70
     0
  9
$TREEDEPTH
 70
  3020
  9
$PICKSTYLE
 70
     0
  9
$CMLSTYLE
  2
STANDARD
  9
$CMLJUST
 70
     0
  9
$CMLSCALE
 40
20.0
  9
$PROXYGRAPHICS
 70
     1
  9
$MEASUREMENT
 70
     0
  0
ENDSEC
  0
SECTION
  2
CLASSES
  0
CLASS
  1
HATCH
  2
AcDbHatch
  3
AutoCAD 2000
 90
        0
280
     0
281
     1
  0
CLASS
  1
LWPOLYLINE
  2
AcDbPolyline
  3
AutoCAD 2000
 90
        0
280
     0
281
     1
  0
CLASS
  1
ACDBDICTIONARYWDFLT
  2
AcDbDictionaryWithDefault
  3
AutoCAD 2000
 90
        0
280
     0
281
     0
  0
CLASS
  1
ACDBPLACEHOLDER
  2
AcDbPlaceHolder
  3
AutoCAD 2000
 90
        0
280
     0
281
     0
  0
CLASS
  1
LAYOUT
  2
AcDbLayout
  3
AutoCAD 2000
 90
        0
280
     0
281
     0
  0
CLASS
  1
LONG_TRANSACTION
  2
AcDbLongTransaction
  3
AutoCAD 2000
 90
        0
280
     0
281
     0
  0
CLASS
  1
LWPOLYLINE
  2
AcDbPolyline
  3
AutoCAD 2000
 90
        0
280
     0
281
     1
  0
CLASS
  1
HATCH
  2
AcDbHatch
  3
AutoCAD 2000
 90
        0
280
     0
281
     1
  0
CLASS
  1
XRECORD
  2
AcDbXrecord
  3
AutoCAD 2000
 90
        0
280
     0
281
     0
  0
CLASS
  1
DICTIONARYVAR
  2
AcDbDictionaryVar
  3
AutoCAD 2000
 90
        0
280
     0
281
     0
  0
CLASS
  1
LONG_TRANSACTION
  2
AcDbLongTransaction
  3
AutoCAD 2000
 90
        0
280
     0
281
     0
  0
CLASS
  1
LWPOLYLINE
  2
AcDbPolyline
  3
AutoCAD 2000
 90
        0
280
     0
281
     1
  0
CLASS
  1
HATCH
  2
AcDbHatch
  3
AutoCAD 2000
 90
        0
280
     0
281
     1
  0
CLASS
  1
XRECORD
  2
AcDbXrecord
  3
AutoCAD 2000
 90
        0
280
     0
281
     0
  0
ENDSEC
  0
SECTION
  2
TABLES
  0
TABLE
  2
VPORT
  5
8
330
0
100
AcDbSymbolTable
 70
     3
  0
VPORT
  5
19266
330
8
100
AcDbSymbolTableRecord
100
AcDbViewportTableRecord
  2
*ACTIVE
 70
     0
 10
0.0
 20
0.0
 11
1.0
 21
1.0
 12
443.5544225037631
 22
182.9396530573064
 13
0.0
 23
0.0
 14
10.0
 24
10.0
 15
10.0
 25
10.0
 16
0.0
 26
0.0
 36
1.0
 17
0.0
 27
0.0
 37
0.0
 40
440.1735038723035
 41
1.527918781725888
 42
50.0
 43
0.0
 44
0.0
 50
0.0
 51
0.0
 71
     0
 72
   100
 73
     1
 74
     0
 75
     0
 76
     0
 77
     0
 78
     0
  0
ENDTAB
  0
TABLE
  2
LTYPE
  5
5
330
0
100
AcDbSymbolTable
 70
     7
  0
LTYPE
  5
12
330
5
100
AcDbSymbolTableRecord
100
AcDbLinetypeTableRecord
  2
BYBLOCK
 70
     0
  3

 72
    65
 73
     0
 40
0.0
  0
LTYPE
  5
13
330
5
100
AcDbSymbolTableRecord
100
AcDbLinetypeTableRecord
  2
BYLAYER
 70
     0
  3

 72
    65
 73
     0
 40
0.0
  0
LTYPE
  5
14
330
5
100
AcDbSymbolTableRecord
100
AcDbLinetypeTableRecord
  2
CONTINUOUS
 70
     0
  3
Solid line
 72
    65
 73
     0
 40
0.0
  0
LTYPE
  5
126C
330
5
100
AcDbSymbolTableRecord
100
AcDbLinetypeTableRecord
  2
CENTER
 70
     0
  3
____ _ ____ _ ____ _ ____ _ ____ _ ____ _ ____
 72
    65
 73
     4
 40
2.0
 49
1.25
 74
     0
 49
-0.25
 74
     0
 49
0.25
 74
     0
 49
-0.25
 74
     0
  0
LTYPE
  5
126E
330
5
100
AcDbSymbolTableRecord
100
AcDbLinetypeTableRecord
  2
DASHDOT
 70
     0
  3
__ . __ . __ . __ . __ . __ . __ . __ . __ . __
 72
    65
 73
     4
 40
1.0
 49
0.5
 74
     0
 49
-0.25
 74
     0
 49
0.0
 74
     0
 49
-0.25
 74
     0
  0
LTYPE
  5
122DB
330
5
100
AcDbSymbolTableRecord
100
AcDbLinetypeTableRecord
  2
CENTER2
 70
     0
  3
Center (.5x) ___ _ ___ _ ___ _ ___ _ ___ _ ___
 72
    65
 73
     4
 40
1.125
 49
0.75
 74
     0
 49
-0.125
 74
     0
 49
0.125
 74
     0
 49
-0.125
 74
     0
  0
LTYPE
  5
122DC
330
5
100
AcDbSymbolTableRecord
100
AcDbLinetypeTableRecord
  2
PHANTOM2
 70
     0
  3
Phantom (.5x) ___ _ _ ___ _ _ ___ _ _ ___ _ _
 72
    65
 73
     6
 40
1.25
 49
0.625
 74
     0
 49
-0.125
 74
     0
 49
0.125
 74
     0
 49
-0.125
 74
     0
 49
0.125
 74
     0
 49
-0.125
 74
     0
  0
LTYPE
  5
152E7
330
5
100
AcDbSymbolTableRecord
100
AcDbLinetypeTableRecord
  2
HIDDEN2
 70
     0
  3
Hidden (.5x) _ _ _ _ _ _ _ _ _ _ _ _ _ _ _ _ _
 72
    65
 73
     2
 40
0.1875
 49
0.125
 74
     0
 49
-0.0625
 74
     0
  0
LTYPE
  5
182B6
330
5
100
AcDbSymbolTableRecord
100
AcDbLinetypeTableRecord
  2
PHANTOM
 70
     0
  3
Phantom ______  __  __  ______  __  __  ______
 72
    65
 73
     6
 40
2.5
 49
1.25
 74
     0
 49
-0.25
 74
     0
 49
0.25
 74
     0
 49
-0.25
 74
     0
 49
0.25
 74
     0
 49
-0.25
 74
     0
  0
ENDTAB
  0
TABLE
  2
LAYER
  5
2
102
{ACAD_XDICTIONARY
360
18F79
102
}
330
0
100
AcDbSymbolTable
 70
    17
  0
LAYER
  5
E
330
2
100
AcDbSymbolTableRecord
100
AcDbLayerTableRecord
  2
0
 70
     2
 62
     7
  6
CONTINUOUS
  0
LAYER
  5
2C
330
2
100
AcDbSymbolTableRecord
100
AcDbLayerTableRecord
  2
M_VIEW
 70
     4
 62
    -1
  6
CONTINUOUS
  0
LAYER
  5
30
330
2
100
AcDbSymbolTableRecord
100
AcDbLayerTableRecord
  2
FRAME025
 70
     0
 62
     7
  6
CONTINUOUS
  0
LAYER
  5
12B
330
2
100
AcDbSymbolTableRecord
100
AcDbLayerTableRecord
  2
DEFPOINTS
 70
     4
 62
    -7
  6
CONTINUOUS
  0
LAYER
  5
651
330
2
100
AcDbSymbolTableRecord
100
AcDbLayerTableRecord
  2
FRAME020
 70
     0
 62
     7
  6
CONTINUOUS
  0
LAYER
  5
1271
330
2
100
AcDbSymbolTableRecord
100
AcDbLayerTableRecord
  2
A
 70
     0
 62
     7
  6
CONTINUOUS
  0
LAYER
  5
A9BB
330
2
100
AcDbSymbolTableRecord
100
AcDbLayerTableRecord
  2
文字
 70
     0
 62
     7
  6
CONTINUOUS
  0
LAYER
  5
122DD
330
2
100
AcDbSymbolTableRecord
100
AcDbLayerTableRecord
  2
細線
 70
     0
 62
     7
  6
CONTINUOUS
  0
LAYER
  5
122DE
330
2
100
AcDbSymbolTableRecord
100
AcDbLayerTableRecord
  2
DIMENSION
 70
     0
 62
     7
  6
CONTINUOUS
  0
LAYER
  5
122DF
330
2
100
AcDbSymbolTableRecord
100
AcDbLayerTableRecord
  2
CENTER
 70
     0
 62
     7
  6
CENTER
  0
LAYER
  5
122E1
330
2
100
AcDbSymbolTableRecord
100
AcDbLayerTableRecord
  2
中心線
 70
     0
 62
     7
  6
CENTER2
  0
LAYER
  5
152E8
330
2
100
AcDbSymbolTableRecord
100
AcDbLayerTableRecord
  2
破線
 70
     0
 62
     7
  6
HIDDEN2
  0
LAYER
  5
16E40
330
2
100
AcDbSymbolTableRecord
100
AcDbLayerTableRecord
  2
仮想線
 70
     0
 62
     7
  6
PHANTOM2
  0
LAYER
  5
17A24
330
2
100
AcDbSymbolTableRecord
100
AcDbLayerTableRecord
  2
ｷｬｯﾌ_ﾎ_ﾙﾄ
 70
     0
 62
     7
  6
CONTINUOUS
  0
LAYER
  5
182B7
330
2
100
AcDbSymbolTableRecord
100
AcDbLayerTableRecord
  2
２点鎖線
 70
     0
 62
     7
  6
PHANTOM
  0
ENDTAB
  0
TABLE
  2
STYLE
  5
3
330
0
100
AcDbSymbolTable
 70
     6
  0
STYLE
  5
F
330
3
100
AcDbSymbolTableRecord
100
AcDbTextStyleTableRecord
  2
STANDARD
 70
     0
 40
0.0
 41
1.0
 50
0.0
 71
     0
 42
2.5
  3
isocp.shx
  4
bigfont.shx
  0
STYLE
  5
35
330
3
100
AcDbSymbolTableRecord
100
AcDbTextStyleTableRecord
  2
MSｺ_ｼｯｸ
 70
     0
 40
0.0
 41
1.0
 50
0.0
 71
     0
 42
5.0
  3
MS Gothic.ttf
  4

1001
ACAD
1000
MS Gothic
1071
    32817
  0
STYLE
  5
1275
330
3
100
AcDbSymbolTableRecord
100
AcDbTextStyleTableRecord
  2
BIGFONT
 70
     0
 40
2.0
 41
1.0
 50
0.0
 71
     0
 42
2.0
  3
txt.shx
  4
bigfont.shx
  0
STYLE
  5
1277
330
3
100
AcDbSymbolTableRecord
100
AcDbTextStyleTableRecord
  2
ROMAN
 70
     0
 40
0.0
 41
1.0
 50
0.0
 71
     0
 42
5.0
  3
romans
  4
bigfont
  0
ENDTAB
  0
TABLE
  2
VIEW
  5
6
330
0
100
AcDbSymbolTable
 70
     0
  0
ENDTAB
  0
TABLE
  2
UCS
  5
7
330
0
100
AcDbSymbolTable
 70
     0
  0
ENDTAB
  0
TABLE
  2
APPID
  5
9
330
0
100
AcDbSymbolTable
 70
     3
  0
APPID
  5
10
330
9
100
AcDbSymbolTableRecord
100
AcDbRegAppTableRecord
  2
ACAD
 70
     0
  0
APPID
  5
F013
330
9
100
AcDbSymbolTableRecord
100
AcDbRegAppTableRecord
  2
CONTENTBLOCKDESCRIPTION
 70
     0
  0
APPID
  5
F014
330
9
100
AcDbSymbolTableRecord
100
AcDbRegAppTableRecord
  2
CONTENTBLOCKICON
 70
     0
  0
ENDTAB
  0
TABLE
  2
DIMSTYLE
  5
A
330
0
100
AcDbSymbolTable
 70
     3
  0
DIMSTYLE
105
1D
330
A
100
AcDbSymbolTableRecord
100
AcDbDimStyleTableRecord
  2
STANDARD
 70
     0
  3

  4

  5

  6

  7

 40
1.0
 41
0.18
 42
0.0625
 43
0.38
 44
0.18
 45
0.0
 46
0.0
 47
0.0
 48
0.0
140
0.18
141
0.09
142
0.0
143
25.4
144
1.0
145
0.0
146
1.0
147
0.09
 71
     0
 72
     0
 73
     1
 74
     1
 75
     0
 76
     0
 77
     0
 78
     0
170
     0
171
     2
172
     0
173
     0
174
     0
175
     0
176
     0
177
     0
178
     0
270
     2
271
     4
272
     4
273
     2
274
     2
340
F
275
     0
280
     0
281
     0
282
     0
283
     1
284
     0
285
     0
286
     0
287
     3
288
     0
  0
ENDTAB
  0
TABLE
  2
BLOCK_RECORD
  5
1
330
0
100
AcDbSymbolTable
 70
    34
  0
BLOCK_RECORD
  5
18
102
{ACAD_XDICTIONARY
360
EFC6
102
}
330
1
100
AcDbSymbolTableRecord
100
AcDbBlockTableRecord
  2
*MODEL_SPACE
  0
BLOCK_RECORD
  5
15
102
{ACAD_XDICTIONARY
360
EFC4
102
}
330
1
100
AcDbSymbolTableRecord
100
AcDbBlockTableRecord
  2
*PAPER_SPACE
  0
BLOCK_RECORD
  5
115C
330
1
100
AcDbSymbolTableRecord
100
AcDbBlockTableRecord
  2
機械A4横_LBP
  0
BLOCK_RECORD
  5
1215D
330
1
100
AcDbSymbolTableRecord
100
AcDbBlockTableRecord
  2
_OPEN30
  0
ENDTAB
  0
ENDSEC
  0
SECTION
  2
BLOCKS
  0
BLOCK
  5
19
330
18
100
AcDbEntity
  8
0
100
AcDbBlockBegin
  2
*MODEL_SPACE
 70
     0
 10
0.0
 20
0.0
 30
0.0
  3
*MODEL_SPACE
  1

  0
ENDBLK
  5
1A
330
18
100
AcDbEntity
  8
0
100
AcDbBlockEnd
  0
BLOCK
  5
16
330
15
100
AcDbEntity
 67
     1
  8
0
100
AcDbBlockBegin
  2
*PAPER_SPACE
 70
     0
 10
0.0
 20
0.0
 30
0.0
  3
*PAPER_SPACE
  1

  0
ENDBLK
  5
17
330
15
100
AcDbEntity
 67
     1
  8
0
100
AcDbBlockEnd
  0
BLOCK
  5
115D
330
115C
100
AcDbEntity
  8
0
100
AcDbBlockBegin
  2
機械A4横_LBP
 70
     0
 10
0.0
 20
0.0
 30
0.0
  3
機械A4横_LBP
  1

  0
ENDBLK
  5
115E
330
115C
100
AcDbEntity
  8
0
100
AcDbBlockEnd
  0
BLOCK
  5
12161
330
1215D
100
AcDbEntity
  8
0
100
AcDbBlockBegin
  2
_OPEN30
 70
     0
 10
0.0
 20
0.0
 30
0.0
  3
_OPEN30
  1

  0
LINE
  5
1215E
330
1215D
100
AcDbEntity
  8
0
  6
BYBLOCK
 62
     0
100
AcDbLine
 10
-1.0
 20
0.26794919
 30
0.0
 11
0.0
 21
0.0
 31
0.0
  0
LINE
  5
1215F
330
1215D
100
AcDbEntity
  8
0
  6
BYBLOCK
 62
     0
100
AcDbLine
 10
0.0
 20
0.0
 30
0.0
 11
-1.0
 21
-0.26794919
 31
0.0
  0
LINE
  5
12160
330
1215D
100
AcDbEntity
  8
0
  6
BYBLOCK
 62
     0
100
AcDbLine
 10
0.0
 20
0.0
 30
0.0
 11
-1.0
 21
0.0
 31
0.0
  0
ENDBLK
  5
12162
330
1215D
100
AcDbEntity
  8
0
100
AcDbBlockEnd
  0
ENDSEC
  0
SECTION
  2
ENTITIES
  0
INSERT
  5
1160
330
18
100
AcDbEntity
  8
FRAME025
100
AcDbBlockReference
  2
機械A4横_LBP
 10
108.0005962917454
 20
104.43790435724
 30
0.0
  0
MTEXT
  5
1405
330
18
100
AcDbEntity
  8
0
  6
DASHDOT
100
AcDbMText
 10
205.682726410024
 20
420.5785054452221
 30
0.0
 40
1.0
 41
2.0
 71
     1
 72
     5
  1

  7
BIGFONT
1001
ACAD
1000
MTEXTBEGIN
1070
    73
1070
     1
1070
    44
1040
1.0
1070
    74
1070
     0
1000
MTEXTEND
1000
MTEXTBEGIN
1070
    73
1070
     1
1070
    44
1040
1.0
1070
    74
1070
     0
1000
MTEXTEND
  0
MTEXT
  5
1406
330
18
100
AcDbEntity
  8
0
  6
CENTER
100
AcDbMText
 10
443.3606673541956
 20
313.7890106174461
 30
0.0
 40
2.0
 41
15.6417
 71
     1
 72
     5
  1

  7
BIGFONT
1001
ACAD
1000
MTEXTBEGIN
1070
    73
1070
     1
1070
    44
1040
1.0
1070
    74
1070
     0
1000
MTEXTEND
1000
MTEXTBEGIN
1070
    73
1070
     1
1070
    44
1040
1.0
1070
    74
1070
     0
1000
MTEXTEND
  0
MTEXT
  5
1407
330
18
100
AcDbEntity
  8
0
100
AcDbMText
 10
117.7723901704327
 20
212.8564838730205
 30
0.0
 40
2.0
 41
0.0
 71
     1
 72
     5
  1

1001
ACAD
1000
MTEXTBEGIN
1070
    73
1070
     1
1070
    44
1040
1.0
1070
    74
1070
     0
1000
MTEXTEND
1000
MTEXTBEGIN
1070
    73
1070
     1
1070
    44
1040
1.0
1070
    74
1070
     0
1000
MTEXTEND
  0
MTEXT
  5
1408
330
18
100
AcDbEntity
  8
0
100
AcDbMText
 10
162.1718819235825
 20
244.48796746601
 30
0.0
 40
2.0
 41
10.1453
 71
     1
 72
     5
  1

 11
-0.0000000000000002
 21
-1.0
 31
0.0
1001
ACAD
1000
MTEXTBEGIN
1070
    73
1070
     1
1070
    44
1040
1.0
1070
    74
1070
     0
1000
MTEXTEND
1000
MTEXTBEGIN
1070
    73
1070
     1
1070
    44
1040
1.0
1070
    74
1070
     0
1000
MTEXTEND
  0
MTEXT
  5
142F
330
18
100
AcDbEntity
  8
0
  6
BYBLOCK
100
AcDbMText
 10
197.9513799082503
 20
319.2674780082993
 30
0.0
 40
2.0
 41
0.0
 71
     7
 72
     5
  1

 11
0.0000000000000001
 21
1.0
 31
0.0
1001
ACAD
1000
MTEXTBEGIN
1070
    73
1070
     1
1070
    44
1040
1.0
1070
    74
1070
     0
1000
MTEXTEND
1000
MTEXTBEGIN
1070
    73
1070
     1
1070
    44
1040
1.0
1070
    74
1070
     0
1000
MTEXTEND
  0
MTEXT
  5
1430
330
18
100
AcDbEntity
  8
0
  6
BYBLOCK
100
AcDbMText
 10
162.4859915450975
 20
330.0607863667166
 30
0.0
 40
2.0
 41
0.0
 71
     4
 72
     5
  1

 11
-0.0000000000000002
 21
-1.0
 31
0.0
1001
ACAD
1000
MTEXTBEGIN
1070
    73
1070
     1
1070
    44
1040
1.0
1070
    74
1070
     0
1000
MTEXTEND
1000
MTEXTBEGIN
1070
    73
1070
     1
1070
    44
1040
1.0
1070
    74
1070
     0
1000
MTEXTEND
  0
MTEXT
  5
1532
330
18
100
AcDbEntity
  8
0
  6
DASHDOT
100
AcDbMText
 10
205.682813414974
 20
420.5785054452221
 30
0.0
 40
1.0
 41
2.0
 71
     1
 72
     5
  1

  7
BIGFONT
1001
ACAD
1000
MTEXTBEGIN
1070
    73
1070
     1
1070
    44
1040
1.0
1070
    74
1070
     0
1000
MTEXTEND
1000
MTEXTBEGIN
1070
    73
1070
     1
1070
    44
1040
1.0
1070
    74
1070
     0
1000
MTEXTEND
  0
MTEXT
  5
1533
330
18
100
AcDbEntity
  8
0
  6
CENTER
100
AcDbMText
 10
443.360754359146
 20
313.7890106174461
 30
0.0
 40
2.0
 41
15.6417
 71
     1
 72
     5
  1

  7
BIGFONT
1001
ACAD
1000
MTEXTBEGIN
1070
    73
1070
     1
1070
    44
1040
1.0
1070
    74
1070
     0
1000
MTEXTEND
1000
MTEXTBEGIN
1070
    73
1070
     1
1070
    44
1040
1.0
1070
    74
1070
     0
1000
MTEXTEND
  0
MTEXT
  5
1534
330
18
100
AcDbEntity
  8
0
100
AcDbMText
 10
117.7724771753829
 20
212.8564838730205
 30
0.0
 40
2.0
 41
0.0
 71
     1
 72
     5
  1

1001
ACAD
1000
MTEXTBEGIN
1070
    73
1070
     1
1070
    44
1040
1.0
1070
    74
1070
     0
1000
MTEXTEND
1000
MTEXTBEGIN
1070
    73
1070
     1
1070
    44
1040
1.0
1070
    74
1070
     0
1000
MTEXTEND
  0
MTEXT
  5
1535
330
18
100
AcDbEntity
  8
0
100
AcDbMText
 10
162.1719689285329
 20
244.48796746601
 30
0.0
 40
2.0
 41
10.1453
 71
     1
 72
     5
  1

 11
-0.0000000000000002
 21
-1.0
 31
0.0
1001
ACAD
1000
MTEXTBEGIN
1070
    73
1070
     1
1070
    44
1040
1.0
1070
    74
1070
     0
1000
MTEXTEND
1000
MTEXTBEGIN
1070
    73
1070
     1
1070
    44
1040
1.0
1070
    74
1070
     0
1000
MTEXTEND
  0
MTEXT
  5
155C
330
18
100
AcDbEntity
  8
0
  6
BYBLOCK
100
AcDbMText
 10
197.9514669132005
 20
319.2674780082993
 30
0.0
 40
2.0
 41
0.0
 71
     7
 72
     5
  1

 11
0.0000000000000001
 21
1.0
 31
0.0
1001
ACAD
1000
MTEXTBEGIN
1070
    73
1070
     1
1070
    44
1040
1.0
1070
    74
1070
     0
1000
MTEXTEND
1000
MTEXTBEGIN
1070
    73
1070
     1
1070
    44
1040
1.0
1070
    74
1070
     0
1000
MTEXTEND
  0
MTEXT
  5
155D
330
18
100
AcDbEntity
  8
0
  6
BYBLOCK
100
AcDbMText
 10
162.4860785500478
 20
330.0607863667166
 30
0.0
 40
2.0
 41
0.0
 71
     4
 72
     5
  1

 11
-0.0000000000000002
 21
-1.0
 31
0.0
1001
ACAD
1000
MTEXTBEGIN
1070
    73
1070
     1
1070
    44
1040
1.0
1070
    74
1070
     0
1000
MTEXTEND
1000
MTEXTBEGIN
1070
    73
1070
     1
1070
    44
1040
1.0
1070
    74
1070
     0
1000
MTEXTEND
  0
TEXT
  5
2279
330
18
100
AcDbEntity
  8
A
100
AcDbText
 10
4.181189626796196
 20
312.0637567728283
 30
0.0
 40
3.524999999999999
  1
�    
100
AcDbText
  0
TEXT
  5
2283
330
18
100
AcDbEntity
  8
A
100
AcDbText
 10
-143.7439103235753
 20
-117.903263345534
 30
0.0
 40
2.5
  1

 41
0.5
  7
MSｺ_ｼｯｸ
100
AcDbText
  0
TEXT
  5
2293
330
18
100
AcDbEntity
  8
A
100
AcDbText
 10
-135.9189103235753
 20
-117.903263345534
 30
0.0
 40
2.5
  1

  7
MSｺ_ｼｯｸ
100
AcDbText
  0
LINE
  5
13B02
330
18
100
AcDbEntity
  8
破線
100
AcDbLine
 10
360.8032641809368
 20
165.4460664683583
 30
0.0
 11
476.303264180937
 21
165.4460664683583
 31
0.0
  0
LINE
  5
13B03
330
18
100
AcDbEntity
  8
破線
100
AcDbLine
 10
360.8032641809368
 20
200.4460664683583
 30
0.0
 11
476.303264180937
 21
200.4460664683586
 31
0.0
  0
LINE
  5
13B07
330
18
100
AcDbEntity
  8
0
100
AcDbLine
 10
366.5032641809373
 20
271.8460664683576
 30
0.0
 11
444.0032641809371
 21
271.8460664683579
 31
0.0
  0
LINE
  5
13B09
330
18
100
AcDbEntity
  8
0
100
AcDbLine
 10
366.5032641809363
 20
94.04606646835722
 30
0.0
 11
444.0032641809366
 21
94.04606646835793
 31
0.0
  0
LINE
  5
13BAD
330
18
100
AcDbEntity
  8
0
100
AcDbLine
 10
363.8032641809362
 20
128.9460664683582
 30
0.0
 11
363.8032641809403
 21
182.9460664683578
 31
0.0
  0
LINE
  5
13BAF
330
18
100
AcDbEntity
  8
0
100
AcDbLine
 10
365.6032641809366
 20
94.04606646835743
 30
0.0
 11
365.6032641809368
 21
182.9460664683578
 31
0.0
  0
LINE
  5
13BB5
330
18
100
AcDbEntity
  8
0
100
AcDbLine
 10
365.1032641809369
 20
94.04606646835722
 30
0.0
 11
365.6032641809366
 21
94.04606646835722
 31
0.0
  0
LINE
  5
13BB6
330
18
100
AcDbEntity
  8
0
100
AcDbLine
 10
363.8032641809368
 20
128.9460664683582
 30
0.0
 11
365.1032641809369
 21
128.9460664683585
 31
0.0
  0
LINE
  5
13BC2
330
18
100
AcDbEntity
  8
0
100
AcDbLine
 10
361.3032641809368
 20
134.9503159005416
 30
0.0
 11
363.8032641809368
 21
134.9503159005416
 31
0.0
  0
LINE
  5
13BCC
330
18
100
AcDbEntity
  8
0
100
AcDbLine
 10
365.6032641809368
 20
182.9460664683578
 30
0.0
 11
365.6032641809368
 21
271.8460664683579
 31
0.0
  0
LINE
  5
13BCD
330
18
100
AcDbEntity
  8
0
100
AcDbLine
 10
365.1032641809369
 20
182.9460664683575
 30
0.0
 11
365.1032641809369
 21
271.8460664683577
 31
0.0
  0
LINE
  5
13BCF
330
18
100
AcDbEntity
  8
0
100
AcDbLine
 10
363.8032641809368
 20
236.9460664683582
 30
0.0
 11
363.8032641809368
 21
182.9460664683578
 31
0.0
  0
LINE
  5
13BDA
330
18
100
AcDbEntity
  8
0
100
AcDbLine
 10
363.8032641809368
 20
236.9460664683582
 30
0.0
 11
365.1032641809369
 21
236.9460664683582
 31
0.0
  0
LINE
  5
13BDD
330
18
100
AcDbEntity
  8
0
100
AcDbLine
 10
361.3032641809368
 20
230.9518264491305
 30
0.0
 11
363.8032641809368
 21
230.9518264491305
 31
0.0
  0
LINE
  5
13BE1
330
18
100
AcDbEntity
  8
0
100
AcDbLine
 10
365.1032641809369
 20
271.8460664683577
 30
0.0
 11
365.6032641809368
 21
271.8460664683578
 31
0.0
  0
LWPOLYLINE
  5
13BE7
330
18
100
AcDbEntity
  8
0
100
AcDbPolyline
 90
       12
 70
   129
 43
0.0
 10
673.6519182653095
 20
145.973930513356
 42
0.0418357922730061
 10
674.5289349191017
 20
144.4548931099042
 10
682.2749016115174
 20
139.9827571549042
 42
0.041835792273005
 10
684.0289349191021
 20
139.9827571549041
 10
691.7749016115169
 20
144.4548931099036
 42
0.0418357922730106
 10
692.6519182653091
 20
145.973930513356
 10
692.6519182653096
 20
154.9182024233554
 42
0.0418357922730243
 10
691.7749016115169
 20
156.4372398268084
 10
684.0289349191021
 20
160.9093757818079
 42
0.041835792273011
 10
682.2749016115172
 20
160.9093757818079
 10
674.528934919102
 20
156.4372398268084
 42
0.0418357922730047
 10
673.6519182653098
 20
154.918202423356
  0
CIRCLE
  5
13BE8
330
18
100
AcDbEntity
  8
0
100
AcDbCircle
 10
683.1519182653095
 20
150.446066468356
 30
0.0
 40
9.5
  0
CIRCLE
  5
13BEA
330
18
100
AcDbEntity
  8
中心線
100
AcDbCircle
 10
683.1519182653095
 20
182.9460664683583
 30
0.0
 40
78.00000000000046
  0
LINE
  5
13BEB
330
18
100
AcDbEntity
  8
中心線
100
AcDbLine
 10
683.1519182653095
 20
87.94606646835836
 30
0.0
 11
683.1519182653095
 21
182.9460664683587
 31
0.0
  0
LINE
  5
13C1B
330
18
100
AcDbEntity
  8
0
100
AcDbLine
 10
476.303264180937
 20
271.3460666111113
 30
0.0
 11
476.303264180937
 21
94.54606632560514
 31
0.0
  0
LINE
  5
13C1F
330
18
100
AcDbEntity
  8
0
100
AcDbLine
 10
488.303264180937
 20
154.918202423358
 30
0.0
 11
494.3032641809366
 21
154.918202423358
 31
0.0
  0
LINE
  5
13C20
330
18
100
AcDbEntity
  8
0
100
AcDbLine
 10
488.303264180937
 20
156.4372398268105
 30
0.0
 11
494.3032641809366
 21
156.4372398268105
 31
0.0
  0
LINE
  5
13C21
330
18
100
AcDbEntity
  8
0
100
AcDbLine
 10
488.303264180937
 20
160.9460664683583
 30
0.0
 11
494.3032641809366
 21
160.9460664683583
 31
0.0
  0
LINE
  5
13C22
330
18
100
AcDbEntity
  8
0
100
AcDbLine
 10
488.303264180937
 20
139.9460664683582
 30
0.0
 11
494.3032641809366
 21
139.9460664683582
 31
0.0
  0
LINE
  5
13C23
330
18
100
AcDbEntity
  8
0
100
AcDbLine
 10
494.3032641809366
 20
144.4548931099063
 30
0.0
 11
488.303264180937
 21
144.4548931099063
 31
0.0
  0
LINE
  5
13C24
330
18
100
AcDbEntity
  8
0
100
AcDbLine
 10
494.3032641809366
 20
145.9739305133586
 30
0.0
 11
488.303264180937
 21
145.9739305133586
 31
0.0
  0
LINE
  5
13C26
330
18
100
AcDbEntity
  8
0
100
AcDbLine
 10
485.3032641809368
 20
159.9460664683583
 30
0.0
 11
488.303264180937
 21
159.9460664683583
 31
0.0
  0
LINE
  5
13C27
330
18
100
AcDbEntity
  8
0
100
AcDbLine
 10
485.3032641809368
 20
140.9460664683583
 30
0.0
 11
488.303264180937
 21
140.9460664683583
 31
0.0
  0
LINE
  5
13C28
330
18
100
AcDbEntity
  8
0
100
AcDbLine
 10
483.303264180937
 20
157.8460664683588
 30
0.0
 11
485.3032641809368
 21
157.8460664683588
 31
0.0
  0
LINE
  5
13C29
330
18
100
AcDbEntity
  8
0
100
AcDbLine
 10
480.3032641809373
 20
160.9460664683583
 30
0.0
 11
483.303264180937
 21
160.9460664683583
 31
0.0
  0
LINE
  5
13C2A
330
18
100
AcDbEntity
  8
0
100
AcDbLine
 10
479.303264180937
 20
159.4460664683583
 30
0.0
 11
480.3032641809373
 21
159.4460664683583
 31
0.0
  0
LINE
  5
13C2B
330
18
100
AcDbEntity
  8
0
100
AcDbLine
 10
480.3032641809373
 20
154.918202423358
 30
0.0
 11
483.303264180937
 21
154.918202423358
 31
0.0
  0
LINE
  5
13C2C
330
18
100
AcDbEntity
  8
0
100
AcDbLine
 10
480.3032641809373
 20
156.4372398268105
 30
0.0
 11
483.303264180937
 21
156.4372398268105
 31
0.0
  0
LINE
  5
13C2D
330
18
100
AcDbEntity
  8
0
100
AcDbLine
 10
480.3032641809373
 20
139.9460664683582
 30
0.0
 11
483.303264180937
 21
139.9460664683582
 31
0.0
  0
LINE
  5
13C2E
330
18
100
AcDbEntity
  8
0
100
AcDbLine
 10
483.303264180937
 20
144.4548931099063
 30
0.0
 11
480.3032641809373
 21
144.4548931099063
 31
0.0
  0
LINE
  5
13C2F
330
18
100
AcDbEntity
  8
0
100
AcDbLine
 10
483.303264180937
 20
143.0460664683586
 30
0.0
 11
485.3032641809368
 21
143.0460664683586
 31
0.0
  0
LINE
  5
13C30
330
18
100
AcDbEntity
  8
0
100
AcDbLine
 10
479.303264180937
 20
141.4460664683583
 30
0.0
 11
480.3032641809377
 21
141.4460664683583
 31
0.0
  0
LINE
  5
13C31
330
18
100
AcDbEntity
  8
0
100
AcDbLine
 10
483.303264180937
 20
145.9739305133586
 30
0.0
 11
480.3032641809373
 21
145.9739305133586
 31
0.0
  0
LINE
  5
13C32
330
18
100
AcDbEntity
  8
0
100
AcDbLine
 10
483.303264180937
 20
160.9460664683583
 30
0.0
 11
483.303264180937
 21
139.9460664683582
 31
0.0
  0
LINE
  5
13C33
330
18
100
AcDbEntity
  8
0
100
AcDbLine
 10
485.3032641809368
 20
140.9460664683583
 30
0.0
 11
485.3032641809368
 21
159.9460664683583
 31
0.0
  0
LINE
  5
13C34
330
18
100
AcDbEntity
  8
0
100
AcDbLine
 10
480.3032641809373
 20
139.9460664683582
 30
0.0
 11
480.3032641809373
 21
160.9460664683583
 31
0.0
  0
LINE
  5
13C35
330
18
100
AcDbEntity
  8
0
100
AcDbLine
 10
488.303264180937
 20
160.9460664683583
 30
0.0
 11
488.303264180937
 21
139.9460664683582
 31
0.0
  0
LINE
  5
13C38
330
18
100
AcDbEntity
  8
0
100
AcDbLine
 10
494.3032641809366
 20
156.4372398268105
 30
0.0
 11
494.3032641809366
 21
154.918202423358
 31
0.0
  0
LINE
  5
13C39
330
18
100
AcDbEntity
  8
0
100
AcDbLine
 10
494.3032641809366
 20
160.9460664683583
 30
0.0
 11
498.8032641809367
 21
155.6746378969305
 31
0.0
  0
ARC
  5
13C3A
330
18
100
AcDbEntity
  8
0
100
AcDbCircle
 10
486.3294676633671
 20
160.6449816549482
 30
0.0
 40
9.015903847971632
100
AcDbArc
 50
332.1795611441608
 51
354.4603666814936
  0
LINE
  5
13C3B
330
18
100
AcDbEntity
  8
0
100
AcDbLine
 10
494.3032641809366
 20
145.9739305133586
 30
0.0
 11
494.3032641809366
 21
144.4548931099063
 31
0.0
  0
LINE
  5
13C3C
330
18
100
AcDbEntity
  8
0
100
AcDbLine
 10
494.3032641809366
 20
139.9460664683582
 30
0.0
 11
498.8032641809367
 21
145.217495039786
 31
0.0
  0
ARC
  5
13C3D
330
18
100
AcDbEntity
  8
0
100
AcDbCircle
 10
486.3294676633671
 20
140.2471512817683
 30
0.0
 40
9.015903847971632
100
AcDbArc
 50
5.539633318506221
 51
27.82043885583909
  0
LINE
  5
13C3E
330
18
100
AcDbEntity
  8
0
100
AcDbLine
 10
495.3032641809368
 20
159.7746378969295
 30
0.0
 11
495.303264180937
 21
141.1174950397869
 31
0.0
  0
LINE
  5
13C3F
330
18
100
AcDbEntity
  8
0
100
AcDbLine
 10
498.8032641809367
 20
155.6746378969305
 30
0.0
 11
498.8032641809367
 21
145.217495039786
 31
0.0
  0
ARC
  5
13C40
330
18
100
AcDbEntity
  8
0
100
AcDbCircle
 10
484.8032641809361
 20
150.446066468358
 30
0.0
 40
10.50000000000042
100
AcDbArc
 50
334.7912347032378
 51
25.20876529676207
  0
LINE
  5
13C62
330
18
100
AcDbEntity
  8
0
100
AcDbLine
 10
488.303264180937
 20
219.918202423358
 30
0.0
 11
494.3032641809366
 21
219.918202423358
 31
0.0
  0
LINE
  5
13C63
330
18
100
AcDbEntity
  8
0
100
AcDbLine
 10
488.303264180937
 20
221.4372398268106
 30
0.0
 11
494.3032641809366
 21
221.4372398268106
 31
0.0
  0
LINE
  5
13C64
330
18
100
AcDbEntity
  8
0
100
AcDbLine
 10
488.303264180937
 20
225.9460664683583
 30
0.0
 11
494.3032641809366
 21
225.9460664683583
 31
0.0
  0
LINE
  5
13C65
330
18
100
AcDbEntity
  8
0
100
AcDbLine
 10
488.303264180937
 20
204.9460664683583
 30
0.0
 11
494.3032641809366
 21
204.9460664683583
 31
0.0
  0
LINE
  5
13C66
330
18
100
AcDbEntity
  8
0
100
AcDbLine
 10
494.3032641809366
 20
210.9739305133586
 30
0.0
 11
488.303264180937
 21
210.9739305133586
 31
0.0
  0
LINE
  5
13C67
330
18
100
AcDbEntity
  8
0
100
AcDbLine
 10
494.3032641809366
 20
209.4548931099063
 30
0.0
 11
488.303264180937
 21
209.4548931099063
 31
0.0
  0
LINE
  5
13C69
330
18
100
AcDbEntity
  8
0
100
AcDbLine
 10
485.3032641809368
 20
224.9460664683583
 30
0.0
 11
488.303264180937
 21
224.9460664683583
 31
0.0
  0
LINE
  5
13C6A
330
18
100
AcDbEntity
  8
0
100
AcDbLine
 10
485.3032641809368
 20
205.9460664683583
 30
0.0
 11
488.303264180937
 21
205.9460664683583
 31
0.0
  0
LINE
  5
13C6B
330
18
100
AcDbEntity
  8
0
100
AcDbLine
 10
480.3032641809373
 20
219.918202423358
 30
0.0
 11
483.303264180937
 21
219.918202423358
 31
0.0
  0
LINE
  5
13C6C
330
18
100
AcDbEntity
  8
0
100
AcDbLine
 10
480.3032641809373
 20
221.4372398268106
 30
0.0
 11
483.303264180937
 21
221.4372398268106
 31
0.0
  0
LINE
  5
13C6D
330
18
100
AcDbEntity
  8
0
100
AcDbLine
 10
483.303264180937
 20
222.846066468358
 30
0.0
 11
485.3032641809368
 21
222.846066468358
 31
0.0
  0
LINE
  5
13C6E
330
18
100
AcDbEntity
  8
0
100
AcDbLine
 10
480.3032641809373
 20
225.9460664683583
 30
0.0
 11
483.303264180937
 21
225.9460664683583
 31
0.0
  0
LINE
  5
13C6F
330
18
100
AcDbEntity
  8
0
100
AcDbLine
 10
479.303264180937
 20
224.4460664683582
 30
0.0
 11
480.3032641809373
 21
224.4460664683582
 31
0.0
  0
LINE
  5
13C70
330
18
100
AcDbEntity
  8
0
100
AcDbLine
 10
483.303264180937
 20
209.4548931099063
 30
0.0
 11
480.3032641809373
 21
209.4548931099063
 31
0.0
  0
LINE
  5
13C71
330
18
100
AcDbEntity
  8
0
100
AcDbLine
 10
483.303264180937
 20
208.0460664683578
 30
0.0
 11
485.3032641809368
 21
208.0460664683578
 31
0.0
  0
LINE
  5
13C72
330
18
100
AcDbEntity
  8
0
100
AcDbLine
 10
483.303264180937
 20
210.9739305133586
 30
0.0
 11
480.3032641809373
 21
210.9739305133586
 31
0.0
  0
LINE
  5
13C73
330
18
100
AcDbEntity
  8
0
100
AcDbLine
 10
480.3032641809373
 20
204.9460664683583
 30
0.0
 11
483.303264180937
 21
204.9460664683583
 31
0.0
  0
LINE
  5
13C74
330
18
100
AcDbEntity
  8
0
100
AcDbLine
 10
479.303264180937
 20
206.4460664683583
 30
0.0
 11
480.3032641809377
 21
206.4460664683583
 31
0.0
  0
LINE
  5
13C75
330
18
100
AcDbEntity
  8
0
100
AcDbLine
 10
483.303264180937
 20
225.9460664683583
 30
0.0
 11
483.303264180937
 21
204.9460664683583
 31
0.0
  0
LINE
  5
13C76
330
18
100
AcDbEntity
  8
0
100
AcDbLine
 10
485.3032641809368
 20
224.9460664683583
 30
0.0
 11
485.3032641809368
 21
205.9460664683583
 31
0.0
  0
LINE
  5
13C77
330
18
100
AcDbEntity
  8
0
100
AcDbLine
 10
480.3032641809373
 20
204.9460664683583
 30
0.0
 11
480.3032641809373
 21
225.9460664683583
 31
0.0
  0
LINE
  5
13C78
330
18
100
AcDbEntity
  8
0
100
AcDbLine
 10
488.303264180937
 20
225.9460664683583
 30
0.0
 11
488.303264180937
 21
204.9460664683583
 31
0.0
  0
LINE
  5
13C7B
330
18
100
AcDbEntity
  8
0
100
AcDbLine
 10
494.3032641809366
 20
225.9460664683583
 30
0.0
 11
498.8032641809367
 21
220.6746378969305
 31
0.0
  0
LINE
  5
13C7C
330
18
100
AcDbEntity
  8
0
100
AcDbLine
 10
494.3032641809366
 20
221.4372398268106
 30
0.0
 11
494.3032641809366
 21
219.918202423358
 31
0.0
  0
ARC
  5
13C7D
330
18
100
AcDbEntity
  8
0
100
AcDbCircle
 10
486.3294676633671
 20
225.6449816549482
 30
0.0
 40
9.015903847971632
100
AcDbArc
 50
332.1795611441608
 51
354.4603666814936
  0
LINE
  5
13C7E
330
18
100
AcDbEntity
  8
0
100
AcDbLine
 10
494.3032641809366
 20
210.9739305133586
 30
0.0
 11
494.3032641809366
 21
209.4548931099063
 31
0.0
  0
LINE
  5
13C7F
330
18
100
AcDbEntity
  8
0
100
AcDbLine
 10
494.3032641809366
 20
204.9460664683583
 30
0.0
 11
498.8032641809367
 21
210.2174950397861
 31
0.0
  0
ARC
  5
13C80
330
18
100
AcDbEntity
  8
0
100
AcDbCircle
 10
486.3294676633671
 20
205.2471512817684
 30
0.0
 40
9.015903847971632
100
AcDbArc
 50
5.539633318506221
 51
27.82043885583909
  0
LINE
  5
13C81
330
18
100
AcDbEntity
  8
0
100
AcDbLine
 10
495.3032641809368
 20
224.7746378969295
 30
0.0
 11
495.303264180937
 21
206.1174950397869
 31
0.0
  0
LINE
  5
13C82
330
18
100
AcDbEntity
  8
0
100
AcDbLine
 10
498.8032641809367
 20
220.6746378969305
 30
0.0
 11
498.8032641809367
 21
210.2174950397861
 31
0.0
  0
ARC
  5
13C83
330
18
100
AcDbEntity
  8
0
100
AcDbCircle
 10
484.8032641809361
 20
215.4460664683579
 30
0.0
 40
10.50000000000042
100
AcDbArc
 50
334.7912347032378
 51
25.20876529676207
  0
CIRCLE
  5
13CE8
330
18
100
AcDbEntity
  8
細線
100
AcDbCircle
 10
722.1519182653096
 20
115.3960849731717
 30
0.0
 40
3.0
  0
LINE
  5
13CE9
330
18
100
AcDbEntity
  8
CENTER
100
AcDbLine
 10
719.6340847783265
 20
119.7571004976248
 30
0.0
 11
724.6789749452086
 21
111.0190944099804
 31
0.0
  0
CIRCLE
  5
13CEA
330
18
100
AcDbEntity
  8
0
100
AcDbCircle
 10
722.1519182653096
 20
115.3960849731717
 30
0.0
 40
2.399999999999999
  0
CIRCLE
  5
13CED
330
18
100
AcDbEntity
  8
細線
100
AcDbCircle
 10
715.6800100163422
 20
104.4163062048991
 30
0.0
 40
3.5
  0
LWPOLYLINE
  5
13CEE
330
18
100
AcDbEntity
  8
細線
100
AcDbPolyline
 90
        6
 70
     1
 43
0.0
 10
717.3972428875467
 20
104.1902282084647
 10
716.3428371637961
 20
102.8160999160053
 10
714.6256042925922
 20
103.0421779124385
 10
713.9627771451375
 20
104.6423842013323
 10
715.0171828688876
 20
106.016512493792
 10
716.7344157400923
 20
105.790434497359
  0
LINE
  5
13D13
330
18
100
AcDbEntity
  8
CENTER
100
AcDbLine
 10
646.6697517522925
 20
119.7571004976248
 30
0.0
 11
641.6248615854102
 21
111.0190944099804
 31
0.0
  0
CIRCLE
  5
13D14
330
18
100
AcDbEntity
  8
0
100
AcDbCircle
 10
644.1519182653093
 20
115.3960849731717
 30
0.0
 40
2.399999999999999
  0
CIRCLE
  5
13D15
330
18
100
AcDbEntity
  8
細線
100
AcDbCircle
 10
644.1519182653093
 20
115.3960849731717
 30
0.0
 40
3.0
  0
CIRCLE
  5
13D18
330
18
100
AcDbEntity
  8
細線
100
AcDbCircle
 10
650.6238265142767
 20
104.4163062048999
 30
0.0
 40
3.5
  0
LWPOLYLINE
  5
13D19
330
18
100
AcDbEntity
  8
細線
100
AcDbPolyline
 90
        6
 70
     1
 43
0.0
 10
651.6782322380263
 20
103.0421779124385
 10
649.9609993668221
 20
102.8160999160057
 10
648.9065936430719
 20
104.1902282084655
 10
649.5694207905266
 20
105.7904344973599
 10
651.2866536617307
 20
106.0165124937924
 10
652.3410593854811
 20
104.6423842013323
  0
LINE
  5
13D1E
330
18
100
AcDbEntity
  8
中心線
100
AcDbLine
 10
588.1519182653097
 20
182.9460664683583
 30
0.0
 11
778.1519182653095
 21
182.9460664683583
 31
0.0
  0
CIRCLE
  5
13D1F
330
18
100
AcDbEntity
  8
細線
100
AcDbCircle
 10
761.6816785287677
 20
150.4179747173258
 30
0.0
 40
3.5
  0
LWPOLYLINE
  5
13D20
330
18
100
AcDbEntity
  8
細線
100
AcDbPolyline
 90
        6
 70
     1
 43
0.0
 10
763.0558068212289
 20
151.4723804410749
 10
763.2818848176616
 20
149.7551475698708
 10
761.9077565252016
 20
148.7007418461204
 10
760.3075502363077
 20
149.3635689935753
 10
760.081472239875
 20
151.0808018647793
 10
761.4556005323345
 20
152.1352075885296
  0
CIRCLE
  5
13D26
330
18
100
AcDbEntity
  8
0
100
AcDbCircle
 10
761.1519182653101
 20
182.9460664683583
 30
0.0
 40
2.399999999999999
  0
CIRCLE
  5
13D27
330
18
100
AcDbEntity
  8
細線
100
AcDbCircle
 10
761.1519182653101
 20
182.9460664683583
 30
0.0
 40
3.0
  0
CIRCLE
  5
13D28
330
18
100
AcDbEntity
  8
細線
100
AcDbCircle
 10
761.6816785287685
 20
215.4741582193905
 30
0.0
 40
3.5
  0
LWPOLYLINE
  5
13D2A
330
18
100
AcDbEntity
  8
細線
100
AcDbPolyline
 90
        6
 70
     1
 43
0.0
 10
761.9077565252031
 20
217.1913910905948
 10
763.2818848176626
 20
216.1369853668444
 10
763.0558068212295
 20
214.4197524956406
 10
761.4556005323357
 20
213.7569253481859
 10
760.0814722398759
 20
214.8113310719362
 10
760.307550236309
 20
216.5285639431401
  0
LINE
  5
13D2F
330
18
100
AcDbEntity
  8
CENTER
100
AcDbLine
 10
719.6340847783265
 20
246.1350324390916
 30
0.0
 11
724.6789749452086
 21
254.8730385267363
 31
0.0
  0
CIRCLE
  5
13D30
330
18
100
AcDbEntity
  8
細線
100
AcDbCircle
 10
722.1519182653096
 20
250.4960479635449
 30
0.0
 40
3.0
  0
CIRCLE
  5
13D31
330
18
100
AcDbEntity
  8
0
100
AcDbCircle
 10
722.1519182653096
 20
250.4960479635449
 30
0.0
 40
2.399999999999999
  0
CIRCLE
  5
13D33
330
18
100
AcDbEntity
  8
0
100
AcDbCircle
 10
683.1519182653095
 20
150.446066468356
 30
0.0
 40
4.5
  0
CIRCLE
  5
13D34
330
18
100
AcDbEntity
  8
0
100
AcDbCircle
 10
683.1519182653095
 20
150.446066468356
 30
0.0
 40
5.2
  0
CIRCLE
  5
13D35
330
18
100
AcDbEntity
  8
0
100
AcDbCircle
 10
683.1519182653095
 20
150.446066468356
 30
0.0
 40
2.5
  0
HATCH
  5
13D36
330
18
100
AcDbEntity
  8
0
100
AcDbHatch
 10
0.0
 20
0.0
 30
0.0
210
0.0
220
0.0
230
1.0
  2
SOLID
 70
     1
 71
     0
 91
        2
 92
        7
 72
     1
 73
     1
 93
        3
 10
685.6519182653094
 20
150.446066468356
 42
0.0
 10
683.1519182653095
 20
150.446066468356
 42
0.0
 10
683.1519182653095
 20
147.946066468356
 42
0.4142135623730919
 97
        0
 92
        7
 72
     1
 73
     1
 93
        3
 10
683.1519182653095
 20
150.4460664683558
 42
0.0
 10
683.1519182653095
 20
152.946066468356
 42
0.4142135623730951
 10
680.6519182653096
 20
150.446066468356
 42
0.0
 97
        0
 75
     0
 76
     1
 47
0.0576142688807724
 98
        2
 10
683.9813867859456
 20
149.0641004074445
 10
682.3105728462054
 20
150.7932591169979
  0
CIRCLE
  5
13D38
330
18
100
AcDbEntity
  8
細線
100
AcDbCircle
 10
604.6221580018503
 20
150.4179747173251
 30
0.0
 40
3.5
  0
LWPOLYLINE
  5
13D39
330
18
100
AcDbEntity
  8
細線
100
AcDbPolyline
 90
        6
 70
     1
 43
0.0
 10
604.3960800054161
 20
148.7007418461204
 10
603.0219517129567
 20
149.755147569871
 10
603.2480297093897
 20
151.4723804410753
 10
604.8482359982836
 20
152.1352075885301
 10
606.222364290743
 20
151.0808018647799
 10
605.9962862943101
 20
149.3635689935754
  0
CIRCLE
  5
13D3D
330
18
100
AcDbEntity
  8
0
100
AcDbCircle
 10
605.1519182653091
 20
182.9460664683583
 30
0.0
 40
2.399999999999999
  0
CIRCLE
  5
13D3E
330
18
100
AcDbEntity
  8
細線
100
AcDbCircle
 10
605.1519182653091
 20
182.9460664683583
 30
0.0
 40
3.0
  0
LWPOLYLINE
  5
13D3F
330
18
100
AcDbEntity
  8
0
100
AcDbPolyline
 90
       12
 70
   129
 43
0.0
 10
673.6519182653095
 20
219.9182024233563
 42
-0.0418357922730061
 10
674.5289349191017
 20
221.4372398268082
 10
682.2749016115174
 20
225.9093757818082
 42
-0.041835792273005
 10
684.0289349191021
 20
225.9093757818082
 10
691.7749016115169
 20
221.4372398268086
 42
-0.0418357922730106
 10
692.6519182653091
 20
219.918202423356
 10
692.6519182653096
 20
210.973930513357
 42
-0.0418357922730243
 10
691.7749016115169
 20
209.454893109904
 10
684.0289349191021
 20
204.9827571549043
 42
-0.041835792273011
 10
682.2749016115172
 20
204.9827571549043
 10
674.528934919102
 20
209.454893109904
 42
-0.0418357922730047
 10
673.6519182653098
 20
210.9739305133563
  0
CIRCLE
  5
13D41
330
18
100
AcDbEntity
  8
0
100
AcDbCircle
 10
683.1519182653095
 20
215.446066468356
 30
0.0
 40
9.5
  0
CIRCLE
  5
13D42
330
18
100
AcDbEntity
  8
0
100
AcDbCircle
 10
683.1519182653095
 20
215.446066468356
 30
0.0
 40
4.5
  0
CIRCLE
  5
13D43
330
18
100
AcDbEntity
  8
0
100
AcDbCircle
 10
683.1519182653095
 20
215.446066468356
 30
0.0
 40
5.2
  0
HATCH
  5
13D45
330
18
100
AcDbEntity
  8
0
100
AcDbHatch
 10
0.0
 20
0.0
 30
0.0
210
0.0
220
0.0
230
1.0
  2
SOLID
 70
     1
 71
     0
 91
        2
 92
        7
 72
     1
 73
     1
 93
        3
 10
685.6519182653094
 20
215.446066468356
 42
0.0
 10
683.1519182653095
 20
215.446066468356
 42
0.0
 10
683.1519182653095
 20
217.9460664683559
 42
-0.4142135623730919
 97
        0
 92
        7
 72
     1
 73
     1
 93
        3
 10
683.1519182653095
 20
215.4460664683565
 42
0.0
 10
683.1519182653095
 20
212.946066468356
 42
-0.4142135623730951
 10
680.6519182653096
 20
215.446066468356
 42
0.0
 97
        0
 75
     0
 76
     1
 47
0.0576142688807724
 98
        2
 10
683.9813867859456
 20
216.8280325292679
 10
682.3105728462054
 20
215.0988738197145
  0
CIRCLE
  5
13D46
330
18
100
AcDbEntity
  8
0
100
AcDbCircle
 10
683.1519182653095
 20
215.446066468356
 30
0.0
 40
2.5
  0
CIRCLE
  5
13D47
330
18
100
AcDbEntity
  8
細線
100
AcDbCircle
 10
604.6221580018509
 20
215.4741582193909
 30
0.0
 40
3.5
  0
LWPOLYLINE
  5
13D4A
330
18
100
AcDbEntity
  8
細線
100
AcDbPolyline
 90
        6
 70
     1
 43
0.0
 10
603.2480297093897
 20
214.4197524956416
 10
603.0219517129571
 20
216.1369853668456
 10
604.3960800054172
 20
217.1913910905959
 10
605.9962862943112
 20
216.5285639431413
 10
606.2223642907438
 20
214.8113310719371
 10
604.8482359982836
 20
213.756925348187
  0
LINE
  5
13D4B
330
18
100
AcDbEntity
  8
CENTER
100
AcDbLine
 10
646.6697517522925
 20
246.1350324390916
 30
0.0
 11
641.6248615854107
 21
254.8730385267363
 31
0.0
  0
CIRCLE
  5
13D4C
330
18
100
AcDbEntity
  8
0
100
AcDbCircle
 10
644.1519182653096
 20
250.4960479635449
 30
0.0
 40
2.399999999999999
  0
CIRCLE
  5
13D4D
330
18
100
AcDbEntity
  8
細線
100
AcDbCircle
 10
644.1519182653096
 20
250.4960479635449
 30
0.0
 40
3.0
  0
CIRCLE
  5
13D4E
330
18
100
AcDbEntity
  8
細線
100
AcDbCircle
 10
715.6800100163417
 20
261.4758267318175
 30
0.0
 40
3.5
  0
LWPOLYLINE
  5
13D4F
330
18
100
AcDbEntity
  8
細線
100
AcDbPolyline
 90
        6
 70
     1
 43
0.0
 10
714.6256042925927
 20
262.8499550242784
 10
716.3428371637971
 20
263.0760330207108
 10
717.3972428875472
 20
261.701904728251
 10
716.7344157400926
 20
260.1016984393568
 10
715.0171828688886
 20
259.875620442924
 10
713.9627771451381
 20
261.2497487353844
  0
LWPOLYLINE
  5
13D52
330
18
100
AcDbEntity
  8
細線
100
AcDbPolyline
 90
        6
 70
     1
 43
0.0
 10
648.9065936430724
 20
261.7019047282519
 10
649.9609993668229
 20
263.0760330207113
 10
651.6782322380271
 20
262.8499550242782
 10
652.3410593854819
 20
261.2497487353844
 10
651.2866536617315
 20
259.8756204429245
 10
649.5694207905271
 20
260.1016984393576
  0
CIRCLE
  5
13D53
330
18
100
AcDbEntity
  8
細線
100
AcDbCircle
 10
650.6238265142774
 20
261.4758267318175
 30
0.0
 40
3.5
  0
LINE
  5
13E95
330
18
100
AcDbEntity
  8
0
100
AcDbLine
 10
360.8032641809368
 20
230.4518264491305
 30
0.0
 11
360.8032641809368
 21
182.9460664683578
 31
0.0
  0
LINE
  5
13E96
330
18
100
AcDbEntity
  8
0
100
AcDbLine
 10
360.8032641809368
 20
135.4503159005413
 30
0.0
 11
360.8032641809368
 21
182.9460664683583
 31
0.0
  0
LINE
  5
1400B
330
18
100
AcDbEntity
  8
0
100
AcDbLine
 10
479.3032641809371
 20
237.4460664683583
 30
0.0
 11
479.3032641809368
 21
128.4460664683582
 31
0.0
  0
LINE
  5
1400C
330
18
100
AcDbEntity
  8
0
100
AcDbLine
 10
476.303264180937
 20
237.9460664683583
 30
0.0
 11
478.8032641809371
 21
237.9460664683583
 31
0.0
  0
LINE
  5
1400D
330
18
100
AcDbEntity
  8
0
100
AcDbLine
 10
476.3032641809369
 20
127.9460664683582
 30
0.0
 11
478.8032641809368
 21
127.9460664683582
 31
0.0
  0
LINE
  5
14CDB
330
18
100
AcDbEntity
  8
0
100
AcDbLine
 10
479.3032641809368
 20
128.4460664683582
 30
0.0
 11
478.8032641809368
 21
127.9460664683582
 31
0.0
  0
LINE
  5
14CDC
330
18
100
AcDbEntity
  8
0
100
AcDbLine
 10
478.8032641809371
 20
237.9460664683583
 30
0.0
 11
479.3032641809371
 21
237.4460664683583
 31
0.0
  0
LINE
  5
14CDD
330
18
100
AcDbEntity
  8
0
100
AcDbLine
 10
361.3032641809368
 20
230.9518264491305
 30
0.0
 11
360.8032641809368
 21
230.4518264491305
 31
0.0
  0
LINE
  5
14CDE
330
18
100
AcDbEntity
  8
0
100
AcDbLine
 10
360.8032641809368
 20
135.4503159005413
 30
0.0
 11
361.3032641809368
 21
134.9503159005416
 31
0.0
  0
TEXT
  5
15B3B
330
18
100
AcDbEntity
  8
A
100
AcDbText
 10
367.6978829036067
 20
1128.21472599652
 30
0.0
 40
2.5
  1

  7
MSｺ_ｼｯｸ
100
AcDbText
  0
TEXT
  5
15B3C
330
18
100
AcDbEntity
  8
A
100
AcDbText
 10
359.8728829036068
 20
1128.21472599652
 30
0.0
 40
2.5
  1

 41
0.5
  7
MSｺ_ｼｯｸ
100
AcDbText
  0
TEXT
  5
15B3D
330
18
100
AcDbEntity
  8
A
100
AcDbText
 10
507.7979828539783
 20
1558.181746114883
 30
0.0
 40
3.524999999999999
  1
�    
100
AcDbText
  0
MTEXT
  5
15B3E
330
18
100
AcDbEntity
  8
0
  6
BYBLOCK
100
AcDbMText
 10
666.1028717772299
 20
1576.178775708772
 30
0.0
 40
2.0
 41
0.0
 71
     4
 72
     5
  1

 11
-0.0000000000000002
 21
-1.0
 31
0.0
1001
ACAD
1000
MTEXTBEGIN
1070
    73
1070
     1
1070
    44
1040
1.0
1070
    74
1070
     0
1000
MTEXTEND
1000
MTEXTBEGIN
1070
    73
1070
     1
1070
    44
1040
1.0
1070
    74
1070
     0
1000
MTEXTEND
  0
MTEXT
  5
15B3F
330
18
100
AcDbEntity
  8
0
  6
BYBLOCK
100
AcDbMText
 10
701.5682601403827
 20
1565.385467350353
 30
0.0
 40
2.0
 41
0.0
 71
     7
 72
     5
  1

 11
0.0000000000000001
 21
1.0
 31
0.0
1001
ACAD
1000
MTEXTBEGIN
1070
    73
1070
     1
1070
    44
1040
1.0
1070
    74
1070
     0
1000
MTEXTEND
1000
MTEXTBEGIN
1070
    73
1070
     1
1070
    44
1040
1.0
1070
    74
1070
     0
1000
MTEXTEND
  0
MTEXT
  5
15B40
330
18
100
AcDbEntity
  8
0
100
AcDbMText
 10
665.7887621557151
 20
1490.605956808065
 30
0.0
 40
2.0
 41
10.1453
 71
     1
 72
     5
  1

 11
-0.0000000000000002
 21
-1.0
 31
0.0
1001
ACAD
1000
MTEXTBEGIN
1070
    73
1070
     1
1070
    44
1040
1.0
1070
    74
1070
     0
1000
MTEXTEND
1000
MTEXTBEGIN
1070
    73
1070
     1
1070
    44
1040
1.0
1070
    74
1070
     0
1000
MTEXTEND
  0
MTEXT
  5
15B41
330
18
100
AcDbEntity
  8
0
100
AcDbMText
 10
621.3892704025651
 20
1458.974473215076
 30
0.0
 40
2.0
 41
0.0
 71
     1
 72
     5
  1

1001
ACAD
1000
MTEXTBEGIN
1070
    73
1070
     1
1070
    44
1040
1.0
1070
    74
1070
     0
1000
MTEXTEND
1000
MTEXTBEGIN
1070
    73
1070
     1
1070
    44
1040
1.0
1070
    74
1070
     0
1000
MTEXTEND
  0
MTEXT
  5
15B42
330
18
100
AcDbEntity
  8
0
  6
CENTER
100
AcDbMText
 10
946.9775475863279
 20
1559.906999959501
 30
0.0
 40
2.0
 41
15.6417
 71
     1
 72
     5
  1

  7
BIGFONT
1001
ACAD
1000
MTEXTBEGIN
1070
    73
1070
     1
1070
    44
1040
1.0
1070
    74
1070
     0
1000
MTEXTEND
1000
MTEXTBEGIN
1070
    73
1070
     1
1070
    44
1040
1.0
1070
    74
1070
     0
1000
MTEXTEND
  0
MTEXT
  5
15B43
330
18
100
AcDbEntity
  8
0
  6
DASHDOT
100
AcDbMText
 10
709.299606642156
 20
1666.696494787275
 30
0.0
 40
1.0
 41
2.0
 71
     1
 72
     5
  1

  7
BIGFONT
1001
ACAD
1000
MTEXTBEGIN
1070
    73
1070
     1
1070
    44
1040
1.0
1070
    74
1070
     0
1000
MTEXTEND
1000
MTEXTBEGIN
1070
    73
1070
     1
1070
    44
1040
1.0
1070
    74
1070
     0
1000
MTEXTEND
  0
MTEXT
  5
15B44
330
18
100
AcDbEntity
  8
0
  6
BYBLOCK
100
AcDbMText
 10
666.1027847722796
 20
1576.178775708772
 30
0.0
 40
2.0
 41
0.0
 71
     4
 72
     5
  1

 11
-0.0000000000000002
 21
-1.0
 31
0.0
1001
ACAD
1000
MTEXTBEGIN
1070
    73
1070
     1
1070
    44
1040
1.0
1070
    74
1070
     0
1000
MTEXTEND
1000
MTEXTBEGIN
1070
    73
1070
     1
1070
    44
1040
1.0
1070
    74
1070
     0
1000
MTEXTEND
  0
MTEXT
  5
15B45
330
18
100
AcDbEntity
  8
0
  6
BYBLOCK
100
AcDbMText
 10
701.5681731354324
 20
1565.385467350353
 30
0.0
 40
2.0
 41
0.0
 71
     7
 72
     5
  1

 11
0.0000000000000001
 21
1.0
 31
0.0
1001
ACAD
1000
MTEXTBEGIN
1070
    73
1070
     1
1070
    44
1040
1.0
1070
    74
1070
     0
1000
MTEXTEND
1000
MTEXTBEGIN
1070
    73
1070
     1
1070
    44
1040
1.0
1070
    74
1070
     0
1000
MTEXTEND
  0
MTEXT
  5
15B46
330
18
100
AcDbEntity
  8
0
100
AcDbMText
 10
665.7886751507642
 20
1490.605956808065
 30
0.0
 40
2.0
 41
10.1453
 71
     1
 72
     5
  1

 11
-0.0000000000000002
 21
-1.0
 31
0.0
1001
ACAD
1000
MTEXTBEGIN
1070
    73
1070
     1
1070
    44
1040
1.0
1070
    74
1070
     0
1000
MTEXTEND
1000
MTEXTBEGIN
1070
    73
1070
     1
1070
    44
1040
1.0
1070
    74
1070
     0
1000
MTEXTEND
  0
MTEXT
  5
15B47
330
18
100
AcDbEntity
  8
0
100
AcDbMText
 10
621.3891833976147
 20
1458.974473215076
 30
0.0
 40
2.0
 41
0.0
 71
     1
 72
     5
  1

1001
ACAD
1000
MTEXTBEGIN
1070
    73
1070
     1
1070
    44
1040
1.0
1070
    74
1070
     0
1000
MTEXTEND
1000
MTEXTBEGIN
1070
    73
1070
     1
1070
    44
1040
1.0
1070
    74
1070
     0
1000
MTEXTEND
  0
MTEXT
  5
15B48
330
18
100
AcDbEntity
  8
0
  6
CENTER
100
AcDbMText
 10
946.9774605813777
 20
1559.906999959501
 30
0.0
 40
2.0
 41
15.6417
 71
     1
 72
     5
  1

  7
BIGFONT
1001
ACAD
1000
MTEXTBEGIN
1070
    73
1070
     1
1070
    44
1040
1.0
1070
    74
1070
     0
1000
MTEXTEND
1000
MTEXTBEGIN
1070
    73
1070
     1
1070
    44
1040
1.0
1070
    74
1070
     0
1000
MTEXTEND
  0
MTEXT
  5
15B49
330
18
100
AcDbEntity
  8
0
  6
DASHDOT
100
AcDbMText
 10
709.299519637206
 20
1666.696494787275
 30
0.0
 40
1.0
 41
2.0
 71
     1
 72
     5
  1

  7
BIGFONT
1001
ACAD
1000
MTEXTBEGIN
1070
    73
1070
     1
1070
    44
1040
1.0
1070
    74
1070
     0
1000
MTEXTEND
1000
MTEXTBEGIN
1070
    73
1070
     1
1070
    44
1040
1.0
1070
    74
1070
     0
1000
MTEXTEND
  0
INSERT
  5
15B4A
330
18
100
AcDbEntity
  8
FRAME025
100
AcDbBlockReference
  2
機械A4横_LBP
 10
611.6173895189279
 20
1350.555893699294
 30
0.0
  0
LINE
  5
163FD
330
18
100
AcDbEntity
  8
0
100
AcDbLine
 10
555.6760447320819
 20
235.4460664683583
 30
0.0
 11
555.6760447320819
 21
309.2077573341738
 31
0.0
  0
LINE
  5
163FF
330
18
100
AcDbEntity
  8
0
100
AcDbLine
 10
548.1760447356816
 20
235.4460664683583
 30
0.0
 11
548.1760447356816
 21
309.2077573341738
 31
0.0
  0
LINE
  5
1642F
330
18
100
AcDbEntity
  8
0
100
AcDbLine
 10
531.926044733882
 20
211.6960664701581
 30
0.0
 11
498.8032641809367
 21
211.6960664701581
 31
0.0
  0
LINE
  5
16430
330
18
100
AcDbEntity
  8
0
100
AcDbLine
 10
531.926044733882
 20
219.1960664665584
 30
0.0
 11
498.8032641809367
 21
219.1960664665584
 31
0.0
  0
LINE
  5
16431
330
18
100
AcDbEntity
  8
中心線
100
AcDbLine
 10
504.1306223622806
 20
215.4460664683583
 30
0.0
 11
469.6246578268938
 21
215.4460664683583
 31
0.0
  0
ARC
  5
16455
330
18
100
AcDbEntity
  8
0
100
AcDbCircle
 10
531.926044733882
 20
235.4460664683583
 30
0.0
 40
16.25000000180011
100
AcDbArc
 50
270.0
 51
0.0
  0
ARC
  5
16456
330
18
100
AcDbEntity
  8
0
100
AcDbCircle
 10
531.926044733882
 20
235.4460664683583
 30
0.0
 40
23.7499999982003
100
AcDbArc
 50
270.0
 51
0.0
  0
LINE
  5
16460
330
18
100
AcDbEntity
  8
0
100
AcDbLine
 10
498.8032641809373
 20
148.3460664683576
 30
0.0
 11
520.9972705548857
 21
148.3460664683579
 31
0.0
  0
LINE
  5
16461
330
18
100
AcDbEntity
  8
0
100
AcDbLine
 10
498.8032641809367
 20
152.5460664683575
 30
0.0
 11
520.9972705548856
 21
152.5460664683579
 31
0.0
  0
LINE
  5
16462
330
18
100
AcDbEntity
  8
中心線
100
AcDbLine
 10
505.0193467859585
 20
150.4460664683583
 30
0.0
 11
469.6246578268941
 21
150.446066468358
 31
0.0
  0
ARC
  5
1648E
330
18
100
AcDbEntity
  8
0
100
AcDbCircle
 10
520.9972705548862
 20
130.4460664683585
 30
0.0
 40
17.89999999999969
100
AcDbArc
 50
0.0
 51
90.00000000000005
  0
ARC
  5
1648F
330
18
100
AcDbEntity
  8
0
100
AcDbCircle
 10
520.9972705548862
 20
130.4460664683585
 30
0.0
 40
22.09999999999948
100
AcDbArc
 50
0.0
 51
90.00000000000005
  0
LINE
  5
1649C
330
18
100
AcDbEntity
  8
0
100
AcDbLine
 10
554.8839307503392
 20
57.18437560254249
 30
0.0
 11
554.8839307503392
 21
70.94606646835808
 31
0.0
  0
LINE
  5
1649D
330
18
100
AcDbEntity
  8
0
100
AcDbLine
 10
549.0039307503398
 20
57.18437560254249
 30
0.0
 11
549.0039307503398
 21
70.94606646835808
 31
0.0
  0
LINE
  5
1649E
330
18
100
AcDbEntity
  8
0
100
AcDbLine
 10
549.0039307503398
 20
70.94606646835808
 30
0.0
 11
554.8839307503392
 21
70.94606646835808
 31
0.0
  0
LINE
  5
1649F
330
18
100
AcDbEntity
  8
0
100
AcDbLine
 10
554.8839307503392
 20
57.18437560254249
 30
0.0
 11
549.0039307503398
 21
57.18437560254249
 31
0.0
  0
LINE
  5
1680D
330
18
100
AcDbEntity
  8
0
100
AcDbLine
 10
366.1032634653417
 20
94.04606561001051
 30
0.0
 11
444.0032641809371
 21
94.04606561001026
 31
0.0
  0
LINE
  5
1680E
330
18
100
AcDbEntity
  8
0
100
AcDbLine
 10
365.6032634653417
 20
94.54606561001051
 30
0.0
 11
366.1032634653417
 21
94.04606561001051
 31
0.0
  0
LINE
  5
1680F
330
18
100
AcDbEntity
  8
0
100
AcDbLine
 10
476.3032641809369
 20
94.54606632560508
 30
0.0
 11
475.8032634653416
 21
94.04606561001013
 31
0.0
  0
LINE
  5
16812
330
18
100
AcDbEntity
  8
0
100
AcDbLine
 10
463.803264180947
 20
94.04606561001015
 30
0.0
 11
475.8032634653416
 21
94.04606561001013
 31
0.0
  0
LINE
  5
16813
330
18
100
AcDbEntity
  8
0
100
AcDbLine
 10
365.1032641809369
 20
94.04606646835722
 30
0.0
 11
365.6032641809366
 21
94.04606599149778
 31
0.0
  0
LINE
  5
16815
330
18
100
AcDbEntity
  8
0
100
AcDbLine
 10
450.303264180937
 20
94.04606646835764
 30
0.0
 11
475.8032643236902
 21
94.04606646835835
 31
0.0
  0
LINE
  5
16816
330
18
100
AcDbEntity
  8
0
100
AcDbLine
 10
366.5032641809363
 20
271.8460664683594
 30
0.0
 11
444.0032641809371
 21
271.8460664683588
 31
0.0
  0
LINE
  5
16817
330
18
100
AcDbEntity
  8
0
100
AcDbLine
 10
366.1032634653417
 20
271.846067326706
 30
0.0
 11
443.6032641809369
 21
271.8460673267064
 31
0.0
  0
LINE
  5
16819
330
18
100
AcDbEntity
  8
0
100
AcDbLine
 10
365.6032641809368
 20
271.3460664683594
 30
0.0
 11
366.1032641809366
 21
271.8460664683594
 31
0.0
  0
LINE
  5
1681A
330
18
100
AcDbEntity
  8
0
100
AcDbLine
 10
463.8032633225992
 20
271.8460664683586
 30
0.0
 11
475.8032643236902
 21
271.846066468358
 31
0.0
  0
LINE
  5
1681B
330
18
100
AcDbEntity
  8
0
100
AcDbLine
 10
463.803264180947
 20
271.8460673267065
 30
0.0
 11
475.8032634653416
 21
271.8460673267065
 31
0.0
  0
LINE
  5
1681E
330
18
100
AcDbEntity
  8
0
100
AcDbLine
 10
476.3032641809369
 20
271.3460666111116
 30
0.0
 11
475.8032634653416
 21
271.8460673267065
 31
0.0
  0
LINE
  5
1681F
330
18
100
AcDbEntity
  8
0
100
AcDbLine
 10
450.3032641809371
 20
271.8460664683577
 30
0.0
 11
475.8032643236902
 21
271.846066468358
 31
0.0
  0
LINE
  5
16E60
330
18
100
AcDbEntity
  8
中心線
100
AcDbLine
 10
326.428619622635
 20
182.9460664683583
 30
0.0
 11
479.303264180937
 21
182.9460664683583
 31
0.0
  0
ARC
  5
17702
330
18
100
AcDbEntity
  8
0
100
AcDbCircle
 10
212.4601520423215
 20
182.9221438043553
 30
0.0
 40
48.0
100
AcDbArc
 50
72.07683310818146
 51
107.9231668918185
  0
LWPOLYLINE
  5
17703
330
18
100
AcDbEntity
  8
0
100
AcDbPolyline
 90
        4
 70
   128
 43
0.0
 10
201.2416060061854
 20
196.3532355259953
 10
199.6120694374585
 20
199.1756756558205
 42
-0.9999999999999962
 10
204.8082218601643
 20
202.175675655821
 10
206.4377584288921
 20
199.3532355259949
  0
LWPOLYLINE
  5
17704
330
18
100
AcDbEntity
  8
0
100
AcDbPolyline
 90
        4
 70
   128
 43
0.0
 10
206.4377584288903
 20
166.4910520827168
 10
204.8082218601646
 20
163.6686119528913
 42
-0.9999999999999962
 10
199.612069437458
 20
166.6686119528903
 10
201.241606006184
 20
169.4910520827173
  0
CIRCLE
  5
17706
330
18
100
AcDbEntity
  8
0
100
AcDbCircle
 10
212.4601520423215
 20
182.9221438043553
 30
0.0
 40
17.5
  0
LINE
  5
17708
330
18
100
AcDbEntity
  8
中心線
100
AcDbLine
 10
117.4601520423216
 20
182.9221438043553
 30
0.0
 11
307.4601520423216
 21
182.9221438043553
 31
0.0
  0
LINE
  5
1770B
330
18
100
AcDbEntity
  8
中心線
100
AcDbLine
 10
193.4619543955604
 20
215.8279873807813
 30
0.0
 11
188.4619543955604
 21
224.4882414186256
 31
0.0
  0
ARC
  5
1770C
330
18
100
AcDbEntity
  8
0
100
AcDbCircle
 10
212.4601520423215
 20
182.9221438043553
 30
0.0
 40
48.0
100
AcDbArc
 50
117.0768331081804
 51
152.9231668918199
  0
ARC
  5
17719
330
18
100
AcDbEntity
  8
0
100
AcDbCircle
 10
212.4601520423215
 20
182.9221438043553
 30
0.0
 40
48.0
100
AcDbArc
 50
207.0768331081803
 51
242.9231668918196
  0
CIRCLE
  5
1775C
330
18
100
AcDbEntity
  8
細線
100
AcDbCircle
 10
193.7086638564333
 20
137.6520467113022
 30
0.0
 40
3.5
  0
CIRCLE
  5
1775D
330
18
100
AcDbEntity
  8
0
100
AcDbCircle
 10
193.7086638564333
 20
137.6520467113022
 30
0.0
 40
4.0
  0
CIRCLE
  5
1775E
330
18
100
AcDbEntity
  8
細線
100
AcDbCircle
 10
190.9619543955597
 20
145.6861732090079
 30
0.0
 40
3.0
  0
CIRCLE
  5
1775F
330
18
100
AcDbEntity
  8
0
100
AcDbCircle
 10
190.9619543955597
 20
145.6861732090079
 30
0.0
 40
2.399999999999999
  0
LINE
  5
17760
330
18
100
AcDbEntity
  8
中心線
100
AcDbLine
 10
193.4619543955609
 20
150.0163002279293
 30
0.0
 11
188.4619543955609
 21
141.3560461900853
 31
0.0
  0
LWPOLYLINE
  5
17762
330
18
100
AcDbEntity
  8
細線
100
AcDbPolyline
 90
        6
 70
     1
 43
0.0
 10
192.6542581326837
 20
139.0261750037629
 10
194.3714910038878
 20
139.2522530001959
 10
195.4258967276379
 20
137.8781247077362
 10
194.7630695801839
 20
136.2779184188422
 10
193.0458367089794
 20
136.0518404224086
 10
191.9914309852294
 20
137.425968714869
  0
ARC
  5
1777A
330
18
100
AcDbEntity
  8
0
100
AcDbCircle
 10
212.4601520423215
 20
182.9221438043553
 30
0.0
 40
48.0
100
AcDbArc
 50
162.0768331081813
 51
197.9231668918254
  0
CIRCLE
  5
1777D
330
18
100
AcDbEntity
  8
0
100
AcDbCircle
 10
167.1900549492687
 20
164.1706556184651
 30
0.0
 40
4.0
  0
CIRCLE
  5
1777E
330
18
100
AcDbEntity
  8
細線
100
AcDbCircle
 10
167.1900549492687
 20
164.1706556184651
 30
0.0
 40
3.5
  0
LWPOLYLINE
  5
1777F
330
18
100
AcDbEntity
  8
細線
100
AcDbPolyline
 90
        6
 70
     1
 43
0.0
 10
167.4161329457031
 20
165.8878884896699
 10
168.790261238163
 20
164.8334827659193
 10
168.56418324173
 20
163.1162498947153
 10
166.9639769528362
 20
162.4534227472604
 10
165.5898486603762
 20
163.5078284710106
 10
165.8159266568089
 20
165.2250613422151
  0
SOLID
  5
17780
330
18
100
AcDbEntity
  8
0
  6
BYBLOCK
 62
     0
100
AcDbTrace
 10
162.9601520423215
 20
185.2315448843555
 30
0.0
 11
158.9601520423215
 21
182.9221438043557
 31
0.0
 12
162.9601520423215
 22
180.6127427243555
 32
0.0
 13
162.9601520423215
 23
180.6127427243555
 33
0.0
  0
SOLID
  5
17781
330
18
100
AcDbEntity
  8
0
  6
BYBLOCK
 62
     0
100
AcDbTrace
 10
153.9601520423216
 20
185.2315448843555
 30
0.0
 11
157.9601520423215
 21
182.9221438043557
 31
0.0
 12
153.9601520423216
 22
180.6127427243555
 32
0.0
 13
153.9601520423216
 23
180.6127427243555
 33
0.0
  0
CIRCLE
  5
17782
330
18
100
AcDbEntity
  8
細線
100
AcDbCircle
 10
169.4637567487992
 20
182.922143804356
 30
0.0
 40
3.0
  0
CIRCLE
  5
17783
330
18
100
AcDbEntity
  8
0
100
AcDbCircle
 10
169.4637567487992
 20
182.922143804356
 30
0.0
 40
2.399999999999999
  0
LINE
  5
17784
330
18
100
AcDbEntity
  8
中心線
100
AcDbLine
 10
173.4601520423215
 20
182.9221438043553
 30
0.0
 11
163.4601520423216
 21
182.9221438043553
 31
0.0
  0
LWPOLYLINE
  5
17785
330
18
100
AcDbEntity
  8
細線
100
AcDbPolyline
 90
        6
 70
     1
 43
0.0
 10
201.4884550815994
 20
166.418610374752
 10
202.9318307532269
 20
166.4186135286979
 10
203.6535213204383
 20
165.1686151068379
 10
202.9318362160223
 20
163.9186135310301
 10
201.4884605443945
 20
163.9186103770844
 10
200.7667699771833
 20
165.1686087989448
  0
CIRCLE
  5
17786
330
18
100
AcDbEntity
  8
細線
100
AcDbCircle
 10
202.210145648811
 20
165.168611952891
 30
0.0
 40
2.74999999744107
  0
LWPOLYLINE
  5
17787
330
18
100
AcDbEntity
  8
細線
100
AcDbPolyline
 90
        6
 70
     1
 43
0.0
 10
192.6818243597179
 20
181.6721422285475
 10
193.4035149269288
 20
182.9221406504085
 10
192.6818298225138
 20
184.1721422262151
 10
191.2384541508854
 20
184.1721453801619
 10
190.5167635836743
 20
182.9221469583008
 10
191.2384486880903
 20
181.672145382494
  0
LWPOLYLINE
  5
17788
330
18
100
AcDbEntity
  8
0
100
AcDbPolyline
 90
        4
 70
   128
 43
0.0
 10
195.2192123927547
 20
185.9221438043545
 10
191.9601392553021
 20
185.922143804355
 42
0.9999999999999962
 10
191.9601392553013
 20
179.9221438043553
 10
195.2192123927549
 20
179.9221438043545
  0
CIRCLE
  5
17789
330
18
100
AcDbEntity
  8
細線
100
AcDbCircle
 10
191.9601392553019
 20
182.9221438043548
 30
0.0
 40
2.74999999744107
  0
CIRCLE
  5
1778C
330
18
100
AcDbEntity
  8
0
100
AcDbCircle
 10
167.1900549492679
 20
201.6736319902441
 30
0.0
 40
4.0
  0
CIRCLE
  5
1778D
330
18
100
AcDbEntity
  8
細線
100
AcDbCircle
 10
167.1900549492679
 20
201.6736319902441
 30
0.0
 40
3.5
  0
LWPOLYLINE
  5
1778E
330
18
100
AcDbEntity
  8
細線
100
AcDbPolyline
 90
        6
 70
     1
 43
0.0
 10
168.5641832417291
 20
202.7280377139935
 10
168.7902612381614
 20
201.010804842789
 10
167.4161329457022
 20
199.956399119039
 10
165.8159266568081
 20
200.6192262664933
 10
165.589848660375
 20
202.3364591376978
 10
166.963976952835
 20
203.390864861448
  0
LWPOLYLINE
  5
1778F
330
18
100
AcDbEntity
  8
細線
100
AcDbPolyline
 90
        6
 70
     1
 43
0.0
 10
203.6535213204397
 20
200.6756788097669
 10
202.9318362160231
 20
199.4256772339599
 10
201.4884605443962
 20
199.4256740800135
 10
200.7667699771843
 20
200.6756725018745
 10
201.488455081601
 20
201.9256740776817
 10
202.9318307532279
 20
201.9256772316281
  0
CIRCLE
  5
17790
330
18
100
AcDbEntity
  8
細線
100
AcDbCircle
 10
202.2101456488121
 20
200.6756756558206
 30
0.0
 40
2.74999999744107
  0
CIRCLE
  5
17791
330
18
100
AcDbEntity
  8
細線
100
AcDbCircle
 10
190.961954395561
 20
220.158114399704
 30
0.0
 40
3.0
  0
CIRCLE
  5
17792
330
18
100
AcDbEntity
  8
0
100
AcDbCircle
 10
190.961954395561
 20
220.158114399704
 30
0.0
 40
2.399999999999999
  0
CIRCLE
  5
177C6
330
18
100
AcDbEntity
  8
細線
100
AcDbCircle
 10
193.7086638564309
 20
228.1922408974084
 30
0.0
 40
3.5
  0
CIRCLE
  5
177C7
330
18
100
AcDbEntity
  8
0
100
AcDbCircle
 10
193.7086638564309
 20
228.1922408974084
 30
0.0
 40
4.0
  0
LWPOLYLINE
  5
177C8
330
18
100
AcDbEntity
  8
細線
100
AcDbPolyline
 90
        6
 70
     1
 43
0.0
 10
195.4258967276359
 20
227.9661629009738
 10
194.3714910038853
 20
226.5920346085144
 10
192.6542581326813
 20
226.8181126049471
 10
191.9914309852261
 20
228.418318893841
 10
193.0458367089763
 20
229.792447186301
 10
194.7630695801811
 20
229.5663691898679
  0
LINE
  5
177CC
330
18
100
AcDbEntity
  8
中心線
100
AcDbLine
 10
231.4583496890834
 20
215.8279873807811
 30
0.0
 11
236.4583496890833
 21
224.4882414186256
 31
0.0
  0
ARC
  5
177CD
330
18
100
AcDbEntity
  8
0
100
AcDbCircle
 10
212.4601520423215
 20
182.9221438043553
 30
0.0
 40
48.0
100
AcDbArc
 50
27.07683310818042
 51
62.92316689181957
  0
ARC
  5
177CF
330
18
100
AcDbEntity
  8
0
100
AcDbCircle
 10
212.4601520423215
 20
182.9221438043553
 30
0.0
 40
48.0
100
AcDbArc
 50
297.0768331081803
 51
332.9231668918195
  0
CIRCLE
  5
177E4
330
18
100
AcDbEntity
  8
細線
100
AcDbCircle
 10
231.2116402282121
 20
137.6520467113031
 30
0.0
 40
3.5
  0
CIRCLE
  5
177E5
330
18
100
AcDbEntity
  8
0
100
AcDbCircle
 10
231.2116402282121
 20
137.6520467113031
 30
0.0
 40
4.0
  0
CIRCLE
  5
177E6
330
18
100
AcDbEntity
  8
細線
100
AcDbCircle
 10
233.9583496890818
 20
145.686173209007
 30
0.0
 40
3.0
  0
CIRCLE
  5
177E7
330
18
100
AcDbEntity
  8
0
100
AcDbCircle
 10
233.9583496890818
 20
145.686173209007
 30
0.0
 40
2.399999999999999
  0
LINE
  5
177E8
330
18
100
AcDbEntity
  8
中心線
100
AcDbLine
 10
231.4583496890834
 20
150.0163002279298
 30
0.0
 11
236.4583496890834
 21
141.3560461900855
 31
0.0
  0
LINE
  5
177E9
330
18
100
AcDbEntity
  8
中心線
100
AcDbLine
 10
212.4601520423214
 20
142.478244379923
 30
0.0
 11
212.4601520423214
 21
137.0385816221644
 31
0.0
  0
LWPOLYLINE
  5
177ED
330
18
100
AcDbEntity
  8
細線
100
AcDbPolyline
 90
        6
 70
     1
 43
0.0
 10
229.4944073570071
 20
137.8781247077373
 10
230.5488130807574
 20
139.2522530001969
 10
232.2660459519619
 20
139.0261750037639
 10
232.9288730994168
 20
137.4259687148702
 10
231.8744673756666
 20
136.0518404224102
 10
230.1572345044619
 20
136.2779184188432
  0
ARC
  5
17807
330
18
100
AcDbEntity
  8
0
100
AcDbCircle
 10
212.4601520423215
 20
182.9221438043553
 30
0.0
 40
48.0
100
AcDbArc
 50
342.0768331081811
 51
17.92316689182548
  0
LWPOLYLINE
  5
17808
330
18
100
AcDbEntity
  8
0
100
AcDbPolyline
 90
        4
 70
   128
 43
0.0
 10
229.7010916918884
 20
185.9221438043545
 10
232.9601648293408
 20
185.922143804355
 42
-0.9999999999999962
 10
232.9601648293418
 20
179.9221438043553
 10
229.7010916918879
 20
179.9221438043545
  0
CIRCLE
  5
17809
330
18
100
AcDbEntity
  8
細線
100
AcDbCircle
 10
232.9601648293411
 20
182.9221438043548
 30
0.0
 40
2.74999999744107
  0
LWPOLYLINE
  5
1780A
330
18
100
AcDbEntity
  8
0
100
AcDbPolyline
 90
        4
 70
   128
 43
0.0
 10
223.6786980784575
 20
169.4910520827159
 10
225.3082346471842
 20
166.6686119528906
 42
-0.9999999999999962
 10
220.1120822244788
 20
163.6686119528901
 10
218.4825456557505
 20
166.4910520827161
  0
CIRCLE
  5
1780B
330
18
100
AcDbEntity
  8
細線
100
AcDbCircle
 10
222.7101584358305
 20
165.1686119528904
 30
0.0
 40
2.74999999744107
  0
LWPOLYLINE
  5
1780F
330
18
100
AcDbEntity
  8
細線
100
AcDbPolyline
 90
        6
 70
     1
 43
0.0
 10
221.2667827642032
 20
165.1686087989441
 10
221.9884678686198
 20
166.4186103747509
 10
223.4318435402465
 20
166.4186135286976
 10
224.1535341074585
 20
165.1686151068368
 10
223.431849003042
 20
163.9186135310294
 10
221.9884733314148
 20
163.9186103770831
  0
LWPOLYLINE
  5
17810
330
18
100
AcDbEntity
  8
細線
100
AcDbPolyline
 90
        6
 70
     1
 43
0.0
 10
232.238479724925
 20
181.6721422285475
 10
231.5167891577138
 20
182.9221406504085
 10
232.2384742621294
 20
184.1721422262151
 10
233.6818499337574
 20
184.1721453801619
 10
234.4035405009687
 20
182.9221469583008
 10
233.6818553965528
 20
181.672145382494
  0
CIRCLE
  5
17813
330
18
100
AcDbEntity
  8
0
100
AcDbCircle
 10
257.7302491353749
 20
164.1706556184673
 30
0.0
 40
4.0
  0
LWPOLYLINE
  5
17814
330
18
100
AcDbEntity
  8
細線
100
AcDbPolyline
 90
        6
 70
     1
 43
0.0
 10
256.3561208429135
 20
163.1162498947178
 10
256.130042846481
 20
164.8334827659221
 10
257.5041711389408
 20
165.8878884896719
 10
259.1043774278344
 20
165.2250613422179
 10
259.3304554242678
 20
163.5078284710135
 10
257.9563271318079
 20
162.4534227472634
  0
CIRCLE
  5
17815
330
18
100
AcDbEntity
  8
細線
100
AcDbCircle
 10
257.7302491353749
 20
164.1706556184673
 30
0.0
 40
3.5
  0
CIRCLE
  5
17816
330
18
100
AcDbEntity
  8
細線
100
AcDbCircle
 10
255.4565473358438
 20
182.9221438043543
 30
0.0
 40
3.0
  0
CIRCLE
  5
17817
330
18
100
AcDbEntity
  8
0
100
AcDbCircle
 10
255.4565473358438
 20
182.9221438043543
 30
0.0
 40
2.399999999999999
  0
CIRCLE
  5
17818
330
18
100
AcDbEntity
  8
細線
100
AcDbCircle
 10
233.9583496890834
 20
220.1581143997033
 30
0.0
 40
3.0
  0
CIRCLE
  5
17819
330
18
100
AcDbEntity
  8
0
100
AcDbCircle
 10
233.9583496890834
 20
220.1581143997033
 30
0.0
 40
2.399999999999999
  0
CIRCLE
  5
1781A
330
18
100
AcDbEntity
  8
細線
100
AcDbCircle
 10
222.7101584358316
 20
200.6756756558202
 30
0.0
 40
2.74999999744107
  0
LWPOLYLINE
  5
1781B
330
18
100
AcDbEntity
  8
0
100
AcDbPolyline
 90
        4
 70
   128
 43
0.0
 10
218.4825456557521
 20
199.3532355259943
 10
220.1120822244778
 20
202.1756756558199
 42
-0.9999999999999962
 10
225.3082346471846
 20
199.1756756558214
 10
223.6786980784585
 20
196.3532355259942
  0
LWPOLYLINE
  5
1781C
330
18
100
AcDbEntity
  8
細線
100
AcDbPolyline
 90
        6
 70
     1
 43
0.0
 10
223.431849003043
 20
199.4256772339595
 10
221.9884733314152
 20
199.4256740800135
 10
221.266782764204
 20
200.6756725018734
 10
221.9884678686201
 20
201.9256740776812
 10
223.4318435402478
 20
201.925677231627
 10
224.1535341074591
 20
200.6756788097665
  0
CIRCLE
  5
17822
330
18
100
AcDbEntity
  8
0
100
AcDbCircle
 10
257.730249135374
 20
201.6736319902459
 30
0.0
 40
4.0
  0
LWPOLYLINE
  5
17823
330
18
100
AcDbEntity
  8
細線
100
AcDbPolyline
 90
        6
 70
     1
 43
0.0
 10
257.5041711389396
 20
199.9563991190413
 10
256.13004284648
 20
201.0108048427917
 10
256.3561208429131
 20
202.7280377139958
 10
257.9563271318068
 20
203.3908648614505
 10
259.3304554242665
 20
202.3364591377005
 10
259.1043774278336
 20
200.6192262664959
  0
CIRCLE
  5
17824
330
18
100
AcDbEntity
  8
細線
100
AcDbCircle
 10
257.730249135374
 20
201.6736319902459
 30
0.0
 40
3.5
  0
CIRCLE
  5
17837
330
18
100
AcDbEntity
  8
細線
100
AcDbCircle
 10
231.2116402282098
 20
228.1922408974089
 30
0.0
 40
3.5
  0
CIRCLE
  5
17838
330
18
100
AcDbEntity
  8
0
100
AcDbCircle
 10
231.2116402282098
 20
228.1922408974089
 30
0.0
 40
4.0
  0
LWPOLYLINE
  5
1783B
330
18
100
AcDbEntity
  8
細線
100
AcDbPolyline
 90
        6
 70
     1
 43
0.0
 10
232.2660459519593
 20
226.8181126049479
 10
230.5488130807548
 20
226.5920346085154
 10
229.4944073570048
 20
227.966162900975
 10
230.1572345044589
 20
229.5663691898691
 10
231.8744673756636
 20
229.7924471863022
 10
232.9288730994138
 20
228.418318893842
  0
LINE
  5
17866
330
18
100
AcDbEntity
  8
中心線
100
AcDbLine
 10
212.4601520423215
 20
87.92214380435519
 30
0.0
 11
212.4601520423215
 21
277.9221438043555
 31
0.0
  0
LINE
  5
17A8E
330
18
100
AcDbEntity
  8
中心線
100
AcDbLine
 10
361.0402701344633
 20
267.4460664683583
 30
0.0
 11
372.8691370717616
 21
267.4460664683583
 31
0.0
  0
LINE
  5
17A91
330
18
100
AcDbEntity
  8
中心線
100
AcDbLine
 10
361.0402701344633
 20
98.44606646835837
 30
0.0
 11
372.8691370717613
 21
98.44606646835837
 31
0.0
  0
LINE
  5
17A92
330
18
100
AcDbEntity
  8
ｷｬｯﾌ_ﾎ_ﾙﾄ
100
AcDbLine
 10
364.3032641809373
 20
269.896066468358
 30
0.0
 11
364.3032641809373
 21
264.9960664683585
 31
0.0
  0
LINE
  5
17A93
330
18
100
AcDbEntity
  8
ｷｬｯﾌ_ﾎ_ﾙﾄ
100
AcDbLine
 10
364.6032641809375
 20
270.9460664683583
 30
0.0
 11
364.6032641809375
 21
263.9460664683582
 31
0.0
  0
LINE
  5
17A94
330
18
100
AcDbEntity
  8
ｷｬｯﾌ_ﾎ_ﾙﾄ
100
AcDbLine
 10
365.1032641809369
 20
270.9460664683583
 30
0.0
 11
365.1032641809369
 21
263.9460664683582
 31
0.0
  0
LINE
  5
17A95
330
18
100
AcDbEntity
  8
ｷｬｯﾌ_ﾎ_ﾙﾄ
100
AcDbLine
 10
364.6032641809375
 20
263.9460664683582
 30
0.0
 11
365.1032641809369
 21
263.9460664683582
 31
0.0
  0
LINE
  5
17A96
330
18
100
AcDbEntity
  8
ｷｬｯﾌ_ﾎ_ﾙﾄ
100
AcDbLine
 10
364.6032641809375
 20
263.9460664683582
 30
0.0
 11
364.3032641809373
 21
264.9960664683585
 31
0.0
  0
LINE
  5
17A97
330
18
100
AcDbEntity
  8
ｷｬｯﾌ_ﾎ_ﾙﾄ
100
AcDbLine
 10
364.6032641809375
 20
270.9460664683583
 30
0.0
 11
365.1032641809369
 21
270.9460664683583
 31
0.0
  0
LINE
  5
17A98
330
18
100
AcDbEntity
  8
ｷｬｯﾌ_ﾎ_ﾙﾄ
100
AcDbLine
 10
364.6032641809375
 20
270.9460664683583
 30
0.0
 11
364.3032641809373
 21
269.896066468358
 31
0.0
  0
LINE
  5
17A99
330
18
100
AcDbEntity
  8
ｷｬｯﾌ_ﾎ_ﾙﾄ
100
AcDbLine
 10
364.3032641809372
 20
100.896066468358
 30
0.0
 11
364.3032641809372
 21
95.99606646835855
 31
0.0
  0
LINE
  5
17A9A
330
18
100
AcDbEntity
  8
ｷｬｯﾌ_ﾎ_ﾙﾄ
100
AcDbLine
 10
364.6032641809373
 20
101.9460664683582
 30
0.0
 11
364.6032641809373
 21
94.94606646835837
 31
0.0
  0
LINE
  5
17A9B
330
18
100
AcDbEntity
  8
ｷｬｯﾌ_ﾎ_ﾙﾄ
100
AcDbLine
 10
365.1032641809369
 20
101.9460664683582
 30
0.0
 11
365.1032641809369
 21
94.94606646835837
 31
0.0
  0
LINE
  5
17A9C
330
18
100
AcDbEntity
  8
ｷｬｯﾌ_ﾎ_ﾙﾄ
100
AcDbLine
 10
364.6032641809373
 20
94.94606646835837
 30
0.0
 11
365.1032641809369
 21
94.94606646835837
 31
0.0
  0
LINE
  5
17A9D
330
18
100
AcDbEntity
  8
ｷｬｯﾌ_ﾎ_ﾙﾄ
100
AcDbLine
 10
364.6032641809373
 20
94.94606646835837
 30
0.0
 11
364.3032641809372
 21
95.99606646835855
 31
0.0
  0
LINE
  5
17A9E
330
18
100
AcDbEntity
  8
ｷｬｯﾌ_ﾎ_ﾙﾄ
100
AcDbLine
 10
364.6032641809373
 20
101.9460664683582
 30
0.0
 11
365.1032641809369
 21
101.9460664683582
 31
0.0
  0
LINE
  5
17A9F
330
18
100
AcDbEntity
  8
ｷｬｯﾌ_ﾎ_ﾙﾄ
100
AcDbLine
 10
364.6032641809373
 20
101.9460664683582
 30
0.0
 11
364.3032641809372
 21
100.896066468358
 31
0.0
  0
LINE
  5
17B81
330
18
100
AcDbEntity
  8
0
100
AcDbLine
 10
365.1032641809369
 20
182.9460664683583
 30
0.0
 11
365.1032641809369
 21
94.04606646835722
 31
0.0
  0
LWPOLYLINE
  5
17EDA
330
18
100
AcDbEntity
  8
0
100
AcDbPolyline
 90
       12
 70
   129
 43
0.0
 10
720.1240542203059
 20
192.4460664683644
 42
-0.0418357922730061
 10
721.643091623758
 20
191.5690498145721
 10
726.115227578758
 20
183.8230831221564
 42
-0.041835792273005
 10
726.115227578758
 20
182.0690498145719
 10
721.643091623758
 20
174.3230831221571
 42
-0.0418357922730106
 10
720.1240542203056
 20
173.4460664683646
 10
711.1797823103067
 20
173.4460664683644
 42
-0.0418357922730243
 10
709.6607449068535
 20
174.3230831221571
 10
705.1886089518539
 20
182.0690498145719
 42
-0.041835792273011
 10
705.1886089518539
 20
183.8230831221569
 10
709.6607449068535
 20
191.5690498145719
 42
-0.0418357922730047
 10
711.179782310306
 20
192.4460664683642
  0
CIRCLE
  5
17EDB
330
18
100
AcDbEntity
  8
0
100
AcDbCircle
 10
715.6519182653059
 20
182.9460664683644
 30
0.0
 40
9.5
  0
CIRCLE
  5
17EDC
330
18
100
AcDbEntity
  8
0
100
AcDbCircle
 10
715.6519182653059
 20
182.9460664683644
 30
0.0
 40
4.5
  0
CIRCLE
  5
17EDD
330
18
100
AcDbEntity
  8
0
100
AcDbCircle
 10
715.6519182653059
 20
182.9460664683644
 30
0.0
 40
5.2
  0
HATCH
  5
17EDE
330
18
100
AcDbEntity
  8
0
100
AcDbHatch
 10
0.0
 20
0.0
 30
0.0
210
0.0
220
0.0
230
1.0
  2
SOLID
 70
     1
 71
     0
 91
        2
 92
        7
 72
     1
 73
     1
 93
        3
 10
715.6519182653059
 20
180.4460664683644
 42
0.0
 10
715.6519182653059
 20
182.9460664683644
 42
0.0
 10
718.1519182653058
 20
182.9460664683644
 42
-0.4142135623730919
 97
        0
 92
        7
 72
     1
 73
     1
 93
        3
 10
715.651918265306
 20
182.9460664683644
 42
0.0
 10
713.1519182653058
 20
182.9460664683644
 42
-0.4142135623730951
 10
715.6519182653059
 20
185.4460664683644
 42
0.0
 97
        0
 75
     0
 76
     1
 47
0.0576142688807724
 98
        2
 10
717.0338843262174
 20
182.1165979477284
 10
715.3047256166642
 20
183.7874118874685
  0
CIRCLE
  5
17EDF
330
18
100
AcDbEntity
  8
0
100
AcDbCircle
 10
715.6519182653059
 20
182.9460664683644
 30
0.0
 40
2.5
  0
ARC
  5
17F24
330
18
100
AcDbEntity
  8
0
100
AcDbCircle
 10
484.8294676633681
 20
193.1449816549485
 30
0.0
 40
9.015903847971632
100
AcDbArc
 50
332.179561144159
 51
354.4603666814928
  0
LINE
  5
17F25
330
18
100
AcDbEntity
  8
0
100
AcDbLine
 10
492.803264180937
 20
193.4460664683585
 30
0.0
 11
497.3032641809375
 21
188.1746378969307
 31
0.0
  0
LINE
  5
17F26
330
18
100
AcDbEntity
  8
0
100
AcDbLine
 10
493.8032641809368
 20
192.2746378969297
 30
0.0
 11
493.8032641809375
 21
173.6174950397873
 31
0.0
  0
LINE
  5
17F27
330
18
100
AcDbEntity
  8
0
100
AcDbLine
 10
483.8032641809375
 20
192.4460664683585
 30
0.0
 11
483.8032641809375
 21
173.4460664683585
 31
0.0
  0
LINE
  5
17F28
330
18
100
AcDbEntity
  8
0
100
AcDbLine
 10
486.8032641809373
 20
193.4460664683585
 30
0.0
 11
486.8032641809373
 21
172.4460664683585
 31
0.0
  0
LINE
  5
17F29
330
18
100
AcDbEntity
  8
0
100
AcDbLine
 10
481.8032641809375
 20
193.4460664683585
 30
0.0
 11
481.8032641809375
 21
172.4460664683585
 31
0.0
  0
LINE
  5
17F2A
330
18
100
AcDbEntity
  8
0
100
AcDbLine
 10
486.8032641809373
 20
172.4460664683585
 30
0.0
 11
492.803264180937
 21
172.4460664683585
 31
0.0
  0
LINE
  5
17F2B
330
18
100
AcDbEntity
  8
0
100
AcDbLine
 10
492.8032641809375
 20
176.9548931099063
 30
0.0
 11
486.8032641809373
 21
176.9548931099063
 31
0.0
  0
LINE
  5
17F2C
330
18
100
AcDbEntity
  8
0
100
AcDbLine
 10
492.8032641809375
 20
178.4739305133591
 30
0.0
 11
486.8032641809373
 21
178.4739305133591
 31
0.0
  0
LINE
  5
17F2D
330
18
100
AcDbEntity
  8
0
100
AcDbLine
 10
486.8032641809373
 20
188.9372398268107
 30
0.0
 11
492.8032641809375
 21
188.9372398268107
 31
0.0
  0
LINE
  5
17F2E
330
18
100
AcDbEntity
  8
0
100
AcDbLine
 10
486.8032641809373
 20
187.4182024233584
 30
0.0
 11
492.8032641809375
 21
187.4182024233584
 31
0.0
  0
LINE
  5
17F30
330
18
100
AcDbEntity
  8
0
100
AcDbLine
 10
481.8032641809375
 20
175.5460664683578
 30
0.0
 11
483.8032641809375
 21
175.5460664683578
 31
0.0
  0
LINE
  5
17F31
330
18
100
AcDbEntity
  8
0
100
AcDbLine
 10
481.8032641809375
 20
176.9548931099063
 30
0.0
 11
479.303264180937
 21
176.9548931099063
 31
0.0
  0
LINE
  5
17F32
330
18
100
AcDbEntity
  8
0
100
AcDbLine
 10
479.303264180937
 20
172.4460664683585
 30
0.0
 11
481.8032641809375
 21
172.4460664683585
 31
0.0
  0
LINE
  5
17F33
330
18
100
AcDbEntity
  8
0
100
AcDbLine
 10
483.8032641809375
 20
173.4460664683585
 30
0.0
 11
486.8032641809373
 21
173.4460664683585
 31
0.0
  0
LINE
  5
17F34
330
18
100
AcDbEntity
  8
0
100
AcDbLine
 10
481.8032641809375
 20
190.346066468358
 30
0.0
 11
483.8032641809375
 21
190.346066468358
 31
0.0
  0
LINE
  5
17F35
330
18
100
AcDbEntity
  8
0
100
AcDbLine
 10
479.303264180937
 20
188.9372398268107
 30
0.0
 11
481.8032641809375
 21
188.9372398268107
 31
0.0
  0
LINE
  5
17F36
330
18
100
AcDbEntity
  8
0
100
AcDbLine
 10
481.8032641809375
 20
178.4739305133591
 30
0.0
 11
479.303264180937
 21
178.4739305133591
 31
0.0
  0
LINE
  5
17F37
330
18
100
AcDbEntity
  8
0
100
AcDbLine
 10
479.303264180937
 20
187.4182024233584
 30
0.0
 11
481.8032641809375
 21
187.4182024233584
 31
0.0
  0
LINE
  5
17F3A
330
18
100
AcDbEntity
  8
0
100
AcDbLine
 10
492.8032641809375
 20
178.4739305133591
 30
0.0
 11
492.8032641809375
 21
176.9548931099063
 31
0.0
  0
LINE
  5
17F3B
330
18
100
AcDbEntity
  8
0
100
AcDbLine
 10
497.3032641809375
 20
188.1746378969307
 30
0.0
 11
497.3032641809375
 21
177.7174950397863
 31
0.0
  0
ARC
  5
17F3C
330
18
100
AcDbEntity
  8
0
100
AcDbCircle
 10
484.8294676633681
 20
172.7471512817684
 30
0.0
 40
9.015903847971632
100
AcDbArc
 50
5.539633318507071
 51
27.82043885584092
  0
LINE
  5
17F3D
330
18
100
AcDbEntity
  8
0
100
AcDbLine
 10
492.803264180937
 20
172.4460664683585
 30
0.0
 11
497.3032641809375
 21
177.7174950397863
 31
0.0
  0
ARC
  5
17F3E
330
18
100
AcDbEntity
  8
0
100
AcDbCircle
 10
483.3032641809372
 20
182.9460664683585
 30
0.0
 40
10.50000000000042
100
AcDbArc
 50
334.7912347032395
 51
25.20876529676042
  0
LINE
  5
17F3F
330
18
100
AcDbEntity
  8
0
100
AcDbLine
 10
492.8032641809375
 20
188.9372398268107
 30
0.0
 11
492.8032641809375
 21
187.4182024233584
 31
0.0
  0
LINE
  5
17F40
330
18
100
AcDbEntity
  8
0
100
AcDbLine
 10
486.8032641809373
 20
193.4460664683585
 30
0.0
 11
492.8032641809375
 21
193.4460664683585
 31
0.0
  0
LINE
  5
17F41
330
18
100
AcDbEntity
  8
0
100
AcDbLine
 10
479.303264180937
 20
193.4460664683585
 30
0.0
 11
481.8032641809375
 21
193.4460664683585
 31
0.0
  0
LINE
  5
17F42
330
18
100
AcDbEntity
  8
0
100
AcDbLine
 10
483.8032641809375
 20
192.4460664683585
 30
0.0
 11
486.8032641809373
 21
192.4460664683585
 31
0.0
  0
LINE
  5
17F61
330
18
100
AcDbEntity
  8
0
100
AcDbLine
 10
479.303264180937
 20
193.4460664683585
 30
0.0
 11
479.303264180937
 21
172.4460664683585
 31
0.0
  0
ARC
  5
17FA7
330
18
100
AcDbEntity
  8
0
100
AcDbCircle
 10
542.908158717424
 20
162.9460664683588
 30
0.0
 40
17.9
100
AcDbArc
 50
0.0
 51
90.00000000000033
  0
ARC
  5
17FA8
330
18
100
AcDbEntity
  8
0
100
AcDbCircle
 10
542.908158717424
 20
162.9460664683588
 30
0.0
 40
22.1
100
AcDbArc
 50
0.0
 51
90.00000000000033
  0
ARC
  5
18171
330
18
100
AcDbEntity
  8
細線
100
AcDbCircle
 10
211.5248446062344
 20
97.38214380435607
 30
0.0
 40
0.5
100
AcDbArc
 50
342.3463876628241
 51
77.65361233717648
  0
ARC
  5
18172
330
18
100
AcDbEntity
  8
細線
100
AcDbCircle
 10
211.5248446062344
 20
98.46214380435606
 30
0.0
 40
0.5
100
AcDbArc
 50
282.3463876628246
 51
17.65361233717612
  0
CIRCLE
  5
18173
330
18
100
AcDbEntity
  8
細線
100
AcDbCircle
 10
212.4601520423215
 20
97.92214380435609
 30
0.0
 40
0.8299999999999998
  0
CIRCLE
  5
18174
330
18
100
AcDbEntity
  8
細線
100
AcDbCircle
 10
212.4601520423215
 20
97.92214380435609
 30
0.0
 40
3.5
  0
ARC
  5
18175
330
18
100
AcDbEntity
  8
細線
100
AcDbCircle
 10
213.3954594784088
 20
98.46214380435606
 30
0.0
 40
0.5
100
AcDbArc
 50
162.3463876628241
 51
257.6536123371764
  0
ARC
  5
18176
330
18
100
AcDbEntity
  8
細線
100
AcDbCircle
 10
213.3954594784088
 20
97.38214380435607
 30
0.0
 40
0.5
100
AcDbArc
 50
102.3463876628247
 51
197.6536123371761
  0
ARC
  5
18177
330
18
100
AcDbEntity
  8
細線
100
AcDbCircle
 10
212.4601520423215
 20
96.84214380435609
 30
0.0
 40
0.5
100
AcDbArc
 50
42.3463876628246
 51
137.6536123371757
  0
ARC
  5
18178
330
18
100
AcDbEntity
  8
細線
100
AcDbCircle
 10
212.4601520423215
 20
99.00214380435608
 30
0.0
 40
0.5
100
AcDbArc
 50
222.3463876628245
 51
317.6536123371756
  0
ARC
  5
181D2
330
18
100
AcDbEntity
  8
細線
100
AcDbCircle
 10
271.8005531194963
 20
123.5817427271808
 30
0.0
 40
0.5
100
AcDbArc
 50
267.3463876628246
 51
2.653612337175799
  0
ARC
  5
181D3
330
18
100
AcDbEntity
  8
細線
100
AcDbCircle
 10
272.8437530118885
 20
123.8612672958913
 30
0.0
 40
0.5
100
AcDbArc
 50
207.346387662824
 51
302.6536123371763
  0
CIRCLE
  5
181D4
330
18
100
AcDbEntity
  8
細線
100
AcDbCircle
 10
272.5642284431777
 20
122.8180674034991
 30
0.0
 40
0.8299999999999998
  0
ARC
  5
181D5
330
18
100
AcDbEntity
  8
細線
100
AcDbCircle
 10
271.5210285507854
 20
122.5385428347885
 30
0.0
 40
0.5
100
AcDbArc
 50
327.3463876628246
 51
62.65361233717611
  0
CIRCLE
  5
181D6
330
18
100
AcDbEntity
  8
細線
100
AcDbCircle
 10
272.5642284431777
 20
122.8180674034991
 30
0.0
 40
3.5
  0
ARC
  5
181D7
330
18
100
AcDbEntity
  8
細線
100
AcDbCircle
 10
273.3279037668593
 20
122.0543920798176
 30
0.0
 40
0.5
100
AcDbArc
 50
87.34638766282463
 51
182.6536123371757
  0
ARC
  5
181D8
330
18
100
AcDbEntity
  8
細線
100
AcDbCircle
 10
273.60742833557
 20
123.09759197221
 30
0.0
 40
0.5
100
AcDbArc
 50
147.3463876628247
 51
242.6536123371759
  0
ARC
  5
181D9
330
18
100
AcDbEntity
  8
細線
100
AcDbCircle
 10
272.2847038744671
 20
121.7748675111071
 30
0.0
 40
0.5
100
AcDbArc
 50
27.34638766282417
 51
122.6536123371765
  0
ARC
  5
181DA
330
18
100
AcDbEntity
  8
細線
100
AcDbCircle
 10
296.3801520423211
 20
182.9221438043553
 30
0.0
 40
0.5
100
AcDbArc
 50
312.3463876628246
 51
47.65361233717579
  0
ARC
  5
181DB
330
18
100
AcDbEntity
  8
細線
100
AcDbCircle
 10
296.9201520423211
 20
183.8574512404425
 30
0.0
 40
0.5
100
AcDbArc
 50
252.3463876628241
 51
347.6536123371761
  0
CIRCLE
  5
181DC
330
18
100
AcDbEntity
  8
細線
100
AcDbCircle
 10
297.4601520423209
 20
182.9221438043553
 30
0.0
 40
0.8299999999999998
  0
ARC
  5
181DD
330
18
100
AcDbEntity
  8
細線
100
AcDbCircle
 10
296.9201520423211
 20
181.9868363682683
 30
0.0
 40
0.5
100
AcDbArc
 50
12.3463876628247
 51
107.653612337176
  0
CIRCLE
  5
181DE
330
18
100
AcDbEntity
  8
細線
100
AcDbCircle
 10
297.4601520423209
 20
182.9221438043553
 30
0.0
 40
3.5
  0
ARC
  5
181DF
330
18
100
AcDbEntity
  8
細線
100
AcDbCircle
 10
298.5401520423211
 20
182.9221438043553
 30
0.0
 40
0.5
100
AcDbArc
 50
132.3463876628244
 51
227.6536123371756
  0
ARC
  5
181E0
330
18
100
AcDbEntity
  8
細線
100
AcDbCircle
 10
298.0001520423211
 20
183.8574512404425
 30
0.0
 40
0.5
100
AcDbArc
 50
192.3463876628245
 51
287.6536123371761
  0
ARC
  5
181E1
330
18
100
AcDbEntity
  8
細線
100
AcDbCircle
 10
298.0001520423211
 20
181.9868363682683
 30
0.0
 40
0.5
100
AcDbArc
 50
72.3463876628242
 51
167.6536123371764
  0
ARC
  5
181E2
330
18
100
AcDbEntity
  8
細線
100
AcDbCircle
 10
271.8005531194965
 20
242.2625448815302
 30
0.0
 40
0.5
100
AcDbArc
 50
357.3463876628244
 51
92.65361233717577
  0
ARC
  5
181E3
330
18
100
AcDbEntity
  8
細線
100
AcDbCircle
 10
271.5210285507857
 20
243.3057447739225
 30
0.0
 40
0.5
100
AcDbArc
 50
297.3463876628241
 51
32.65361233717641
  0
CIRCLE
  5
181E4
330
18
100
AcDbEntity
  8
細線
100
AcDbCircle
 10
272.5642284431778
 20
243.0262202052116
 30
0.0
 40
0.8299999999999998
  0
ARC
  5
181E5
330
18
100
AcDbEntity
  8
細線
100
AcDbCircle
 10
272.8437530118887
 20
241.9830203128195
 30
0.0
 40
0.5
100
AcDbArc
 50
57.3463876628247
 51
152.6536123371759
  0
CIRCLE
  5
181E6
330
18
100
AcDbEntity
  8
細線
100
AcDbCircle
 10
272.5642284431778
 20
243.0262202052116
 30
0.0
 40
3.5
  0
ARC
  5
181E7
330
18
100
AcDbEntity
  8
細線
100
AcDbCircle
 10
273.3279037668594
 20
243.7898955288932
 30
0.0
 40
0.5
100
AcDbArc
 50
177.3463876628245
 51
272.6536123371756
  0
ARC
  5
181E8
330
18
100
AcDbEntity
  8
細線
100
AcDbCircle
 10
272.2847038744671
 20
244.0694200976039
 30
0.0
 40
0.5
100
AcDbArc
 50
237.3463876628246
 51
332.6536123371761
  0
ARC
  5
181E9
330
18
100
AcDbEntity
  8
細線
100
AcDbCircle
 10
273.60742833557
 20
242.746695636501
 30
0.0
 40
0.5
100
AcDbArc
 50
117.3463876628241
 51
212.6536123371764
  0
ARC
  5
181EA
102
{ACAD_REACTORS
330
18963
102
}
330
18
100
AcDbEntity
  8
細線
100
AcDbCircle
 10
212.4601520423218
 20
266.8421438043551
 30
0.0
 40
0.5
100
AcDbArc
 50
42.3463876628246
 51
137.6536123371757
  0
ARC
  5
181EB
102
{ACAD_REACTORS
330
18963
102
}
330
18
100
AcDbEntity
  8
細線
100
AcDbCircle
 10
211.5248446062344
 20
267.382143804355
 30
0.0
 40
0.5
100
AcDbArc
 50
342.3463876628241
 51
77.6536123371765
  0
CIRCLE
  5
181EC
102
{ACAD_REACTORS
330
18963
102
}
330
18
100
AcDbEntity
  8
細線
100
AcDbCircle
 10
212.4601520423218
 20
267.922143804355
 30
0.0
 40
0.8299999999999998
  0
ARC
  5
181ED
102
{ACAD_REACTORS
330
18963
102
}
330
18
100
AcDbEntity
  8
細線
100
AcDbCircle
 10
213.3954594784089
 20
267.382143804355
 30
0.0
 40
0.5
100
AcDbArc
 50
102.3463876628247
 51
197.6536123371761
  0
CIRCLE
  5
181EE
102
{ACAD_REACTORS
330
18963
102
}
330
18
100
AcDbEntity
  8
細線
100
AcDbCircle
 10
212.4601520423218
 20
267.922143804355
 30
0.0
 40
3.5
  0
ARC
  5
181EF
102
{ACAD_REACTORS
330
18963
102
}
330
18
100
AcDbEntity
  8
細線
100
AcDbCircle
 10
212.4601520423218
 20
269.002143804355
 30
0.0
 40
0.5
100
AcDbArc
 50
222.3463876628245
 51
317.6536123371756
  0
ARC
  5
181F0
102
{ACAD_REACTORS
330
18963
102
}
330
18
100
AcDbEntity
  8
細線
100
AcDbCircle
 10
211.5248446062344
 20
268.4621438043551
 30
0.0
 40
0.5
100
AcDbArc
 50
282.3463876628246
 51
17.65361233717614
  0
ARC
  5
181F1
102
{ACAD_REACTORS
330
18963
102
}
330
18
100
AcDbEntity
  8
細線
100
AcDbCircle
 10
213.3954594784089
 20
268.4621438043551
 30
0.0
 40
0.5
100
AcDbArc
 50
162.3463876628241
 51
257.6536123371764
  0
ARC
  5
181F2
330
18
100
AcDbEntity
  8
細線
100
AcDbCircle
 10
153.1197509651468
 20
242.2625448815304
 30
0.0
 40
0.5
100
AcDbArc
 50
87.34638766282456
 51
182.6536123371754
  0
ARC
  5
181F3
330
18
100
AcDbEntity
  8
細線
100
AcDbCircle
 10
152.0765510727547
 20
241.9830203128196
 30
0.0
 40
0.5
100
AcDbArc
 50
27.34638766282415
 51
122.6536123371763
  0
CIRCLE
  5
181F4
330
18
100
AcDbEntity
  8
細線
100
AcDbCircle
 10
152.3560756414655
 20
243.0262202052118
 30
0.0
 40
0.8299999999999998
  0
ARC
  5
181F5
330
18
100
AcDbEntity
  8
細線
100
AcDbCircle
 10
153.3992755338578
 20
243.3057447739225
 30
0.0
 40
0.5
100
AcDbArc
 50
147.3463876628247
 51
242.6536123371759
  0
CIRCLE
  5
181F6
330
18
100
AcDbEntity
  8
細線
100
AcDbCircle
 10
152.3560756414655
 20
243.0262202052118
 30
0.0
 40
3.5
  0
ARC
  5
181F7
330
18
100
AcDbEntity
  8
細線
100
AcDbCircle
 10
151.592400317784
 20
243.7898955288932
 30
0.0
 40
0.5
100
AcDbArc
 50
267.3463876628246
 51
2.653612337175812
  0
ARC
  5
181F8
330
18
100
AcDbEntity
  8
細線
100
AcDbCircle
 10
151.3128757490734
 20
242.746695636501
 30
0.0
 40
0.5
100
AcDbArc
 50
327.3463876628246
 51
62.65361233717611
  0
ARC
  5
181F9
330
18
100
AcDbEntity
  8
細線
100
AcDbCircle
 10
152.6356002101761
 20
244.0694200976039
 30
0.0
 40
0.5
100
AcDbArc
 50
207.346387662824
 51
302.6536123371763
  0
ARC
  5
181FA
330
18
100
AcDbEntity
  8
細線
100
AcDbCircle
 10
128.5401520423221
 20
182.9221438043558
 30
0.0
 40
0.5
100
AcDbArc
 50
132.3463876628244
 51
227.6536123371756
  0
ARC
  5
181FB
330
18
100
AcDbEntity
  8
細線
100
AcDbCircle
 10
128.0001520423221
 20
181.9868363682686
 30
0.0
 40
0.5
100
AcDbArc
 50
72.34638766282412
 51
167.6536123371764
  0
CIRCLE
  5
181FC
330
18
100
AcDbEntity
  8
細線
100
AcDbCircle
 10
127.4601520423221
 20
182.9221438043558
 30
0.0
 40
0.8299999999999998
  0
ARC
  5
181FD
330
18
100
AcDbEntity
  8
細線
100
AcDbCircle
 10
128.0001520423221
 20
183.8574512404429
 30
0.0
 40
0.5
100
AcDbArc
 50
192.3463876628245
 51
287.653612337176
  0
CIRCLE
  5
181FE
330
18
100
AcDbEntity
  8
細線
100
AcDbCircle
 10
127.4601520423221
 20
182.9221438043558
 30
0.0
 40
3.5
  0
ARC
  5
181FF
330
18
100
AcDbEntity
  8
細線
100
AcDbCircle
 10
126.3801520423221
 20
182.9221438043558
 30
0.0
 40
0.5
100
AcDbArc
 50
312.3463876628245
 51
47.65361233717578
  0
ARC
  5
18200
330
18
100
AcDbEntity
  8
細線
100
AcDbCircle
 10
126.9201520423221
 20
181.9868363682686
 30
0.0
 40
0.5
100
AcDbArc
 50
12.34638766282464
 51
107.653612337176
  0
ARC
  5
18201
330
18
100
AcDbEntity
  8
細線
100
AcDbCircle
 10
126.9201520423221
 20
183.8574512404429
 30
0.0
 40
0.5
100
AcDbArc
 50
252.3463876628241
 51
347.6536123371761
  0
ARC
  5
18202
330
18
100
AcDbEntity
  8
細線
100
AcDbCircle
 10
153.1197509651468
 20
123.5817427271808
 30
0.0
 40
0.5
100
AcDbArc
 50
177.3463876628245
 51
272.6536123371756
  0
ARC
  5
18203
330
18
100
AcDbEntity
  8
細線
100
AcDbCircle
 10
153.3992755338574
 20
122.5385428347887
 30
0.0
 40
0.5
100
AcDbArc
 50
117.3463876628241
 51
212.6536123371764
  0
CIRCLE
  5
18204
330
18
100
AcDbEntity
  8
細線
100
AcDbCircle
 10
152.3560756414652
 20
122.8180674034995
 30
0.0
 40
0.8299999999999998
  0
ARC
  5
18205
330
18
100
AcDbEntity
  8
細線
100
AcDbCircle
 10
152.0765510727545
 20
123.8612672958917
 30
0.0
 40
0.5
100
AcDbArc
 50
237.3463876628246
 51
332.653612337176
  0
CIRCLE
  5
18206
330
18
100
AcDbEntity
  8
細線
100
AcDbCircle
 10
152.3560756414652
 20
122.8180674034995
 30
0.0
 40
3.5
  0
ARC
  5
18207
330
18
100
AcDbEntity
  8
細線
100
AcDbCircle
 10
151.5924003177838
 20
122.054392079818
 30
0.0
 40
0.5
100
AcDbArc
 50
357.3463876628244
 51
92.65361233717577
  0
ARC
  5
18208
330
18
100
AcDbEntity
  8
細線
100
AcDbCircle
 10
152.6356002101759
 20
121.7748675111071
 30
0.0
 40
0.5
100
AcDbArc
 50
57.34638766282464
 51
152.6536123371759
  0
ARC
  5
18209
330
18
100
AcDbEntity
  8
細線
100
AcDbCircle
 10
151.3128757490731
 20
123.0975919722101
 30
0.0
 40
0.5
100
AcDbArc
 50
297.3463876628238
 51
32.65361233717641
  0
CIRCLE
  5
1821E
330
18
100
AcDbEntity
  8
0
100
AcDbCircle
 10
212.4601520423215
 20
182.9221438043557
 30
0.0
 40
88.9
  0
LINE
  5
18279
330
18
100
AcDbEntity
  8
中心線
100
AcDbLine
 10
683.1519182653108
 20
182.9460664683588
 30
0.0
 11
683.1519182653095
 21
277.9460664683583
 31
0.0
  0
LINE
  5
1828F
330
18
100
AcDbEntity
  8
0
100
AcDbLine
 10
497.3032641809375
 20
185.0460664683566
 30
0.0
 11
542.9081587174237
 21
185.0460664683584
 31
0.0
  0
LINE
  5
18290
330
18
100
AcDbEntity
  8
中心線
100
AcDbLine
 10
504.5199928435624
 20
182.9460664683585
 30
0.0
 11
468.1246578268948
 21
182.9460664683582
 31
0.0
  0
LINE
  5
18291
330
18
100
AcDbEntity
  8
0
100
AcDbLine
 10
497.3032641809375
 20
180.8460664683581
 30
0.0
 11
542.9081587174237
 21
180.8460664683584
 31
0.0
  0
LINE
  5
182CB
330
18
100
AcDbEntity
  8
２点鎖線
 48
0.5
100
AcDbLine
 10
329.8032641809363
 20
172.9460664682783
 30
0.0
 11
329.8032641809363
 21
192.9460664682783
 31
0.0
  0
LINE
  5
182CC
330
18
100
AcDbEntity
  8
CENTER
100
AcDbLine
 10
349.8032641809366
 20
207.0645198046331
 30
0.0
 11
349.8032641809366
 21
158.9821033811381
 31
0.0
  0
LINE
  5
182CD
330
18
100
AcDbEntity
  8
CENTER
 48
0.5
100
AcDbLine
 10
372.9732605394628
 20
198.9257758349993
 30
0.0
 11
372.9732605394628
 21
166.1320041617583
 31
0.0
  0
LINE
  5
182CE
330
18
100
AcDbEntity
  8
２点鎖線
 48
0.5
100
AcDbLine
 10
379.9732605394635
 20
199.9460664682787
 30
0.0
 11
379.9732605394635
 21
165.9460664682784
 31
0.0
  0
CIRCLE
  5
182CF
330
18
100
AcDbEntity
  8
２点鎖線
 48
0.5
100
AcDbCircle
 10
349.8032641809369
 20
182.9460664683583
 30
0.0
 40
10.0
  0
LINE
  5
182D0
330
18
100
AcDbEntity
  8
２点鎖線
 48
0.5
100
AcDbLine
 10
376.9732605394635
 20
162.9460664682785
 30
0.0
 11
339.8032641809363
 21
162.9460664682785
 31
0.0
  0
LINE
  5
182D1
330
18
100
AcDbEntity
  8
２点鎖線
 48
0.5
100
AcDbLine
 10
329.8032641809363
 20
172.9460664682783
 30
0.0
 11
339.8032641809363
 21
162.9460664682785
 31
0.0
  0
LINE
  5
182D2
330
18
100
AcDbEntity
  8
中心線
 48
0.5
100
AcDbLine
 10
366.8927753383631
 20
172.9699891323616
 30
0.0
 11
378.9208885374236
 21
172.9699891323616
 31
0.0
  0
CIRCLE
  5
182D3
330
18
100
AcDbEntity
  8
２点鎖線
 48
0.5
100
AcDbCircle
 10
372.9732605394631
 20
172.9699891323616
 30
0.0
 40
4.25
  0
LINE
  5
182D4
330
18
100
AcDbEntity
  8
２点鎖線
 48
0.5
100
AcDbLine
 10
379.9732605394635
 20
165.9460664682784
 30
0.0
 11
376.9732605394635
 21
162.9460664682785
 31
0.0
  0
LINE
  5
182D5
330
18
100
AcDbEntity
  8
２点鎖線
 48
0.5
100
AcDbLine
 10
339.8032641809363
 20
202.9460664682785
 30
0.0
 11
376.9732605394635
 21
202.9460664682785
 31
0.0
  0
LINE
  5
182D6
330
18
100
AcDbEntity
  8
２点鎖線
 48
0.5
100
AcDbLine
 10
339.8032641809363
 20
202.9460664682785
 30
0.0
 11
329.8032641809363
 21
192.9460664682783
 31
0.0
  0
LINE
  5
182D7
330
18
100
AcDbEntity
  8
中心線
 48
0.5
100
AcDbLine
 10
366.8927753383631
 20
192.9699891323616
 30
0.0
 11
378.9208885374236
 21
192.9699891323616
 31
0.0
  0
CIRCLE
  5
182D8
330
18
100
AcDbEntity
  8
２点鎖線
 48
0.5
100
AcDbCircle
 10
372.9732605394631
 20
192.9699891323616
 30
0.0
 40
4.25
  0
LINE
  5
182D9
330
18
100
AcDbEntity
  8
２点鎖線
 48
0.5
100
AcDbLine
 10
379.9732605394635
 20
199.9460664682787
 30
0.0
 11
376.9732605394635
 21
202.9460664682785
 31
0.0
  0
LINE
  5
18306
330
18
100
AcDbEntity
  8
仮想線
 48
0.5
100
AcDbLine
 10
306.8601467765743
 20
172.8427541890745
 30
0.0
 11
306.860146776573
 21
177.8427541890748
 31
0.0
  0
LINE
  5
18307
330
18
100
AcDbEntity
  8
仮想線
  6
BYBLOCK
 48
0.5
100
AcDbLine
 10
301.3601415108244
 20
202.9221438043554
 30
0.0
 11
301.3601625738185
 21
162.9221438043556
 31
0.0
  0
LINE
  5
18308
330
18
100
AcDbEntity
  8
仮想線
 48
0.5
100
AcDbLine
 10
305.8601415108253
 20
202.9221438043558
 30
0.0
 11
305.8601625738189
 21
162.9221438043549
 31
0.0
  0
LINE
  5
18309
330
18
100
AcDbEntity
  8
中心線
 48
0.5
100
AcDbLine
 10
290.8271474582769
 20
172.8427541890749
 30
0.0
 11
315.9180105004488
 21
172.8427541890749
 31
0.0
  0
LINE
  5
1830A
330
18
100
AcDbEntity
  8
仮想線
  6
BYBLOCK
 48
0.5
100
AcDbLine
 10
305.8601625738189
 20
162.9221438043549
 30
0.0
 11
301.3601625738185
 21
162.9221438043556
 31
0.0
  0
LINE
  5
1830B
330
18
100
AcDbEntity
  8
仮想線
 48
0.5
100
AcDbLine
 10
308.1601467765732
 20
177.0133645737945
 30
0.0
 11
312.8601467765737
 21
177.0133645737945
 31
0.0
  0
LINE
  5
1830C
330
18
100
AcDbEntity
  8
仮想線
 48
0.5
100
AcDbLine
 10
308.1601467765732
 20
168.5133645737943
 30
0.0
 11
312.8601467765733
 21
168.5133645737943
 31
0.0
  0
LINE
  5
1830D
330
18
100
AcDbEntity
  8
仮想線
 48
0.5
100
AcDbLine
 10
306.8601467765739
 20
177.4427541890748
 30
0.0
 11
308.1601467765732
 21
177.4427541890748
 31
0.0
  0
LINE
  5
1830E
330
18
100
AcDbEntity
  8
仮想線
 48
0.5
100
AcDbLine
 10
305.8601467765733
 20
167.8427541890751
 30
0.0
 11
306.860146776573
 21
167.8427541890749
 31
0.0
  0
LINE
  5
1830F
330
18
100
AcDbEntity
  8
仮想線
 48
0.5
100
AcDbLine
 10
306.8601467765739
 20
168.2427541890749
 30
0.0
 11
308.1601467765732
 21
168.2427541890749
 31
0.0
  0
LINE
  5
18310
330
18
100
AcDbEntity
  8
仮想線
 48
0.5
100
AcDbLine
 10
306.860146776573
 20
167.8427541890749
 30
0.0
 11
306.8601467765743
 21
172.8427541890745
 31
0.0
  0
LINE
  5
18311
330
18
100
AcDbEntity
  8
仮想線
 48
0.5
100
AcDbLine
 10
308.1601467765732
 20
168.2427541890749
 30
0.0
 11
308.1601467765732
 21
177.4427541890748
 31
0.0
  0
LINE
  5
18312
330
18
100
AcDbEntity
  8
仮想線
 48
0.5
100
AcDbLine
 10
312.8601467765737
 20
177.0133645737945
 30
0.0
 11
313.1601467765735
 21
176.7133645737943
 31
0.0
  0
LINE
  5
18313
330
18
100
AcDbEntity
  8
仮想線
 48
0.5
100
AcDbLine
 10
313.1601467765735
 20
168.8133645737947
 30
0.0
 11
312.8601467765733
 21
168.5133645737943
 31
0.0
  0
LINE
  5
18314
330
18
100
AcDbEntity
  8
仮想線
 48
0.5
100
AcDbLine
 10
313.1601467765735
 20
168.8133645737947
 30
0.0
 11
313.1601467765735
 21
176.7133645737943
 31
0.0
  0
LINE
  5
18315
330
18
100
AcDbEntity
  8
中心線
 48
0.5
100
AcDbLine
 10
290.8271474582769
 20
192.8427541890745
 30
0.0
 11
315.9180105004488
 21
192.8427541890745
 31
0.0
  0
LINE
  5
1831E
330
18
100
AcDbEntity
  8
仮想線
 48
0.5
100
AcDbLine
 10
308.1601467765732
 20
197.4427541890746
 30
0.0
 11
308.1601467765732
 21
188.2427541890748
 31
0.0
  0
LINE
  5
1831F
330
18
100
AcDbEntity
  8
仮想線
 48
0.5
100
AcDbLine
 10
306.8601467765743
 20
192.8427541890745
 30
0.0
 11
306.860146776573
 21
187.8427541890745
 31
0.0
  0
LINE
  5
18320
330
18
100
AcDbEntity
  8
仮想線
 48
0.5
100
AcDbLine
 10
313.1601467765735
 20
196.872143804355
 30
0.0
 11
313.1601467765735
 21
188.9721438043553
 31
0.0
  0
LINE
  5
18321
330
18
100
AcDbEntity
  8
仮想線
 48
0.5
100
AcDbLine
 10
308.1601467765732
 20
188.6721438043552
 30
0.0
 11
312.8601467765737
 21
188.6721438043552
 31
0.0
  0
LINE
  5
18322
330
18
100
AcDbEntity
  8
仮想線
 48
0.5
100
AcDbLine
 10
305.8601467765733
 20
177.8427541890748
 30
0.0
 11
306.860146776573
 21
177.8427541890748
 31
0.0
  0
LINE
  5
18323
330
18
100
AcDbEntity
  8
仮想線
 48
0.5
100
AcDbLine
 10
305.8601467765733
 20
187.8427541890745
 30
0.0
 11
306.860146776573
 21
187.8427541890745
 31
0.0
  0
LINE
  5
18324
330
18
100
AcDbEntity
  8
仮想線
 48
0.5
100
AcDbLine
 10
306.8601467765739
 20
188.2427541890748
 30
0.0
 11
308.1601467765732
 21
188.2427541890748
 31
0.0
  0
LINE
  5
18325
330
18
100
AcDbEntity
  8
仮想線
 48
0.5
100
AcDbLine
 10
312.8601467765737
 20
188.6721438043552
 30
0.0
 11
313.1601467765735
 21
188.9721438043553
 31
0.0
  0
LINE
  5
18326
330
18
100
AcDbEntity
  8
仮想線
 48
0.5
100
AcDbLine
 10
308.1601467765732
 20
197.172143804355
 30
0.0
 11
312.8601467765733
 21
197.172143804355
 31
0.0
  0
LINE
  5
18327
330
18
100
AcDbEntity
  8
仮想線
 48
0.5
100
AcDbLine
 10
305.8601467765733
 20
197.8427541890745
 30
0.0
 11
306.860146776573
 21
197.8427541890745
 31
0.0
  0
LINE
  5
18328
330
18
100
AcDbEntity
  8
仮想線
 48
0.5
100
AcDbLine
 10
306.8601467765739
 20
197.4427541890746
 30
0.0
 11
308.1601467765732
 21
197.4427541890746
 31
0.0
  0
LINE
  5
18329
330
18
100
AcDbEntity
  8
仮想線
 48
0.5
100
AcDbLine
 10
306.860146776573
 20
197.8427541890745
 30
0.0
 11
306.8601467765743
 21
192.8427541890745
 31
0.0
  0
LINE
  5
1832A
330
18
100
AcDbEntity
  8
仮想線
 48
0.5
100
AcDbLine
 10
313.1601467765735
 20
196.872143804355
 30
0.0
 11
312.8601467765733
 21
197.172143804355
 31
0.0
  0
LINE
  5
1832B
330
18
100
AcDbEntity
  8
仮想線
 48
0.5
100
AcDbLine
 10
301.3601415108244
 20
202.9221438043554
 30
0.0
 11
305.8601415108253
 21
202.9221438043558
 31
0.0
  0
LINE
  5
1832C
330
18
100
AcDbEntity
  8
仮想線
  6
BYBLOCK
 48
0.5
100
AcDbLine
 10
123.5601625738187
 20
202.9221438043554
 30
0.0
 11
123.5601415108245
 21
162.9221438043556
 31
0.0
  0
LINE
  5
1832D
330
18
100
AcDbEntity
  8
仮想線
 48
0.5
100
AcDbLine
 10
119.0601625738179
 20
202.9221438043558
 30
0.0
 11
119.060141510824
 21
162.9221438043549
 31
0.0
  0
LINE
  5
1832E
330
18
100
AcDbEntity
  8
仮想線
 48
0.5
100
AcDbLine
 10
116.7601573080696
 20
177.0133645737945
 30
0.0
 11
112.0601573080693
 21
177.0133645737945
 31
0.0
  0
LINE
  5
1832F
330
18
100
AcDbEntity
  8
仮想線
 48
0.5
100
AcDbLine
 10
116.7601573080696
 20
168.5133645737943
 30
0.0
 11
112.0601573080697
 21
168.5133645737943
 31
0.0
  0
LINE
  5
18330
330
18
100
AcDbEntity
  8
中心線
 48
0.5
100
AcDbLine
 10
134.0931566263664
 20
172.8427541890749
 30
0.0
 11
109.0022935841943
 21
172.842754189075
 31
0.0
  0
LINE
  5
18331
330
18
100
AcDbEntity
  8
仮想線
 48
0.5
100
AcDbLine
 10
118.0601573080698
 20
167.8427541890749
 30
0.0
 11
118.0601573080689
 21
172.8427541890745
 31
0.0
  0
LINE
  5
18332
330
18
100
AcDbEntity
  8
仮想線
 48
0.5
100
AcDbLine
 10
116.7601573080696
 20
168.2427541890749
 30
0.0
 11
116.7601573080696
 21
177.4427541890748
 31
0.0
  0
LINE
  5
18333
330
18
100
AcDbEntity
  8
仮想線
 48
0.5
100
AcDbLine
 10
119.0601573080698
 20
167.8427541890751
 30
0.0
 11
118.0601573080698
 21
167.8427541890749
 31
0.0
  0
LINE
  5
18334
330
18
100
AcDbEntity
  8
仮想線
 48
0.5
100
AcDbLine
 10
118.0601573080693
 20
168.2427541890749
 30
0.0
 11
116.7601573080696
 21
168.2427541890749
 31
0.0
  0
LINE
  5
18335
330
18
100
AcDbEntity
  8
仮想線
  6
BYBLOCK
 48
0.5
100
AcDbLine
 10
119.060141510824
 20
162.9221438043549
 30
0.0
 11
123.5601415108245
 21
162.9221438043556
 31
0.0
  0
LINE
  5
18336
330
18
100
AcDbEntity
  8
仮想線
 48
0.5
100
AcDbLine
 10
118.0601573080688
 20
172.8427541890745
 30
0.0
 11
118.0601573080698
 21
177.8427541890748
 31
0.0
  0
LINE
  5
18337
330
18
100
AcDbEntity
  8
仮想線
 48
0.5
100
AcDbLine
 10
118.0601573080693
 20
177.4427541890748
 30
0.0
 11
116.7601573080696
 21
177.4427541890748
 31
0.0
  0
LINE
  5
18338
330
18
100
AcDbEntity
  8
仮想線
 48
0.5
100
AcDbLine
 10
119.0601573080698
 20
177.8427541890748
 30
0.0
 11
118.0601573080698
 21
177.8427541890748
 31
0.0
  0
LINE
  5
18339
330
18
100
AcDbEntity
  8
仮想線
 48
0.5
100
AcDbLine
 10
111.7601573080696
 20
168.8133645737947
 30
0.0
 11
111.7601573080696
 21
176.7133645737944
 31
0.0
  0
LINE
  5
1833A
330
18
100
AcDbEntity
  8
仮想線
 48
0.5
100
AcDbLine
 10
111.7601573080696
 20
168.8133645737947
 30
0.0
 11
112.0601573080697
 21
168.5133645737943
 31
0.0
  0
LINE
  5
1833B
330
18
100
AcDbEntity
  8
仮想線
 48
0.5
100
AcDbLine
 10
112.0601573080693
 20
177.0133645737945
 30
0.0
 11
111.7601573080696
 21
176.7133645737944
 31
0.0
  0
LINE
  5
1833C
330
18
100
AcDbEntity
  8
仮想線
 48
0.5
100
AcDbLine
 10
116.7601573080696
 20
197.172143804355
 30
0.0
 11
112.0601573080698
 21
197.1721438043552
 31
0.0
  0
LINE
  5
1833D
330
18
100
AcDbEntity
  8
仮想線
 48
0.5
100
AcDbLine
 10
116.7601573080696
 20
188.6721438043552
 30
0.0
 11
112.0601573080693
 21
188.6721438043552
 31
0.0
  0
LINE
  5
1833E
330
18
100
AcDbEntity
  8
中心線
 48
0.5
100
AcDbLine
 10
134.0931566263664
 20
192.8427541890745
 30
0.0
 11
109.0022935841943
 21
192.8427541890748
 31
0.0
  0
LINE
  5
1833F
330
18
100
AcDbEntity
  8
仮想線
 48
0.5
100
AcDbLine
 10
118.0601573080698
 20
197.8427541890745
 30
0.0
 11
118.0601573080688
 21
192.8427541890745
 31
0.0
  0
LINE
  5
18340
330
18
100
AcDbEntity
  8
仮想線
 48
0.5
100
AcDbLine
 10
116.7601573080696
 20
197.4427541890746
 30
0.0
 11
116.7601573080696
 21
188.2427541890748
 31
0.0
  0
LINE
  5
18341
330
18
100
AcDbEntity
  8
仮想線
 48
0.5
100
AcDbLine
 10
119.0601573080698
 20
187.8427541890745
 30
0.0
 11
118.0601573080698
 21
187.8427541890745
 31
0.0
  0
LINE
  5
18342
330
18
100
AcDbEntity
  8
仮想線
 48
0.5
100
AcDbLine
 10
118.0601573080694
 20
188.2427541890748
 30
0.0
 11
116.7601573080696
 21
188.2427541890748
 31
0.0
  0
LINE
  5
18343
330
18
100
AcDbEntity
  8
仮想線
 48
0.5
100
AcDbLine
 10
118.0601573080688
 20
192.8427541890745
 30
0.0
 11
118.0601573080698
 21
187.8427541890745
 31
0.0
  0
LINE
  5
18344
330
18
100
AcDbEntity
  8
仮想線
 48
0.5
100
AcDbLine
 10
123.5601625738186
 20
202.9221438043554
 30
0.0
 11
119.0601625738179
 21
202.9221438043558
 31
0.0
  0
LINE
  5
18345
330
18
100
AcDbEntity
  8
仮想線
 48
0.5
100
AcDbLine
 10
119.0601573080698
 20
197.8427541890745
 30
0.0
 11
118.0601573080698
 21
197.8427541890745
 31
0.0
  0
LINE
  5
18346
330
18
100
AcDbEntity
  8
仮想線
 48
0.5
100
AcDbLine
 10
118.0601573080694
 20
197.4427541890746
 30
0.0
 11
116.7601573080696
 21
197.4427541890746
 31
0.0
  0
LINE
  5
18347
330
18
100
AcDbEntity
  8
仮想線
 48
0.5
100
AcDbLine
 10
111.7601573080696
 20
196.872143804355
 30
0.0
 11
111.7601573080696
 21
188.9721438043554
 31
0.0
  0
LINE
  5
18348
330
18
100
AcDbEntity
  8
仮想線
 48
0.5
100
AcDbLine
 10
112.0601573080693
 20
188.6721438043552
 30
0.0
 11
111.7601573080696
 21
188.9721438043554
 31
0.0
  0
LINE
  5
18349
330
18
100
AcDbEntity
  8
仮想線
 48
0.5
100
AcDbLine
 10
111.7601573080696
 20
196.872143804355
 30
0.0
 11
112.0601573080698
 21
197.1721438043552
 31
0.0
  0
CIRCLE
  5
1834E
330
18
100
AcDbEntity
  8
細線
100
AcDbCircle
 10
223.5884380150413
 20
224.4534724557027
 30
0.0
 40
1.6
  0
CIRCLE
  5
1834F
330
18
100
AcDbEntity
  8
細線
100
AcDbCircle
 10
223.5884380150413
 20
224.4534724557027
 30
0.0
 40
2.0
  0
CIRCLE
  5
18350
330
18
100
AcDbEntity
  8
細線
100
AcDbCircle
 10
201.3318660696012
 20
224.4534724557025
 30
0.0
 40
2.0
  0
CIRCLE
  5
18351
330
18
100
AcDbEntity
  8
細線
100
AcDbCircle
 10
201.3318660696012
 20
224.4534724557025
 30
0.0
 40
1.6
  0
CIRCLE
  5
18353
330
18
100
AcDbEntity
  8
細線
100
AcDbCircle
 10
182.0571093636943
 20
213.3251864829824
 30
0.0
 40
2.0
  0
CIRCLE
  5
18354
330
18
100
AcDbEntity
  8
細線
100
AcDbCircle
 10
182.0571093636943
 20
213.3251864829824
 30
0.0
 40
1.6
  0
CIRCLE
  5
18356
330
18
100
AcDbEntity
  8
細線
100
AcDbCircle
 10
170.9288233909745
 20
194.0504297770753
 30
0.0
 40
2.0
  0
CIRCLE
  5
18357
330
18
100
AcDbEntity
  8
細線
100
AcDbCircle
 10
170.9288233909745
 20
194.0504297770753
 30
0.0
 40
1.6
  0
CIRCLE
  5
18359
330
18
100
AcDbEntity
  8
細線
100
AcDbCircle
 10
170.9288233909746
 20
171.7938578316353
 30
0.0
 40
2.0
  0
CIRCLE
  5
1835A
330
18
100
AcDbEntity
  8
細線
100
AcDbCircle
 10
170.9288233909746
 20
171.7938578316353
 30
0.0
 40
1.6
  0
CIRCLE
  5
1835C
330
18
100
AcDbEntity
  8
細線
100
AcDbCircle
 10
182.0571093636947
 20
152.5191011257283
 30
0.0
 40
2.0
  0
CIRCLE
  5
1835D
330
18
100
AcDbEntity
  8
細線
100
AcDbCircle
 10
182.0571093636947
 20
152.5191011257283
 30
0.0
 40
1.6
  0
CIRCLE
  5
18365
330
18
100
AcDbEntity
  8
細線
100
AcDbCircle
 10
242.863194720949
 20
152.5191011257287
 30
0.0
 40
2.0
  0
CIRCLE
  5
18366
330
18
100
AcDbEntity
  8
細線
100
AcDbCircle
 10
242.863194720949
 20
152.5191011257287
 30
0.0
 40
1.6
  0
CIRCLE
  5
18368
330
18
100
AcDbEntity
  8
細線
100
AcDbCircle
 10
253.9914806936688
 20
171.7938578316358
 30
0.0
 40
2.0
  0
CIRCLE
  5
18369
330
18
100
AcDbEntity
  8
細線
100
AcDbCircle
 10
253.9914806936688
 20
171.7938578316358
 30
0.0
 40
1.6
  0
CIRCLE
  5
1836B
330
18
100
AcDbEntity
  8
細線
100
AcDbCircle
 10
253.9914806936686
 20
194.0504297770759
 30
0.0
 40
2.0
  0
CIRCLE
  5
1836C
330
18
100
AcDbEntity
  8
細線
100
AcDbCircle
 10
253.9914806936686
 20
194.0504297770759
 30
0.0
 40
1.6
  0
CIRCLE
  5
1836E
330
18
100
AcDbEntity
  8
細線
100
AcDbCircle
 10
242.8631947209481
 20
213.3251864829829
 30
0.0
 40
2.0
  0
CIRCLE
  5
1836F
330
18
100
AcDbEntity
  8
細線
100
AcDbCircle
 10
242.8631947209481
 20
213.3251864829829
 30
0.0
 40
1.6
  0
LINE
  5
18380
330
18
100
AcDbEntity
  8
0
100
AcDbLine
 10
450.3032641809372
 20
271.8460673267064
 30
0.0
 11
450.303264180937
 21
94.04606561001022
 31
0.0
  0
LINE
  5
18381
330
18
100
AcDbEntity
  8
0
100
AcDbLine
 10
444.0032641809371
 20
271.8460673267064
 30
0.0
 11
444.0032641809366
 21
94.04606561001022
 31
0.0
  0
LINE
  5
18387
330
18
100
AcDbEntity
  8
0
100
AcDbLine
 10
444.0032641809371
 20
270.9460664683583
 30
0.0
 11
450.3032641809372
 21
270.9460664683583
 31
0.0
  0
LINE
  5
18388
330
18
100
AcDbEntity
  8
0
100
AcDbLine
 10
444.0032641809366
 20
94.94606646835832
 30
0.0
 11
450.3032641809371
 21
94.94606646835832
 31
0.0
  0
ARC
  5
1862C
330
18
100
AcDbEntity
  8
0
100
AcDbCircle
 10
683.1519182653095
 20
182.946066468358
 30
0.0
 40
55.0
100
AcDbArc
 50
0.0000000000002385
 51
21.95805170821977
  0
ARC
  5
186FF
330
18
100
AcDbEntity
  8
中心線
100
AcDbCircle
 10
683.1519182653095
 20
182.946066468356
 30
0.0
 40
32.5
100
AcDbArc
 50
240.9190710138668
 51
293.6743988442863
  0
ARC
  5
18710
330
18
100
AcDbEntity
  8
中心線
100
AcDbCircle
 10
683.1519182653095
 20
182.946066468356
 30
0.0
 40
32.5
100
AcDbArc
 50
336.2200147353092
 51
23.69639549865293
  0
ARC
  5
18711
330
18
100
AcDbEntity
  8
中心線
100
AcDbCircle
 10
683.1519182653095
 20
182.946066468356
 30
0.0
 40
32.5
100
AcDbArc
 50
61.31917984662063
 51
113.7188429293193
  0
ARC
  5
18712
330
18
100
AcDbEntity
  8
0
100
AcDbCircle
 10
683.1519182653108
 20
182.9460664683546
 30
0.0
 40
45.0
100
AcDbArc
 50
0.000000000003971
 51
23.75885007994478
  0
LINE
  5
187CB
330
18
100
AcDbEntity
  8
0
100
AcDbLine
 10
548.1760447356816
 20
309.2077573341738
 30
0.0
 11
555.6760447320819
 21
309.2077573341738
 31
0.0
  0
CIRCLE
  5
18971
102
{ACAD_REACTORS
330
1897A
102
}
330
18
100
AcDbEntity
  8
細線
100
AcDbCircle
 10
697.0037340700001
 20
221.0036176101845
 30
0.0
 40
3.5
  0
ARC
  5
18972
102
{ACAD_REACTORS
330
1897A
102
}
330
18
100
AcDbEntity
  8
細線
100
AcDbCircle
 10
697.9390415060873
 20
220.4636176101845
 30
0.0
 40
0.5
100
AcDbArc
 50
102.3463876628267
 51
197.6536123371752
  0
CIRCLE
  5
18973
102
{ACAD_REACTORS
330
1897A
102
}
330
18
100
AcDbEntity
  8
細線
100
AcDbCircle
 10
697.0037340700001
 20
221.0036176101845
 30
0.0
 40
0.8299999999999998
  0
ARC
  5
18974
102
{ACAD_REACTORS
330
1897A
102
}
330
18
100
AcDbEntity
  8
細線
100
AcDbCircle
 10
696.0684266339129
 20
220.4636176101845
 30
0.0
 40
0.5
100
AcDbArc
 50
342.3463876628246
 51
77.65361233717316
  0
ARC
  5
18975
102
{ACAD_REACTORS
330
1897A
102
}
330
18
100
AcDbEntity
  8
細線
100
AcDbCircle
 10
697.0037340700001
 20
219.9236176101845
 30
0.0
 40
0.5
100
AcDbArc
 50
42.3463876628242
 51
137.6536123371757
  0
ARC
  5
18976
102
{ACAD_REACTORS
330
1897A
102
}
330
18
100
AcDbEntity
  8
細線
100
AcDbCircle
 10
697.9390415060873
 20
221.5436176101845
 30
0.0
 40
0.5
100
AcDbArc
 50
162.3463876628247
 51
257.653612337173
  0
ARC
  5
18977
102
{ACAD_REACTORS
330
1897A
102
}
330
18
100
AcDbEntity
  8
細線
100
AcDbCircle
 10
696.0684266339129
 20
221.5436176101845
 30
0.0
 40
0.5
100
AcDbArc
 50
282.3463876628268
 51
17.65361233717832
  0
ARC
  5
18978
102
{ACAD_REACTORS
330
1897A
102
}
330
18
100
AcDbEntity
  8
細線
100
AcDbCircle
 10
697.0037340700001
 20
222.0836176101845
 30
0.0
 40
0.5
100
AcDbArc
 50
222.3463876628239
 51
317.6536123371756
  0
CIRCLE
  5
1897B
102
{ACAD_REACTORS
330
18983
102
}
330
18
100
AcDbEntity
  8
細線
100
AcDbCircle
 10
643.2672042683157
 20
175.9133152728469
 30
0.0
 40
3.5
  0
ARC
  5
1897C
102
{ACAD_REACTORS
330
18983
102
}
330
18
100
AcDbEntity
  8
細線
100
AcDbCircle
 10
643.2672042683157
 20
176.9933152728473
 30
0.0
 40
0.5
100
AcDbArc
 50
222.3463876628239
 51
317.6536123371756
  0
ARC
  5
1897D
102
{ACAD_REACTORS
330
18983
102
}
330
18
100
AcDbEntity
  8
細線
100
AcDbCircle
 10
642.3318968322287
 20
176.4533152728473
 30
0.0
 40
0.5
100
AcDbArc
 50
282.3463876628268
 51
17.65361233717832
  0
ARC
  5
1897E
102
{ACAD_REACTORS
330
18983
102
}
330
18
100
AcDbEntity
  8
細線
100
AcDbCircle
 10
644.2025117044029
 20
176.4533152728473
 30
0.0
 40
0.5
100
AcDbArc
 50
162.3463876628247
 51
257.653612337173
  0
ARC
  5
1897F
102
{ACAD_REACTORS
330
18983
102
}
330
18
100
AcDbEntity
  8
細線
100
AcDbCircle
 10
643.2672042683157
 20
174.8333152728473
 30
0.0
 40
0.5
100
AcDbArc
 50
42.3463876628242
 51
137.6536123371757
  0
ARC
  5
18980
102
{ACAD_REACTORS
330
18983
102
}
330
18
100
AcDbEntity
  8
細線
100
AcDbCircle
 10
642.3318968322287
 20
175.3733152728473
 30
0.0
 40
0.5
100
AcDbArc
 50
342.3463876628246
 51
77.65361233717316
  0
CIRCLE
  5
18981
102
{ACAD_REACTORS
330
18983
102
}
330
18
100
AcDbEntity
  8
細線
100
AcDbCircle
 10
643.2672042683157
 20
175.9133152728469
 30
0.0
 40
0.8299999999999998
  0
ARC
  5
18982
102
{ACAD_REACTORS
330
18983
102
}
330
18
100
AcDbEntity
  8
細線
100
AcDbCircle
 10
644.2025117044031
 20
175.3733152728471
 30
0.0
 40
0.5
100
AcDbArc
 50
102.3463876628267
 51
197.6536123371752
  0
CIRCLE
  5
18984
102
{ACAD_REACTORS
330
1898C
102
}
330
18
100
AcDbEntity
  8
細線
100
AcDbCircle
 10
709.1848164576192
 20
151.9212665220394
 30
0.0
 40
3.5
  0
ARC
  5
18985
102
{ACAD_REACTORS
330
1898C
102
}
330
18
100
AcDbEntity
  8
細線
100
AcDbCircle
 10
710.1201238937062
 20
151.3812665220394
 30
0.0
 40
0.5
100
AcDbArc
 50
102.3463876628267
 51
197.6536123371752
  0
CIRCLE
  5
18986
102
{ACAD_REACTORS
330
1898C
102
}
330
18
100
AcDbEntity
  8
細線
100
AcDbCircle
 10
709.1848164576192
 20
151.9212665220394
 30
0.0
 40
0.8299999999999998
  0
ARC
  5
18987
102
{ACAD_REACTORS
330
1898C
102
}
330
18
100
AcDbEntity
  8
細線
100
AcDbCircle
 10
708.249509021532
 20
151.3812665220394
 30
0.0
 40
0.5
100
AcDbArc
 50
342.3463876628246
 51
77.65361233717316
  0
ARC
  5
18988
102
{ACAD_REACTORS
330
1898C
102
}
330
18
100
AcDbEntity
  8
細線
100
AcDbCircle
 10
709.1848164576192
 20
150.8412665220394
 30
0.0
 40
0.5
100
AcDbArc
 50
42.3463876628242
 51
137.6536123371757
  0
ARC
  5
18989
102
{ACAD_REACTORS
330
1898C
102
}
330
18
100
AcDbEntity
  8
細線
100
AcDbCircle
 10
710.1201238937062
 20
152.4612665220394
 30
0.0
 40
0.5
100
AcDbArc
 50
162.3463876628247
 51
257.653612337173
  0
ARC
  5
1898A
102
{ACAD_REACTORS
330
1898C
102
}
330
18
100
AcDbEntity
  8
細線
100
AcDbCircle
 10
708.249509021532
 20
152.4612665220394
 30
0.0
 40
0.5
100
AcDbArc
 50
282.3463876628268
 51
17.65361233717832
  0
ARC
  5
1898B
102
{ACAD_REACTORS
330
1898C
102
}
330
18
100
AcDbEntity
  8
細線
100
AcDbCircle
 10
709.1848164576192
 20
153.0012665220394
 30
0.0
 40
0.5
100
AcDbArc
 50
222.3463876628239
 51
317.6536123371756
  0
LINE
  5
189C6
330
18
100
AcDbEntity
  8
0
100
AcDbLine
 10
557.9260447338813
 20
331.1077573341793
 30
0.0
 11
557.9260447338802
 21
332.2077573341787
 31
0.0
  0
LINE
  5
189C7
330
18
100
AcDbEntity
  8
0
100
AcDbLine
 10
545.9260447338804
 20
331.1077573341683
 30
0.0
 11
545.9260447338794
 21
332.2077573341676
 31
0.0
  0
LINE
  5
189C8
330
18
100
AcDbEntity
  8
0
100
AcDbLine
 10
549.5726181157364
 20
309.2134342536808
 30
0.0
 11
552.32604056675
 21
331.1043414962834
 31
0.0
  0
LINE
  5
189C9
330
18
100
AcDbEntity
  8
0
100
AcDbLine
 10
551.9726109720841
 20
309.2075785315826
 30
0.0
 11
554.7260334230976
 21
331.0984857741853
 31
0.0
  0
LINE
  5
189CA
330
18
100
AcDbEntity
  8
0
100
AcDbLine
 10
551.5726121626928
 20
309.2085544852656
 30
0.0
 11
554.3260346137063
 21
331.0994617278684
 31
0.0
  0
LINE
  5
189CB
330
18
100
AcDbEntity
  8
0
100
AcDbLine
 10
549.5485723357344
 20
309.2026987631677
 30
0.0
 11
546.7951498847208
 21
331.0936060057703
 31
0.0
  0
LINE
  5
189CC
330
18
100
AcDbEntity
  8
0
100
AcDbLine
 10
553.9726050190401
 20
309.2026987631677
 30
0.0
 11
556.7260274700537
 21
331.0936060057703
 31
0.0
  0
LINE
  5
189CE
330
18
100
AcDbEntity
  8
0
100
AcDbLine
 10
551.9485651920819
 20
309.2085544852656
 30
0.0
 11
551.7605886773874
 21
310.7030496163893
 31
0.0
  0
LINE
  5
189CF
330
18
100
AcDbEntity
  8
0
100
AcDbLine
 10
557.9260447338813
 20
331.1077573341794
 30
0.0
 11
545.9260447338804
 21
331.1077573341683
 31
0.0
  0
LINE
  5
189D0
330
18
100
AcDbEntity
  8
0
100
AcDbLine
 10
550.5602239849721
 20
317.0653308878978
 30
0.0
 11
548.7951439316772
 21
331.0984857741853
 31
0.0
  0
LINE
  5
189D1
330
18
100
AcDbEntity
  8
0
100
AcDbLine
 10
550.7602847670416
 20
318.6559012057752
 30
0.0
 11
549.1951427410683
 21
331.0994617278684
 31
0.0
  0
LINE
  5
189D2
330
18
100
AcDbEntity
  8
0
100
AcDbLine
 10
551.7605886773874
 20
326.6087527951607
 30
0.0
 11
551.1951367880246
 21
331.1043414962834
 31
0.0
  0
LINE
  5
189D3
330
18
100
AcDbEntity
  8
0
100
AcDbLine
 10
552.9609533698024
 20
317.0653308878978
 30
0.0
 11
552.7608925877331
 21
318.6559012057752
 31
0.0
  0
LINE
  5
189D4
330
18
100
AcDbEntity
  8
0
100
AcDbLine
 10
545.7603365011914
 20
351.0392310070723
 30
0.0
 11
546.7317650726208
 21
350.0678024356445
 31
0.0
  0
LINE
  5
189D5
330
18
100
AcDbEntity
  8
0
100
AcDbLine
 10
552.0010507869021
 20
354.8078024356497
 30
0.0
 11
552.0010507869108
 21
345.3078024356493
 31
0.0
  0
LINE
  5
189D6
330
18
100
AcDbEntity
  8
0
100
AcDbLine
 10
551.3510507869024
 20
354.8078024356492
 30
0.0
 11
551.3510507869112
 21
345.3078024356486
 31
0.0
  0
LINE
  5
189D7
330
18
100
AcDbEntity
  8
0
100
AcDbLine
 10
547.9010507869021
 20
354.8078024356458
 30
0.0
 11
547.9010507869109
 21
345.3078024356456
 31
0.0
  0
LINE
  5
189D8
330
18
100
AcDbEntity
  8
0
100
AcDbLine
 10
555.4510507869024
 20
354.8078024356528
 30
0.0
 11
555.4510507869106
 21
345.3078024356524
 31
0.0
  0
LINE
  5
189D9
330
18
100
AcDbEntity
  8
0
100
AcDbLine
 10
543.5260507869067
 20
350.0678024356417
 30
0.0
 11
544.4974793583342
 21
351.0392310070713
 31
0.0
  0
LINE
  5
189DA
330
18
100
AcDbEntity
  8
0
100
AcDbLine
 10
556.926050786911
 20
345.3078024356536
 30
0.0
 11
546.9260507869107
 21
345.3078024356447
 31
0.0
  0
LINE
  5
189DB
330
18
100
AcDbEntity
  8
0
100
AcDbLine
 10
545.4612928065436
 20
343.293860121939
 30
0.0
 11
544.4974793583461
 21
337.827802435642
 31
0.0
  0
LINE
  5
189DC
330
18
100
AcDbEntity
  8
0
100
AcDbLine
 10
546.9260507869228
 20
332.2077573341686
 30
0.0
 11
546.9260507869107
 21
345.3078024356447
 31
0.0
  0
LINE
  5
189DD
330
18
100
AcDbEntity
  8
0
100
AcDbLine
 10
543.1083365011939
 20
348.1929452927841
 30
0.0
 11
543.1083365012033
 21
337.8278024356416
 31
0.0
  0
LINE
  5
189DE
330
18
100
AcDbEntity
  8
0
100
AcDbLine
 10
543.5260507869067
 20
350.0678024356417
 30
0.0
 11
543.5260507869164
 21
338.7992310070701
 31
0.0
  0
LINE
  5
189DF
330
18
100
AcDbEntity
  8
0
100
AcDbLine
 10
544.4974793583461
 20
337.827802435642
 30
0.0
 11
543.1083365012033
 21
337.8278024356411
 31
0.0
  0
LINE
  5
189E0
330
18
100
AcDbEntity
  8
0
100
AcDbLine
 10
543.5260507869164
 20
338.7992310070701
 30
0.0
 11
543.1083365012024
 21
338.7992310070698
 31
0.0
  0
LINE
  5
189E1
330
18
100
AcDbEntity
  8
0
100
AcDbLine
 10
546.9260507869228
 20
332.2077573341686
 30
0.0
 11
545.9260447338794
 21
332.2077573341676
 31
0.0
  0
LINE
  5
189E2
330
18
100
AcDbEntity
  8
0
100
AcDbLine
 10
546.9260507869107
 20
345.3078024356447
 30
0.0
 11
543.1083365011966
 21
345.3078024356411
 31
0.0
  0
LINE
  5
189E3
330
18
100
AcDbEntity
  8
0
100
AcDbLine
 10
544.4974793583363
 20
348.6106595784996
 30
0.0
 11
543.5260507869078
 21
348.6106595784988
 31
0.0
  0
LINE
  5
189E4
330
18
100
AcDbEntity
  8
0
100
AcDbLine
 10
543.5260507869078
 20
348.6106595784988
 30
0.0
 11
543.1083365011939
 21
348.1929452927841
 31
0.0
  0
LINE
  5
189E5
330
18
100
AcDbEntity
  8
0
100
AcDbLine
 10
545.6631936440507
 20
348.7078024356441
 30
0.0
 11
545.6631936440536
 21
345.3078024356433
 31
0.0
  0
LINE
  5
189E6
330
18
100
AcDbEntity
  8
0
100
AcDbLine
 10
544.4974793583363
 20
348.6106595784996
 30
0.0
 11
544.4974793583394
 21
345.3078024356423
 31
0.0
  0
LINE
  5
189E7
330
18
100
AcDbEntity
  8
0
100
AcDbLine
 10
546.7317650726208
 20
350.0678024356445
 30
0.0
 11
546.7317650726222
 21
348.6106595785021
 31
0.0
  0
LINE
  5
189E8
330
18
100
AcDbEntity
  8
0
100
AcDbLine
 10
546.7317650726222
 20
348.6106595785016
 30
0.0
 11
545.6631936440507
 21
348.7078024356441
 31
0.0
  0
ARC
  5
189E9
330
18
100
AcDbEntity
  8
0
100
AcDbCircle
 10
545.939628000864
 20
343.2095167213585
 30
0.0
 40
0.4857142857142857
100
AcDbArc
 50
90.00000000003906
 51
170.0000000000479
  0
ARC
  5
189EA
330
18
100
AcDbEntity
  8
0
100
AcDbCircle
 10
546.4403365011986
 20
343.2095167213585
 30
0.0
 40
0.4857142857142857
100
AcDbArc
 50
0.0000000000521102
 51
90.00000000003906
  0
LINE
  5
189EB
330
18
100
AcDbEntity
  8
0
100
AcDbLine
 10
546.4403365011983
 20
343.6952310070725
 30
0.0
 11
545.939628000864
 21
343.6952310070725
 31
0.0
  0
LINE
  5
189EC
330
18
100
AcDbEntity
  8
0
100
AcDbLine
 10
556.9260507869228
 20
332.2077573341776
 30
0.0
 11
556.926050786911
 21
345.3078024356536
 31
0.0
  0
LINE
  5
189ED
330
18
100
AcDbEntity
  8
0
100
AcDbLine
 10
557.9260447338802
 20
332.2077573341796
 30
0.0
 11
556.9260507869228
 21
332.2077573341791
 31
0.0
  0
LINE
  5
189EE
330
18
100
AcDbEntity
  8
0
100
AcDbLine
 10
555.4510507869024
 20
354.8078024356528
 30
0.0
 11
552.0010507869021
 21
354.8078024356497
 31
0.0
  0
LINE
  5
189EF
330
18
100
AcDbEntity
  8
0
100
AcDbLine
 10
551.3510507869024
 20
354.8078024356492
 30
0.0
 11
547.9010507869021
 21
354.8078024356458
 31
0.0
  0
LINE
  5
189F0
330
18
100
AcDbEntity
  8
0
100
AcDbLine
 10
545.7603365011914
 20
351.0392310070723
 30
0.0
 11
544.4974793583342
 21
351.0392310070713
 31
0.0
  0
LINE
  5
18A65
330
18
100
AcDbEntity
  8
0
100
AcDbLine
 10
545.1439368033825
 20
20.58433050106776
 30
0.0
 11
541.3262225176681
 21
20.58433050106776
 31
0.0
  0
LINE
  5
18A66
330
18
100
AcDbEntity
  8
0
100
AcDbLine
 10
543.6791788230133
 20
22.59827281477207
 30
0.0
 11
542.7153653748107
 21
28.06433050106823
 31
0.0
  0
LINE
  5
18A67
330
18
100
AcDbEntity
  8
0
100
AcDbLine
 10
543.9782225176681
 20
14.85290192963901
 30
0.0
 11
542.7153653748107
 21
14.85290192963901
 31
0.0
  0
LINE
  5
18A68
330
18
100
AcDbEntity
  8
0
100
AcDbLine
 10
541.3262225176681
 20
17.69918764392485
 30
0.0
 11
541.3262225176681
 21
28.06433050106733
 31
0.0
  0
LINE
  5
18A69
330
18
100
AcDbEntity
  8
0
100
AcDbLine
 10
541.7439368033823
 20
17.28147335821057
 30
0.0
 11
541.3262225176681
 21
17.69918764392485
 31
0.0
  0
LINE
  5
18A6A
330
18
100
AcDbEntity
  8
0
100
AcDbLine
 10
541.7439368033823
 20
15.82433050106755
 30
0.0
 11
541.743936803382
 21
27.09290192963925
 31
0.0
  0
LINE
  5
18A6B
330
18
100
AcDbEntity
  8
0
100
AcDbLine
 10
542.7153653748107
 20
17.28147335821057
 30
0.0
 11
542.7153653748107
 21
20.58433050106776
 31
0.0
  0
LINE
  5
18A6C
330
18
100
AcDbEntity
  8
0
100
AcDbLine
 10
542.7153653748107
 20
17.28147335821057
 30
0.0
 11
541.7439368033823
 21
17.28147335821057
 31
0.0
  0
LINE
  5
18A6D
330
18
100
AcDbEntity
  8
0
100
AcDbLine
 10
541.7439368033823
 20
15.82433050106755
 30
0.0
 11
542.7153653748107
 21
14.85290192963901
 31
0.0
  0
LINE
  5
18A6E
330
18
100
AcDbEntity
  8
0
100
AcDbLine
 10
541.743936803382
 20
27.09290192963925
 30
0.0
 11
541.3262225176681
 21
27.09290192963925
 31
0.0
  0
LINE
  5
18A6F
330
18
100
AcDbEntity
  8
0
100
AcDbLine
 10
542.7153653748107
 20
28.06433050106823
 30
0.0
 11
541.3262225176681
 21
28.06433050106778
 31
0.0
  0
LINE
  5
18A70
330
18
100
AcDbEntity
  8
0
100
AcDbLine
 10
558.743936803382
 20
33.6843756025425
 30
0.0
 11
558.743936803382
 21
20.58433050106776
 31
0.0
  0
LINE
  5
18A71
330
18
100
AcDbEntity
  8
0
100
AcDbLine
 10
545.1439368033825
 20
33.68437560254387
 30
0.0
 11
545.1439368033825
 21
20.58433050106776
 31
0.0
  0
LINE
  5
18A72
330
18
100
AcDbEntity
  8
0
100
AcDbLine
 10
546.1189368033823
 20
11.08433050106727
 30
0.0
 11
546.1189368033823
 21
20.58433050106776
 31
0.0
  0
LINE
  5
18A73
330
18
100
AcDbEntity
  8
0
100
AcDbLine
 10
554.3189368033821
 20
11.08433050106727
 30
0.0
 11
554.3189368033821
 21
20.58433050106776
 31
0.0
  0
LINE
  5
18A74
330
18
100
AcDbEntity
  8
0
100
AcDbLine
 10
553.6689368033826
 20
11.08433050106727
 30
0.0
 11
553.6689368033822
 21
20.58433050106776
 31
0.0
  0
LINE
  5
18A75
330
18
100
AcDbEntity
  8
0
100
AcDbLine
 10
550.2189368033823
 20
11.08433050106727
 30
0.0
 11
550.2189368033823
 21
20.58433050106776
 31
0.0
  0
LINE
  5
18A76
330
18
100
AcDbEntity
  8
0
100
AcDbLine
 10
549.5689368033827
 20
11.08433050106727
 30
0.0
 11
549.5689368033827
 21
20.58433050106776
 31
0.0
  0
LINE
  5
18A77
330
18
100
AcDbEntity
  8
0
100
AcDbLine
 10
557.7689368033825
 20
11.08433050106727
 30
0.0
 11
557.7689368033825
 21
20.58433050106776
 31
0.0
  0
LINE
  5
18A78
330
18
100
AcDbEntity
  8
0
100
AcDbLine
 10
543.8810796605253
 20
17.18433050106722
 30
0.0
 11
543.8810796605253
 21
20.58433050106776
 31
0.0
  0
LINE
  5
18A79
330
18
100
AcDbEntity
  8
0
100
AcDbLine
 10
553.6689368033826
 20
11.08433050106727
 30
0.0
 11
550.2189368033823
 21
11.08433050106727
 31
0.0
  0
LINE
  5
18A7A
330
18
100
AcDbEntity
  8
0
100
AcDbLine
 10
549.5689368033827
 20
11.08433050106727
 30
0.0
 11
546.1189368033823
 21
11.08433050106727
 31
0.0
  0
LINE
  5
18A7B
330
18
100
AcDbEntity
  8
0
100
AcDbLine
 10
544.9496510890967
 20
15.82433050106755
 30
0.0
 11
544.9496510890967
 21
17.28147335821012
 31
0.0
  0
LINE
  5
18A7C
330
18
100
AcDbEntity
  8
0
100
AcDbLine
 10
544.9496510890967
 20
17.28147335821057
 30
0.0
 11
543.8810796605253
 21
17.18433050106722
 31
0.0
  0
LINE
  5
18A7D
330
18
100
AcDbEntity
  8
0
100
AcDbLine
 10
543.9782225176681
 20
14.85290192963901
 30
0.0
 11
544.9496510890967
 21
15.82433050106755
 31
0.0
  0
LINE
  5
18A7E
330
18
100
AcDbEntity
  8
0
100
AcDbLine
 10
557.7689368033825
 20
11.08433050106776
 30
0.0
 11
554.3189368033818
 21
11.08433050106727
 31
0.0
  0
LINE
  5
18A7F
330
18
100
AcDbEntity
  8
0
100
AcDbLine
 10
558.743936803382
 20
20.58433050106776
 30
0.0
 11
545.1439368033825
 21
20.58433050106776
 31
0.0
  0
ARC
  5
18A80
330
18
100
AcDbEntity
  8
0
100
AcDbCircle
 10
544.6582225176682
 20
22.68261621535351
 30
0.0
 40
0.4857142857142857
100
AcDbArc
 50
270.000000000013
 51
0.0
  0
ARC
  5
18A81
330
18
100
AcDbEntity
  8
0
100
AcDbCircle
 10
544.1575140173336
 20
22.68261621535307
 30
0.0
 40
0.4857142857142857
100
AcDbArc
 50
190.0000000000048
 51
270.000000000013
  0
LINE
  5
18A82
330
18
100
AcDbEntity
  8
0
100
AcDbLine
 10
544.6582225176682
 20
22.19690192963951
 30
0.0
 11
544.1575140173339
 21
22.19690192963907
 31
0.0
  0
LINE
  5
18A83
330
18
100
AcDbEntity
  8
0
100
AcDbLine
 10
551.9439307503394
 20
34.78437560254286
 30
0.0
 11
551.9439307503394
 21
57.18437560254249
 31
0.0
  0
LINE
  5
18A84
330
18
100
AcDbEntity
  8
0
100
AcDbLine
 10
553.2351407960012
 20
57.18437560254249
 30
0.0
 11
557.019615681846
 21
34.78437560254286
 31
0.0
  0
LINE
  5
18A85
330
18
100
AcDbEntity
  8
0
100
AcDbLine
 10
550.6527207046771
 20
57.18437560254249
 30
0.0
 11
546.8682458188327
 21
34.78437560254286
 31
0.0
  0
LINE
  5
18A86
330
18
100
AcDbEntity
  8
0
100
AcDbLine
 10
559.7439307503392
 20
33.68437560254295
 30
0.0
 11
558.743936803382
 21
33.6843756025425
 31
0.0
  0
LINE
  5
18A87
330
18
100
AcDbEntity
  8
0
100
AcDbLine
 10
559.7439307503392
 20
34.78437560254241
 30
0.0
 11
544.1439307503392
 21
34.78437560254332
 31
0.0
  0
LINE
  5
18A88
330
18
100
AcDbEntity
  8
0
100
AcDbLine
 10
544.1439307503392
 20
34.78437560254332
 30
0.0
 11
544.1439307503392
 21
33.68437560254387
 31
0.0
  0
LINE
  5
18A89
330
18
100
AcDbEntity
  8
0
100
AcDbLine
 10
545.1439368033825
 20
33.68437560254387
 30
0.0
 11
544.1439307503392
 21
33.68437560254387
 31
0.0
  0
LINE
  5
18A8A
330
18
100
AcDbEntity
  8
0
100
AcDbLine
 10
559.7439307503392
 20
34.78437560254332
 30
0.0
 11
559.7439307503392
 21
33.68437560254387
 31
0.0
  0
LINE
  5
18A8B
330
18
100
AcDbEntity
  8
0
100
AcDbLine
 10
548.0570185090813
 20
81.47835109898409
 30
0.0
 11
540.6484107632283
 21
92.28901077803454
 31
0.0
  0
ARC
  5
18A8C
330
18
100
AcDbEntity
  8
0
100
AcDbCircle
 10
552.8972705548885
 20
98.28243213106
 30
0.0
 40
10.0
100
AcDbArc
 50
180.0
 51
214.3605280011029
  0
ARC
  5
18A8D
330
18
100
AcDbEntity
  8
0
100
AcDbCircle
 10
548.8972705548858
 20
97.94200221068122
 30
0.0
 40
10.0
100
AcDbArc
 50
180.0
 51
214.4230669294494
  0
LINE
  5
18A8E
330
18
100
AcDbEntity
  8
0
100
AcDbLine
 10
555.763924483905
 20
81.47506339428076
 30
0.0
 11
563.2637139580292
 21
92.44664471277786
 31
0.0
  0
LINE
  5
18A8F
330
18
100
AcDbEntity
  8
0
100
AcDbLine
 10
551.5553120963835
 20
81.47639535230831
 30
0.0
 11
559.0610053384637
 21
92.44531275474987
 31
0.0
  0
LINE
  5
18A90
330
18
100
AcDbEntity
  8
0
100
AcDbLine
 10
551.9146910850646
 20
82.00159646510014
 30
0.0
 11
544.6422453804117
 21
92.63844777878231
 31
0.0
  0
ARC
  5
18A91
330
18
100
AcDbEntity
  8
0
100
AcDbCircle
 10
564.0194797245102
 20
75.8318544074265
 30
0.0
 40
10.0
100
AcDbArc
 50
145.6448534167718
 51
180.0
  0
ARC
  5
18A92
330
18
100
AcDbEntity
  8
0
100
AcDbCircle
 10
539.808158717424
 20
75.82535966633739
 30
0.0
 40
10.0
100
AcDbArc
 50
0.0
 51
34.42306692944937
  0
ARC
  5
18A93
330
18
100
AcDbEntity
  8
0
100
AcDbCircle
 10
559.808158717424
 20
75.82922591536138
 30
0.0
 40
10.0
100
AcDbArc
 50
145.6173623158422
 51
180.0
  0
LINE
  5
18A94
330
18
100
AcDbEntity
  8
0
100
AcDbLine
 10
549.8081587174238
 20
70.94606646835808
 30
0.0
 11
549.8081587174239
 21
75.82922591536152
 31
0.0
  0
LINE
  5
18A95
330
18
100
AcDbEntity
  8
0
100
AcDbLine
 10
549.8081587174238
 20
70.94606646835808
 30
0.0
 11
549.8081587174239
 21
75.82535966633717
 31
0.0
  0
LINE
  5
18A96
330
18
100
AcDbEntity
  8
0
100
AcDbLine
 10
554.0194797245105
 20
70.94606646835808
 30
0.0
 11
554.0194797245105
 21
75.83185440742664
 31
0.0
  0
ARC
  5
18A97
330
18
100
AcDbEntity
  8
0
100
AcDbCircle
 10
550.8081587174237
 20
98.09248219169665
 30
0.0
 40
10.0
100
AcDbArc
 50
325.6173623158423
 51
0.0
  0
ARC
  5
18A98
330
18
100
AcDbEntity
  8
0
100
AcDbCircle
 10
555.008158717424
 20
98.08985369963208
 30
0.0
 40
10.0
100
AcDbArc
 50
325.644853416772
 51
0.0
  0
LINE
  5
18A99
330
18
100
AcDbEntity
  8
0
100
AcDbLine
 10
565.008158717424
 20
98.08985369963208
 30
0.0
 11
565.008158717424
 21
162.9460664683588
 31
0.0
  0
LINE
  5
18A9A
330
18
100
AcDbEntity
  8
0
100
AcDbLine
 10
538.8972705548858
 20
97.94200221068122
 30
0.0
 11
538.8972705548858
 21
130.4460664683585
 31
0.0
  0
LINE
  5
18A9B
330
18
100
AcDbEntity
  8
0
100
AcDbLine
 10
543.0972705548856
 20
130.4460664683585
 30
0.0
 11
542.8972705548885
 21
98.28243213106
 31
0.0
  0
LINE
  5
18A9C
330
18
100
AcDbEntity
  8
0
100
AcDbLine
 10
560.8081587174234
 20
98.09248219169665
 30
0.0
 11
560.808158717424
 21
162.9460664683588
 31
0.0
  0
LINE
  5
18FB9
330
18
100
AcDbEntity
  8
0
100
AcDbLine
 10
458.3032641809372
 20
94.04606561000992
 30
0.0
 11
475.8032634653421
 21
94.04606561000976
 31
0.0
  0
LINE
  5
18FBA
330
18
100
AcDbEntity
  8
0
100
AcDbLine
 10
458.3032641809372
 20
94.04606646835743
 30
0.0
 11
465.8032650392923
 21
94.04606646835762
 31
0.0
  0
LINE
  5
18FC9
330
18
100
AcDbEntity
  8
0
100
AcDbLine
 10
476.303264180937
 20
94.54606632560468
 30
0.0
 11
475.803263465342
 21
94.04606561000973
 31
0.0
  0
LINE
  5
19009
330
18
100
AcDbEntity
  8
0
100
AcDbLine
 10
464.1032641809375
 20
105.0481205639801
 30
0.0
 11
464.1032641809375
 21
96.67317064175293
 31
0.0
  0
LINE
  5
1900A
330
18
100
AcDbEntity
  8
0
100
AcDbLine
 10
471.3032641809376
 20
105.0481205639801
 30
0.0
 11
471.3032641809376
 21
96.67317064175293
 31
0.0
  0
LINE
  5
1900B
330
18
100
AcDbEntity
  8
0
100
AcDbLine
 10
464.1032641809376
 20
96.67317064175293
 30
0.0
 11
471.3032641809378
 21
96.67317064175293
 31
0.0
  0
LINE
  5
1900C
330
18
100
AcDbEntity
  8
0
100
AcDbLine
 10
464.1032641809376
 20
95.44194121222929
 30
0.0
 11
471.3032641809378
 21
95.44194121222929
 31
0.0
  0
LINE
  5
1900D
330
18
100
AcDbEntity
  8
0
100
AcDbLine
 10
464.1032641809376
 20
95.44194121222929
 30
0.0
 11
464.1032641809376
 21
94.04606090353139
 31
0.0
  0
LINE
  5
1900E
330
18
100
AcDbEntity
  8
0
100
AcDbLine
 10
471.3032641809378
 20
95.44194121222929
 30
0.0
 11
471.3032641809379
 21
94.0460609035315
 31
0.0
  0
LINE
  5
1900F
330
18
100
AcDbEntity
  8
0
100
AcDbLine
 10
464.1032641809375
 20
105.0481205639801
 30
0.0
 11
471.3032641809376
 21
105.0481205639801
 31
0.0
  0
LINE
  5
190DD
102
{ACAD_REACTORS
330
190E0
102
}
330
18
100
AcDbEntity
  8
0
100
AcDbLine
 10
606.1528917313116
 20
219.1696763494361
 30
0.0
 11
602.6329424412247
 21
220.6276870842557
 31
0.0
  0
ARC
  5
190DE
102
{ACAD_REACTORS
330
190E0
102
}
330
18
100
AcDbEntity
  8
0
100
AcDbCircle
 10
604.6221580018509
 20
215.4741582193909
 30
0.0
 40
4.0
100
AcDbArc
 50
248.848260415022
 51
66.15173958497932
  0
LINE
  5
190DF
102
{ACAD_REACTORS
330
190E0
102
}
330
18
100
AcDbEntity
  8
0
100
AcDbLine
 10
603.0914242723905
 20
211.7786400893458
 30
0.0
 11
599.5714749823037
 21
213.2366508241654
 31
0.0
  0
ARC
  5
190E1
102
{ACAD_REACTORS
330
190E4
102
}
330
18
100
AcDbEntity
  8
0
100
AcDbCircle
 10
604.6221580018486
 20
150.4179747173244
 30
0.0
 40
4.0
100
AcDbArc
 50
293.8482604150221
 51
111.1517395849793
  0
LINE
  5
190E2
102
{ACAD_REACTORS
330
190E4
102
}
330
18
100
AcDbEntity
  8
0
100
AcDbLine
 10
603.0914242723881
 20
154.1134928473693
 30
0.0
 11
599.5714749823014
 21
152.65548211255
 31
0.0
  0
LINE
  5
190E3
102
{ACAD_REACTORS
330
190E4
102
}
330
18
100
AcDbEntity
  8
0
100
AcDbLine
 10
606.1528917313092
 20
146.722456587279
 30
0.0
 11
602.6329424412223
 21
145.2644458524598
 31
0.0
  0
ARC
  5
190E5
102
{ACAD_REACTORS
330
190E8
102
}
330
18
100
AcDbEntity
  8
0
100
AcDbCircle
 10
650.6238265142747
 20
104.416306204895
 30
0.0
 40
4.0
100
AcDbArc
 50
338.8482604150221
 51
156.1517395849793
  0
LINE
  5
190E6
102
{ACAD_REACTORS
330
190E8
102
}
330
18
100
AcDbEntity
  8
0
100
AcDbLine
 10
646.9283083842295
 20
105.9470399343557
 30
0.0
 11
645.4702976494099
 21
102.4270906442687
 31
0.0
  0
LINE
  5
190E7
102
{ACAD_REACTORS
330
190E8
102
}
330
18
100
AcDbEntity
  8
0
100
AcDbLine
 10
654.3193446443197
 20
102.8855724754346
 30
0.0
 11
652.8613339095002
 21
99.36562318534811
 31
0.0
  0
ARC
  5
190E9
102
{ACAD_REACTORS
330
190EC
102
}
330
18
100
AcDbEntity
  8
0
100
AcDbCircle
 10
715.6800100163411
 20
104.4163062048926
 30
0.0
 40
4.0
100
AcDbArc
 50
23.84826041502214
 51
201.1517395849789
  0
LINE
  5
190EA
102
{ACAD_REACTORS
330
190EC
102
}
330
18
100
AcDbEntity
  8
0
100
AcDbLine
 10
711.9844918862961
 20
102.8855724754325
 30
0.0
 11
713.4425026211156
 21
99.36562318534573
 31
0.0
  0
LINE
  5
190EB
102
{ACAD_REACTORS
330
190EC
102
}
330
18
100
AcDbEntity
  8
0
100
AcDbLine
 10
719.3755281463865
 20
105.947039934353
 30
0.0
 11
720.833538881206
 21
102.4270906442662
 31
0.0
  0
ARC
  5
190ED
102
{ACAD_REACTORS
330
190F0
102
}
330
18
100
AcDbEntity
  8
0
100
AcDbCircle
 10
761.6816785287706
 20
150.4179747173188
 30
0.0
 40
4.0
100
AcDbArc
 50
68.84826041502214
 51
246.1517395849793
  0
LINE
  5
190EE
102
{ACAD_REACTORS
330
190F0
102
}
330
18
100
AcDbEntity
  8
0
100
AcDbLine
 10
760.1509447993102
 20
146.7224565872736
 30
0.0
 11
763.6708940893972
 21
145.264445852454
 31
0.0
  0
LINE
  5
190EF
102
{ACAD_REACTORS
330
190F0
102
}
330
18
100
AcDbEntity
  8
0
100
AcDbLine
 10
763.2124122582312
 20
154.1134928473639
 30
0.0
 11
766.7323615483176
 21
152.6554821125444
 31
0.0
  0
ARC
  5
190F1
102
{ACAD_REACTORS
330
190F4
102
}
330
18
100
AcDbEntity
  8
0
100
AcDbCircle
 10
761.6816785287729
 20
215.4741582193853
 30
0.0
 40
4.0
100
AcDbArc
 50
113.848260415022
 51
291.1517395849791
  0
LINE
  5
190F2
102
{ACAD_REACTORS
330
190F4
102
}
330
18
100
AcDbEntity
  8
0
100
AcDbLine
 10
763.2124122582332
 20
211.7786400893399
 30
0.0
 11
766.7323615483198
 21
213.2366508241597
 31
0.0
  0
LINE
  5
190F3
102
{ACAD_REACTORS
330
190F4
102
}
330
18
100
AcDbEntity
  8
0
100
AcDbLine
 10
760.1509447993124
 20
219.1696763494305
 30
0.0
 11
763.6708940893992
 21
220.62768708425
 31
0.0
  0
ARC
  5
190F5
102
{ACAD_REACTORS
330
190F8
102
}
330
18
100
AcDbEntity
  8
0
100
AcDbCircle
 10
715.680010016347
 20
261.4758267318145
 30
0.0
 40
4.0
100
AcDbArc
 50
158.848260415022
 51
336.1517395849793
  0
LINE
  5
190F6
102
{ACAD_REACTORS
330
190F8
102
}
330
18
100
AcDbEntity
  8
0
100
AcDbLine
 10
719.3755281463922
 20
259.9450930023542
 30
0.0
 11
720.8335388812117
 21
263.4650422924411
 31
0.0
  0
LINE
  5
190F7
102
{ACAD_REACTORS
330
190F8
102
}
330
18
100
AcDbEntity
  8
0
100
AcDbLine
 10
711.9844918863016
 20
263.0065604612751
 30
0.0
 11
713.4425026211214
 21
266.5265097513619
 31
0.0
  0
ARC
  5
190F9
102
{ACAD_REACTORS
330
190FC
102
}
330
18
100
AcDbEntity
  8
0
100
AcDbCircle
 10
650.6238265142802
 20
261.4758267318171
 30
0.0
 40
4.0
100
AcDbArc
 50
203.848260415022
 51
21.15173958497924
  0
LINE
  5
190FA
102
{ACAD_REACTORS
330
190FC
102
}
330
18
100
AcDbEntity
  8
0
100
AcDbLine
 10
654.3193446443255
 20
263.0065604612773
 30
0.0
 11
652.8613339095062
 21
266.5265097513639
 31
0.0
  0
LINE
  5
190FB
102
{ACAD_REACTORS
330
190FC
102
}
330
18
100
AcDbEntity
  8
0
100
AcDbLine
 10
646.928308384235
 20
259.9450930023566
 30
0.0
 11
645.4702976494156
 21
263.4650422924435
 31
0.0
  0
ARC
  5
1914E
330
18
100
AcDbEntity
  8
0
100
AcDbCircle
 10
212.4601520423215
 20
182.9221438043553
 30
0.0
 40
48.0
100
AcDbArc
 50
252.0768331081821
 51
287.9231668918206
  0
CIRCLE
  5
1925E
330
18
100
AcDbEntity
  8
0
100
AcDbCircle
 10
212.4601520423215
 20
182.9221438043553
 30
0.0
 40
53.99999999999977
  0
CIRCLE
  5
1925F
330
18
100
AcDbEntity
  8
中心線
100
AcDbCircle
 10
212.4601520423215
 20
182.9221438043553
 30
0.0
 40
43.0
  0
CIRCLE
  5
19260
330
18
100
AcDbEntity
  8
0
100
AcDbCircle
 10
683.1519182653108
 20
182.9460664683588
 30
0.0
 40
88.90000000000048
  0
CIRCLE
  5
19261
330
18
100
AcDbEntity
  8
0
100
AcDbCircle
 10
683.1519182653095
 20
182.946066468356
 30
0.0
 40
44.99999999999814
  0
CIRCLE
  5
19262
330
18
100
AcDbEntity
  8
0
100
AcDbCircle
 10
683.1519182653095
 20
182.946066468356
 30
0.0
 40
55.00000000000109
  0
CIRCLE
  5
19263
330
18
100
AcDbEntity
  8
0
100
AcDbCircle
 10
683.1519182653095
 20
182.946066468356
 30
0.0
 40
17.49999999999879
  0
CIRCLE
  5
19264
330
18
100
AcDbEntity
  8
0
100
AcDbCircle
 10
683.1519182653095
 20
182.9460664683583
 30
0.0
 40
19.40000000000129
  0
VIEWPORT
  5
23
330
15
100
AcDbEntity
 67
     1
  8
0
100
AcDbViewport
 10
200.0120845850508
 20
144.0025504601883
 30
0.0
 40
443.4191063669707
 41
290.2111759278844
 68
     1
 69
     1
1001
ACAD
1000
MVIEW
1002
{
1070
    16
1010
0.0
1020
0.0
1030
0.0
1010
0.0
1020
0.0
1030
1.0
1040
0.0
1040
290.2111759278844
1040
200.0120845850508
1040
144.0025504601883
1040
50.0
1040
0.0
1040
0.0
1070
     0
1070
   100
1070
     1
1070
     0
1070
     0
1070
     0
1070
     0
1070
     0
1040
0.0
1040
0.0
1040
0.0
1040
10.0
1040
10.0
1040
10.0
1040
10.0
1070
     0
1002
{
1002
}
1002
}
  0
VIEWPORT
  5
2E
330
15
100
AcDbEntity
 67
     1
  8
M_VIEW
100
AcDbViewport
 10
200.0
 20
144.0
 30
0.0
 40
400.0
 41
288.0
 68
     2
 69
     2
1001
ACAD
1000
MVIEW
1002
{
1070
    16
1010
0.0
1020
0.0
1030
0.0
1010
0.0
1020
0.0
1030
1.0
1040
0.0
1040
576.0
1040
452.1202252045758
1040
118.2689260253469
1040
50.0
1040
0.0
1040
0.0
1070
     0
1070
   100
1070
     1
1070
     0
1070
     0
1070
     0
1070
     0
1070
     0
1040
0.0
1040
0.0
1040
0.0
1040
10.0
1040
10.0
1040
10.0
1040
10.0
1070
     0
1002
{
1002
}
1002
}
  0
INSERT
  5
115F
330
15
100
AcDbEntity
 67
     1
  8
FRAME025
100
AcDbBlockReference
  2
機械A4横_LBP
 10
82.74908858651452
 20
152.030959079227
 30
0.0
  0
TEXT
  5
AA6A
330
15
100
AcDbEntity
 67
     1
  8
文字
  6
BYBLOCK
 62
     0
100
AcDbText
 10
32.81885892396519
 20
73.01882819621747
 30
0.0
 40
3.2
  1

 50
90.0
 41
0.625
  7
MSｺ_ｼｯｸ
100
AcDbText
  0
TEXT
  5
AA6C
330
15
100
AcDbEntity
 67
     1
  8
文字
  6
BYBLOCK
 62
     0
100
AcDbText
 10
37.25020936743055
 20
73.01882819621747
 30
0.0
 40
3.2
  1

 50
90.0
 41
0.625
  7
MSｺ_ｼｯｸ
100
AcDbText
  0
TEXT
  5
FCA5
330
15
100
AcDbEntity
 67
     1
  8
FRAME020
  6
CONTINUOUS
100
AcDbText
 10
126.6213117262079
 20
29.63926951973459
 30
0.0
 40
2.5
  1

 41
0.625
  7
MSｺ_ｼｯｸ
100
AcDbText
  0
TEXT
  5
12229
330
15
100
AcDbEntity
 67
     1
  8
0
100
AcDbText
 10
323.726464138032
 20
10.63168299257869
 30
0.0
 40
6.0
  1
ＳＥ－３１２３３
 41
1.1
100
AcDbText
  0
MTEXT
  5
19239
330
15
100
AcDbEntity
 67
     1
  8
DIMENSION
100
AcDbMText
 10
231.5284635345637
 20
27.13058389015019
 30
0.0
 40
6.0
 41
156.1131821528057
 71
     1
 72
     5
  1
{\C7;τDISCﾓｰﾀ D170-100-L NMR-FSFBA2C-701A}
1001
ACAD
1000
MTEXTBEGIN
1070
    73
1070
     1
1070
    44
1040
1.0
1070
    74
1070
     0
1000
MTEXTEND
  0
ENDSEC
  0
SECTION
  2
OBJECTS
  0
DICTIONARY
  5
C
330
0
100
AcDbDictionary
  3
ACAD_GROUP
350
D
  3
ACAD_LAYOUT
350
DB2
  3
ACAD_MLINESTYLE
350
1B
  3
ACAD_PLOTSETTINGS
350
DB3
  3
ACAD_PLOTSTYLENAME
350
FB5B
  3
ACADDIM
350
1916D
  3
ACDBHEADERROUNDTRIPXREC
350
19267
  3
ACDBVARIABLEDICTIONARY
350
106A6
1001
ACAD
1000
TREAT_AS_HARD
1070
     0
  0
DICTIONARY
  5
18F79
330
2
100
AcDbDictionary
280
     1
  3
ACAD_LAYERFILTERS
360
18F7A
  3
ACAD_LAYERSTATES
360
18F87
  0
DICTIONARY
  5
EFC6
330
18
100
AcDbDictionary
280
     1
  3
ACAD_LAYOUTSELFREF
360
19289
  0
DICTIONARY
  5
EFC4
330
15
100
AcDbDictionary
280
     1
  3
ACAD_LAYOUTSELFREF
360
19288
  0
DICTIONARY
  5
D
102
{ACAD_REACTORS
330
C
102
}
330
C
100
AcDbDictionary
  3
*A1
350
AC8A
  3
*A10
350
FC9B
  3
*A11
350
1739E
  3
*A12
350
106C7
  3
*A13
350
1897A
  3
*A14
350
ACBD
  3
*A15
350
15D51
  3
*A16
350
106A5
  3
*A17
350
14436
  3
*A18
350
190E0
  3
*A19
350
ACAB
  3
*A2
350
ACA1
  3
*A20
350
174FD
  3
*A21
350
16501
  3
*A22
350
16616
  3
*A23
350
18963
  3
*A24
350
FB6C
  3
*A25
350
190EC
  3
*A26
350
16CE0
  3
*A27
350
FBFF
  3
*A28
350
166BD
  3
*A29
350
166C0
  3
*A3
350
16ECD
  3
*A30
350
16CE1
  3
*A31
350
190F8
  3
*A32
350
14F04
  3
*A33
350
ACB4
  3
*A34
350
14437
  3
*A35
350
ACA2
  3
*A36
350
106C6
  3
*A37
350
15D52
  3
*A38
350
FCB8
  3
*A39
350
FC9A
  3
*A4
350
16E70
  3
*A40
350
1738C
  3
*A41
350
1898C
  3
*A42
350
1629D
  3
*A43
350
16DAA
  3
*A44
350
15D50
  3
*A45
350
1663D
  3
*A46
350
16E71
  3
*A47
350
178A4
  3
*A48
350
190E4
  3
*A49
350
178A8
  3
*A5
350
1668A
  3
*A50
350
1749C
  3
*A51
350
16CE2
  3
*A52
350
190F0
  3
*A53
350
1474A
  3
*A54
350
1629E
  3
*A55
350
167DB
  3
*A56
350
190FC
  3
*A57
350
190E8
  3
*A58
350
1668B
  3
*A59
350
18983
  3
*A6
350
15D4F
  3
*A60
350
190F4
  3
*A61
350
16955
  3
*A62
350
FB6B
  3
*A63
350
1738D
  3
*A64
350
AC9A
  3
*A65
350
FC95
  3
*A7
350
106B3
  3
*A8
350
FC91
  3
*A9
350
16500
1001
ACAD
1000
TREAT_AS_HARD
1070
     0
  0
DICTIONARY
  5
DB2
102
{ACAD_REACTORS
330
C
102
}
330
C
100
AcDbDictionary
1001
ACAD
1000
TREAT_AS_HARD
1070
     0
  0
DICTIONARY
  5
1B
102
{ACAD_REACTORS
330
C
102
}
330
C
100
AcDbDictionary
  3
STANDARD
350
1C
1001
ACAD
1000
TREAT_AS_HARD
1070
     0
  0
DICTIONARY
  5
DB3
102
{ACAD_REACTORS
330
C
102
}
330
C
100
AcDbDictionary
1001
ACAD
1000
TREAT_AS_HARD
1070
     0
  0
ACDBDICTIONARYWDFLT
  5
FB5B
102
{ACAD_REACTORS
330
C
102
}
330
C
100
AcDbDictionary
281
     1
  3
Normal
350
FB5C
100
AcDbDictionaryWithDefault
340
FB5C
  0
XRECORD
  5
1916D
102
{ACAD_REACTORS
330
C
102
}
330
C
100
AcDbXrecord
 90
   990106
  3

 60
     0
 61
     0
 62
     4
 63
     4
 64
     1
 65
     0
 66
     0
 67
     3
 68
     1
 69
     0
 70
     0
 71
     0
 72
     0
 40
0.0
170
     1
340
1916F
  0
DICTIONARY
  5
19267
102
{ACAD_REACTORS
330
C
102
}
330
C
100
AcDbDictionary
  3
CEPSNTYPE
350
19271
  3
DIMSTYLEDATA
350
19275
  3
FINGERPRINTGUID
350
19272
  3
HYPERLINKBASE
350
1926A
  3
INSUNITS
350
19270
  3
LAYOUTDICT
350
1926C
  3
LWETCUNION
350
1926F
  3
PLOTSETDICT
350
1926D
  3
PLOTSTYLNAMDICT
350
1926E
  3
PSVPSCALE
350
19274
  3
PUCSBASE
350
19278
  3
PUCSORGBACK
350
1927E
  3
PUCSORGBOTTOM
350
1927A
  3
PUCSORGFRONT
350
1927D
  3
PUCSORGLEFT
350
1927B
  3
PUCSORGRIGHT
350
1927C
  3
PUCSORGTOP
350
19279
  3
PUCSORTHOREF
350
19276
  3
PUCSORTHOVIEW
350
19277
  3
STYLESHEET
350
1926B
  3
TSTACKALIGN
350
19268
  3
TSTACKSIZE
350
19269
  3
UCSBASE
350
19281
  3
UCSORGBACK
350
19287
  3
UCSORGBOTTOM
350
19283
  3
UCSORGFRONT
350
19286
  3
UCSORGLEFT
350
19284
  3
UCSORGRIGHT
350
19285
  3
UCSORGTOP
350
19282
  3
UCSORTHOREF
350
1927F
  3
UCSORTHOVIEW
350
19280
  3
VERSIONGUID
350
19273
  0
DICTIONARY
  5
106A6
102
{ACAD_REACTORS
330
C
102
}
330
C
100
AcDbDictionary
  3
SORTENTS
350
106A7
  0
DICTIONARY
  5
18F7A
102
{ACAD_REACTORS
330
18F79
102
}
330
18F79
100
AcDbDictionary
280
     1
  3
0
360
18F7B
  3
11
360
18F7C
  3
150_
360
18F7D
  3
160_
360
18F7E
  3
170_
360
18F7F
  3
171_
360
18F80
  3
350_
360
18F81
  3
4
360
18F82
  3
5
360
18F83
  3
7
360
18F84
  3
KISEKI
360
18F85
  0
DICTIONARY
  5
18F87
102
{ACAD_REACTORS
330
18F79
102
}
330
18F79
100
AcDbDictionary
  0
XRECORD
  5
19289
102
{ACAD_REACTORS
330
EFC6
102
}
330
EFC6
100
AcDbXrecord
340
18
  0
XRECORD
  5
19288
102
{ACAD_REACTORS
330
EFC4
102
}
330
EFC4
100
AcDbXrecord
340
15
  0
GROUP
  5
AC8A
102
{ACAD_REACTORS
330
D
102
}
330
D
100
AcDbGroup
300

 70
     1
 71
     1
  0
GROUP
  5
FC9B
102
{ACAD_REACTORS
330
D
102
}
330
D
100
AcDbGroup
300

 70
     1
 71
     1
  0
GROUP
  5
1739E
102
{ACAD_REACTORS
330
D
102
}
330
D
100
AcDbGroup
300

 70
     1
 71
     1
  0
GROUP
  5
106C7
102
{ACAD_REACTORS
330
D
102
}
330
D
100
AcDbGroup
300

 70
     1
 71
     1
  0
GROUP
  5
1897A
102
{ACAD_REACTORS
330
D
102
}
330
D
100
AcDbGroup
300

 70
     1
 71
     1
340
18971
340
18978
340
18977
340
18976
340
18975
340
18974
340
18973
340
18972
  0
GROUP
  5
ACBD
102
{ACAD_REACTORS
330
D
102
}
330
D
100
AcDbGroup
300

 70
     1
 71
     1
  0
GROUP
  5
15D51
102
{ACAD_REACTORS
330
D
102
}
330
D
100
AcDbGroup
300

 70
     1
 71
     1
  0
GROUP
  5
106A5
102
{ACAD_REACTORS
330
D
102
}
330
D
100
AcDbGroup
300

 70
     1
 71
     1
  0
GROUP
  5
14436
102
{ACAD_REACTORS
330
D
102
}
330
D
100
AcDbGroup
300

 70
     1
 71
     1
  0
GROUP
  5
190E0
102
{ACAD_REACTORS
330
D
102
}
330
D
100
AcDbGroup
300

 70
     1
 71
     1
340
190DD
340
190DE
340
190DF
  0
GROUP
  5
ACAB
102
{ACAD_REACTORS
330
D
102
}
330
D
100
AcDbGroup
300

 70
     1
 71
     1
  0
GROUP
  5
ACA1
102
{ACAD_REACTORS
330
D
102
}
330
D
100
AcDbGroup
300

 70
     1
 71
     1
  0
GROUP
  5
174FD
102
{ACAD_REACTORS
330
D
102
}
330
D
100
AcDbGroup
300

 70
     1
 71
     1
  0
GROUP
  5
16501
102
{ACAD_REACTORS
330
D
102
}
330
D
100
AcDbGroup
300

 70
     1
 71
     1
  0
GROUP
  5
16616
102
{ACAD_REACTORS
330
D
102
}
330
D
100
AcDbGroup
300

 70
     1
 71
     1
  0
GROUP
  5
18963
102
{ACAD_REACTORS
330
D
102
}
330
D
100
AcDbGroup
300

 70
     1
 71
     1
340
181EE
340
181ED
340
181EC
340
181EB
340
181EA
340
181F1
340
181F0
340
181EF
  0
GROUP
  5
FB6C
102
{ACAD_REACTORS
330
D
102
}
330
D
100
AcDbGroup
300

 70
     1
 71
     1
  0
GROUP
  5
190EC
102
{ACAD_REACTORS
330
D
102
}
330
D
100
AcDbGroup
300

 70
     1
 71
     1
340
190EA
340
190E9
340
190EB
  0
GROUP
  5
16CE0
102
{ACAD_REACTORS
330
D
102
}
330
D
100
AcDbGroup
300

 70
     1
 71
     1
  0
GROUP
  5
FBFF
102
{ACAD_REACTORS
330
D
102
}
330
D
100
AcDbGroup
300

 70
     1
 71
     1
  0
GROUP
  5
166BD
102
{ACAD_REACTORS
330
D
102
}
330
D
100
AcDbGroup
300

 70
     1
 71
     1
  0
GROUP
  5
166C0
102
{ACAD_REACTORS
330
D
102
}
330
D
100
AcDbGroup
300

 70
     1
 71
     1
  0
GROUP
  5
16ECD
102
{ACAD_REACTORS
330
D
102
}
330
D
100
AcDbGroup
300

 70
     1
 71
     1
  0
GROUP
  5
16CE1
102
{ACAD_REACTORS
330
D
102
}
330
D
100
AcDbGroup
300

 70
     1
 71
     1
  0
GROUP
  5
190F8
102
{ACAD_REACTORS
330
D
102
}
330
D
100
AcDbGroup
300

 70
     1
 71
     1
340
190F6
340
190F5
340
190F7
  0
GROUP
  5
14F04
102
{ACAD_REACTORS
330
D
102
}
330
D
100
AcDbGroup
300

 70
     1
 71
     1
  0
GROUP
  5
ACB4
102
{ACAD_REACTORS
330
D
102
}
330
D
100
AcDbGroup
300

 70
     1
 71
     1
  0
GROUP
  5
14437
102
{ACAD_REACTORS
330
D
102
}
330
D
100
AcDbGroup
300

 70
     1
 71
     1
  0
GROUP
  5
ACA2
102
{ACAD_REACTORS
330
D
102
}
330
D
100
AcDbGroup
300

 70
     1
 71
     1
  0
GROUP
  5
106C6
102
{ACAD_REACTORS
330
D
102
}
330
D
100
AcDbGroup
300

 70
     1
 71
     1
  0
GROUP
  5
15D52
102
{ACAD_REACTORS
330
D
102
}
330
D
100
AcDbGroup
300

 70
     1
 71
     1
  0
GROUP
  5
FCB8
102
{ACAD_REACTORS
330
D
102
}
330
D
100
AcDbGroup
300

 70
     1
 71
     1
  0
GROUP
  5
FC9A
102
{ACAD_REACTORS
330
D
102
}
330
D
100
AcDbGroup
300

 70
     1
 71
     1
  0
GROUP
  5
16E70
102
{ACAD_REACTORS
330
D
102
}
330
D
100
AcDbGroup
300

 70
     1
 71
     1
  0
GROUP
  5
1738C
102
{ACAD_REACTORS
330
D
102
}
330
D
100
AcDbGroup
300

 70
     1
 71
     1
  0
GROUP
  5
1898C
102
{ACAD_REACTORS
330
D
102
}
330
D
100
AcDbGroup
300

 70
     1
 71
     1
340
18984
340
1898B
340
1898A
340
18989
340
18988
340
18987
340
18986
340
18985
  0
GROUP
  5
1629D
102
{ACAD_REACTORS
330
D
102
}
330
D
100
AcDbGroup
300

 70
     1
 71
     1
  0
GROUP
  5
16DAA
102
{ACAD_REACTORS
330
D
102
}
330
D
100
AcDbGroup
300

 70
     1
 71
     1
  0
GROUP
  5
15D50
102
{ACAD_REACTORS
330
D
102
}
330
D
100
AcDbGroup
300

 70
     1
 71
     1
  0
GROUP
  5
1663D
102
{ACAD_REACTORS
330
D
102
}
330
D
100
AcDbGroup
300

 70
     1
 71
     1
  0
GROUP
  5
16E71
102
{ACAD_REACTORS
330
D
102
}
330
D
100
AcDbGroup
300

 70
     1
 71
     1
  0
GROUP
  5
178A4
102
{ACAD_REACTORS
330
D
102
}
330
D
100
AcDbGroup
300

 70
     1
 71
     1
  0
GROUP
  5
190E4
102
{ACAD_REACTORS
330
D
102
}
330
D
100
AcDbGroup
300

 70
     1
 71
     1
340
190E2
340
190E1
340
190E3
  0
GROUP
  5
178A8
102
{ACAD_REACTORS
330
D
102
}
330
D
100
AcDbGroup
300

 70
     1
 71
     1
  0
GROUP
  5
1668A
102
{ACAD_REACTORS
330
D
102
}
330
D
100
AcDbGroup
300

 70
     1
 71
     1
  0
GROUP
  5
1749C
102
{ACAD_REACTORS
330
D
102
}
330
D
100
AcDbGroup
300

 70
     1
 71
     1
  0
GROUP
  5
16CE2
102
{ACAD_REACTORS
330
D
102
}
330
D
100
AcDbGroup
300

 70
     1
 71
     1
  0
GROUP
  5
190F0
102
{ACAD_REACTORS
330
D
102
}
330
D
100
AcDbGroup
300

 70
     1
 71
     1
340
190EE
340
190ED
340
190EF
  0
GROUP
  5
1474A
102
{ACAD_REACTORS
330
D
102
}
330
D
100
AcDbGroup
300

 70
     1
 71
     1
  0
GROUP
  5
1629E
102
{ACAD_REACTORS
330
D
102
}
330
D
100
AcDbGroup
300

 70
     1
 71
     1
  0
GROUP
  5
167DB
102
{ACAD_REACTORS
330
D
102
}
330
D
100
AcDbGroup
300

 70
     1
 71
     1
  0
GROUP
  5
190FC
102
{ACAD_REACTORS
330
D
102
}
330
D
100
AcDbGroup
300

 70
     1
 71
     1
340
190FA
340
190F9
340
190FB
  0
GROUP
  5
190E8
102
{ACAD_REACTORS
330
D
102
}
330
D
100
AcDbGroup
300

 70
     1
 71
     1
340
190E6
340
190E5
340
190E7
  0
GROUP
  5
1668B
102
{ACAD_REACTORS
330
D
102
}
330
D
100
AcDbGroup
300

 70
     1
 71
     1
  0
GROUP
  5
18983
102
{ACAD_REACTORS
330
D
102
}
330
D
100
AcDbGroup
300

 70
     1
 71
     1
340
1897B
340
1897C
340
1897D
340
1897E
340
1897F
340
18980
340
18981
340
18982
  0
GROUP
  5
15D4F
102
{ACAD_REACTORS
330
D
102
}
330
D
100
AcDbGroup
300

 70
     1
 71
     1
  0
GROUP
  5
190F4
102
{ACAD_REACTORS
330
D
102
}
330
D
100
AcDbGroup
300

 70
     1
 71
     1
340
190F2
340
190F1
340
190F3
  0
GROUP
  5
16955
102
{ACAD_REACTORS
330
D
102
}
330
D
100
AcDbGroup
300

 70
     1
 71
     1
  0
GROUP
  5
FB6B
102
{ACAD_REACTORS
330
D
102
}
330
D
100
AcDbGroup
300

 70
     1
 71
     1
  0
GROUP
  5
1738D
102
{ACAD_REACTORS
330
D
102
}
330
D
100
AcDbGroup
300

 70
     1
 71
     1
  0
GROUP
  5
AC9A
102
{ACAD_REACTORS
330
D
102
}
330
D
100
AcDbGroup
300

 70
     1
 71
     1
  0
GROUP
  5
FC95
102
{ACAD_REACTORS
330
D
102
}
330
D
100
AcDbGroup
300

 70
     1
 71
     1
  0
GROUP
  5
106B3
102
{ACAD_REACTORS
330
D
102
}
330
D
100
AcDbGroup
300

 70
     1
 71
     1
  0
GROUP
  5
FC91
102
{ACAD_REACTORS
330
D
102
}
330
D
100
AcDbGroup
300

 70
     1
 71
     1
  0
GROUP
  5
16500
102
{ACAD_REACTORS
330
D
102
}
330
D
100
AcDbGroup
300

 70
     1
 71
     1
  0
MLINESTYLE
  5
1C
102
{ACAD_REACTORS
330
1B
102
}
330
1B
100
AcDbMlineStyle
  2
STANDARD
 70
     0
  3

 62
   256
 51
90.0
 52
90.0
 71
     2
 49
0.5
 62
   256
  6
BYLAYER
 49
-0.5
 62
   256
  6
BYLAYER
  0
ACDBPLACEHOLDER
  5
FB5C
102
{ACAD_REACTORS
330
FB5B
102
}
330
FB5B
100
AcDbPlaceHolder
280
     0
  0
XRECORD
  5
19271
102
{ACAD_REACTORS
330
19267
102
}
330
19267
100
AcDbXrecord
 90
        0
  0
XRECORD
  5
19275
102
{ACAD_REACTORS
330
19267
102
}
330
19267
100
AcDbXrecord
1000
DSTYLE
1002
{
1070
    79
 70
     2
1070
   179
 70
     2
1070
   279
 70
     2
1070
   341
340
1215D
1070
   342
340
1215D
1002
}
  0
XRECORD
  5
19272
102
{ACAD_REACTORS
330
19267
102
}
330
19267
100
AcDbXrecord
  1
{D14EE3FF-941A-415A-9907-344E0A80D794}
  0
XRECORD
  5
1926A
102
{ACAD_REACTORS
330
19267
102
}
330
19267
100
AcDbXrecord
  1

  0
XRECORD
  5
19270
102
{ACAD_REACTORS
330
19267
102
}
330
19267
100
AcDbXrecord
 90
        0
  0
XRECORD
  5
1926C
102
{ACAD_REACTORS
330
19267
102
}
330
19267
100
AcDbXrecord
340
DB2
  0
XRECORD
  5
1926F
102
{ACAD_REACTORS
330
19267
102
}
330
19267
100
AcDbXrecord
 90
    10269
  0
XRECORD
  5
1926D
102
{ACAD_REACTORS
330
19267
102
}
330
19267
100
AcDbXrecord
340
DB3
  0
XRECORD
  5
1926E
102
{ACAD_REACTORS
330
19267
102
}
330
19267
100
AcDbXrecord
340
FB5B
  0
XRECORD
  5
19274
102
{ACAD_REACTORS
330
19267
102
}
330
19267
100
AcDbXrecord
 40
0.0
  0
XRECORD
  5
19278
102
{ACAD_REACTORS
330
19267
102
}
330
19267
100
AcDbXrecord
340
0
  0
XRECORD
  5
1927E
102
{ACAD_REACTORS
330
19267
102
}
330
19267
100
AcDbXrecord
 10
0.0
 20
0.0
 30
0.0
  0
XRECORD
  5
1927A
102
{ACAD_REACTORS
330
19267
102
}
330
19267
100
AcDbXrecord
 10
0.0
 20
0.0
 30
0.0
  0
XRECORD
  5
1927D
102
{ACAD_REACTORS
330
19267
102
}
330
19267
100
AcDbXrecord
 10
0.0
 20
0.0
 30
0.0
  0
XRECORD
  5
1927B
102
{ACAD_REACTORS
330
19267
102
}
330
19267
100
AcDbXrecord
 10
0.0
 20
0.0
 30
0.0
  0
XRECORD
  5
1927C
102
{ACAD_REACTORS
330
19267
102
}
330
19267
100
AcDbXrecord
 10
0.0
 20
0.0
 30
0.0
  0
XRECORD
  5
19279
102
{ACAD_REACTORS
330
19267
102
}
330
19267
100
AcDbXrecord
 10
0.0
 20
0.0
 30
0.0
  0
XRECORD
  5
19276
102
{ACAD_REACTORS
330
19267
102
}
330
19267
100
AcDbXrecord
340
0
  0
XRECORD
  5
19277
102
{ACAD_REACTORS
330
19267
102
}
330
19267
100
AcDbXrecord
 70
     0
  0
XRECORD
  5
1926B
102
{ACAD_REACTORS
330
19267
102
}
330
19267
100
AcDbXrecord
  1

  0
XRECORD
  5
19268
102
{ACAD_REACTORS
330
19267
102
}
330
19267
100
AcDbXrecord
 90
        1
  0
XRECORD
  5
19269
102
{ACAD_REACTORS
330
19267
102
}
330
19267
100
AcDbXrecord
 90
       70
  0
XRECORD
  5
19281
102
{ACAD_REACTORS
330
19267
102
}
330
19267
100
AcDbXrecord
340
0
  0
XRECORD
  5
19287
102
{ACAD_REACTORS
330
19267
102
}
330
19267
100
AcDbXrecord
 10
0.0
 20
0.0
 30
0.0
  0
XRECORD
  5
19283
102
{ACAD_REACTORS
330
19267
102
}
330
19267
100
AcDbXrecord
 10
0.0
 20
0.0
 30
0.0
  0
XRECORD
  5
19286
102
{ACAD_REACTORS
330
19267
102
}
330
19267
100
AcDbXrecord
 10
0.0
 20
0.0
 30
0.0
  0
XRECORD
  5
19284
102
{ACAD_REACTORS
330
19267
102
}
330
19267
100
AcDbXrecord
 10
0.0
 20
0.0
 30
0.0
  0
XRECORD
  5
19285
102
{ACAD_REACTORS
330
19267
102
}
330
19267
100
AcDbXrecord
 10
0.0
 20
0.0
 30
0.0
  0
XRECORD
  5
19282
102
{ACAD_REACTORS
330
19267
102
}
330
19267
100
AcDbXrecord
 10
0.0
 20
0.0
 30
0.0
  0
XRECORD
  5
1927F
102
{ACAD_REACTORS
330
19267
102
}
330
19267
100
AcDbXrecord
340
0
  0
XRECORD
  5
19280
102
{ACAD_REACTORS
330
19267
102
}
330
19267
100
AcDbXrecord
 70
     0
  0
XRECORD
  5
19273
102
{ACAD_REACTORS
330
19267
102
}
330
19267
100
AcDbXrecord
  1
{3699C05E-92E4-43C3-8E7D-2ED343CEFC86}
  0
DICTIONARYVAR
  5
106A7
102
{ACAD_REACTORS
330
106A6
102
}
330
106A6
100
DictionaryVariables
280
     0
  1
96
  0
XRECORD
  5
18F7B
102
{ACAD_REACTORS
330
18F7A
102
}
330
18F7A
100
AcDbXrecord
  1
0
  1
*0
  1
*
  1
*
 70
     0
  1
*
  1
*
  0
XRECORD
  5
18F7C
102
{ACAD_REACTORS
330
18F7A
102
}
330
18F7A
100
AcDbXrecord
  1
11
  1
*11
  1
*
  1
*
 70
     0
  1
*
  1
*
  0
XRECORD
  5
18F7D
102
{ACAD_REACTORS
330
18F7A
102
}
330
18F7A
100
AcDbXrecord
  1
150_
  1
150_*
  1
*
  1
*
 70
     0
  1
*
  1
*
  0
XRECORD
  5
18F7E
102
{ACAD_REACTORS
330
18F7A
102
}
330
18F7A
100
AcDbXrecord
  1
160_
  1
160_*
  1
*
  1
*
 70
     0
  1
*
  1
*
  0
XRECORD
  5
18F7F
102
{ACAD_REACTORS
330
18F7A
102
}
330
18F7A
100
AcDbXrecord
  1
170_
  1
170_*
  1
*
  1
*
 70
     0
  1
*
  1
*
  0
XRECORD
  5
18F80
102
{ACAD_REACTORS
330
18F7A
102
}
330
18F7A
100
AcDbXrecord
  1
171_
  1
171_*
  1
*
  1
*
 70
     0
  1
*
  1
*
  0
XRECORD
  5
18F81
102
{ACAD_REACTORS
330
18F7A
102
}
330
18F7A
100
AcDbXrecord
  1
350_
  1
350_*
  1
*
  1
*
 70
     0
  1
*
  1
*
  0
XRECORD
  5
18F82
102
{ACAD_REACTORS
330
18F7A
102
}
330
18F7A
100
AcDbXrecord
  1
4
  1
*4
  1
*
  1
*
 70
     0
  1
*
  1
*
  0
XRECORD
  5
18F83
102
{ACAD_REACTORS
330
18F7A
102
}
330
18F7A
100
AcDbXrecord
  1
5
  1
*5
  1
*
  1
*
 70
     0
  1
*
  1
*
  0
XRECORD
  5
18F84
102
{ACAD_REACTORS
330
18F7A
102
}
330
18F7A
100
AcDbXrecord
  1
7
  1
*7
  1
*
  1
*
 70
     0
  1
*
  1
*
  0
XRECORD
  5
18F85
102
{ACAD_REACTORS
330
18F7A
102
}
330
18F7A
100
AcDbXrecord
  1
kiseki
  1
kiseki*
  1
*
  1
*
 70
     0
  1
*
  1
*
  0
ENDSEC
  0
EOF
