  0
SECTION
  2
HEADER
  9
$ACADVER
  1
AC1014
  9
$ACADMAINTVER
 70
     9
  9
$DWGCODEPAGE
  3
ANSI_932
  9
$INSBASE
 10
0.0
 20
0.0
 30
0.0
  9
$EXTMIN
 10
-3187.662474850398
 20
-1024.949260806913
 30
0.0
  9
$EXTMAX
 10
-2786.524937149446
 20
-852.4931853344414
 30
0.0
  9
$LIMMIN
 10
0.0
 20
0.0
  9
$LIMMAX
 10
420.0
 20
297.0
  9
$ORTHOMODE
 70
     1
  9
$REGENMODE
 70
     1
  9
$FILLMODE
 70
     1
  9
$QTEXTMODE
 70
     0
  9
$MIRRTEXT
 70
     0
  9
$DRAGMODE
 70
     2
  9
$LTSCALE
 40
20.0
  9
$OSMODE
 70
    37
  9
$ATTMODE
 70
     2
  9
$TEXTSIZE
 40
10.0
  9
$TRACEWID
 40
1.0
  9
$TEXTSTYLE
  7
ｽﾀｲﾙ3
  9
$CLAYER
  8
文字
  9
$CELTYPE
  6
BYLAYER
  9
$CECOLOR
 62
   256
  9
$CELTSCALE
 40
1.0
  9
$DELOBJ
 70
     1
  9
$DISPSILH
 70
     0
  9
$DIMSCALE
 40
1.0
  9
$DIMASZ
 40
4.0
  9
$DIMEXO
 40
1.0
  9
$DIMDLI
 40
0.38
  9
$DIMRND
 40
0.0
  9
$DIMDLE
 40
0.0
  9
$DIMEXE
 40
1.0
  9
$DIMTP
 40
0.0
  9
$DIMTM
 40
0.0
  9
$DIMTXT
 40
5.0
  9
$DIMCEN
 40
0.0
  9
$DIMTSZ
 40
0.0
  9
$DIMTOL
 70
     0
  9
$DIMLIM
 70
     0
  9
$DIMTIH
 70
     0
  9
$DIMTOH
 70
     0
  9
$DIMSE1
 70
     0
  9
$DIMSE2
 70
     0
  9
$DIMTAD
 70
     3
  9
$DIMZIN
 70
     8
  9
$DIMBLK
  1
OPEN30
  9
$DIMASO
 70
     1
  9
$DIMSHO
 70
     1
  9
$DIMPOST
  1

  9
$DIMAPOST
  1

  9
$DIMALT
 70
     0
  9
$DIMALTD
 70
     2
  9
$DIMALTF
 40
25.4
  9
$DIMLFAC
 40
1.0
  9
$DIMTOFL
 70
     0
  9
$DIMTVP
 40
0.0
  9
$DIMTIX
 70
     0
  9
$DIMSOXD
 70
     0
  9
$DIMSAH
 70
     0
  9
$DIMBLK1
  1

  9
$DIMBLK2
  1

  9
$DIMSTYLE
  2
まこ-１_２
  9
$DIMCLRD
 70
     4
  9
$DIMCLRE
 70
     4
  9
$DIMCLRT
 70
   256
  9
$DIMTFAC
 40
1.0
  9
$DIMGAP
 40
1.0
  9
$DIMJUST
 70
     0
  9
$DIMSD1
 70
     0
  9
$DIMSD2
 70
     0
  9
$DIMTOLJ
 70
     1
  9
$DIMTZIN
 70
     0
  9
$DIMALTZ
 70
     0
  9
$DIMALTTZ
 70
     0
  9
$DIMFIT
 70
     1
  9
$DIMUPT
 70
     0
  9
$DIMUNIT
 70
     2
  9
$DIMDEC
 70
     2
  9
$DIMTDEC
 70
     2
  9
$DIMALTU
 70
     2
  9
$DIMALTTD
 70
     2
  9
$DIMTXSTY
  7
MSゴシック-0
  9
$DIMAUNIT
 70
     0
  9
$LUNITS
 70
     2
  9
$LUPREC
 70
     4
  9
$SKETCHINC
 40
1.0
  9
$FILLETRAD
 40
0.0
  9
$AUNITS
 70
     0
  9
$AUPREC
 70
     0
  9
$MENU
  1
.
  9
$ELEVATION
 40
0.0
  9
$PELEVATION
 40
0.0
  9
$THICKNESS
 40
0.0
  9
$LIMCHECK
 70
     0
  9
$BLIPMODE
 70
     0
  9
$CHAMFERA
 40
0.5
  9
$CHAMFERB
 40
0.5
  9
$CHAMFERC
 40
20.0
  9
$CHAMFERD
 40
0.0
  9
$SKPOLY
 70
     0
  9
$TDCREATE
 40
2451224.660162384
  9
$TDUPDATE
 40
2455638.673256828
  9
$TDINDWG
 40
16.3501708912
  9
$TDUSRTIMER
 40
16.3501708912
  9
$USRTIMER
 70
     1
  9
$ANGBASE
 50
0.0
  9
$ANGDIR
 70
     0
  9
$PDMODE
 70
     0
  9
$PDSIZE
 40
0.0
  9
$PLINEWID
 40
0.0
  9
$COORDS
 70
     0
  9
$SPLFRAME
 70
     0
  9
$SPLINETYPE
 70
     6
  9
$SPLINESEGS
 70
     8
  9
$ATTDIA
 70
     0
  9
$ATTREQ
 70
     1
  9
$HANDLING
 70
-16383
  9
$HANDSEED
  5
24A7F
  9
$SURFTAB1
 70
     6
  9
$SURFTAB2
 70
     6
  9
$SURFTYPE
 70
     6
  9
$SURFU
 70
     6
  9
$SURFV
 70
     6
  9
$UCSNAME
  2

  9
$UCSORG
 10
0.0
 20
0.0
 30
0.0
  9
$UCSXDIR
 10
1.0
 20
0.0
 30
0.0
  9
$UCSYDIR
 10
0.0
 20
1.0
 30
0.0
  9
$PUCSNAME
  2

  9
$PUCSORG
 10
0.0
 20
0.0
 30
0.0
  9
$PUCSXDIR
 10
1.0
 20
0.0
 30
0.0
  9
$PUCSYDIR
 10
0.0
 20
1.0
 30
0.0
  9
$USERI1
 70
     0
  9
$USERI2
 70
     0
  9
$USERI3
 70
     0
  9
$USERI4
 70
     0
  9
$USERI5
 70
     0
  9
$USERR1
 40
245.9999999999999
  9
$USERR2
 40
0.0
  9
$USERR3
 40
0.0
  9
$USERR4
 40
0.0
  9
$USERR5
 40
0.0
  9
$WORLDVIEW
 70
     1
  9
$SHADEDGE
 70
     3
  9
$SHADEDIF
 70
    70
  9
$TILEMODE
 70
     0
  9
$MAXACTVP
 70
    48
  9
$PINSBASE
 10
0.0
 20
0.0
 30
0.0
  9
$PLIMCHECK
 70
     0
  9
$PEXTMIN
 10
0.0
 20
0.0
 30
0.0
  9
$PEXTMAX
 10
400.0
 20
288.0
 30
0.0
  9
$PLIMMIN
 10
-7.732203906187278
 20
-5.220512174250789
  9
$PLIMMAX
 10
412.2144513672502
 20
291.705482698796
  9
$UNITMODE
 70
     0
  9
$VISRETAIN
 70
     1
  9
$PLINEGEN
 70
     0
  9
$PSLTSCALE
 70
     0
  9
$TREEDEPTH
 70
  3020
  9
$PICKSTYLE
 70
     0
  9
$CMLSTYLE
  2
STANDARD
  9
$CMLJUST
 70
     0
  9
$CMLSCALE
 40
20.0
  9
$PROXYGRAPHICS
 70
     1
  9
$MEASUREMENT
 70
     0
  0
ENDSEC
  0
SECTION
  2
CLASSES
  0
CLASS
  1
HATCH
  2
AcDbHatch
  3
AutoCAD 2000
 90
        0
280
     0
281
     1
  0
CLASS
  1
LWPOLYLINE
  2
AcDbPolyline
  3
AutoCAD 2000
 90
        0
280
     0
281
     1
  0
CLASS
  1
ACDBDICTIONARYWDFLT
  2
AcDbDictionaryWithDefault
  3
AutoCAD 2000
 90
        0
280
     0
281
     0
  0
CLASS
  1
ACDBPLACEHOLDER
  2
AcDbPlaceHolder
  3
AutoCAD 2000
 90
        0
280
     0
281
     0
  0
CLASS
  1
LAYOUT
  2
AcDbLayout
  3
AutoCAD 2000
 90
        0
280
     0
281
     0
  0
CLASS
  1
LONG_TRANSACTION
  2
AcDbLongTransaction
  3
AutoCAD 2000
 90
        0
280
     0
281
     0
  0
CLASS
  1
LWPOLYLINE
  2
AcDbPolyline
  3
AutoCAD 2000
 90
        0
280
     0
281
     1
  0
CLASS
  1
HATCH
  2
AcDbHatch
  3
AutoCAD 2000
 90
        0
280
     0
281
     1
  0
CLASS
  1
XRECORD
  2
AcDbXrecord
  3
AutoCAD 2000
 90
        0
280
     0
281
     0
  0
CLASS
  1
DICTIONARYVAR
  2
AcDbDictionaryVar
  3
AutoCAD 2000
 90
        0
280
     0
281
     0
  0
CLASS
  1
LONG_TRANSACTION
  2
AcDbLongTransaction
  3
AutoCAD 2000
 90
        0
280
     0
281
     0
  0
CLASS
  1
LWPOLYLINE
  2
AcDbPolyline
  3
AutoCAD 2000
 90
        0
280
     0
281
     1
  0
CLASS
  1
HATCH
  2
AcDbHatch
  3
AutoCAD 2000
 90
        0
280
     0
281
     1
  0
CLASS
  1
XRECORD
  2
AcDbXrecord
  3
AutoCAD 2000
 90
        0
280
     0
281
     0
  0
ENDSEC
  0
SECTION
  2
TABLES
  0
TABLE
  2
VPORT
  5
8
330
0
100
AcDbSymbolTable
 70
     2
  0
VPORT
  5
24A15
330
8
100
AcDbSymbolTableRecord
100
AcDbViewportTableRecord
  2
*ACTIVE
 70
     0
 10
0.0
 20
0.0
 11
1.0
 21
1.0
 12
-2987.120561641714
 22
-938.706673184158
 13
0.0
 23
0.0
 14
10.0
 24
10.0
 15
10.0
 25
10.0
 16
0.0
 26
0.0
 36
1.0
 17
0.0
 27
0.0
 37
0.0
 40
263.9546865025581
 41
1.527918781725888
 42
50.0
 43
0.0
 44
0.0
 50
0.0
 51
0.0
 71
     0
 72
   100
 73
     1
 74
     0
 75
     0
 76
     0
 77
     0
 78
     0
  0
ENDTAB
  0
TABLE
  2
LTYPE
  5
5
330
0
100
AcDbSymbolTable
 70
    11
  0
LTYPE
  5
12
330
5
100
AcDbSymbolTableRecord
100
AcDbLinetypeTableRecord
  2
BYBLOCK
 70
     0
  3

 72
    65
 73
     0
 40
0.0
  0
LTYPE
  5
13
330
5
100
AcDbSymbolTableRecord
100
AcDbLinetypeTableRecord
  2
BYLAYER
 70
     0
  3

 72
    65
 73
     0
 40
0.0
  0
LTYPE
  5
14
330
5
100
AcDbSymbolTableRecord
100
AcDbLinetypeTableRecord
  2
CONTINUOUS
 70
     0
  3
Solid line
 72
    65
 73
     0
 40
0.0
  0
LTYPE
  5
126C
330
5
100
AcDbSymbolTableRecord
100
AcDbLinetypeTableRecord
  2
CENTER
 70
     0
  3
____ _ ____ _ ____ _ ____ _ ____ _ ____ _ ____
 72
    65
 73
     4
 40
2.0
 49
1.25
 74
     0
 49
-0.25
 74
     0
 49
0.25
 74
     0
 49
-0.25
 74
     0
  0
LTYPE
  5
126E
330
5
100
AcDbSymbolTableRecord
100
AcDbLinetypeTableRecord
  2
DASHDOT
 70
     0
  3
__ . __ . __ . __ . __ . __ . __ . __ . __ . __
 72
    65
 73
     4
 40
1.0
 49
0.5
 74
     0
 49
-0.25
 74
     0
 49
0.0
 74
     0
 49
-0.25
 74
     0
  0
LTYPE
  5
1541F
330
5
100
AcDbSymbolTableRecord
100
AcDbLinetypeTableRecord
  2
HIDDEN
 70
     0
  3
_ _ _ _ _ _ _ _ _ _ _ _ _ _ _ _ _ _ _ _ _ _ _
 72
    65
 73
     2
 40
0.375
 49
0.25
 74
     0
 49
-0.125
 74
     0
  0
LTYPE
  5
15420
330
5
100
AcDbSymbolTableRecord
100
AcDbLinetypeTableRecord
  2
CENTER2
 70
     0
  3
Center (.5x) ___ _ ___ _ ___ _ ___ _ ___ _ ___
 72
    65
 73
     4
 40
1.125
 49
0.75
 74
     0
 49
-0.125
 74
     0
 49
0.125
 74
     0
 49
-0.125
 74
     0
  0
LTYPE
  5
1615D
330
5
100
AcDbSymbolTableRecord
100
AcDbLinetypeTableRecord
  2
PHANTOM
 70
     0
  3
Phantom ______  __  __  ______  __  __  ______
 72
    65
 73
     6
 40
2.5
 49
1.25
 74
     0
 49
-0.25
 74
     0
 49
0.25
 74
     0
 49
-0.25
 74
     0
 49
0.25
 74
     0
 49
-0.25
 74
     0
  0
ENDTAB
  0
TABLE
  2
LAYER
  5
2
102
{ACAD_XDICTIONARY
360
2453F
102
}
330
0
100
AcDbSymbolTable
 70
    41
  0
LAYER
  5
E
330
2
100
AcDbSymbolTableRecord
100
AcDbLayerTableRecord
  2
0
 70
     2
 62
     7
  6
CONTINUOUS
  0
LAYER
  5
2C
330
2
100
AcDbSymbolTableRecord
100
AcDbLayerTableRecord
  2
M_VIEW
 70
     4
 62
    -1
  6
CONTINUOUS
  0
LAYER
  5
30
330
2
100
AcDbSymbolTableRecord
100
AcDbLayerTableRecord
  2
FRAME025
 70
     0
 62
     7
  6
CONTINUOUS
  0
LAYER
  5
12B
330
2
100
AcDbSymbolTableRecord
100
AcDbLayerTableRecord
  2
DEFPOINTS
 70
     4
 62
    -7
  6
CONTINUOUS
  0
LAYER
  5
651
330
2
100
AcDbSymbolTableRecord
100
AcDbLayerTableRecord
  2
FRAME020
 70
     0
 62
     7
  6
CONTINUOUS
  0
LAYER
  5
1271
330
2
100
AcDbSymbolTableRecord
100
AcDbLayerTableRecord
  2
A
 70
     0
 62
     7
  6
CONTINUOUS
  0
LAYER
  5
A9BB
330
2
100
AcDbSymbolTableRecord
100
AcDbLayerTableRecord
  2
文字
 70
     0
 62
     7
  6
CONTINUOUS
  0
LAYER
  5
122DE
330
2
100
AcDbSymbolTableRecord
100
AcDbLayerTableRecord
  2
DIMENSION
 70
     0
 62
     7
  6
CONTINUOUS
  0
LAYER
  5
15422
330
2
100
AcDbSymbolTableRecord
100
AcDbLayerTableRecord
  2
細線
 70
     0
 62
     7
  6
CONTINUOUS
  0
LAYER
  5
15425
330
2
100
AcDbSymbolTableRecord
100
AcDbLayerTableRecord
  2
中心線
 70
     0
 62
     7
  6
CENTER2
  0
LAYER
  5
1615E
330
2
100
AcDbSymbolTableRecord
100
AcDbLayerTableRecord
  2
２点鎖線
 70
     0
 62
     7
  6
PHANTOM
  0
LAYER
  5
1A846
330
2
100
AcDbSymbolTableRecord
100
AcDbLayerTableRecord
  2
実線
 70
     0
 62
     7
  6
CONTINUOUS
  0
ENDTAB
  0
TABLE
  2
STYLE
  5
3
330
0
100
AcDbSymbolTable
 70
    15
  0
STYLE
  5
F
330
3
100
AcDbSymbolTableRecord
100
AcDbTextStyleTableRecord
  2
STANDARD
 70
     0
 40
0.0
 41
1.0
 50
0.0
 71
     0
 42
2.5
  3
isocp.shx
  4
bigfont.shx
  0
STYLE
  5
35
330
3
100
AcDbSymbolTableRecord
100
AcDbTextStyleTableRecord
  2
MSｺ_ｼｯｸ
 70
     0
 40
0.0
 41
1.0
 50
0.0
 71
     0
 42
5.0
  3
MS Gothic.ttf
  4

1001
ACAD
1000
MS Gothic
1071
    32817
  0
STYLE
  5
1275
330
3
100
AcDbSymbolTableRecord
100
AcDbTextStyleTableRecord
  2
BIGFONT
 70
     0
 40
2.0
 41
1.0
 50
0.0
 71
     0
 42
2.0
  3
txt.shx
  4
bigfont.shx
  0
STYLE
  5
1A84A
330
3
100
AcDbSymbolTableRecord
100
AcDbTextStyleTableRecord
  2
ｽﾀｲﾙ3
 70
     0
 40
10.0
 41
1.0
 50
0.0
 71
     0
 42
10.0
  3
isocp.shx
  4
extfont.shx
  0
STYLE
  5
1FA55
330
3
100
AcDbSymbolTableRecord
100
AcDbTextStyleTableRecord
  2
MSゴシック-0
 70
     0
 40
0.0
 41
1.0
 50
0.0
 71
     0
 42
4.0
  3
simplex.shx
  4
bigfont.shx
  0
ENDTAB
  0
TABLE
  2
VIEW
  5
6
330
0
100
AcDbSymbolTable
 70
     0
  0
ENDTAB
  0
TABLE
  2
UCS
  5
7
330
0
100
AcDbSymbolTable
 70
     0
  0
ENDTAB
  0
TABLE
  2
APPID
  5
9
330
0
100
AcDbSymbolTable
 70
     4
  0
APPID
  5
10
330
9
100
AcDbSymbolTableRecord
100
AcDbRegAppTableRecord
  2
ACAD
 70
     0
  0
APPID
  5
F013
330
9
100
AcDbSymbolTableRecord
100
AcDbRegAppTableRecord
  2
CONTENTBLOCKDESCRIPTION
 70
     0
  0
APPID
  5
F014
330
9
100
AcDbSymbolTableRecord
100
AcDbRegAppTableRecord
  2
CONTENTBLOCKICON
 70
     0
  0
APPID
  5
1A9A0
330
9
100
AcDbSymbolTableRecord
100
AcDbRegAppTableRecord
  2
DCO15
 70
     0
  0
ENDTAB
  0
TABLE
  2
DIMSTYLE
  5
A
330
0
100
AcDbSymbolTable
 70
    14
  0
DIMSTYLE
105
1D
330
A
100
AcDbSymbolTableRecord
100
AcDbDimStyleTableRecord
  2
STANDARD
 70
     0
  3

  4

  5

  6

  7

 40
1.0
 41
0.18
 42
0.0625
 43
0.38
 44
0.18
 45
0.0
 46
0.0
 47
0.0
 48
0.0
140
0.18
141
0.09
142
0.0
143
25.4
144
1.0
145
0.0
146
1.0
147
0.09
 71
     0
 72
     0
 73
     1
 74
     1
 75
     0
 76
     0
 77
     0
 78
     0
170
     0
171
     2
172
     0
173
     0
174
     0
175
     0
176
     0
177
     0
178
     0
270
     2
271
     4
272
     4
273
     2
274
     2
340
F
275
     0
280
     0
281
     0
282
     0
283
     1
284
     0
285
     0
286
     0
287
     3
288
     0
  0
DIMSTYLE
105
1FA57
330
A
100
AcDbSymbolTableRecord
100
AcDbDimStyleTableRecord
  2
まこ-１_２
 70
     0
  3

  4

  5
OPEN30
  6

  7

 40
1.0
 41
4.0
 42
1.0
 43
0.38
 44
1.0
 45
0.0
 46
0.0
 47
0.0
 48
0.0
140
5.0
141
0.0
142
0.0
143
25.4
144
1.0
145
0.0
146
1.0
147
1.0
 71
     0
 72
     0
 73
     0
 74
     0
 75
     0
 76
     0
 77
     3
 78
     8
170
     0
171
     2
172
     0
173
     0
174
     0
175
     0
176
     4
177
     4
178
   256
270
     2
271
     2
272
     2
273
     2
274
     2
340
1FA55
275
     0
280
     0
281
     0
282
     0
283
     1
284
     0
285
     0
286
     0
287
     1
288
     0
  0
ENDTAB
  0
TABLE
  2
BLOCK_RECORD
  5
1
330
0
100
AcDbSymbolTable
 70
    43
  0
BLOCK_RECORD
  5
18
102
{ACAD_XDICTIONARY
360
EFC6
102
}
330
1
100
AcDbSymbolTableRecord
100
AcDbBlockTableRecord
  2
*MODEL_SPACE
  0
BLOCK_RECORD
  5
15
102
{ACAD_XDICTIONARY
360
EFC4
102
}
330
1
100
AcDbSymbolTableRecord
100
AcDbBlockTableRecord
  2
*PAPER_SPACE
  0
BLOCK_RECORD
  5
115C
330
1
100
AcDbSymbolTableRecord
100
AcDbBlockTableRecord
  2
機械A4横_LBP
  0
BLOCK_RECORD
  5
1215D
330
1
100
AcDbSymbolTableRecord
100
AcDbBlockTableRecord
  2
_OPEN30
  0
ENDTAB
  0
ENDSEC
  0
SECTION
  2
BLOCKS
  0
BLOCK
  5
19
330
18
100
AcDbEntity
  8
0
100
AcDbBlockBegin
  2
*MODEL_SPACE
 70
     0
 10
0.0
 20
0.0
 30
0.0
  3
*MODEL_SPACE
  1

  0
ENDBLK
  5
1A
330
18
100
AcDbEntity
  8
0
100
AcDbBlockEnd
  0
BLOCK
  5
16
330
15
100
AcDbEntity
 67
     1
  8
0
100
AcDbBlockBegin
  2
*PAPER_SPACE
 70
     0
 10
0.0
 20
0.0
 30
0.0
  3
*PAPER_SPACE
  1

  0
ENDBLK
  5
17
330
15
100
AcDbEntity
 67
     1
  8
0
100
AcDbBlockEnd
  0
BLOCK
  5
115D
330
115C
100
AcDbEntity
  8
0
100
AcDbBlockBegin
  2
機械A4横_LBP
 70
     0
 10
0.0
 20
0.0
 30
0.0
  3
機械A4横_LBP
  1

  0
ENDBLK
  5
115E
330
115C
100
AcDbEntity
  8
0
100
AcDbBlockEnd
  0
BLOCK
  5
12161
330
1215D
100
AcDbEntity
  8
0
100
AcDbBlockBegin
  2
_OPEN30
 70
     0
 10
0.0
 20
0.0
 30
0.0
  3
_OPEN30
  1

  0
LINE
  5
1215E
330
1215D
100
AcDbEntity
  8
0
  6
BYBLOCK
 62
     0
100
AcDbLine
 10
-1.0
 20
0.26794919
 30
0.0
 11
0.0
 21
0.0
 31
0.0
  0
LINE
  5
1215F
330
1215D
100
AcDbEntity
  8
0
  6
BYBLOCK
 62
     0
100
AcDbLine
 10
0.0
 20
0.0
 30
0.0
 11
-1.0
 21
-0.26794919
 31
0.0
  0
LINE
  5
12160
330
1215D
100
AcDbEntity
  8
0
  6
BYBLOCK
 62
     0
100
AcDbLine
 10
0.0
 20
0.0
 30
0.0
 11
-1.0
 21
0.0
 31
0.0
  0
ENDBLK
  5
12162
330
1215D
100
AcDbEntity
  8
0
100
AcDbBlockEnd
  0
ENDSEC
  0
SECTION
  2
ENTITIES
  0
MTEXT
  5
176FC
330
18
100
AcDbEntity
  8
DIMENSION
 62
     2
100
AcDbMText
 10
-100.7823601383244
 20
171.621314412839
 30
0.0
 40
8.0
 41
0.0
 71
     4
 72
     1
  1

1001
ACAD
1000
MTEXTBEGIN
1070
    73
1070
     1
1070
    44
1040
1.0
1070
    74
1070
     0
1000
MTEXTEND
  0
TEXT
  5
187C8
330
18
100
AcDbEntity
  8
A
100
AcDbText
 10
27.08248755054501
 20
1784.547672862096
 30
0.0
 40
2.5
  1

  7
MSｺ_ｼｯｸ
100
AcDbText
  0
TEXT
  5
187C9
330
18
100
AcDbEntity
  8
A
100
AcDbText
 10
19.25748755054502
 20
1784.547672862096
 30
0.0
 40
2.5
  1

 41
0.5
  7
MSｺ_ｼｯｸ
100
AcDbText
  0
TEXT
  5
187CA
330
18
100
AcDbEntity
  8
A
100
AcDbText
 10
167.1825875009164
 20
2214.514692980458
 30
0.0
 40
3.524999999999999
  1
�    
100
AcDbText
  0
MTEXT
  5
187CB
330
18
100
AcDbEntity
  8
0
  6
BYBLOCK
100
AcDbMText
 10
325.4874764241681
 20
2232.511722574347
 30
0.0
 40
2.0
 41
0.0
 71
     4
 72
     5
  1

 11
-0.0000000000000002
 21
-1.0
 31
0.0
1001
ACAD
1000
MTEXTBEGIN
1070
    73
1070
     1
1070
    44
1040
1.0
1070
    74
1070
     0
1000
MTEXTEND
1000
MTEXTBEGIN
1070
    73
1070
     1
1070
    44
1040
1.0
1070
    74
1070
     0
1000
MTEXTEND
  0
MTEXT
  5
187CC
330
18
100
AcDbEntity
  8
0
  6
BYBLOCK
100
AcDbMText
 10
360.9528647873208
 20
2221.718414215929
 30
0.0
 40
2.0
 41
0.0
 71
     7
 72
     5
  1

 11
0.0000000000000001
 21
1.0
 31
0.0
1001
ACAD
1000
MTEXTBEGIN
1070
    73
1070
     1
1070
    44
1040
1.0
1070
    74
1070
     0
1000
MTEXTEND
1000
MTEXTBEGIN
1070
    73
1070
     1
1070
    44
1040
1.0
1070
    74
1070
     0
1000
MTEXTEND
  0
MTEXT
  5
187CD
330
18
100
AcDbEntity
  8
0
100
AcDbMText
 10
325.1733668026532
 20
2146.93890367364
 30
0.0
 40
2.0
 41
10.1453
 71
     1
 72
     5
  1

 11
-0.0000000000000002
 21
-1.0
 31
0.0
1001
ACAD
1000
MTEXTBEGIN
1070
    73
1070
     1
1070
    44
1040
1.0
1070
    74
1070
     0
1000
MTEXTEND
1000
MTEXTBEGIN
1070
    73
1070
     1
1070
    44
1040
1.0
1070
    74
1070
     0
1000
MTEXTEND
  0
MTEXT
  5
187CE
330
18
100
AcDbEntity
  8
0
100
AcDbMText
 10
280.7738750495033
 20
2115.30742008065
 30
0.0
 40
2.0
 41
0.0
 71
     1
 72
     5
  1

1001
ACAD
1000
MTEXTBEGIN
1070
    73
1070
     1
1070
    44
1040
1.0
1070
    74
1070
     0
1000
MTEXTEND
1000
MTEXTBEGIN
1070
    73
1070
     1
1070
    44
1040
1.0
1070
    74
1070
     0
1000
MTEXTEND
  0
MTEXT
  5
187CF
330
18
100
AcDbEntity
  8
0
  6
CENTER
100
AcDbMText
 10
606.3621522332663
 20
2216.239946825076
 30
0.0
 40
2.0
 41
15.6417
 71
     1
 72
     5
  1

  7
BIGFONT
1001
ACAD
1000
MTEXTBEGIN
1070
    73
1070
     1
1070
    44
1040
1.0
1070
    74
1070
     0
1000
MTEXTEND
1000
MTEXTBEGIN
1070
    73
1070
     1
1070
    44
1040
1.0
1070
    74
1070
     0
1000
MTEXTEND
  0
MTEXT
  5
187D0
330
18
100
AcDbEntity
  8
0
  6
DASHDOT
100
AcDbMText
 10
368.6842112890944
 20
2323.029441652852
 30
0.0
 40
1.0
 41
2.0
 71
     1
 72
     5
  1

  7
BIGFONT
1001
ACAD
1000
MTEXTBEGIN
1070
    73
1070
     1
1070
    44
1040
1.0
1070
    74
1070
     0
1000
MTEXTEND
1000
MTEXTBEGIN
1070
    73
1070
     1
1070
    44
1040
1.0
1070
    74
1070
     0
1000
MTEXTEND
  0
MTEXT
  5
187D1
330
18
100
AcDbEntity
  8
0
  6
BYBLOCK
100
AcDbMText
 10
325.4873894192178
 20
2232.511722574347
 30
0.0
 40
2.0
 41
0.0
 71
     4
 72
     5
  1

 11
-0.0000000000000002
 21
-1.0
 31
0.0
1001
ACAD
1000
MTEXTBEGIN
1070
    73
1070
     1
1070
    44
1040
1.0
1070
    74
1070
     0
1000
MTEXTEND
1000
MTEXTBEGIN
1070
    73
1070
     1
1070
    44
1040
1.0
1070
    74
1070
     0
1000
MTEXTEND
  0
MTEXT
  5
187D2
330
18
100
AcDbEntity
  8
0
  6
BYBLOCK
100
AcDbMText
 10
360.9527777823707
 20
2221.718414215929
 30
0.0
 40
2.0
 41
0.0
 71
     7
 72
     5
  1

 11
0.0000000000000001
 21
1.0
 31
0.0
1001
ACAD
1000
MTEXTBEGIN
1070
    73
1070
     1
1070
    44
1040
1.0
1070
    74
1070
     0
1000
MTEXTEND
1000
MTEXTBEGIN
1070
    73
1070
     1
1070
    44
1040
1.0
1070
    74
1070
     0
1000
MTEXTEND
  0
MTEXT
  5
187D3
330
18
100
AcDbEntity
  8
0
100
AcDbMText
 10
325.1732797977028
 20
2146.93890367364
 30
0.0
 40
2.0
 41
10.1453
 71
     1
 72
     5
  1

 11
-0.0000000000000002
 21
-1.0
 31
0.0
1001
ACAD
1000
MTEXTBEGIN
1070
    73
1070
     1
1070
    44
1040
1.0
1070
    74
1070
     0
1000
MTEXTEND
1000
MTEXTBEGIN
1070
    73
1070
     1
1070
    44
1040
1.0
1070
    74
1070
     0
1000
MTEXTEND
  0
MTEXT
  5
187D4
330
18
100
AcDbEntity
  8
0
100
AcDbMText
 10
280.773788044553
 20
2115.30742008065
 30
0.0
 40
2.0
 41
0.0
 71
     1
 72
     5
  1

1001
ACAD
1000
MTEXTBEGIN
1070
    73
1070
     1
1070
    44
1040
1.0
1070
    74
1070
     0
1000
MTEXTEND
1000
MTEXTBEGIN
1070
    73
1070
     1
1070
    44
1040
1.0
1070
    74
1070
     0
1000
MTEXTEND
  0
MTEXT
  5
187D5
330
18
100
AcDbEntity
  8
0
  6
CENTER
100
AcDbMText
 10
606.3620652283159
 20
2216.239946825076
 30
0.0
 40
2.0
 41
15.6417
 71
     1
 72
     5
  1

  7
BIGFONT
1001
ACAD
1000
MTEXTBEGIN
1070
    73
1070
     1
1070
    44
1040
1.0
1070
    74
1070
     0
1000
MTEXTEND
1000
MTEXTBEGIN
1070
    73
1070
     1
1070
    44
1040
1.0
1070
    74
1070
     0
1000
MTEXTEND
  0
MTEXT
  5
187D6
330
18
100
AcDbEntity
  8
0
  6
DASHDOT
100
AcDbMText
 10
368.6841242841443
 20
2323.029441652852
 30
0.0
 40
1.0
 41
2.0
 71
     1
 72
     5
  1

  7
BIGFONT
1001
ACAD
1000
MTEXTBEGIN
1070
    73
1070
     1
1070
    44
1040
1.0
1070
    74
1070
     0
1000
MTEXTEND
1000
MTEXTBEGIN
1070
    73
1070
     1
1070
    44
1040
1.0
1070
    74
1070
     0
1000
MTEXTEND
  0
INSERT
  5
187D7
330
18
100
AcDbEntity
  8
FRAME025
100
AcDbBlockReference
  2
機械A4横_LBP
 10
271.0019941658661
 20
2006.88884056487
 30
0.0
  0
LINE
  5
23557
330
18
100
AcDbEntity
  8
実線
100
AcDbLine
 10
-2950.998266622603
 20
-1012.949260806913
 30
0.0
 11
-2930.410772918582
 21
-1012.949260806913
 31
0.0
  0
LINE
  5
23558
330
18
100
AcDbEntity
  8
実線
100
AcDbLine
 10
-2930.410772918582
 20
-1019.249260806913
 30
0.0
 11
-2954.083798198711
 21
-1019.249260806913
 31
0.0
  0
ARC
  5
2356A
330
18
100
AcDbEntity
  8
実線
100
AcDbCircle
 10
-2962.083798198711
 20
-1013.360694047081
 30
0.0
 40
3.0
100
AcDbArc
 50
0.0
 51
90.0
  0
ARC
  5
2356B
330
18
100
AcDbEntity
  8
実線
100
AcDbCircle
 10
-2950.998266622603
 20
-1009.949260806913
 30
0.0
 40
3.0
100
AcDbArc
 50
179.9999999999934
 51
270.0
  0
ARC
  5
23599
330
18
100
AcDbEntity
  8
実線
100
AcDbCircle
 10
-2954.083798198711
 20
-1014.249260806913
 30
0.0
 40
5.0
100
AcDbArc
 50
180.0
 51
270.0
  0
LINE
  5
2359A
330
18
100
AcDbEntity
  8
実線
100
AcDbLine
 10
-2959.083798198711
 20
-1014.249260806913
 30
0.0
 11
-2959.083798198711
 21
-1013.360694047081
 31
0.0
  0
LINE
  5
2359B
330
18
100
AcDbEntity
  8
中心線
100
AcDbLine
 10
-3187.662474850398
 20
-962.2065090068101
 30
0.0
 11
-2973.984368763868
 21
-962.2065090068097
 31
0.0
  0
LINE
  5
2359C
330
18
100
AcDbEntity
  8
実線
100
AcDbLine
 10
-3179.539689507407
 20
-917.2065090068079
 30
0.0
 11
-3014.82754723052
 21
-917.2065090068077
 31
0.0
  0
LINE
  5
2359D
330
18
100
AcDbEntity
  8
実線
100
AcDbLine
 10
-3176.539689507408
 20
-987.2065090068078
 30
0.0
 11
-3023.21047875006
 21
-987.2065090068081
 31
0.0
  0
LINE
  5
2359E
330
18
100
AcDbEntity
  8
実線
100
AcDbLine
 10
-3176.539689507408
 20
-937.2065090068087
 30
0.0
 11
-3017.222670521818
 21
-937.2065090068089
 31
0.0
  0
LINE
  5
2359F
330
18
100
AcDbEntity
  8
実線
100
AcDbLine
 10
-3179.539689507407
 20
-1012.206509006808
 30
0.0
 11
-3026.20438286418
 21
-1012.206509006797
 31
0.0
  0
LINE
  5
235A1
330
18
100
AcDbEntity
  8
中心線
 48
3.0
100
AcDbLine
 10
-3085.539689507408
 20
-1006.706509006808
 30
0.0
 11
-3085.539689507408
 21
-997.7065090068084
 31
0.0
  0
CIRCLE
  5
235A2
330
18
100
AcDbEntity
  8
実線
100
AcDbCircle
 10
-3085.539689507408
 20
-1002.206509006808
 30
0.0
 40
2.1
  0
CIRCLE
  5
235A3
330
18
100
AcDbEntity
  8
細線
100
AcDbCircle
 10
-3085.539689507408
 20
-1002.206509006807
 30
0.0
 40
2.5
  0
LINE
  5
235A4
330
18
100
AcDbEntity
  8
中心線
 48
3.0
100
AcDbLine
 10
-3090.039689507408
 20
-1002.206509006807
 30
0.0
 11
-3081.039689507409
 21
-1002.206509006808
 31
0.0
  0
LINE
  5
235A5
330
18
100
AcDbEntity
  8
中心線
 48
3.0
100
AcDbLine
 10
-3045.539689507407
 20
-1006.706509006808
 30
0.0
 11
-3045.539689507407
 21
-997.7065090068084
 31
0.0
  0
CIRCLE
  5
235A6
330
18
100
AcDbEntity
  8
実線
100
AcDbCircle
 10
-3045.539689507408
 20
-1002.206509006808
 30
0.0
 40
2.1
  0
CIRCLE
  5
235A7
330
18
100
AcDbEntity
  8
細線
100
AcDbCircle
 10
-3045.539689507407
 20
-1002.206509006807
 30
0.0
 40
2.5
  0
LINE
  5
235A8
330
18
100
AcDbEntity
  8
中心線
 48
3.0
100
AcDbLine
 10
-3050.039689507408
 20
-1002.206509006807
 30
0.0
 11
-3041.039689507408
 21
-1002.206509006808
 31
0.0
  0
CIRCLE
  5
235A9
330
18
100
AcDbEntity
  8
細線
100
AcDbCircle
 10
-3085.539689507408
 20
-922.2065090068076
 30
0.0
 40
2.5
  0
LINE
  5
235AA
330
18
100
AcDbEntity
  8
中心線
 48
3.0
100
AcDbLine
 10
-3085.539689507408
 20
-926.7065090068085
 30
0.0
 11
-3085.539689507408
 21
-917.7065090068085
 31
0.0
  0
CIRCLE
  5
235AB
330
18
100
AcDbEntity
  8
実線
100
AcDbCircle
 10
-3085.539689507408
 20
-922.2065090068085
 30
0.0
 40
2.1
  0
LINE
  5
235AC
330
18
100
AcDbEntity
  8
中心線
 48
3.0
100
AcDbLine
 10
-3090.039689507408
 20
-922.2065090068079
 30
0.0
 11
-3081.039689507409
 21
-922.2065090068081
 31
0.0
  0
CIRCLE
  5
235AD
330
18
100
AcDbEntity
  8
細線
100
AcDbCircle
 10
-3045.539689507407
 20
-922.2065090068076
 30
0.0
 40
2.5
  0
LINE
  5
235AE
330
18
100
AcDbEntity
  8
中心線
 48
3.0
100
AcDbLine
 10
-3045.539689507407
 20
-926.7065090068085
 30
0.0
 11
-3045.539689507407
 21
-917.7065090068085
 31
0.0
  0
CIRCLE
  5
235AF
330
18
100
AcDbEntity
  8
実線
100
AcDbCircle
 10
-3045.539689507408
 20
-922.2065090068085
 30
0.0
 40
2.1
  0
LINE
  5
235B0
330
18
100
AcDbEntity
  8
中心線
 48
3.0
100
AcDbLine
 10
-3050.039689507408
 20
-922.2065090068079
 30
0.0
 11
-3041.039689507408
 21
-922.2065090068081
 31
0.0
  0
LINE
  5
235B1
330
18
100
AcDbEntity
  8
実線
100
AcDbLine
 10
-2991.539689507408
 20
-1012.206509006808
 30
0.0
 11
-2991.539689507408
 21
-917.2065090068079
 31
0.0
  0
LINE
  5
235B2
102
{ACAD_REACTORS
330
2378B
102
}
330
18
100
AcDbEntity
  8
実線
100
AcDbLine
 10
-2971.539689507407
 20
-1004.06069404708
 30
0.0
 11
-2968.922545074927
 21
-1004.060694047081
 31
0.0
  0
LINE
  5
235B3
102
{ACAD_REACTORS
330
2378B
102
}
330
18
100
AcDbEntity
  8
実線
100
AcDbLine
 10
-2970.03340505339
 20
-1010.360694047081
 30
0.0
 11
-2971.539689507407
 21
-1010.360694047081
 31
0.0
  0
LINE
  5
235B4
330
18
100
AcDbEntity
  8
中心線
 48
3.0
100
AcDbLine
 10
-3005.539689507408
 20
-1006.706509006808
 30
0.0
 11
-3005.539689507408
 21
-997.7065090068084
 31
0.0
  0
CIRCLE
  5
235B5
330
18
100
AcDbEntity
  8
実線
100
AcDbCircle
 10
-3005.539689507408
 20
-1002.206509006808
 30
0.0
 40
2.1
  0
CIRCLE
  5
235B6
330
18
100
AcDbEntity
  8
細線
100
AcDbCircle
 10
-3005.539689507407
 20
-1002.206509006807
 30
0.0
 40
2.5
  0
LINE
  5
235B7
330
18
100
AcDbEntity
  8
中心線
 48
3.0
100
AcDbLine
 10
-3010.039689507408
 20
-1002.206509006807
 30
0.0
 11
-3001.039689507408
 21
-1002.206509006808
 31
0.0
  0
LINE
  5
235B8
330
18
100
AcDbEntity
  8
実線
100
AcDbLine
 10
-3023.21047875006
 20
-987.2065090068081
 30
0.0
 11
-2991.539689507408
 21
-987.2065090068081
 31
0.0
  0
LINE
  5
235B9
330
18
100
AcDbEntity
  8
実線
100
AcDbLine
 10
-3026.20438286418
 20
-1012.206509006797
 30
0.0
 11
-2991.539689507408
 21
-1012.206509006789
 31
0.0
  0
LINE
  5
235BA
330
18
100
AcDbEntity
  8
実線
100
AcDbLine
 10
-2966.922545074929
 20
-1004.06069404708
 30
0.0
 11
-2958.998266622603
 21
-1004.06069404708
 31
0.0
  0
LINE
  5
235BB
330
18
100
AcDbEntity
  8
実線
100
AcDbLine
 10
-2953.998266622603
 20
-1009.949260806913
 30
0.0
 11
-2953.998266622603
 21
-1009.06069404708
 31
0.0
  0
LINE
  5
235BC
330
18
100
AcDbEntity
  8
実線
100
AcDbLine
 10
-2962.083798198711
 20
-1010.360694047081
 30
0.0
 11
-2968.033405053391
 21
-1010.360694047081
 31
0.0
  0
LINE
  5
235BD
330
18
100
AcDbEntity
  8
中心線
 48
0.4
100
AcDbLine
 10
-2968.219286318651
 20
-1011.414879087352
 30
0.0
 11
-2966.736663809669
 21
-1003.006509006809
 31
0.0
  0
LINE
  5
235BE
102
{ACAD_REACTORS
330
2378B
102
}
330
18
100
AcDbEntity
  8
中心線
 48
0.4
100
AcDbLine
 10
-2970.21928631865
 20
-1011.414879087352
 30
0.0
 11
-2968.736663809668
 21
-1003.006509006809
 31
0.0
  0
ARC
  5
235BF
330
18
100
AcDbEntity
  8
実線
100
AcDbCircle
 10
-2958.998266622603
 20
-1009.06069404708
 30
0.0
 40
5.0
100
AcDbArc
 50
0.0
 51
90.0
  0
LINE
  5
235C0
330
18
100
AcDbEntity
  8
中心線
 48
3.0
100
AcDbLine
 10
-3005.539689507408
 20
-926.7065090068085
 30
0.0
 11
-3005.539689507408
 21
-917.7065090068085
 31
0.0
  0
CIRCLE
  5
235C1
330
18
100
AcDbEntity
  8
実線
100
AcDbCircle
 10
-3005.539689507408
 20
-922.2065090068085
 30
0.0
 40
2.1
  0
LINE
  5
235C2
330
18
100
AcDbEntity
  8
中心線
 48
3.0
100
AcDbLine
 10
-3010.039689507408
 20
-922.2065090068079
 30
0.0
 11
-3001.039689507408
 21
-922.2065090068081
 31
0.0
  0
CIRCLE
  5
235C3
330
18
100
AcDbEntity
  8
細線
100
AcDbCircle
 10
-3005.539689507407
 20
-922.2065090068076
 30
0.0
 40
2.5
  0
LINE
  5
235C4
330
18
100
AcDbEntity
  8
実線
100
AcDbLine
 10
-3014.82754723052
 20
-917.2065090068077
 30
0.0
 11
-2991.539689507408
 21
-917.2065090068084
 31
0.0
  0
LINE
  5
235C5
330
18
100
AcDbEntity
  8
実線
100
AcDbLine
 10
-3017.222670521818
 20
-937.2065090068089
 30
0.0
 11
-2991.539689507408
 21
-937.2065090068089
 31
0.0
  0
LINE
  5
235CE
330
18
100
AcDbEntity
  8
２点鎖線
 48
0.5
100
AcDbLine
 10
-2887.973792657204
 20
-1016.447685882028
 30
0.0
 11
-2887.973792657215
 21
-907.9653321315916
 31
0.0
  0
LINE
  5
235D0
330
18
100
AcDbEntity
  8
実線
100
AcDbLine
 10
-2904.710772918582
 20
-1012.149260806912
 30
0.0
 11
-2904.710772918582
 21
-1015.589260806913
 31
0.0
  0
LINE
  5
235D1
330
18
100
AcDbEntity
  8
実線
100
AcDbLine
 10
-2928.410772918581
 20
-1010.249260806913
 30
0.0
 11
-2928.410772918581
 21
-1016.149260806913
 31
0.0
  0
LINE
  5
235D2
330
18
100
AcDbEntity
  8
実線
100
AcDbLine
 10
-2915.210772918582
 20
-1011.249260806913
 30
0.0
 11
-2915.210772918582
 21
-1016.149260806913
 31
0.0
  0
LINE
  5
235D4
330
18
100
AcDbEntity
  8
２点鎖線
 48
0.5
100
AcDbLine
 10
-2887.973792657204
 20
-1016.447685882028
 30
0.0
 11
-2873.722723232716
 21
-1016.447685882025
 31
0.0
  0
LINE
  5
235D5
330
18
100
AcDbEntity
  8
実線
100
AcDbLine
 10
-2930.410772918582
 20
-1013.449260806913
 30
0.0
 11
-2928.410772918581
 21
-1013.449260806913
 31
0.0
  0
LINE
  5
235D6
330
18
100
AcDbEntity
  8
実線
100
AcDbLine
 10
-2904.710772918582
 20
-1016.709260806913
 30
0.0
 11
-2904.710772918582
 21
-1020.149260806913
 31
0.0
  0
LINE
  5
235D7
330
18
100
AcDbEntity
  8
実線
100
AcDbLine
 10
-2918.159793906809
 20
-1022.131621712596
 30
0.0
 11
-2922.710772918582
 21
-1022.949260806913
 31
0.0
  0
LINE
  5
235D8
330
18
100
AcDbEntity
  8
実線
100
AcDbLine
 10
-2918.256251405978
 20
-1021.049260806912
 30
0.0
 11
-2927.410772918582
 21
-1021.049260806912
 31
0.0
  0
LINE
  5
235D9
330
18
100
AcDbEntity
  8
実線
100
AcDbLine
 10
-2928.410772918581
 20
-1018.749260806913
 30
0.0
 11
-2930.410772918582
 21
-1018.749260806913
 31
0.0
  0
LINE
  5
235DA
330
18
100
AcDbEntity
  8
実線
100
AcDbLine
 10
-2928.410772918581
 20
-1017.449260806913
 30
0.0
 11
-2930.410772918582
 21
-1017.449260806913
 31
0.0
  0
LINE
  5
235DB
330
18
100
AcDbEntity
  8
実線
100
AcDbLine
 10
-2928.410772918581
 20
-1014.749260806913
 30
0.0
 11
-2930.410772918582
 21
-1014.749260806913
 31
0.0
  0
LINE
  5
235DC
330
18
100
AcDbEntity
  8
実線
100
AcDbLine
 10
-2928.410772918581
 20
-1016.149260806913
 30
0.0
 11
-2930.410772918582
 21
-1016.149260806913
 31
0.0
  0
ARC
  5
235DD
330
18
100
AcDbEntity
  8
実線
100
AcDbCircle
 10
-2927.910772918582
 20
-1021.549260806912
 30
0.0
 40
0.5
100
AcDbArc
 50
270.0
 51
0.0
  0
LINE
  5
235DE
330
18
100
AcDbEntity
  8
実線
100
AcDbLine
 10
-2927.410772918582
 20
-1021.049260806912
 30
0.0
 11
-2927.410772918582
 21
-1021.549260806912
 31
0.0
  0
LINE
  5
235DF
330
18
100
AcDbEntity
  8
実線
100
AcDbLine
 10
-2927.910772918582
 20
-1022.049260806912
 30
0.0
 11
-2928.410772918581
 21
-1022.049260806912
 31
0.0
  0
LINE
  5
235E0
330
18
100
AcDbEntity
  8
実線
100
AcDbLine
 10
-2928.410772918581
 20
-1016.149260806913
 30
0.0
 11
-2928.410772918581
 21
-1022.049260806912
 31
0.0
  0
LINE
  5
235E1
330
18
100
AcDbEntity
  8
実線
100
AcDbLine
 10
-2914.803985127274
 20
-1023.349260806913
 30
0.0
 11
-2912.710772918582
 21
-1023.349260806913
 31
0.0
  0
LINE
  5
235E2
330
18
100
AcDbEntity
  8
実線
100
AcDbLine
 10
-2912.710772918582
 20
-1022.549260806912
 30
0.0
 11
-2914.803985127274
 21
-1022.549260806912
 31
0.0
  0
LINE
  5
235E3
330
18
100
AcDbEntity
  8
実線
100
AcDbLine
 10
-2916.210772918582
 20
-1023.349260806913
 30
0.0
 11
-2914.803985127274
 21
-1023.349260806913
 31
0.0
  0
ARC
  5
235E4
330
18
100
AcDbEntity
  8
実線
100
AcDbCircle
 10
-2915.92064072846
 20
-1022.146297437815
 30
0.0
 40
0.2901321901215654
100
AcDbArc
 50
134.2652139555196
 51
180.0
  0
LINE
  5
235E5
330
18
100
AcDbEntity
  8
実線
100
AcDbLine
 10
-2915.210772918582
 20
-1021.049260806912
 30
0.0
 11
-2916.123147379476
 21
-1021.938528951179
 31
0.0
  0
LINE
  5
235E6
330
18
100
AcDbEntity
  8
実線
100
AcDbLine
 10
-2916.210772918582
 20
-1022.146297437815
 30
0.0
 11
-2916.210772918582
 21
-1022.549260806912
 31
0.0
  0
LINE
  5
235E7
330
18
100
AcDbEntity
  8
実線
100
AcDbLine
 10
-2914.803985127274
 20
-1022.549260806912
 30
0.0
 11
-2916.210772918582
 21
-1022.549260806912
 31
0.0
  0
ARC
  5
235E8
330
18
100
AcDbEntity
  8
実線
100
AcDbCircle
 10
-2918.256251405978
 20
-1021.594739294308
 30
0.0
 40
0.545478487396098
100
AcDbArc
 50
280.1852278629175
 51
90.0
  0
LINE
  5
235E9
330
18
100
AcDbEntity
  8
実線
100
AcDbLine
 10
-2914.803985127274
 20
-1022.549260806912
 30
0.0
 11
-2914.803985127274
 21
-1023.349260806913
 31
0.0
  0
LINE
  5
235EA
330
18
100
AcDbEntity
  8
実線
100
AcDbLine
 10
-2916.210772918582
 20
-1022.549260806912
 30
0.0
 11
-2916.210772918582
 21
-1023.349260806913
 31
0.0
  0
LINE
  5
235EB
330
18
100
AcDbEntity
  8
実線
100
AcDbLine
 10
-2912.710772918582
 20
-1022.549260806912
 30
0.0
 11
-2912.710772918582
 21
-1021.549260806912
 31
0.0
  0
LINE
  5
235EC
330
18
100
AcDbEntity
  8
実線
100
AcDbLine
 10
-2915.210772918582
 20
-1016.149260806913
 30
0.0
 11
-2915.210772918582
 21
-1021.049260806912
 31
0.0
  0
LINE
  5
235ED
330
18
100
AcDbEntity
  8
実線
100
AcDbLine
 10
-2912.710772918582
 20
-1021.549260806912
 30
0.0
 11
-2911.710772918582
 21
-1021.549260806912
 31
0.0
  0
LINE
  5
235EE
330
18
100
AcDbEntity
  8
実線
100
AcDbLine
 10
-2911.710772918582
 20
-1021.549260806912
 30
0.0
 11
-2910.710772918582
 21
-1022.549260806912
 31
0.0
  0
LINE
  5
235EF
330
18
100
AcDbEntity
  8
実線
100
AcDbLine
 10
-2910.710772918582
 20
-1022.549260806912
 30
0.0
 11
-2910.710772918582
 21
-1023.349260806913
 31
0.0
  0
LINE
  5
235F0
330
18
100
AcDbEntity
  8
実線
100
AcDbLine
 10
-2904.710772918582
 20
-1015.589260806913
 30
0.0
 11
-2915.210772918582
 21
-1015.589260806913
 31
0.0
  0
LINE
  5
235F1
330
18
100
AcDbEntity
  8
実線
100
AcDbLine
 10
-2915.210772918582
 20
-1016.709260806913
 30
0.0
 11
-2904.710772918582
 21
-1016.709260806913
 31
0.0
  0
LINE
  5
235F2
330
18
100
AcDbEntity
  8
実線
100
AcDbLine
 10
-2904.710772918582
 20
-1020.149260806913
 30
0.0
 11
-2915.210772918582
 21
-1020.149260806913
 31
0.0
  0
LINE
  5
235F3
330
18
100
AcDbEntity
  8
実線
100
AcDbLine
 10
-2913.710772918582
 20
-1024.949260806913
 30
0.0
 11
-2921.910772918582
 21
-1024.949260806913
 31
0.0
  0
LINE
  5
235F4
330
18
100
AcDbEntity
  8
実線
100
AcDbLine
 10
-2916.210772918582
 20
-1024.349260806912
 30
0.0
 11
-2921.910772918582
 21
-1024.349260806912
 31
0.0
  0
LINE
  5
235F5
330
18
100
AcDbEntity
  8
実線
100
AcDbLine
 10
-2921.910772918582
 20
-1024.349260806912
 30
0.0
 11
-2921.910772918582
 21
-1024.949260806913
 31
0.0
  0
LINE
  5
235F6
330
18
100
AcDbEntity
  8
実線
100
AcDbLine
 10
-2921.910772918582
 20
-1024.949260806913
 30
0.0
 11
-2922.710772918582
 21
-1024.949260806913
 31
0.0
  0
LINE
  5
235F7
330
18
100
AcDbEntity
  8
実線
100
AcDbLine
 10
-2913.110772918582
 20
-1024.349260806912
 30
0.0
 11
-2916.210772918582
 21
-1024.349260806912
 31
0.0
  0
LINE
  5
235F8
330
18
100
AcDbEntity
  8
実線
100
AcDbLine
 10
-2912.710772918582
 20
-1024.349260806912
 30
0.0
 11
-2913.110772918582
 21
-1024.349260806912
 31
0.0
  0
LINE
  5
235F9
330
18
100
AcDbEntity
  8
実線
100
AcDbLine
 10
-2913.110772918582
 20
-1024.349260806912
 30
0.0
 11
-2913.710772918582
 21
-1024.949260806913
 31
0.0
  0
LINE
  5
235FA
330
18
100
AcDbEntity
  8
実線
100
AcDbLine
 10
-2911.710772918582
 20
-1024.349260806912
 30
0.0
 11
-2912.710772918582
 21
-1024.349260806912
 31
0.0
  0
LINE
  5
235FB
330
18
100
AcDbEntity
  8
実線
100
AcDbLine
 10
-2922.710772918582
 20
-1022.949260806913
 30
0.0
 11
-2922.710772918582
 21
-1024.949260806913
 31
0.0
  0
LINE
  5
235FC
330
18
100
AcDbEntity
  8
実線
100
AcDbLine
 10
-2916.210772918582
 20
-1023.349260806913
 30
0.0
 11
-2916.210772918582
 21
-1024.349260806912
 31
0.0
  0
LINE
  5
235FD
330
18
100
AcDbEntity
  8
実線
100
AcDbLine
 10
-2912.710772918582
 20
-1023.349260806913
 30
0.0
 11
-2912.710772918582
 21
-1024.349260806912
 31
0.0
  0
LINE
  5
235FE
330
18
100
AcDbEntity
  8
実線
100
AcDbLine
 10
-2910.710772918582
 20
-1023.349260806913
 30
0.0
 11
-2911.710772918582
 21
-1024.349260806912
 31
0.0
  0
LINE
  5
235FF
330
18
100
AcDbEntity
  8
実線
100
AcDbLine
 10
-2928.410772918581
 20
-1018.749260806913
 30
0.0
 11
-2928.410772918581
 21
-1013.449260806913
 31
0.0
  0
LINE
  5
23600
330
18
100
AcDbEntity
  8
実線
100
AcDbLine
 10
-2930.410772918582
 20
-1012.949260806913
 30
0.0
 11
-2930.410772918582
 21
-1019.249260806913
 31
0.0
  0
LINE
  5
23602
102
{ACAD_REACTORS
330
2378C
102
}
330
18
100
AcDbEntity
  8
２点鎖線
 62
     7
 48
0.3
100
AcDbLine
 10
-2843.722723232724
 20
-922.2065090068079
 30
0.0
 11
-2843.722723232724
 21
-1002.206509006808
 31
0.0
  0
LINE
  5
23603
102
{ACAD_REACTORS
330
2378C
102
}
330
18
100
AcDbEntity
  8
２点鎖線
 62
     7
 48
0.3
100
AcDbLine
 10
-2847.722723232724
 20
-922.2065090068079
 30
0.0
 11
-2847.722723232724
 21
-1002.206509006808
 31
0.0
  0
LINE
  5
23604
102
{ACAD_REACTORS
330
2378C
102
}
330
18
100
AcDbEntity
  8
２点鎖線
 62
     7
 48
0.3
100
AcDbLine
 10
-2857.822723232724
 20
-937.0065090068079
 30
0.0
 11
-2857.822723232724
 21
-987.4065090068079
 31
0.0
  0
LINE
  5
23605
330
18
100
AcDbEntity
  8
実線
100
AcDbLine
 10
-2858.322723232723
 20
-932.2065090068061
 30
0.0
 11
-2858.322723232717
 21
-992.2065090068056
 31
0.0
  0
LINE
  5
23607
330
18
100
AcDbEntity
  8
実線
100
AcDbLine
 10
-2927.410772918582
 20
-1011.249260806913
 30
0.0
 11
-2915.210772918582
 21
-1011.249260806913
 31
0.0
  0
ARC
  5
23608
330
18
100
AcDbEntity
  8
実線
100
AcDbCircle
 10
-2927.910772918582
 20
-1010.749260806913
 30
0.0
 40
0.5
100
AcDbArc
 50
0.0
 51
90.0
  0
LINE
  5
23609
330
18
100
AcDbEntity
  8
実線
100
AcDbLine
 10
-2927.410772918582
 20
-1010.749260806913
 30
0.0
 11
-2927.410772918582
 21
-1011.249260806913
 31
0.0
  0
LINE
  5
2360A
330
18
100
AcDbEntity
  8
実線
100
AcDbLine
 10
-2928.410772918581
 20
-1010.249260806913
 30
0.0
 11
-2927.910772918582
 21
-1010.249260806913
 31
0.0
  0
LINE
  5
2360B
330
18
100
AcDbEntity
  8
実線
100
AcDbLine
 10
-2915.210772918582
 20
-1012.149260806913
 30
0.0
 11
-2904.710772918582
 21
-1012.149260806912
 31
0.0
  0
LINE
  5
2360C
330
18
100
AcDbEntity
  8
実線
100
AcDbLine
 10
-2853.722723232714
 20
-1012.206509006806
 30
0.0
 11
-2853.722723232716
 21
-992.2065090068052
 31
0.0
  0
LINE
  5
2360D
330
18
100
AcDbEntity
  8
実線
100
AcDbLine
 10
-2873.222723232714
 20
-1012.206509006808
 30
0.0
 11
-2873.722723232715
 21
-1011.706509006808
 31
0.0
  0
LINE
  5
2360E
330
18
100
AcDbEntity
  8
実線
100
AcDbLine
 10
-2870.722723232714
 20
-1012.206509006808
 30
0.0
 11
-2853.722723232714
 21
-1012.206509006806
 31
0.0
  0
LINE
  5
2360F
330
18
100
AcDbEntity
  8
実線
100
AcDbLine
 10
-2870.722723232714
 20
-1012.206509006808
 30
0.0
 11
-2873.222723232714
 21
-1012.206509006808
 31
0.0
  0
LINE
  5
23611
330
18
100
AcDbEntity
  8
中心線
  6
CENTER
 48
3.0
100
AcDbLine
 10
-2858.222723232714
 20
-1011.678974996838
 30
0.0
 11
-2858.222723232715
 21
-1002.734043016776
 31
0.0
  0
LINE
  5
23612
330
18
100
AcDbEntity
  8
実線
  6
HIDDEN
 48
5.0
100
AcDbLine
 10
-2853.722723232714
 20
-1011.706509006807
 30
0.0
 11
-2853.722723232715
 21
-1002.706509006807
 31
0.0
  0
CIRCLE
  5
23613
330
18
100
AcDbEntity
  8
実線
100
AcDbCircle
 10
-2858.222723232714
 20
-1007.206509006807
 30
0.0
 40
3.5
  0
LINE
  5
23614
330
18
100
AcDbEntity
  8
中心線
  6
CENTER
 48
3.0
100
AcDbLine
 10
-2862.695189222745
 20
-1007.206509006808
 30
0.0
 11
-2853.750257242683
 21
-1007.206509006807
 31
0.0
  0
LINE
  5
23615
102
{ACAD_REACTORS
330
2378C
102
}
330
18
100
AcDbEntity
  8
２点鎖線
 62
     7
 48
0.3
100
AcDbLine
 10
-2857.822723232724
 20
-987.4065090068079
 30
0.0
 11
-2847.722723232724
 21
-987.4065090068079
 31
0.0
  0
LINE
  5
23616
330
18
100
AcDbEntity
  8
実線
 48
4.0
100
AcDbLine
 10
-2853.722723232716
 20
-992.2065090068052
 30
0.0
 11
-2858.322723232717
 21
-992.2065090068056
 31
0.0
  0
LINE
  5
23619
102
{ACAD_REACTORS
330
2378C
102
}
330
18
100
AcDbEntity
  8
２点鎖線
 62
     7
 48
0.3
100
AcDbLine
 10
-2849.722723232724
 20
-996.2065090068081
 30
0.0
 11
-2841.722723232724
 21
-996.2065090068081
 31
0.0
  0
LINE
  5
2361A
102
{ACAD_REACTORS
330
2378C
102
}
330
18
100
AcDbEntity
  8
２点鎖線
 62
     7
 48
0.3
100
AcDbLine
 10
-2847.722723232724
 20
-998.706509006808
 30
0.0
 11
-2843.722723232724
 21
-998.706509006808
 31
0.0
  0
LINE
  5
2361B
102
{ACAD_REACTORS
330
2378C
102
}
330
18
100
AcDbEntity
  8
２点鎖線
 62
     7
 48
0.3
100
AcDbLine
 10
-2847.722723232724
 20
-1002.206509006808
 30
0.0
 11
-2843.722723232724
 21
-1002.206509006808
 31
0.0
  0
LINE
  5
2361C
102
{ACAD_REACTORS
330
2378C
102
}
330
18
100
AcDbEntity
  8
２点鎖線
 62
     7
 48
0.3
100
AcDbLine
 10
-2847.722723232724
 20
-993.7065090068079
 30
0.0
 11
-2843.722723232724
 21
-993.7065090068079
 31
0.0
  0
LINE
  5
23620
102
{ACAD_REACTORS
330
2378C
102
}
330
18
100
AcDbEntity
  8
２点鎖線
 62
     7
 48
0.3
100
AcDbLine
 10
-2857.822723232724
 20
-937.0065090068079
 30
0.0
 11
-2847.722723232724
 21
-937.0065090068079
 31
0.0
  0
LINE
  5
23621
330
18
100
AcDbEntity
  8
実線
100
AcDbLine
 10
-2856.722723232723
 20
-932.2065090068065
 30
0.0
 11
-2856.722723232725
 21
-917.2065090068064
 31
0.0
  0
LINE
  5
23624
330
18
100
AcDbEntity
  8
実線
 48
4.0
100
AcDbLine
 10
-2856.722723232723
 20
-932.2065090068065
 30
0.0
 11
-2858.322723232724
 21
-932.2065090068065
 31
0.0
  0
LINE
  5
23625
330
18
100
AcDbEntity
  8
実線
100
AcDbLine
 10
-2856.722723232725
 20
-917.2065090068073
 30
0.0
 11
-2870.722723232724
 21
-917.2065090068084
 31
0.0
  0
LINE
  5
23626
330
18
100
AcDbEntity
  8
実線
100
AcDbLine
 10
-2873.722723232725
 20
-917.7065090068074
 30
0.0
 11
-2873.222723232725
 21
-917.2065090068073
 31
0.0
  0
LINE
  5
23627
330
18
100
AcDbEntity
  8
実線
100
AcDbLine
 10
-2870.722723232724
 20
-917.2065090068079
 30
0.0
 11
-2873.222723232725
 21
-917.2065090068073
 31
0.0
  0
LINE
  5
23628
330
18
100
AcDbEntity
  8
実線
100
AcDbLine
 10
-2856.722723232724
 20
-926.2065090068075
 30
0.0
 11
-2856.722723232725
 21
-917.2065090068073
 31
0.0
  0
LINE
  5
23629
330
18
100
AcDbEntity
  8
中心線
  6
CENTER
 48
0.3
100
AcDbLine
 10
-2859.853307438418
 20
-922.2065090068067
 30
0.0
 11
-2875.722723232717
 21
-922.2065090068081
 31
0.0
  0
LINE
  5
2362A
330
18
100
AcDbEntity
  8
中心線
 48
0.5
100
AcDbLine
 10
-2846.844132488477
 20
-962.206509006806
 30
0.0
 11
-2877.381514000809
 21
-962.2065090068089
 31
0.0
  0
LINE
  5
2362B
102
{ACAD_REACTORS
330
2378C
102
}
330
18
100
AcDbEntity
  8
２点鎖線
 62
     7
 48
0.3
100
AcDbLine
 10
-2847.722723232724
 20
-925.7065090068079
 30
0.0
 11
-2843.722723232724
 21
-925.7065090068079
 31
0.0
  0
LINE
  5
2362C
102
{ACAD_REACTORS
330
2378C
102
}
330
18
100
AcDbEntity
  8
２点鎖線
 62
     7
 48
0.3
100
AcDbLine
 10
-2847.722723232724
 20
-922.2065090068079
 30
0.0
 11
-2843.722723232724
 21
-922.2065090068079
 31
0.0
  0
LINE
  5
2362D
102
{ACAD_REACTORS
330
2378C
102
}
330
18
100
AcDbEntity
  8
２点鎖線
 62
     7
 48
0.3
100
AcDbLine
 10
-2847.722723232724
 20
-930.706509006808
 30
0.0
 11
-2843.722723232724
 21
-930.706509006808
 31
0.0
  0
LINE
  5
2362E
330
18
100
AcDbEntity
  8
中心線
  6
CENTER
 48
3.0
100
AcDbLine
 10
-2849.722723232724
 20
-928.2065090068078
 30
0.0
 11
-2841.722723232724
 21
-928.2065090068078
 31
0.0
  0
LINE
  5
23630
330
18
100
AcDbEntity
  8
２点鎖線
 48
0.5
100
AcDbLine
 10
-2887.973792657215
 20
-907.9653321315916
 30
0.0
 11
-2873.722723232718
 21
-907.9653321315916
 31
0.0
  0
LINE
  5
238D0
330
18
100
AcDbEntity
  8
実線
100
AcDbLine
 10
-3179.539689507407
 20
-1012.206509006808
 30
0.0
 11
-3179.539689507407
 21
-917.2065090068079
 31
0.0
  0
CIRCLE
  5
238EC
330
18
100
AcDbEntity
  8
細線
100
AcDbCircle
 10
-3165.539689507408
 20
-922.2065090068076
 30
0.0
 40
2.5
  0
CIRCLE
  5
238ED
330
18
100
AcDbEntity
  8
実線
100
AcDbCircle
 10
-3165.539689507409
 20
-922.2065090068085
 30
0.0
 40
2.1
  0
LINE
  5
238EE
330
18
100
AcDbEntity
  8
中心線
 48
3.0
100
AcDbLine
 10
-3170.039689507409
 20
-922.2065090068079
 30
0.0
 11
-3161.039689507409
 21
-922.2065090068081
 31
0.0
  0
CIRCLE
  5
238EF
330
18
100
AcDbEntity
  8
細線
100
AcDbCircle
 10
-3125.539689507408
 20
-922.2065090068076
 30
0.0
 40
2.5
  0
LINE
  5
238F0
330
18
100
AcDbEntity
  8
中心線
 48
3.0
100
AcDbLine
 10
-3125.539689507409
 20
-926.7065090068085
 30
0.0
 11
-3125.539689507409
 21
-917.7065090068085
 31
0.0
  0
CIRCLE
  5
238F1
330
18
100
AcDbEntity
  8
実線
100
AcDbCircle
 10
-3125.539689507409
 20
-922.2065090068085
 30
0.0
 40
2.1
  0
LINE
  5
238F2
330
18
100
AcDbEntity
  8
中心線
 48
3.0
100
AcDbLine
 10
-3130.039689507409
 20
-922.2065090068079
 30
0.0
 11
-3121.039689507409
 21
-922.2065090068081
 31
0.0
  0
LINE
  5
238F3
330
18
100
AcDbEntity
  8
中心線
 48
3.0
100
AcDbLine
 10
-3165.539689507409
 20
-926.7065090068085
 30
0.0
 11
-3165.539689507409
 21
-917.7065090068085
 31
0.0
  0
CIRCLE
  5
238F4
330
18
100
AcDbEntity
  8
実線
100
AcDbCircle
 10
-3165.539689507409
 20
-1002.206509006808
 30
0.0
 40
2.1
  0
CIRCLE
  5
238F5
330
18
100
AcDbEntity
  8
細線
100
AcDbCircle
 10
-3165.539689507408
 20
-1002.206509006807
 30
0.0
 40
2.5
  0
LINE
  5
238F6
330
18
100
AcDbEntity
  8
中心線
 48
3.0
100
AcDbLine
 10
-3170.039689507409
 20
-1002.206509006807
 30
0.0
 11
-3161.039689507409
 21
-1002.206509006808
 31
0.0
  0
LINE
  5
238F7
330
18
100
AcDbEntity
  8
中心線
 48
3.0
100
AcDbLine
 10
-3125.539689507409
 20
-1006.706509006808
 30
0.0
 11
-3125.539689507409
 21
-997.7065090068084
 31
0.0
  0
CIRCLE
  5
238F8
330
18
100
AcDbEntity
  8
実線
100
AcDbCircle
 10
-3125.539689507409
 20
-1002.206509006808
 30
0.0
 40
2.1
  0
CIRCLE
  5
238F9
330
18
100
AcDbEntity
  8
細線
100
AcDbCircle
 10
-3125.539689507408
 20
-1002.206509006807
 30
0.0
 40
2.5
  0
LINE
  5
238FA
330
18
100
AcDbEntity
  8
中心線
 48
3.0
100
AcDbLine
 10
-3130.039689507409
 20
-1002.206509006807
 30
0.0
 11
-3121.039689507409
 21
-1002.206509006808
 31
0.0
  0
LINE
  5
238FB
330
18
100
AcDbEntity
  8
中心線
 48
3.0
100
AcDbLine
 10
-3165.539689507409
 20
-1006.706509006808
 30
0.0
 11
-3165.539689507409
 21
-997.7065090068084
 31
0.0
  0
LINE
  5
24258
330
18
100
AcDbEntity
  8
実線
100
AcDbLine
 10
-2991.539689507408
 20
-855.3484908520273
 30
0.0
 11
-3056.782896285606
 21
-855.3484908520273
 31
0.0
  0
LINE
  5
24259
330
18
100
AcDbEntity
  8
実線
100
AcDbLine
 10
-2991.539689507408
 20
-872.3484908520273
 30
0.0
 11
-3058.746243825486
 21
-872.3484908520273
 31
0.0
  0
LINE
  5
2425B
330
18
100
AcDbEntity
  8
0
100
AcDbLine
 10
-3051.035637898537
 20
-870.8523759209208
 30
0.0
 11
-3017.035637898537
 21
-870.8523759209208
 31
0.0
  0
LINE
  5
2425C
330
18
100
AcDbEntity
  8
0
100
AcDbLine
 10
-3016.535637898537
 20
-863.8523759209208
 30
0.0
 11
-3051.535637898536
 21
-863.8523759209208
 31
0.0
  0
LINE
  5
2425D
330
18
100
AcDbEntity
  8
0
100
AcDbLine
 10
-3017.035637898537
 20
-858.8523759209207
 30
0.0
 11
-3051.035637898537
 21
-858.8523759209207
 31
0.0
  0
SPLINE
  5
2425F
330
18
100
AcDbEntity
  8
実線
100
AcDbSpline
210
0.0
220
0.0
230
1.0
 70
     8
 71
     3
 72
    12
 73
     8
 74
     6
 42
0.0000000001
 43
0.0000000001
 44
0.0000000001
 40
0.0
 40
0.0
 40
0.0
 40
0.0
 40
3.393404858668809
 40
9.239086133661608
 40
13.23455097091483
 40
17.27372249097026
 40
24.7633853914595
 40
24.7633853914595
 40
24.7633853914595
 40
24.7633853914595
 10
-3054.61232574943
 20
-852.4931853344414
 30
0.0
 10
-3055.340726667851
 20
-853.3431866469335
 30
0.0
 10
-3057.323914382083
 20
-855.6574508349445
 30
0.0
 10
-3058.93701927931
 20
-860.4510351115571
 30
0.0
 10
-3056.09022143288
 20
-864.4792997390284
 30
0.0
 10
-3056.650763227922
 20
-869.9861511121676
 30
0.0
 10
-3059.178761516253
 20
-872.9879389309109
 30
0.0
 10
-3060.821065872612
 20
-874.9380388318268
 30
0.0
 11
-3054.61232574943
 21
-852.4931853344414
 31
0.0
 11
-3056.681908915031
 21
-855.1824272453705
 31
0.0
 11
-3058.027136097947
 21
-860.8712191553586
 31
0.0
 11
-3056.578424132577
 21
-864.5947890697179
 31
0.0
 11
-3056.785384323862
 21
-868.6286549633305
 31
0.0
 11
-3060.821065872612
 21
-874.9380388318268
 31
0.0
  0
LINE
  5
24260
330
18
100
AcDbEntity
  8
0
100
AcDbLine
 10
-3051.535637898536
 20
-859.3523759209208
 30
0.0
 11
-3051.535637898536
 21
-870.3523759209208
 31
0.0
  0
ARC
  5
24261
330
18
100
AcDbEntity
  8
0
100
AcDbCircle
 10
-3051.035637898537
 20
-870.3523759209208
 30
0.0
 40
0.5
100
AcDbArc
 50
180.0
 51
270.0
  0
ARC
  5
24262
330
18
100
AcDbEntity
  8
0
100
AcDbCircle
 10
-3051.035637898537
 20
-859.3523759209208
 30
0.0
 40
0.5
100
AcDbArc
 50
90.0
 51
180.0
  0
LINE
  5
24263
330
18
100
AcDbEntity
  8
0
100
AcDbLine
 10
-2996.535637898537
 20
-865.8523759209208
 30
0.0
 11
-3011.535637898537
 21
-865.8523759209208
 31
0.0
  0
LWPOLYLINE
  5
24265
330
18
100
AcDbEntity
  8
0
100
AcDbPolyline
 90
        8
 70
     1
 43
0.0
 10
-2997.035637898537
 20
-859.8523759209209
 10
-3011.035637898537
 20
-859.8523759209204
 42
0.4142135623730951
 10
-3011.535637898537
 20
-860.3523759209204
 10
-3011.535637898537
 20
-869.3523759209204
 42
0.4142135623730951
 10
-3011.035637898537
 20
-869.8523759209203
 10
-2997.035637898537
 20
-869.8523759209203
 42
0.4142135623730996
 10
-2996.535637898537
 20
-869.3523759209204
 10
-2996.535637898537
 20
-860.3523759209208
 42
0.4142135623730904
  0
LINE
  5
2426E
330
18
100
AcDbEntity
  8
0
100
AcDbLine
 10
-3016.535637898537
 20
-870.3523759209208
 30
0.0
 11
-3016.535637898537
 21
-859.3523759209208
 31
0.0
  0
ARC
  5
24270
330
18
100
AcDbEntity
  8
0
100
AcDbCircle
 10
-3017.035637898537
 20
-870.3523759209208
 30
0.0
 40
0.5
100
AcDbArc
 50
270.0
 51
0.0
  0
ARC
  5
24271
330
18
100
AcDbEntity
  8
0
100
AcDbCircle
 10
-3017.035637898537
 20
-859.3523759209208
 30
0.0
 40
0.5
100
AcDbArc
 50
0.0
 51
90.0
  0
LINE
  5
24285
330
18
100
AcDbEntity
  8
実線
100
AcDbLine
 10
-2991.539689507408
 20
-855.3484908520276
 30
0.0
 11
-2991.539689507408
 21
-872.3484908520273
 31
0.0
  0
LINE
  5
2453B
330
18
100
AcDbEntity
  8
実線
100
AcDbLine
 10
-2991.539689507408
 20
-1010.710694047081
 30
0.0
 11
-2971.539689507407
 21
-1010.710694047081
 31
0.0
  0
LINE
  5
2453C
330
18
100
AcDbEntity
  8
実線
100
AcDbLine
 10
-2971.539689507407
 20
-1010.710694047081
 30
0.0
 11
-2971.539689507407
 21
-1003.710694047081
 31
0.0
  0
LINE
  5
2453D
330
18
100
AcDbEntity
  8
実線
100
AcDbLine
 10
-2971.539689507407
 20
-1003.710694047081
 30
0.0
 11
-2991.539689507408
 21
-1003.710694047081
 31
0.0
  0
LINE
  5
247CC
330
18
100
AcDbEntity
  8
実線
100
AcDbLine
 10
-2971.539689507407
 20
-863.2984908520274
 30
0.0
 11
-2991.539689507408
 21
-863.2984908520274
 31
0.0
  0
LINE
  5
247CD
330
18
100
AcDbEntity
  8
実線
100
AcDbLine
 10
-2991.539689507408
 20
-856.2984908520272
 30
0.0
 11
-2971.539689507407
 21
-856.2984908520272
 31
0.0
  0
LINE
  5
247CE
330
18
100
AcDbEntity
  8
中心線
 48
0.4
100
AcDbLine
 10
-2966.903090445319
 20
-864.0026758922989
 30
0.0
 11
-2965.420467936338
 21
-855.5943058117557
 31
0.0
  0
LINE
  5
247CF
330
18
100
AcDbEntity
  8
実線
100
AcDbLine
 10
-2966.71720918006
 20
-862.9484908520275
 30
0.0
 11
-2971.539689507407
 21
-862.9484908520273
 31
0.0
  0
LINE
  5
247D0
330
18
100
AcDbEntity
  8
実線
100
AcDbLine
 10
-2971.539689507407
 20
-856.6484908520273
 30
0.0
 11
-2965.606349201597
 21
-856.6484908520273
 31
0.0
  0
LINE
  5
247D1
330
18
100
AcDbEntity
  8
実線
100
AcDbLine
 10
-2971.539689507407
 20
-856.2984908520272
 30
0.0
 11
-2971.539689507407
 21
-863.2984908520274
 31
0.0
  0
LINE
  5
247D2
330
18
100
AcDbEntity
  8
実線
100
AcDbLine
 10
-2991.539689507408
 20
-857.3484908520272
 30
0.0
 11
-3057.721370926823
 21
-857.3484908520272
 31
0.0
  0
LINE
  5
247D3
330
18
100
AcDbEntity
  8
実線
100
AcDbLine
 10
-3179.539689507407
 20
-985.2065090068078
 30
0.0
 11
-2991.539689507408
 21
-985.206509006808
 31
0.0
  0
LINE
  5
247D4
330
18
100
AcDbEntity
  8
実線
100
AcDbLine
 10
-3179.539689507407
 20
-983.8065090068079
 30
0.0
 11
-2991.539689507408
 21
-983.8065090068081
 31
0.0
  0
LINE
  5
247D5
330
18
100
AcDbEntity
  8
実線
100
AcDbLine
 10
-3179.539689507407
 20
-939.2065090068086
 30
0.0
 11
-2991.539689507407
 21
-939.2065090068088
 31
0.0
  0
LINE
  5
247D6
330
18
100
AcDbEntity
  8
実線
100
AcDbLine
 10
-3179.539689507407
 20
-940.6065090068086
 30
0.0
 11
-2991.539689507407
 21
-940.6065090068089
 31
0.0
  0
LINE
  5
247D7
330
18
100
AcDbEntity
  8
実線
100
AcDbLine
 10
-3176.539689507408
 20
-1012.206509006808
 30
0.0
 11
-3176.539689507407
 21
-987.2065090068078
 31
0.0
  0
LINE
  5
247D8
330
18
100
AcDbEntity
  8
実線
100
AcDbLine
 10
-3176.539689507408
 20
-937.2065090068087
 30
0.0
 11
-3176.539689507408
 21
-917.2065090068079
 31
0.0
  0
CIRCLE
  5
247F3
330
18
100
AcDbEntity
  8
細線
100
AcDbCircle
 10
-2868.022723232715
 20
-1007.706509006808
 30
0.0
 40
1.5
  0
CIRCLE
  5
247F4
330
18
100
AcDbEntity
  8
実線
 48
0.1
100
AcDbCircle
 10
-2868.022723232715
 20
-1007.706509006808
 30
0.0
 40
1.25
  0
LINE
  5
247F5
330
18
100
AcDbEntity
  8
中心線
  6
CENTER
 48
0.2
100
AcDbLine
 10
-2869.90983890403
 20
-1007.706509006808
 30
0.0
 11
-2865.074336417433
 21
-1007.706509006807
 31
0.0
  0
LINE
  5
247F6
330
18
100
AcDbEntity
  8
中心線
 48
0.2
100
AcDbLine
 10
-2868.022723232714
 20
-1010.263479733607
 30
0.0
 11
-2868.022723232715
 21
-1005.003021117492
 31
0.0
  0
LINE
  5
247F7
330
18
100
AcDbEntity
  8
実線
100
AcDbLine
 10
-2865.722723232714
 20
-1012.206509006807
 30
0.0
 11
-2865.722723232717
 21
-1002.706509006807
 31
0.0
  0
LINE
  5
247F8
330
18
100
AcDbEntity
  8
実線
100
AcDbLine
 10
-2865.722723232716
 20
-1002.706509006807
 30
0.0
 11
-2858.722723232715
 21
-1002.706509006806
 31
0.0
  0
LINE
  5
247F9
330
18
100
AcDbEntity
  8
中心線
 48
0.5
100
AcDbLine
 10
-2860.234275522893
 20
-1002.206509006806
 30
0.0
 11
-2875.722723232716
 21
-1002.206509006808
 31
0.0
  0
LINE
  5
247FA
330
18
100
AcDbEntity
  8
実線
100
AcDbLine
 10
-2858.722723232715
 20
-1002.706509006806
 30
0.0
 11
-2858.722723232716
 21
-998.2065090068067
 31
0.0
  0
LINE
  5
247FB
330
18
100
AcDbEntity
  8
実線
100
AcDbLine
 10
-2869.722723232715
 20
-998.2065090068081
 30
0.0
 11
-2858.722723232716
 21
-998.2065090068067
 31
0.0
  0
LINE
  5
247FC
330
18
100
AcDbEntity
  8
実線
100
AcDbLine
 10
-2869.722723232715
 20
-998.2065090068083
 30
0.0
 11
-2869.722723232717
 21
-987.2065090068083
 31
0.0
  0
LINE
  5
247FD
330
18
100
AcDbEntity
  8
実線
100
AcDbLine
 10
-2869.722723232717
 20
-987.2065090068083
 30
0.0
 11
-2873.722723232717
 21
-987.2065090068083
 31
0.0
  0
LINE
  5
247FE
330
18
100
AcDbEntity
  8
実線
100
AcDbLine
 10
-2873.722723232715
 20
-1011.706509006808
 30
0.0
 11
-2873.722723232718
 21
-987.2065090068083
 31
0.0
  0
LINE
  5
247FF
330
18
100
AcDbEntity
  8
実線
100
AcDbLine
 10
-2873.722723232717
 20
-986.0467060320202
 30
0.0
 11
-2873.722723232718
 21
-987.2065090068083
 31
0.0
  0
ARC
  5
24800
330
18
100
AcDbEntity
  8
実線
100
AcDbCircle
 10
-2872.722723232717
 20
-986.0467060320207
 30
0.0
 40
1.0
100
AcDbArc
 50
99.92624550665219
 51
179.9999999999739
  0
LINE
  5
24801
330
18
100
AcDbEntity
  8
実線
100
AcDbLine
 10
-2866.550342900964
 20
-983.9513424487517
 30
0.0
 11
-2872.895103564469
 21
-985.0616755648649
 31
0.0
  0
ARC
  5
24802
330
18
100
AcDbEntity
  8
実線
100
AcDbCircle
 10
-2866.722723232717
 20
-982.9663119815959
 30
0.0
 40
1.0
100
AcDbArc
 50
279.9262455066521
 51
0.0
  0
LINE
  5
24803
330
18
100
AcDbEntity
  8
実線
100
AcDbLine
 10
-2865.722723232717
 20
-982.9663119815959
 30
0.0
 11
-2865.72272323272
 21
-941.4467060320204
 31
0.0
  0
CIRCLE
  5
24804
330
18
100
AcDbEntity
  8
実線
 48
0.1
100
AcDbCircle
 10
-2868.022723232715
 20
-1000.706509006808
 30
0.0
 40
1.25
  0
CIRCLE
  5
24805
330
18
100
AcDbEntity
  8
細線
100
AcDbCircle
 10
-2868.022723232715
 20
-1000.706509006808
 30
0.0
 40
1.5
  0
LINE
  5
24806
330
18
100
AcDbEntity
  8
中心線
  6
CENTER
 48
0.2
100
AcDbLine
 10
-2869.90983890403
 20
-1000.706509006808
 30
0.0
 11
-2865.074336417433
 21
-1000.706509006808
 31
0.0
  0
LINE
  5
24807
330
18
100
AcDbEntity
  8
中心線
 48
0.2
100
AcDbLine
 10
-2868.022723232716
 20
-1003.600232153195
 30
0.0
 11
-2868.022723232716
 21
-998.4746542969837
 31
0.0
  0
LINE
  5
24815
330
18
100
AcDbEntity
  8
実線
100
AcDbLine
 10
-2858.734080804135
 20
-926.2065090068077
 30
0.0
 11
-2858.734080804135
 21
-917.2065090068075
 31
0.0
  0
LINE
  5
24816
330
18
100
AcDbEntity
  8
実線
100
AcDbLine
 10
-2858.734080804135
 20
-926.2065090068075
 30
0.0
 11
-2869.722723232724
 21
-926.2065090068084
 31
0.0
  0
LINE
  5
24817
330
18
100
AcDbEntity
  8
実線
100
AcDbLine
 10
-2869.722723232722
 20
-937.2065090068081
 30
0.0
 11
-2869.722723232724
 21
-926.2065090068084
 31
0.0
  0
LINE
  5
24818
330
18
100
AcDbEntity
  8
実線
100
AcDbLine
 10
-2869.722723232722
 20
-937.2065090068081
 30
0.0
 11
-2873.722723232722
 21
-937.2065090068074
 31
0.0
  0
LINE
  5
24819
330
18
100
AcDbEntity
  8
実線
100
AcDbLine
 10
-2873.722723232717
 20
-937.2065090068074
 30
0.0
 11
-2873.722723232717
 21
-938.3663119815958
 31
0.0
  0
ARC
  5
2481A
330
18
100
AcDbEntity
  8
実線
 48
0.5
100
AcDbCircle
 10
-2872.722723232717
 20
-938.3663119815958
 30
0.0
 40
1.0
100
AcDbArc
 50
180.0
 51
260.0737544933477
  0
LINE
  5
2481B
330
18
100
AcDbEntity
  8
実線
100
AcDbLine
 10
-2866.550342900968
 20
-940.4616755648648
 30
0.0
 11
-2872.895103564469
 21
-939.3513424487515
 31
0.0
  0
ARC
  5
2481C
330
18
100
AcDbEntity
  8
実線
100
AcDbCircle
 10
-2866.72272323272
 20
-941.4467060320205
 30
0.0
 40
1.0
100
AcDbArc
 50
0.0000000000065138
 51
80.0737544933478
  0
LINE
  5
24824
330
18
100
AcDbEntity
  8
実線
100
AcDbLine
 10
-2873.722723232717
 20
-937.2065090068083
 30
0.0
 11
-2873.722723232719
 21
-917.7065090068074
 31
0.0
  0
LINE
  5
24826
330
18
100
AcDbEntity
  8
２点鎖線
100
AcDbLine
 10
-2873.722723232725
 20
-907.9653321315916
 30
0.0
 11
-2873.722723232725
 21
-917.7065090068074
 31
0.0
  0
LINE
  5
24827
330
18
100
AcDbEntity
  8
２点鎖線
100
AcDbLine
 10
-2873.722723232717
 20
-938.3663119815958
 30
0.0
 11
-2873.722723232717
 21
-986.0467060320198
 31
0.0
  0
LINE
  5
24828
330
18
100
AcDbEntity
  8
２点鎖線
100
AcDbLine
 10
-2873.722723232715
 20
-1011.706509006808
 30
0.0
 11
-2873.722723232713
 21
-1016.447685882025
 31
0.0
  0
VIEWPORT
  5
23
330
15
100
AcDbEntity
 67
     1
  8
0
100
AcDbViewport
 10
199.9983676050733
 20
144.0013834175834
 30
0.0
 40
443.7679381983543
 41
290.4394811464312
 68
     1
 69
     1
1001
ACAD
1000
MVIEW
1002
{
1070
    16
1010
0.0
1020
0.0
1030
0.0
1010
0.0
1020
0.0
1030
1.0
1040
0.0
1040
290.4394811464312
1040
199.9983676050733
1040
144.0013834175834
1040
50.0
1040
0.0
1040
0.0
1070
     0
1070
   100
1070
     1
1070
     0
1070
     0
1070
     0
1070
     0
1070
     0
1040
0.0
1040
0.0
1040
0.0
1040
10.0
1040
10.0
1040
10.0
1040
10.0
1070
     0
1002
{
1002
}
1002
}
  0
VIEWPORT
  5
2E
330
15
100
AcDbEntity
 67
     1
  8
M_VIEW
100
AcDbViewport
 10
200.0
 20
144.0
 30
0.0
 40
400.0
 41
288.0
 68
     2
 69
     2
1001
ACAD
1000
MVIEW
1002
{
1070
    16
1010
0.0
1020
0.0
1030
0.0
1010
0.0
1020
0.0
1030
1.0
1040
0.0
1040
288.0000003698386
1040
-3003.613104942959
1040
-982.1190047075216
1040
50.0
1040
0.0
1040
0.0
1070
     0
1070
   100
1070
     1
1070
     0
1070
     0
1070
     0
1070
     0
1070
     0
1040
0.0
1040
0.0
1040
0.0
1040
10.0
1040
10.0
1040
10.0
1040
10.0
1070
     0
1002
{
1002
}
1002
}
  0
INSERT
  5
115F
330
15
100
AcDbEntity
 67
     1
  8
FRAME025
100
AcDbBlockReference
  2
機械A4横_LBP
 10
82.74908858651452
 20
152.030959079227
 30
0.0
  0
TEXT
  5
AA6A
330
15
100
AcDbEntity
 67
     1
  8
文字
  6
BYBLOCK
 62
     0
100
AcDbText
 10
32.81885892396519
 20
73.01882819621747
 30
0.0
 40
3.2
  1

 50
90.0
 41
0.625
  7
MSｺ_ｼｯｸ
100
AcDbText
  0
TEXT
  5
AA6C
330
15
100
AcDbEntity
 67
     1
  8
文字
  6
BYBLOCK
 62
     0
100
AcDbText
 10
37.25020936743055
 20
73.01882819621747
 30
0.0
 40
3.2
  1

 50
90.0
 41
0.625
  7
MSｺ_ｼｯｸ
100
AcDbText
  0
TEXT
  5
FCA5
330
15
100
AcDbEntity
 67
     1
  8
FRAME020
  6
CONTINUOUS
100
AcDbText
 10
126.6213117262079
 20
29.63926951973459
 30
0.0
 40
2.5
  1

 41
0.625
  7
MSｺ_ｼｯｸ
100
AcDbText
  0
TEXT
  5
12229
330
15
100
AcDbEntity
 67
     1
  8
0
100
AcDbText
 10
324.703280378293
 20
10.6316829925787
 30
0.0
 40
6.0
  1
ＳＥ－３７０２１B
 41
1.1
100
AcDbText
  0
MTEXT
  5
21047
330
15
100
AcDbEntity
 67
     1
  8
0
 48
10.0
100
AcDbMText
 10
327.7719738752167
 20
55.46212977036839
 30
0.0
 40
6.0
 41
50.05040000000001
 71
     1
 72
     5
  1
{\fＭＳ ゴシック|b0|i0|c128|p49;\L質量：0.72kg}
1001
ACAD
1000
MTEXTBEGIN
1070
    73
1070
     1
1070
    44
1040
1.0
1070
    74
1070
     0
1000
MTEXTEND
  0
MTEXT
  5
249A9
330
15
100
AcDbEntity
 67
     1
  8
文字
100
AcDbMText
 10
205.8241758847109
 20
26.99736564560986
 30
0.0
 40
6.0
 41
190.2202314410709
 71
     1
 72
     5
  1
{\fＭＳ ゴシック|b0|i0|c128|p49;τﾘﾆｱﾓｰﾀ ｺｱﾚｽﾌﾗｯﾄ NVA-AM CLﾕﾆｯﾄ CLV-AMC30A2B 68N}
  7
ｽﾀｲﾙ3
1001
ACAD
1000
MTEXTBEGIN
1070
    73
1070
     1
1070
    44
1040
1.0
1070
    74
1070
     0
1000
MTEXTEND
1000
MTEXTBEGIN
1070
    73
1070
     1
1070
    44
1040
1.0
1070
    74
1070
     0
1000
MTEXTEND
  0
ENDSEC
  0
SECTION
  2
OBJECTS
  0
DICTIONARY
  5
C
330
0
100
AcDbDictionary
  3
ACAD_GROUP
350
D
  3
ACAD_LAYOUT
350
DB2
  3
ACAD_MLINESTYLE
350
1B
  3
ACAD_PLOTSETTINGS
350
DB3
  3
ACAD_PLOTSTYLENAME
350
FB5B
  3
ACADDIM
350
1B534
  3
ACDBHEADERROUNDTRIPXREC
350
24A5C
  3
ACDBVARIABLEDICTIONARY
350
106A6
  3
ASE_INDEX_DICTIONARY
350
1A99F
  3
DWGPROPS
350
15EC9
1001
ACAD
1000
TREAT_AS_HARD
1070
     0
  0
DICTIONARY
  5
2453F
330
2
100
AcDbDictionary
280
     1
  3
ACAD_LAYERFILTERS
360
24540
  3
ACAD_LAYERSTATES
360
2454C
  0
DICTIONARY
  5
EFC6
330
18
100
AcDbDictionary
280
     1
  3
ACAD_LAYOUTSELFREF
360
24A7E
  0
DICTIONARY
  5
EFC4
330
15
100
AcDbDictionary
280
     1
  3
ACAD_LAYOUTSELFREF
360
24A7D
  0
DICTIONARY
  5
D
102
{ACAD_REACTORS
330
C
102
}
330
C
100
AcDbDictionary
  3
*A1
350
AC8A
  3
*A10
350
2284E
  3
*A100
350
1738A
  3
*A101
350
19729
  3
*A102
350
20209
  3
*A103
350
2284F
  3
*A104
350
19A86
  3
*A105
350
FC91
  3
*A106
350
19A51
  3
*A107
350
106C7
  3
*A108
350
2001F
  3
*A109
350
19881
  3
*A11
350
1D6D4
  3
*A110
350
19F55
  3
*A111
350
1D710
  3
*A112
350
20227
  3
*A113
350
2378B
  3
*A114
350
1D6FC
  3
*A115
350
17BFF
  3
*A116
350
1F8FA
  3
*A117
350
21D4D
  3
*A118
350
19988
  3
*A119
350
1D684
  3
*A12
350
1606A
  3
*A120
350
FC9A
  3
*A121
350
16059
  3
*A122
350
1F8F0
  3
*A123
350
173BD
  3
*A124
350
FC9B
  3
*A125
350
1EB7F
  3
*A126
350
1D6B6
  3
*A127
350
22CA1
  3
*A128
350
2222F
  3
*A129
350
ACBD
  3
*A13
350
18F22
  3
*A130
350
22016
  3
*A131
350
21E50
  3
*A132
350
ACA2
  3
*A133
350
19255
  3
*A134
350
18FA7
  3
*A135
350
2242D
  3
*A136
350
231AD
  3
*A137
350
2001C
  3
*A138
350
ACA1
  3
*A139
350
2242E
  3
*A14
350
22230
  3
*A140
350
1EB7C
  3
*A141
350
19F99
  3
*A142
350
1D6F2
  3
*A143
350
1D6C0
  3
*A144
350
1D6CA
  3
*A145
350
19A52
  3
*A146
350
2263B
  3
*A147
350
19F67
  3
*A148
350
1998A
  3
*A149
350
18FA8
  3
*A15
350
ACB4
  3
*A150
350
FC95
  3
*A151
350
FCB8
  3
*A152
350
1B73B
  3
*A153
350
1EB80
  3
*A154
350
198F1
  3
*A155
350
20019
  3
*A156
350
2002B
  3
*A157
350
16069
  3
*A158
350
19259
  3
*A159
350
1D68E
  3
*A16
350
20016
  3
*A160
350
16068
  3
*A161
350
106C6
  3
*A162
350
ACAB
  3
*A163
350
1A691
  3
*A164
350
196C2
  3
*A165
350
20013
  3
*A166
350
1D706
  3
*A167
350
20218
  3
*A168
350
1D6AC
  3
*A169
350
1B74D
  3
*A17
350
16058
  3
*A170
350
1B732
  3
*A171
350
1A695
  3
*A172
350
20222
  3
*A173
350
19989
  3
*A174
350
20010
  3
*A175
350
1A692
  3
*A176
350
19256
  3
*A177
350
1A09A
  3
*A178
350
1F918
  3
*A179
350
1F913
  3
*A18
350
1F90E
  3
*A180
350
231F9
  3
*A181
350
231AE
  3
*A182
350
22CA2
  3
*A183
350
22A73
  3
*A184
350
22A70
  3
*A185
350
2263C
  3
*A186
350
2242F
  3
*A187
350
22017
  3
*A188
350
2021D
  3
*A189
350
19FAB
  3
*A19
350
19861
  3
*A2
350
19AA4
  3
*A20
350
1D6A2
  3
*A21
350
18F1F
  3
*A22
350
23216
  3
*A23
350
169DA
  3
*A24
350
22A72
  3
*A25
350
19794
  3
*A26
350
17389
  3
*A27
350
1EB7D
  3
*A28
350
1738B
  3
*A29
350
22015
  3
*A3
350
1F8FF
  3
*A30
350
1D6E8
  3
*A31
350
1AA94
  3
*A32
350
1B756
  3
*A33
350
20231
  3
*A34
350
2342E
  3
*A35
350
22430
  3
*A36
350
19787
  3
*A37
350
1F909
  3
*A38
350
2284C
  3
*A39
350
1D6DE
  3
*A4
350
FBFF
  3
*A40
350
21E86
  3
*A41
350
20236
  3
*A42
350
1F904
  3
*A43
350
23F10
  3
*A44
350
2342F
  3
*A45
350
1B729
  3
*A46
350
18F23
  3
*A47
350
22A71
  3
*A48
350
23F0D
  3
*A49
350
22231
  3
*A5
350
AC9A
  3
*A50
350
173BF
  3
*A51
350
1D698
  3
*A52
350
23430
  3
*A53
350
106B3
  3
*A54
350
1F8F5
  3
*A55
350
23F0C
  3
*A56
350
22639
  3
*A57
350
173BE
  3
*A58
350
1B744
  3
*A59
350
23431
  3
*A6
350
20CA2
  3
*A60
350
18F20
  3
*A61
350
23C27
  3
*A62
350
2284D
  3
*A63
350
1D67A
  3
*A64
350
23432
  3
*A65
350
23F0F
  3
*A66
350
23C26
  3
*A67
350
106A5
  3
*A68
350
20025
  3
*A69
350
23788
  3
*A7
350
23F0E
  3
*A70
350
23C25
  3
*A71
350
22CA0
  3
*A72
350
2378A
  3
*A73
350
23C24
  3
*A74
350
22CA3
  3
*A75
350
17B11
  3
*A76
350
23C23
  3
*A77
350
231F5
  3
*A78
350
20022
  3
*A79
350
2378C
  3
*A8
350
19786
  3
*A80
350
2020E
  3
*A81
350
1D670
  3
*A82
350
FB6B
  3
*A83
350
1606B
  3
*A84
350
1F91D
  3
*A85
350
22014
  3
*A86
350
22232
  3
*A87
350
2263A
  3
*A88
350
19A5A
  3
*A89
350
1EB7E
  3
*A9
350
21D4E
  3
*A90
350
1B720
  3
*A91
350
20213
  3
*A92
350
19F87
  3
*A93
350
FB6C
  3
*A94
350
20028
  3
*A95
350
20CA6
  3
*A96
350
18F21
  3
*A97
350
18FA6
  3
*A98
350
2022C
  3
*A99
350
17901
1001
ACAD
1000
TREAT_AS_HARD
1070
     0
  0
DICTIONARY
  5
DB2
102
{ACAD_REACTORS
330
C
102
}
330
C
100
AcDbDictionary
1001
ACAD
1000
TREAT_AS_HARD
1070
     0
  0
DICTIONARY
  5
1B
102
{ACAD_REACTORS
330
C
102
}
330
C
100
AcDbDictionary
  3
STANDARD
350
1C
1001
ACAD
1000
TREAT_AS_HARD
1070
     0
  0
DICTIONARY
  5
DB3
102
{ACAD_REACTORS
330
C
102
}
330
C
100
AcDbDictionary
1001
ACAD
1000
TREAT_AS_HARD
1070
     0
  0
ACDBDICTIONARYWDFLT
  5
FB5B
102
{ACAD_REACTORS
330
C
102
}
330
C
100
AcDbDictionary
281
     1
  3
Normal
350
FB5C
100
AcDbDictionaryWithDefault
340
FB5C
  0
XRECORD
  5
1B534
102
{ACAD_REACTORS
330
C
102
}
330
C
100
AcDbXrecord
 90
   990106
  3

 60
     0
 61
     0
 62
     4
 63
     4
 64
     1
 65
     0
 66
     0
 67
     3
 68
     1
 69
     0
 70
     0
 71
     0
 72
     0
 40
0.0
170
     2
340
0
  0
DICTIONARY
  5
24A5C
102
{ACAD_REACTORS
330
C
102
}
330
C
100
AcDbDictionary
  3
CEPSNTYPE
350
24A66
  3
DIMSTYLEDATA
350
24A6A
  3
FINGERPRINTGUID
350
24A67
  3
HYPERLINKBASE
350
24A5F
  3
INSUNITS
350
24A65
  3
LAYOUTDICT
350
24A61
  3
LWETCUNION
350
24A64
  3
PLOTSETDICT
350
24A62
  3
PLOTSTYLNAMDICT
350
24A63
  3
PSVPSCALE
350
24A69
  3
PUCSBASE
350
24A6D
  3
PUCSORGBACK
350
24A73
  3
PUCSORGBOTTOM
350
24A6F
  3
PUCSORGFRONT
350
24A72
  3
PUCSORGLEFT
350
24A70
  3
PUCSORGRIGHT
350
24A71
  3
PUCSORGTOP
350
24A6E
  3
PUCSORTHOREF
350
24A6B
  3
PUCSORTHOVIEW
350
24A6C
  3
STYLESHEET
350
24A60
  3
TSTACKALIGN
350
24A5D
  3
TSTACKSIZE
350
24A5E
  3
UCSBASE
350
24A76
  3
UCSORGBACK
350
24A7C
  3
UCSORGBOTTOM
350
24A78
  3
UCSORGFRONT
350
24A7B
  3
UCSORGLEFT
350
24A79
  3
UCSORGRIGHT
350
24A7A
  3
UCSORGTOP
350
24A77
  3
UCSORTHOREF
350
24A74
  3
UCSORTHOVIEW
350
24A75
  3
VERSIONGUID
350
24A68
  0
DICTIONARY
  5
106A6
102
{ACAD_REACTORS
330
C
102
}
330
C
100
AcDbDictionary
  3
SORTENTS
350
106A7
  0
DICTIONARY
  5
1A99F
102
{ACAD_REACTORS
330
C
102
}
330
C
100
AcDbDictionary
  3
ASEBLOCKHIERARCHYINDEXRECORD
350
1A9A1
1001
DCO15
1040
1464612067.17
  0
XRECORD
  5
15EC9
102
{ACAD_REACTORS
330
C
102
}
330
C
100
AcDbXrecord
  1
DWGPROPS COOKIE
  2

  3

  4

  6

  7

  8

  9

300
=
301
=
302
=
303
=
304
=
305
=
306
=
307
=
308
=
309
=
 40
12.65185717592592
 41
2451224.660162384
 42
2452395.660827315
  1

 90
        0
  0
DICTIONARY
  5
24540
102
{ACAD_REACTORS
330
2453F
102
}
330
2453F
100
AcDbDictionary
280
     1
  3
0
360
24541
  3
11
360
24542
  3
150_
360
24543
  3
160_
360
24544
  3
170_
360
24545
  3
171_
360
24546
  3
350_
360
24547
  3
4
360
24548
  3
5
360
24549
  3
7
360
2454A
  3
KISEKI
360
2454B
  0
DICTIONARY
  5
2454C
102
{ACAD_REACTORS
330
2453F
102
}
330
2453F
100
AcDbDictionary
  0
XRECORD
  5
24A7E
102
{ACAD_REACTORS
330
EFC6
102
}
330
EFC6
100
AcDbXrecord
340
18
  0
XRECORD
  5
24A7D
102
{ACAD_REACTORS
330
EFC4
102
}
330
EFC4
100
AcDbXrecord
340
15
  0
GROUP
  5
AC8A
102
{ACAD_REACTORS
330
D
102
}
330
D
100
AcDbGroup
300

 70
     1
 71
     1
  0
GROUP
  5
2284E
102
{ACAD_REACTORS
330
D
102
}
330
D
100
AcDbGroup
300

 70
     1
 71
     1
  0
GROUP
  5
1738A
102
{ACAD_REACTORS
330
D
102
}
330
D
100
AcDbGroup
300

 70
     1
 71
     1
  0
GROUP
  5
19729
102
{ACAD_REACTORS
330
D
102
}
330
D
100
AcDbGroup
300

 70
     1
 71
     1
  0
GROUP
  5
20209
102
{ACAD_REACTORS
330
D
102
}
330
D
100
AcDbGroup
300

 70
     1
 71
     1
  0
GROUP
  5
2284F
102
{ACAD_REACTORS
330
D
102
}
330
D
100
AcDbGroup
300

 70
     1
 71
     1
  0
GROUP
  5
19A86
102
{ACAD_REACTORS
330
D
102
}
330
D
100
AcDbGroup
300

 70
     1
 71
     1
  0
GROUP
  5
FC91
102
{ACAD_REACTORS
330
D
102
}
330
D
100
AcDbGroup
300

 70
     1
 71
     1
  0
GROUP
  5
19A51
102
{ACAD_REACTORS
330
D
102
}
330
D
100
AcDbGroup
300

 70
     1
 71
     1
  0
GROUP
  5
106C7
102
{ACAD_REACTORS
330
D
102
}
330
D
100
AcDbGroup
300

 70
     1
 71
     1
  0
GROUP
  5
2001F
102
{ACAD_REACTORS
330
D
102
}
330
D
100
AcDbGroup
300

 70
     1
 71
     1
  0
GROUP
  5
19881
102
{ACAD_REACTORS
330
D
102
}
330
D
100
AcDbGroup
300

 70
     1
 71
     1
  0
GROUP
  5
1D6D4
102
{ACAD_REACTORS
330
D
102
}
330
D
100
AcDbGroup
300

 70
     1
 71
     1
  0
GROUP
  5
19F55
102
{ACAD_REACTORS
330
D
102
}
330
D
100
AcDbGroup
300

 70
     1
 71
     1
  0
GROUP
  5
1D710
102
{ACAD_REACTORS
330
D
102
}
330
D
100
AcDbGroup
300

 70
     1
 71
     1
  0
GROUP
  5
20227
102
{ACAD_REACTORS
330
D
102
}
330
D
100
AcDbGroup
300

 70
     1
 71
     1
  0
GROUP
  5
2378B
102
{ACAD_REACTORS
330
D
102
}
330
D
100
AcDbGroup
300

 70
     1
 71
     1
340
235B2
340
235B3
340
235BE
  0
GROUP
  5
1D6FC
102
{ACAD_REACTORS
330
D
102
}
330
D
100
AcDbGroup
300

 70
     1
 71
     1
  0
GROUP
  5
17BFF
102
{ACAD_REACTORS
330
D
102
}
330
D
100
AcDbGroup
300

 70
     1
 71
     1
  0
GROUP
  5
1F8FA
102
{ACAD_REACTORS
330
D
102
}
330
D
100
AcDbGroup
300

 70
     1
 71
     1
  0
GROUP
  5
21D4D
102
{ACAD_REACTORS
330
D
102
}
330
D
100
AcDbGroup
300

 70
     1
 71
     1
  0
GROUP
  5
19988
102
{ACAD_REACTORS
330
D
102
}
330
D
100
AcDbGroup
300

 70
     1
 71
     1
  0
GROUP
  5
1D684
102
{ACAD_REACTORS
330
D
102
}
330
D
100
AcDbGroup
300

 70
     1
 71
     1
  0
GROUP
  5
1606A
102
{ACAD_REACTORS
330
D
102
}
330
D
100
AcDbGroup
300

 70
     1
 71
     1
  0
GROUP
  5
FC9A
102
{ACAD_REACTORS
330
D
102
}
330
D
100
AcDbGroup
300

 70
     1
 71
     1
  0
GROUP
  5
16059
102
{ACAD_REACTORS
330
D
102
}
330
D
100
AcDbGroup
300

 70
     1
 71
     1
  0
GROUP
  5
1F8F0
102
{ACAD_REACTORS
330
D
102
}
330
D
100
AcDbGroup
300

 70
     1
 71
     1
  0
GROUP
  5
173BD
102
{ACAD_REACTORS
330
D
102
}
330
D
100
AcDbGroup
300

 70
     1
 71
     1
  0
GROUP
  5
FC9B
102
{ACAD_REACTORS
330
D
102
}
330
D
100
AcDbGroup
300

 70
     1
 71
     1
  0
GROUP
  5
1EB7F
102
{ACAD_REACTORS
330
D
102
}
330
D
100
AcDbGroup
300

 70
     1
 71
     1
  0
GROUP
  5
1D6B6
102
{ACAD_REACTORS
330
D
102
}
330
D
100
AcDbGroup
300

 70
     1
 71
     1
  0
GROUP
  5
22CA1
102
{ACAD_REACTORS
330
D
102
}
330
D
100
AcDbGroup
300

 70
     1
 71
     1
  0
GROUP
  5
2222F
102
{ACAD_REACTORS
330
D
102
}
330
D
100
AcDbGroup
300

 70
     1
 71
     1
  0
GROUP
  5
ACBD
102
{ACAD_REACTORS
330
D
102
}
330
D
100
AcDbGroup
300

 70
     1
 71
     1
  0
GROUP
  5
18F22
102
{ACAD_REACTORS
330
D
102
}
330
D
100
AcDbGroup
300

 70
     1
 71
     1
  0
GROUP
  5
22016
102
{ACAD_REACTORS
330
D
102
}
330
D
100
AcDbGroup
300

 70
     1
 71
     1
  0
GROUP
  5
21E50
102
{ACAD_REACTORS
330
D
102
}
330
D
100
AcDbGroup
300

 70
     1
 71
     1
  0
GROUP
  5
ACA2
102
{ACAD_REACTORS
330
D
102
}
330
D
100
AcDbGroup
300

 70
     1
 71
     1
  0
GROUP
  5
19255
102
{ACAD_REACTORS
330
D
102
}
330
D
100
AcDbGroup
300

 70
     1
 71
     1
  0
GROUP
  5
18FA7
102
{ACAD_REACTORS
330
D
102
}
330
D
100
AcDbGroup
300

 70
     1
 71
     1
  0
GROUP
  5
2242D
102
{ACAD_REACTORS
330
D
102
}
330
D
100
AcDbGroup
300

 70
     1
 71
     1
  0
GROUP
  5
231AD
102
{ACAD_REACTORS
330
D
102
}
330
D
100
AcDbGroup
300

 70
     1
 71
     1
  0
GROUP
  5
2001C
102
{ACAD_REACTORS
330
D
102
}
330
D
100
AcDbGroup
300

 70
     1
 71
     1
  0
GROUP
  5
ACA1
102
{ACAD_REACTORS
330
D
102
}
330
D
100
AcDbGroup
300

 70
     1
 71
     1
  0
GROUP
  5
2242E
102
{ACAD_REACTORS
330
D
102
}
330
D
100
AcDbGroup
300

 70
     1
 71
     1
  0
GROUP
  5
22230
102
{ACAD_REACTORS
330
D
102
}
330
D
100
AcDbGroup
300

 70
     1
 71
     1
  0
GROUP
  5
1EB7C
102
{ACAD_REACTORS
330
D
102
}
330
D
100
AcDbGroup
300

 70
     1
 71
     1
  0
GROUP
  5
19F99
102
{ACAD_REACTORS
330
D
102
}
330
D
100
AcDbGroup
300

 70
     1
 71
     1
  0
GROUP
  5
1D6F2
102
{ACAD_REACTORS
330
D
102
}
330
D
100
AcDbGroup
300

 70
     1
 71
     1
  0
GROUP
  5
1D6C0
102
{ACAD_REACTORS
330
D
102
}
330
D
100
AcDbGroup
300

 70
     1
 71
     1
  0
GROUP
  5
1D6CA
102
{ACAD_REACTORS
330
D
102
}
330
D
100
AcDbGroup
300

 70
     1
 71
     1
  0
GROUP
  5
19A52
102
{ACAD_REACTORS
330
D
102
}
330
D
100
AcDbGroup
300

 70
     1
 71
     1
  0
GROUP
  5
2263B
102
{ACAD_REACTORS
330
D
102
}
330
D
100
AcDbGroup
300

 70
     1
 71
     1
  0
GROUP
  5
19F67
102
{ACAD_REACTORS
330
D
102
}
330
D
100
AcDbGroup
300

 70
     1
 71
     1
  0
GROUP
  5
1998A
102
{ACAD_REACTORS
330
D
102
}
330
D
100
AcDbGroup
300

 70
     1
 71
     1
  0
GROUP
  5
18FA8
102
{ACAD_REACTORS
330
D
102
}
330
D
100
AcDbGroup
300

 70
     1
 71
     1
  0
GROUP
  5
ACB4
102
{ACAD_REACTORS
330
D
102
}
330
D
100
AcDbGroup
300

 70
     1
 71
     1
  0
GROUP
  5
FC95
102
{ACAD_REACTORS
330
D
102
}
330
D
100
AcDbGroup
300

 70
     1
 71
     1
  0
GROUP
  5
FCB8
102
{ACAD_REACTORS
330
D
102
}
330
D
100
AcDbGroup
300

 70
     1
 71
     1
  0
GROUP
  5
1B73B
102
{ACAD_REACTORS
330
D
102
}
330
D
100
AcDbGroup
300

 70
     1
 71
     1
  0
GROUP
  5
1EB80
102
{ACAD_REACTORS
330
D
102
}
330
D
100
AcDbGroup
300

 70
     1
 71
     1
  0
GROUP
  5
198F1
102
{ACAD_REACTORS
330
D
102
}
330
D
100
AcDbGroup
300

 70
     1
 71
     1
  0
GROUP
  5
20019
102
{ACAD_REACTORS
330
D
102
}
330
D
100
AcDbGroup
300

 70
     1
 71
     1
  0
GROUP
  5
2002B
102
{ACAD_REACTORS
330
D
102
}
330
D
100
AcDbGroup
300

 70
     1
 71
     1
  0
GROUP
  5
16069
102
{ACAD_REACTORS
330
D
102
}
330
D
100
AcDbGroup
300

 70
     1
 71
     1
  0
GROUP
  5
19259
102
{ACAD_REACTORS
330
D
102
}
330
D
100
AcDbGroup
300

 70
     1
 71
     1
  0
GROUP
  5
1D68E
102
{ACAD_REACTORS
330
D
102
}
330
D
100
AcDbGroup
300

 70
     1
 71
     1
  0
GROUP
  5
20016
102
{ACAD_REACTORS
330
D
102
}
330
D
100
AcDbGroup
300

 70
     1
 71
     1
  0
GROUP
  5
16068
102
{ACAD_REACTORS
330
D
102
}
330
D
100
AcDbGroup
300

 70
     1
 71
     1
  0
GROUP
  5
106C6
102
{ACAD_REACTORS
330
D
102
}
330
D
100
AcDbGroup
300

 70
     1
 71
     1
  0
GROUP
  5
ACAB
102
{ACAD_REACTORS
330
D
102
}
330
D
100
AcDbGroup
300

 70
     1
 71
     1
  0
GROUP
  5
1A691
102
{ACAD_REACTORS
330
D
102
}
330
D
100
AcDbGroup
300

 70
     1
 71
     1
  0
GROUP
  5
196C2
102
{ACAD_REACTORS
330
D
102
}
330
D
100
AcDbGroup
300

 70
     1
 71
     1
  0
GROUP
  5
20013
102
{ACAD_REACTORS
330
D
102
}
330
D
100
AcDbGroup
300

 70
     1
 71
     1
  0
GROUP
  5
1D706
102
{ACAD_REACTORS
330
D
102
}
330
D
100
AcDbGroup
300

 70
     1
 71
     1
  0
GROUP
  5
20218
102
{ACAD_REACTORS
330
D
102
}
330
D
100
AcDbGroup
300

 70
     1
 71
     1
  0
GROUP
  5
1D6AC
102
{ACAD_REACTORS
330
D
102
}
330
D
100
AcDbGroup
300

 70
     1
 71
     1
  0
GROUP
  5
1B74D
102
{ACAD_REACTORS
330
D
102
}
330
D
100
AcDbGroup
300

 70
     1
 71
     1
  0
GROUP
  5
16058
102
{ACAD_REACTORS
330
D
102
}
330
D
100
AcDbGroup
300

 70
     1
 71
     1
  0
GROUP
  5
1B732
102
{ACAD_REACTORS
330
D
102
}
330
D
100
AcDbGroup
300

 70
     1
 71
     1
  0
GROUP
  5
1A695
102
{ACAD_REACTORS
330
D
102
}
330
D
100
AcDbGroup
300

 70
     1
 71
     1
  0
GROUP
  5
20222
102
{ACAD_REACTORS
330
D
102
}
330
D
100
AcDbGroup
300

 70
     1
 71
     1
  0
GROUP
  5
19989
102
{ACAD_REACTORS
330
D
102
}
330
D
100
AcDbGroup
300

 70
     1
 71
     1
  0
GROUP
  5
20010
102
{ACAD_REACTORS
330
D
102
}
330
D
100
AcDbGroup
300

 70
     1
 71
     1
  0
GROUP
  5
1A692
102
{ACAD_REACTORS
330
D
102
}
330
D
100
AcDbGroup
300

 70
     1
 71
     1
  0
GROUP
  5
19256
102
{ACAD_REACTORS
330
D
102
}
330
D
100
AcDbGroup
300

 70
     1
 71
     1
  0
GROUP
  5
1A09A
102
{ACAD_REACTORS
330
D
102
}
330
D
100
AcDbGroup
300

 70
     1
 71
     1
  0
GROUP
  5
1F918
102
{ACAD_REACTORS
330
D
102
}
330
D
100
AcDbGroup
300

 70
     1
 71
     1
  0
GROUP
  5
1F913
102
{ACAD_REACTORS
330
D
102
}
330
D
100
AcDbGroup
300

 70
     1
 71
     1
  0
GROUP
  5
1F90E
102
{ACAD_REACTORS
330
D
102
}
330
D
100
AcDbGroup
300

 70
     1
 71
     1
  0
GROUP
  5
231F9
102
{ACAD_REACTORS
330
D
102
}
330
D
100
AcDbGroup
300

 70
     1
 71
     1
  0
GROUP
  5
231AE
102
{ACAD_REACTORS
330
D
102
}
330
D
100
AcDbGroup
300

 70
     1
 71
     1
  0
GROUP
  5
22CA2
102
{ACAD_REACTORS
330
D
102
}
330
D
100
AcDbGroup
300

 70
     1
 71
     1
  0
GROUP
  5
22A73
102
{ACAD_REACTORS
330
D
102
}
330
D
100
AcDbGroup
300

 70
     1
 71
     1
  0
GROUP
  5
22A70
102
{ACAD_REACTORS
330
D
102
}
330
D
100
AcDbGroup
300

 70
     1
 71
     1
  0
GROUP
  5
2263C
102
{ACAD_REACTORS
330
D
102
}
330
D
100
AcDbGroup
300

 70
     1
 71
     1
  0
GROUP
  5
2242F
102
{ACAD_REACTORS
330
D
102
}
330
D
100
AcDbGroup
300

 70
     1
 71
     1
  0
GROUP
  5
22017
102
{ACAD_REACTORS
330
D
102
}
330
D
100
AcDbGroup
300

 70
     1
 71
     1
  0
GROUP
  5
2021D
102
{ACAD_REACTORS
330
D
102
}
330
D
100
AcDbGroup
300

 70
     1
 71
     1
  0
GROUP
  5
19FAB
102
{ACAD_REACTORS
330
D
102
}
330
D
100
AcDbGroup
300

 70
     1
 71
     1
  0
GROUP
  5
19861
102
{ACAD_REACTORS
330
D
102
}
330
D
100
AcDbGroup
300

 70
     1
 71
     1
  0
GROUP
  5
19AA4
102
{ACAD_REACTORS
330
D
102
}
330
D
100
AcDbGroup
300

 70
     1
 71
     1
  0
GROUP
  5
1D6A2
102
{ACAD_REACTORS
330
D
102
}
330
D
100
AcDbGroup
300

 70
     1
 71
     1
  0
GROUP
  5
18F1F
102
{ACAD_REACTORS
330
D
102
}
330
D
100
AcDbGroup
300

 70
     1
 71
     1
  0
GROUP
  5
23216
102
{ACAD_REACTORS
330
D
102
}
330
D
100
AcDbGroup
300

 70
     1
 71
     1
  0
GROUP
  5
169DA
102
{ACAD_REACTORS
330
D
102
}
330
D
100
AcDbGroup
300

 70
     1
 71
     1
  0
GROUP
  5
22A72
102
{ACAD_REACTORS
330
D
102
}
330
D
100
AcDbGroup
300

 70
     1
 71
     1
  0
GROUP
  5
19794
102
{ACAD_REACTORS
330
D
102
}
330
D
100
AcDbGroup
300

 70
     1
 71
     1
  0
GROUP
  5
17389
102
{ACAD_REACTORS
330
D
102
}
330
D
100
AcDbGroup
300

 70
     1
 71
     1
  0
GROUP
  5
1EB7D
102
{ACAD_REACTORS
330
D
102
}
330
D
100
AcDbGroup
300

 70
     1
 71
     1
  0
GROUP
  5
1738B
102
{ACAD_REACTORS
330
D
102
}
330
D
100
AcDbGroup
300

 70
     1
 71
     1
  0
GROUP
  5
22015
102
{ACAD_REACTORS
330
D
102
}
330
D
100
AcDbGroup
300

 70
     1
 71
     1
  0
GROUP
  5
1F8FF
102
{ACAD_REACTORS
330
D
102
}
330
D
100
AcDbGroup
300

 70
     1
 71
     1
  0
GROUP
  5
1D6E8
102
{ACAD_REACTORS
330
D
102
}
330
D
100
AcDbGroup
300

 70
     1
 71
     1
  0
GROUP
  5
1AA94
102
{ACAD_REACTORS
330
D
102
}
330
D
100
AcDbGroup
300

 70
     1
 71
     1
  0
GROUP
  5
1B756
102
{ACAD_REACTORS
330
D
102
}
330
D
100
AcDbGroup
300

 70
     1
 71
     1
  0
GROUP
  5
20231
102
{ACAD_REACTORS
330
D
102
}
330
D
100
AcDbGroup
300

 70
     1
 71
     1
  0
GROUP
  5
2342E
102
{ACAD_REACTORS
330
D
102
}
330
D
100
AcDbGroup
300

 70
     1
 71
     1
  0
GROUP
  5
22430
102
{ACAD_REACTORS
330
D
102
}
330
D
100
AcDbGroup
300

 70
     1
 71
     1
  0
GROUP
  5
19787
102
{ACAD_REACTORS
330
D
102
}
330
D
100
AcDbGroup
300

 70
     1
 71
     1
  0
GROUP
  5
1F909
102
{ACAD_REACTORS
330
D
102
}
330
D
100
AcDbGroup
300

 70
     1
 71
     1
  0
GROUP
  5
2284C
102
{ACAD_REACTORS
330
D
102
}
330
D
100
AcDbGroup
300

 70
     1
 71
     1
  0
GROUP
  5
1D6DE
102
{ACAD_REACTORS
330
D
102
}
330
D
100
AcDbGroup
300

 70
     1
 71
     1
  0
GROUP
  5
FBFF
102
{ACAD_REACTORS
330
D
102
}
330
D
100
AcDbGroup
300

 70
     1
 71
     1
  0
GROUP
  5
21E86
102
{ACAD_REACTORS
330
D
102
}
330
D
100
AcDbGroup
300

 70
     1
 71
     1
  0
GROUP
  5
20236
102
{ACAD_REACTORS
330
D
102
}
330
D
100
AcDbGroup
300

 70
     1
 71
     1
  0
GROUP
  5
1F904
102
{ACAD_REACTORS
330
D
102
}
330
D
100
AcDbGroup
300

 70
     1
 71
     1
  0
GROUP
  5
23F10
102
{ACAD_REACTORS
330
D
102
}
330
D
100
AcDbGroup
300

 70
     1
 71
     1
  0
GROUP
  5
2342F
102
{ACAD_REACTORS
330
D
102
}
330
D
100
AcDbGroup
300

 70
     1
 71
     1
  0
GROUP
  5
1B729
102
{ACAD_REACTORS
330
D
102
}
330
D
100
AcDbGroup
300

 70
     1
 71
     1
  0
GROUP
  5
18F23
102
{ACAD_REACTORS
330
D
102
}
330
D
100
AcDbGroup
300

 70
     1
 71
     1
  0
GROUP
  5
22A71
102
{ACAD_REACTORS
330
D
102
}
330
D
100
AcDbGroup
300

 70
     1
 71
     1
  0
GROUP
  5
23F0D
102
{ACAD_REACTORS
330
D
102
}
330
D
100
AcDbGroup
300

 70
     1
 71
     1
  0
GROUP
  5
22231
102
{ACAD_REACTORS
330
D
102
}
330
D
100
AcDbGroup
300

 70
     1
 71
     1
  0
GROUP
  5
AC9A
102
{ACAD_REACTORS
330
D
102
}
330
D
100
AcDbGroup
300

 70
     1
 71
     1
  0
GROUP
  5
173BF
102
{ACAD_REACTORS
330
D
102
}
330
D
100
AcDbGroup
300

 70
     1
 71
     1
  0
GROUP
  5
1D698
102
{ACAD_REACTORS
330
D
102
}
330
D
100
AcDbGroup
300

 70
     1
 71
     1
  0
GROUP
  5
23430
102
{ACAD_REACTORS
330
D
102
}
330
D
100
AcDbGroup
300

 70
     1
 71
     1
  0
GROUP
  5
106B3
102
{ACAD_REACTORS
330
D
102
}
330
D
100
AcDbGroup
300

 70
     1
 71
     1
  0
GROUP
  5
1F8F5
102
{ACAD_REACTORS
330
D
102
}
330
D
100
AcDbGroup
300

 70
     1
 71
     1
  0
GROUP
  5
23F0C
102
{ACAD_REACTORS
330
D
102
}
330
D
100
AcDbGroup
300

 70
     1
 71
     1
  0
GROUP
  5
22639
102
{ACAD_REACTORS
330
D
102
}
330
D
100
AcDbGroup
300

 70
     1
 71
     1
  0
GROUP
  5
173BE
102
{ACAD_REACTORS
330
D
102
}
330
D
100
AcDbGroup
300

 70
     1
 71
     1
  0
GROUP
  5
1B744
102
{ACAD_REACTORS
330
D
102
}
330
D
100
AcDbGroup
300

 70
     1
 71
     1
  0
GROUP
  5
23431
102
{ACAD_REACTORS
330
D
102
}
330
D
100
AcDbGroup
300

 70
     1
 71
     1
  0
GROUP
  5
20CA2
102
{ACAD_REACTORS
330
D
102
}
330
D
100
AcDbGroup
300

 70
     1
 71
     1
  0
GROUP
  5
18F20
102
{ACAD_REACTORS
330
D
102
}
330
D
100
AcDbGroup
300

 70
     1
 71
     1
  0
GROUP
  5
23C27
102
{ACAD_REACTORS
330
D
102
}
330
D
100
AcDbGroup
300

 70
     1
 71
     1
  0
GROUP
  5
2284D
102
{ACAD_REACTORS
330
D
102
}
330
D
100
AcDbGroup
300

 70
     1
 71
     1
  0
GROUP
  5
1D67A
102
{ACAD_REACTORS
330
D
102
}
330
D
100
AcDbGroup
300

 70
     1
 71
     1
  0
GROUP
  5
23432
102
{ACAD_REACTORS
330
D
102
}
330
D
100
AcDbGroup
300

 70
     1
 71
     1
  0
GROUP
  5
23F0F
102
{ACAD_REACTORS
330
D
102
}
330
D
100
AcDbGroup
300

 70
     1
 71
     1
  0
GROUP
  5
23C26
102
{ACAD_REACTORS
330
D
102
}
330
D
100
AcDbGroup
300

 70
     1
 71
     1
  0
GROUP
  5
106A5
102
{ACAD_REACTORS
330
D
102
}
330
D
100
AcDbGroup
300

 70
     1
 71
     1
  0
GROUP
  5
20025
102
{ACAD_REACTORS
330
D
102
}
330
D
100
AcDbGroup
300

 70
     1
 71
     1
  0
GROUP
  5
23788
102
{ACAD_REACTORS
330
D
102
}
330
D
100
AcDbGroup
300

 70
     1
 71
     1
  0
GROUP
  5
23F0E
102
{ACAD_REACTORS
330
D
102
}
330
D
100
AcDbGroup
300

 70
     1
 71
     1
  0
GROUP
  5
23C25
102
{ACAD_REACTORS
330
D
102
}
330
D
100
AcDbGroup
300

 70
     1
 71
     1
  0
GROUP
  5
22CA0
102
{ACAD_REACTORS
330
D
102
}
330
D
100
AcDbGroup
300

 70
     1
 71
     1
  0
GROUP
  5
2378A
102
{ACAD_REACTORS
330
D
102
}
330
D
100
AcDbGroup
300

 70
     1
 71
     1
  0
GROUP
  5
23C24
102
{ACAD_REACTORS
330
D
102
}
330
D
100
AcDbGroup
300

 70
     1
 71
     1
  0
GROUP
  5
22CA3
102
{ACAD_REACTORS
330
D
102
}
330
D
100
AcDbGroup
300

 70
     1
 71
     1
  0
GROUP
  5
17B11
102
{ACAD_REACTORS
330
D
102
}
330
D
100
AcDbGroup
300

 70
     1
 71
     1
  0
GROUP
  5
23C23
102
{ACAD_REACTORS
330
D
102
}
330
D
100
AcDbGroup
300

 70
     1
 71
     1
  0
GROUP
  5
231F5
102
{ACAD_REACTORS
330
D
102
}
330
D
100
AcDbGroup
300

 70
     1
 71
     1
  0
GROUP
  5
20022
102
{ACAD_REACTORS
330
D
102
}
330
D
100
AcDbGroup
300

 70
     1
 71
     1
  0
GROUP
  5
2378C
102
{ACAD_REACTORS
330
D
102
}
330
D
100
AcDbGroup
300

 70
     1
 71
     1
340
2362D
340
2362C
340
2362B
340
23620
340
23604
340
23615
340
2361B
340
2361A
340
2361C
340
23619
340
23602
340
23603
  0
GROUP
  5
19786
102
{ACAD_REACTORS
330
D
102
}
330
D
100
AcDbGroup
300

 70
     1
 71
     1
  0
GROUP
  5
2020E
102
{ACAD_REACTORS
330
D
102
}
330
D
100
AcDbGroup
300

 70
     1
 71
     1
  0
GROUP
  5
1D670
102
{ACAD_REACTORS
330
D
102
}
330
D
100
AcDbGroup
300

 70
     1
 71
     1
  0
GROUP
  5
FB6B
102
{ACAD_REACTORS
330
D
102
}
330
D
100
AcDbGroup
300

 70
     1
 71
     1
  0
GROUP
  5
1606B
102
{ACAD_REACTORS
330
D
102
}
330
D
100
AcDbGroup
300

 70
     1
 71
     1
  0
GROUP
  5
1F91D
102
{ACAD_REACTORS
330
D
102
}
330
D
100
AcDbGroup
300

 70
     1
 71
     1
  0
GROUP
  5
22014
102
{ACAD_REACTORS
330
D
102
}
330
D
100
AcDbGroup
300

 70
     1
 71
     1
  0
GROUP
  5
22232
102
{ACAD_REACTORS
330
D
102
}
330
D
100
AcDbGroup
300

 70
     1
 71
     1
  0
GROUP
  5
2263A
102
{ACAD_REACTORS
330
D
102
}
330
D
100
AcDbGroup
300

 70
     1
 71
     1
  0
GROUP
  5
19A5A
102
{ACAD_REACTORS
330
D
102
}
330
D
100
AcDbGroup
300

 70
     1
 71
     1
  0
GROUP
  5
1EB7E
102
{ACAD_REACTORS
330
D
102
}
330
D
100
AcDbGroup
300

 70
     1
 71
     1
  0
GROUP
  5
21D4E
102
{ACAD_REACTORS
330
D
102
}
330
D
100
AcDbGroup
300

 70
     1
 71
     1
  0
GROUP
  5
1B720
102
{ACAD_REACTORS
330
D
102
}
330
D
100
AcDbGroup
300

 70
     1
 71
     1
  0
GROUP
  5
20213
102
{ACAD_REACTORS
330
D
102
}
330
D
100
AcDbGroup
300

 70
     1
 71
     1
  0
GROUP
  5
19F87
102
{ACAD_REACTORS
330
D
102
}
330
D
100
AcDbGroup
300

 70
     1
 71
     1
  0
GROUP
  5
FB6C
102
{ACAD_REACTORS
330
D
102
}
330
D
100
AcDbGroup
300

 70
     1
 71
     1
  0
GROUP
  5
20028
102
{ACAD_REACTORS
330
D
102
}
330
D
100
AcDbGroup
300

 70
     1
 71
     1
  0
GROUP
  5
20CA6
102
{ACAD_REACTORS
330
D
102
}
330
D
100
AcDbGroup
300

 70
     1
 71
     1
  0
GROUP
  5
18F21
102
{ACAD_REACTORS
330
D
102
}
330
D
100
AcDbGroup
300

 70
     1
 71
     1
  0
GROUP
  5
18FA6
102
{ACAD_REACTORS
330
D
102
}
330
D
100
AcDbGroup
300

 70
     1
 71
     1
  0
GROUP
  5
2022C
102
{ACAD_REACTORS
330
D
102
}
330
D
100
AcDbGroup
300

 70
     1
 71
     1
  0
GROUP
  5
17901
102
{ACAD_REACTORS
330
D
102
}
330
D
100
AcDbGroup
300

 70
     1
 71
     1
  0
MLINESTYLE
  5
1C
102
{ACAD_REACTORS
330
1B
102
}
330
1B
100
AcDbMlineStyle
  2
STANDARD
 70
     0
  3

 62
   256
 51
90.0
 52
90.0
 71
     2
 49
0.5
 62
   256
  6
BYLAYER
 49
-0.5
 62
   256
  6
BYLAYER
  0
ACDBPLACEHOLDER
  5
FB5C
102
{ACAD_REACTORS
330
FB5B
102
}
330
FB5B
100
AcDbPlaceHolder
280
     0
  0
XRECORD
  5
24A66
102
{ACAD_REACTORS
330
24A5C
102
}
330
24A5C
100
AcDbXrecord
 90
        0
  0
XRECORD
  5
24A6A
102
{ACAD_REACTORS
330
24A5C
102
}
330
24A5C
100
AcDbXrecord
1000
DSTYLE
1002
{
1070
    79
 70
     2
1070
   289
 70
     1
1070
   341
340
1215D
1070
   342
340
1215D
1070
   371
 70
    13
1070
   372
 70
    13
1002
}
  0
XRECORD
  5
24A67
102
{ACAD_REACTORS
330
24A5C
102
}
330
24A5C
100
AcDbXrecord
  1
{D14EE3FF-941A-415A-9907-344E0A80D794}
  0
XRECORD
  5
24A5F
102
{ACAD_REACTORS
330
24A5C
102
}
330
24A5C
100
AcDbXrecord
  1

  0
XRECORD
  5
24A65
102
{ACAD_REACTORS
330
24A5C
102
}
330
24A5C
100
AcDbXrecord
 90
        0
  0
XRECORD
  5
24A61
102
{ACAD_REACTORS
330
24A5C
102
}
330
24A5C
100
AcDbXrecord
340
DB2
  0
XRECORD
  5
24A64
102
{ACAD_REACTORS
330
24A5C
102
}
330
24A5C
100
AcDbXrecord
 90
    10781
  0
XRECORD
  5
24A62
102
{ACAD_REACTORS
330
24A5C
102
}
330
24A5C
100
AcDbXrecord
340
DB3
  0
XRECORD
  5
24A63
102
{ACAD_REACTORS
330
24A5C
102
}
330
24A5C
100
AcDbXrecord
340
FB5B
  0
XRECORD
  5
24A69
102
{ACAD_REACTORS
330
24A5C
102
}
330
24A5C
100
AcDbXrecord
 40
0.0
  0
XRECORD
  5
24A6D
102
{ACAD_REACTORS
330
24A5C
102
}
330
24A5C
100
AcDbXrecord
340
0
  0
XRECORD
  5
24A73
102
{ACAD_REACTORS
330
24A5C
102
}
330
24A5C
100
AcDbXrecord
 10
0.0
 20
0.0
 30
0.0
  0
XRECORD
  5
24A6F
102
{ACAD_REACTORS
330
24A5C
102
}
330
24A5C
100
AcDbXrecord
 10
0.0
 20
0.0
 30
0.0
  0
XRECORD
  5
24A72
102
{ACAD_REACTORS
330
24A5C
102
}
330
24A5C
100
AcDbXrecord
 10
0.0
 20
0.0
 30
0.0
  0
XRECORD
  5
24A70
102
{ACAD_REACTORS
330
24A5C
102
}
330
24A5C
100
AcDbXrecord
 10
0.0
 20
0.0
 30
0.0
  0
XRECORD
  5
24A71
102
{ACAD_REACTORS
330
24A5C
102
}
330
24A5C
100
AcDbXrecord
 10
0.0
 20
0.0
 30
0.0
  0
XRECORD
  5
24A6E
102
{ACAD_REACTORS
330
24A5C
102
}
330
24A5C
100
AcDbXrecord
 10
0.0
 20
0.0
 30
0.0
  0
XRECORD
  5
24A6B
102
{ACAD_REACTORS
330
24A5C
102
}
330
24A5C
100
AcDbXrecord
340
0
  0
XRECORD
  5
24A6C
102
{ACAD_REACTORS
330
24A5C
102
}
330
24A5C
100
AcDbXrecord
 70
     0
  0
XRECORD
  5
24A60
102
{ACAD_REACTORS
330
24A5C
102
}
330
24A5C
100
AcDbXrecord
  1
monochrome.ctb
  0
XRECORD
  5
24A5D
102
{ACAD_REACTORS
330
24A5C
102
}
330
24A5C
100
AcDbXrecord
 90
        1
  0
XRECORD
  5
24A5E
102
{ACAD_REACTORS
330
24A5C
102
}
330
24A5C
100
AcDbXrecord
 90
       70
  0
XRECORD
  5
24A76
102
{ACAD_REACTORS
330
24A5C
102
}
330
24A5C
100
AcDbXrecord
340
0
  0
XRECORD
  5
24A7C
102
{ACAD_REACTORS
330
24A5C
102
}
330
24A5C
100
AcDbXrecord
 10
0.0
 20
0.0
 30
0.0
  0
XRECORD
  5
24A78
102
{ACAD_REACTORS
330
24A5C
102
}
330
24A5C
100
AcDbXrecord
 10
0.0
 20
0.0
 30
0.0
  0
XRECORD
  5
24A7B
102
{ACAD_REACTORS
330
24A5C
102
}
330
24A5C
100
AcDbXrecord
 10
0.0
 20
0.0
 30
0.0
  0
XRECORD
  5
24A79
102
{ACAD_REACTORS
330
24A5C
102
}
330
24A5C
100
AcDbXrecord
 10
0.0
 20
0.0
 30
0.0
  0
XRECORD
  5
24A7A
102
{ACAD_REACTORS
330
24A5C
102
}
330
24A5C
100
AcDbXrecord
 10
0.0
 20
0.0
 30
0.0
  0
XRECORD
  5
24A77
102
{ACAD_REACTORS
330
24A5C
102
}
330
24A5C
100
AcDbXrecord
 10
0.0
 20
0.0
 30
0.0
  0
XRECORD
  5
24A74
102
{ACAD_REACTORS
330
24A5C
102
}
330
24A5C
100
AcDbXrecord
340
0
  0
XRECORD
  5
24A75
102
{ACAD_REACTORS
330
24A5C
102
}
330
24A5C
100
AcDbXrecord
 70
     0
  0
XRECORD
  5
24A68
102
{ACAD_REACTORS
330
24A5C
102
}
330
24A5C
100
AcDbXrecord
  1
{B6878841-F977-461E-AE6B-D78AD2F742BA}
  0
DICTIONARYVAR
  5
106A7
102
{ACAD_REACTORS
330
106A6
102
}
330
106A6
100
DictionaryVariables
280
     0
  1
96
  0
XRECORD
  5
1A9A1
102
{ACAD_REACTORS
330
1A99F
102
}
330
1A99F
100
AcDbXrecord
330
187D7
330
0
330
0
330
0
330
0
330
0
330
0
330
0
330
0
330
0
330
0
330
115F
330
0
330
0
330
0
330
0
330
0
330
0
330
0
330
0
330
0
330
0
330
0
330
0
330
0
330
0
330
0
330
0
330
0
330
0
330
0
330
0
330
0
330
0
330
0
330
0
330
0
330
0
330
0
330
0
330
0
330
0
330
0
330
0
  0
XRECORD
  5
24541
102
{ACAD_REACTORS
330
24540
102
}
330
24540
100
AcDbXrecord
  1
0
  1
*0
  1
*
  1
*
 70
     0
  1
*
  1
*
  0
XRECORD
  5
24542
102
{ACAD_REACTORS
330
24540
102
}
330
24540
100
AcDbXrecord
  1
11
  1
*11
  1
*
  1
*
 70
     0
  1
*
  1
*
  0
XRECORD
  5
24543
102
{ACAD_REACTORS
330
24540
102
}
330
24540
100
AcDbXrecord
  1
150_
  1
150_*
  1
*
  1
*
 70
     0
  1
*
  1
*
  0
XRECORD
  5
24544
102
{ACAD_REACTORS
330
24540
102
}
330
24540
100
AcDbXrecord
  1
160_
  1
160_*
  1
*
  1
*
 70
     0
  1
*
  1
*
  0
XRECORD
  5
24545
102
{ACAD_REACTORS
330
24540
102
}
330
24540
100
AcDbXrecord
  1
170_
  1
170_*
  1
*
  1
*
 70
     0
  1
*
  1
*
  0
XRECORD
  5
24546
102
{ACAD_REACTORS
330
24540
102
}
330
24540
100
AcDbXrecord
  1
171_
  1
171_*
  1
*
  1
*
 70
     0
  1
*
  1
*
  0
XRECORD
  5
24547
102
{ACAD_REACTORS
330
24540
102
}
330
24540
100
AcDbXrecord
  1
350_
  1
350_*
  1
*
  1
*
 70
     0
  1
*
  1
*
  0
XRECORD
  5
24548
102
{ACAD_REACTORS
330
24540
102
}
330
24540
100
AcDbXrecord
  1
4
  1
*4
  1
*
  1
*
 70
     0
  1
*
  1
*
  0
XRECORD
  5
24549
102
{ACAD_REACTORS
330
24540
102
}
330
24540
100
AcDbXrecord
  1
5
  1
*5
  1
*
  1
*
 70
     0
  1
*
  1
*
  0
XRECORD
  5
2454A
102
{ACAD_REACTORS
330
24540
102
}
330
24540
100
AcDbXrecord
  1
7
  1
*7
  1
*
  1
*
 70
     0
  1
*
  1
*
  0
XRECORD
  5
2454B
102
{ACAD_REACTORS
330
24540
102
}
330
24540
100
AcDbXrecord
  1
kiseki
  1
kiseki*
  1
*
  1
*
 70
     0
  1
*
  1
*
  0
ENDSEC
  0
EOF
