  0
SECTION
  2
HEADER
  9
$ACADVER
  1
AC1014
  9
$ACADMAINTVER
 70
     9
  9
$DWGCODEPAGE
  3
ANSI_932
  9
$INSBASE
 10
0.0
 20
0.0
 30
0.0
  9
$EXTMIN
 10
-3018.000706413845
 20
-354.6103389001277
 30
0.0
  9
$EXTMAX
 10
-2793.078789729958
 20
-210.3653715038544
 30
0.0
  9
$LIMMIN
 10
0.0
 20
0.0
  9
$LIMMAX
 10
420.0
 20
297.0
  9
$ORTHOMODE
 70
     1
  9
$REGENMODE
 70
     1
  9
$FILLMODE
 70
     1
  9
$QTEXTMODE
 70
     0
  9
$MIRRTEXT
 70
     0
  9
$DRAGMODE
 70
     2
  9
$LTSCALE
 40
20.0
  9
$OSMODE
 70
    37
  9
$ATTMODE
 70
     2
  9
$TEXTSIZE
 40
10.0
  9
$TRACEWID
 40
1.0
  9
$TEXTSTYLE
  7
ｽﾀｲﾙ3
  9
$CLAYER
  8
実線
  9
$CELTYPE
  6
BYLAYER
  9
$CECOLOR
 62
   256
  9
$CELTSCALE
 40
1.0
  9
$DELOBJ
 70
     1
  9
$DISPSILH
 70
     0
  9
$DIMSCALE
 40
1.0
  9
$DIMASZ
 40
2.5
  9
$DIMEXO
 40
0.8
  9
$DIMDLI
 40
0.38
  9
$DIMRND
 40
0.0
  9
$DIMDLE
 40
0.0
  9
$DIMEXE
 40
0.18
  9
$DIMTP
 40
0.0
  9
$DIMTM
 40
0.0
  9
$DIMTXT
 40
3.0
  9
$DIMCEN
 40
0.0
  9
$DIMTSZ
 40
0.0
  9
$DIMTOL
 70
     0
  9
$DIMLIM
 70
     0
  9
$DIMTIH
 70
     0
  9
$DIMTOH
 70
     0
  9
$DIMSE1
 70
     0
  9
$DIMSE2
 70
     0
  9
$DIMTAD
 70
     3
  9
$DIMZIN
 70
     8
  9
$DIMBLK
  1
OPEN30
  9
$DIMASO
 70
     1
  9
$DIMSHO
 70
     1
  9
$DIMPOST
  1

  9
$DIMAPOST
  1

  9
$DIMALT
 70
     0
  9
$DIMALTD
 70
     2
  9
$DIMALTF
 40
25.4
  9
$DIMLFAC
 40
1.0
  9
$DIMTOFL
 70
     0
  9
$DIMTVP
 40
0.0
  9
$DIMTIX
 70
     0
  9
$DIMSOXD
 70
     0
  9
$DIMSAH
 70
     0
  9
$DIMBLK1
  1

  9
$DIMBLK2
  1

  9
$DIMSTYLE
  2
まこ
  9
$DIMCLRD
 70
     4
  9
$DIMCLRE
 70
     4
  9
$DIMCLRT
 70
     7
  9
$DIMTFAC
 40
1.0
  9
$DIMGAP
 40
0.5
  9
$DIMJUST
 70
     0
  9
$DIMSD1
 70
     0
  9
$DIMSD2
 70
     0
  9
$DIMTOLJ
 70
     1
  9
$DIMTZIN
 70
     0
  9
$DIMALTZ
 70
     0
  9
$DIMALTTZ
 70
     0
  9
$DIMFIT
 70
     3
  9
$DIMUPT
 70
     0
  9
$DIMUNIT
 70
     2
  9
$DIMDEC
 70
     2
  9
$DIMTDEC
 70
     2
  9
$DIMALTU
 70
     2
  9
$DIMALTTD
 70
     2
  9
$DIMTXSTY
  7
まこ
  9
$DIMAUNIT
 70
     0
  9
$LUNITS
 70
     2
  9
$LUPREC
 70
     4
  9
$SKETCHINC
 40
1.0
  9
$FILLETRAD
 40
1.0
  9
$AUNITS
 70
     0
  9
$AUPREC
 70
     0
  9
$MENU
  1
.
  9
$ELEVATION
 40
0.0
  9
$PELEVATION
 40
0.0
  9
$THICKNESS
 40
0.0
  9
$LIMCHECK
 70
     0
  9
$BLIPMODE
 70
     0
  9
$CHAMFERA
 40
0.5
  9
$CHAMFERB
 40
0.5
  9
$CHAMFERC
 40
20.0
  9
$CHAMFERD
 40
0.0
  9
$SKPOLY
 70
     0
  9
$TDCREATE
 40
2451224.660162384
  9
$TDUPDATE
 40
2455638.673337488
  9
$TDINDWG
 40
16.5253609144
  9
$TDUSRTIMER
 40
16.5253609144
  9
$USRTIMER
 70
     1
  9
$ANGBASE
 50
0.0
  9
$ANGDIR
 70
     0
  9
$PDMODE
 70
     0
  9
$PDSIZE
 40
0.0
  9
$PLINEWID
 40
0.0
  9
$COORDS
 70
     0
  9
$SPLFRAME
 70
     0
  9
$SPLINETYPE
 70
     6
  9
$SPLINESEGS
 70
     8
  9
$ATTDIA
 70
     0
  9
$ATTREQ
 70
     1
  9
$HANDLING
 70
-16383
  9
$HANDSEED
  5
246F6
  9
$SURFTAB1
 70
     6
  9
$SURFTAB2
 70
     6
  9
$SURFTYPE
 70
     6
  9
$SURFU
 70
     6
  9
$SURFV
 70
     6
  9
$UCSNAME
  2

  9
$UCSORG
 10
0.0
 20
0.0
 30
0.0
  9
$UCSXDIR
 10
1.0
 20
0.0
 30
0.0
  9
$UCSYDIR
 10
0.0
 20
1.0
 30
0.0
  9
$PUCSNAME
  2

  9
$PUCSORG
 10
0.0
 20
0.0
 30
0.0
  9
$PUCSXDIR
 10
1.0
 20
0.0
 30
0.0
  9
$PUCSYDIR
 10
0.0
 20
1.0
 30
0.0
  9
$USERI1
 70
     0
  9
$USERI2
 70
     0
  9
$USERI3
 70
     0
  9
$USERI4
 70
     0
  9
$USERI5
 70
     0
  9
$USERR1
 40
245.9999999999999
  9
$USERR2
 40
0.0
  9
$USERR3
 40
0.0
  9
$USERR4
 40
0.0
  9
$USERR5
 40
0.0
  9
$WORLDVIEW
 70
     1
  9
$SHADEDGE
 70
     3
  9
$SHADEDIF
 70
    70
  9
$TILEMODE
 70
     0
  9
$MAXACTVP
 70
    48
  9
$PINSBASE
 10
0.0
 20
0.0
 30
0.0
  9
$PLIMCHECK
 70
     0
  9
$PEXTMIN
 10
0.0
 20
0.0
 30
0.0
  9
$PEXTMAX
 10
400.0
 20
288.0
 30
0.0
  9
$PLIMMIN
 10
-8.54435701390874
 20
-8.544587047691919
  9
$PLIMMAX
 10
422.8837925688851
 20
296.5428952483027
  9
$UNITMODE
 70
     0
  9
$VISRETAIN
 70
     1
  9
$PLINEGEN
 70
     0
  9
$PSLTSCALE
 70
     0
  9
$TREEDEPTH
 70
  3020
  9
$PICKSTYLE
 70
     0
  9
$CMLSTYLE
  2
STANDARD
  9
$CMLJUST
 70
     0
  9
$CMLSCALE
 40
20.0
  9
$PROXYGRAPHICS
 70
     1
  9
$MEASUREMENT
 70
     0
  0
ENDSEC
  0
SECTION
  2
CLASSES
  0
CLASS
  1
HATCH
  2
AcDbHatch
  3
AutoCAD 2000
 90
        0
280
     0
281
     1
  0
CLASS
  1
LWPOLYLINE
  2
AcDbPolyline
  3
AutoCAD 2000
 90
        0
280
     0
281
     1
  0
CLASS
  1
ACDBDICTIONARYWDFLT
  2
AcDbDictionaryWithDefault
  3
AutoCAD 2000
 90
        0
280
     0
281
     0
  0
CLASS
  1
ACDBPLACEHOLDER
  2
AcDbPlaceHolder
  3
AutoCAD 2000
 90
        0
280
     0
281
     0
  0
CLASS
  1
LAYOUT
  2
AcDbLayout
  3
AutoCAD 2000
 90
        0
280
     0
281
     0
  0
CLASS
  1
LONG_TRANSACTION
  2
AcDbLongTransaction
  3
AutoCAD 2000
 90
        0
280
     0
281
     0
  0
CLASS
  1
LWPOLYLINE
  2
AcDbPolyline
  3
AutoCAD 2000
 90
        0
280
     0
281
     1
  0
CLASS
  1
HATCH
  2
AcDbHatch
  3
AutoCAD 2000
 90
        0
280
     0
281
     1
  0
CLASS
  1
XRECORD
  2
AcDbXrecord
  3
AutoCAD 2000
 90
        0
280
     0
281
     0
  0
CLASS
  1
DICTIONARYVAR
  2
AcDbDictionaryVar
  3
AutoCAD 2000
 90
        0
280
     0
281
     0
  0
CLASS
  1
LONG_TRANSACTION
  2
AcDbLongTransaction
  3
AutoCAD 2000
 90
        0
280
     0
281
     0
  0
CLASS
  1
LWPOLYLINE
  2
AcDbPolyline
  3
AutoCAD 2000
 90
        0
280
     0
281
     1
  0
CLASS
  1
HATCH
  2
AcDbHatch
  3
AutoCAD 2000
 90
        0
280
     0
281
     1
  0
CLASS
  1
XRECORD
  2
AcDbXrecord
  3
AutoCAD 2000
 90
        0
280
     0
281
     0
  0
CLASS
  1
LONG_TRANSACTION
  2
AcDbLongTransaction
  3
AutoCAD 2000
 90
        0
280
     0
281
     0
  0
CLASS
  1
LWPOLYLINE
  2
AcDbPolyline
  3
AutoCAD 2000
 90
        0
280
     0
281
     1
  0
CLASS
  1
HATCH
  2
AcDbHatch
  3
AutoCAD 2000
 90
        0
280
     0
281
     1
  0
CLASS
  1
XRECORD
  2
AcDbXrecord
  3
AutoCAD 2000
 90
        0
280
     0
281
     0
  0
ENDSEC
  0
SECTION
  2
TABLES
  0
TABLE
  2
VPORT
  5
8
330
0
100
AcDbSymbolTable
 70
     2
  0
VPORT
  5
2468C
330
8
100
AcDbSymbolTableRecord
100
AcDbViewportTableRecord
  2
*ACTIVE
 70
     0
 10
0.0
 20
0.0
 11
1.0
 21
1.0
 12
-2905.586627061357
 22
-282.4938536790911
 13
0.0
 23
0.0
 14
10.0
 24
10.0
 15
10.0
 25
10.0
 16
0.0
 26
0.0
 36
1.0
 17
0.0
 27
0.0
 37
0.0
 40
148.0267249664174
 41
1.527918781725888
 42
50.0
 43
0.0
 44
0.0
 50
0.0
 51
0.0
 71
     0
 72
   100
 73
     1
 74
     0
 75
     0
 76
     0
 77
     0
 78
     0
  0
ENDTAB
  0
TABLE
  2
LTYPE
  5
5
330
0
100
AcDbSymbolTable
 70
     6
  0
LTYPE
  5
12
330
5
100
AcDbSymbolTableRecord
100
AcDbLinetypeTableRecord
  2
BYBLOCK
 70
     0
  3

 72
    65
 73
     0
 40
0.0
  0
LTYPE
  5
13
330
5
100
AcDbSymbolTableRecord
100
AcDbLinetypeTableRecord
  2
BYLAYER
 70
     0
  3

 72
    65
 73
     0
 40
0.0
  0
LTYPE
  5
14
330
5
100
AcDbSymbolTableRecord
100
AcDbLinetypeTableRecord
  2
CONTINUOUS
 70
     0
  3
Solid line
 72
    65
 73
     0
 40
0.0
  0
LTYPE
  5
126C
330
5
100
AcDbSymbolTableRecord
100
AcDbLinetypeTableRecord
  2
CENTER
 70
     0
  3
____ _ ____ _ ____ _ ____ _ ____ _ ____ _ ____
 72
    65
 73
     4
 40
2.0
 49
1.25
 74
     0
 49
-0.25
 74
     0
 49
0.25
 74
     0
 49
-0.25
 74
     0
  0
LTYPE
  5
126E
330
5
100
AcDbSymbolTableRecord
100
AcDbLinetypeTableRecord
  2
DASHDOT
 70
     0
  3
__ . __ . __ . __ . __ . __ . __ . __ . __ . __
 72
    65
 73
     4
 40
1.0
 49
0.5
 74
     0
 49
-0.25
 74
     0
 49
0.0
 74
     0
 49
-0.25
 74
     0
  0
LTYPE
  5
1541F
330
5
100
AcDbSymbolTableRecord
100
AcDbLinetypeTableRecord
  2
HIDDEN
 70
     0
  3
_ _ _ _ _ _ _ _ _ _ _ _ _ _ _ _ _ _ _ _ _ _ _
 72
    65
 73
     2
 40
0.375
 49
0.25
 74
     0
 49
-0.125
 74
     0
  0
LTYPE
  5
15420
330
5
100
AcDbSymbolTableRecord
100
AcDbLinetypeTableRecord
  2
CENTER2
 70
     0
  3
Center (.5x) ___ _ ___ _ ___ _ ___ _ ___ _ ___
 72
    65
 73
     4
 40
1.125
 49
0.75
 74
     0
 49
-0.125
 74
     0
 49
0.125
 74
     0
 49
-0.125
 74
     0
  0
LTYPE
  5
1615D
330
5
100
AcDbSymbolTableRecord
100
AcDbLinetypeTableRecord
  2
PHANTOM
 70
     0
  3
Phantom ______  __  __  ______  __  __  ______
 72
    65
 73
     6
 40
2.5
 49
1.25
 74
     0
 49
-0.25
 74
     0
 49
0.25
 74
     0
 49
-0.25
 74
     0
 49
0.25
 74
     0
 49
-0.25
 74
     0
  0
ENDTAB
  0
TABLE
  2
LAYER
  5
2
102
{ACAD_XDICTIONARY
360
243B5
102
}
330
0
100
AcDbSymbolTable
 70
    12
  0
LAYER
  5
E
330
2
100
AcDbSymbolTableRecord
100
AcDbLayerTableRecord
  2
0
 70
     2
 62
     7
  6
CONTINUOUS
  0
LAYER
  5
2C
330
2
100
AcDbSymbolTableRecord
100
AcDbLayerTableRecord
  2
M_VIEW
 70
     4
 62
    -1
  6
CONTINUOUS
  0
LAYER
  5
30
330
2
100
AcDbSymbolTableRecord
100
AcDbLayerTableRecord
  2
FRAME025
 70
     0
 62
     7
  6
CONTINUOUS
  0
LAYER
  5
12B
330
2
100
AcDbSymbolTableRecord
100
AcDbLayerTableRecord
  2
DEFPOINTS
 70
     4
 62
    -7
  6
CONTINUOUS
  0
LAYER
  5
651
330
2
100
AcDbSymbolTableRecord
100
AcDbLayerTableRecord
  2
FRAME020
 70
     0
 62
     7
  6
CONTINUOUS
  0
LAYER
  5
1271
330
2
100
AcDbSymbolTableRecord
100
AcDbLayerTableRecord
  2
A
 70
     0
 62
     7
  6
CONTINUOUS
  0
LAYER
  5
A9BB
330
2
100
AcDbSymbolTableRecord
100
AcDbLayerTableRecord
  2
文字
 70
     0
 62
     7
  6
CONTINUOUS
  0
LAYER
  5
122DE
330
2
100
AcDbSymbolTableRecord
100
AcDbLayerTableRecord
  2
DIMENSION
 70
     0
 62
     7
  6
CONTINUOUS
  0
LAYER
  5
15422
330
2
100
AcDbSymbolTableRecord
100
AcDbLayerTableRecord
  2
細線
 70
     0
 62
     7
  6
CONTINUOUS
  0
LAYER
  5
15425
330
2
100
AcDbSymbolTableRecord
100
AcDbLayerTableRecord
  2
中心線
 70
     0
 62
     7
  6
CENTER2
  0
LAYER
  5
1615E
330
2
100
AcDbSymbolTableRecord
100
AcDbLayerTableRecord
  2
２点鎖線
 70
     0
 62
     7
  6
PHANTOM
  0
LAYER
  5
1A846
330
2
100
AcDbSymbolTableRecord
100
AcDbLayerTableRecord
  2
実線
 70
     0
 62
     7
  6
CONTINUOUS
  0
ENDTAB
  0
TABLE
  2
STYLE
  5
3
330
0
100
AcDbSymbolTable
 70
     7
  0
STYLE
  5
F
330
3
100
AcDbSymbolTableRecord
100
AcDbTextStyleTableRecord
  2
STANDARD
 70
     0
 40
0.0
 41
1.0
 50
0.0
 71
     0
 42
2.5
  3
isocp.shx
  4
bigfont.shx
  0
STYLE
  5
35
330
3
100
AcDbSymbolTableRecord
100
AcDbTextStyleTableRecord
  2
MSｺ_ｼｯｸ
 70
     0
 40
0.0
 41
1.0
 50
0.0
 71
     0
 42
5.0
  3
MS Gothic.ttf
  4

1001
ACAD
1000
MS Gothic
1071
    32817
  0
STYLE
  5
1275
330
3
100
AcDbSymbolTableRecord
100
AcDbTextStyleTableRecord
  2
BIGFONT
 70
     0
 40
2.0
 41
1.0
 50
0.0
 71
     0
 42
2.0
  3
txt.shx
  4
bigfont.shx
  0
STYLE
  5
1A849
330
3
100
AcDbSymbolTableRecord
100
AcDbTextStyleTableRecord
  2
まこ
 70
     0
 40
0.0
 41
1.0
 50
0.0
 71
     0
 42
2.5
  3
simplex.shx
  4
bigfont.shx
  0
STYLE
  5
1A84A
330
3
100
AcDbSymbolTableRecord
100
AcDbTextStyleTableRecord
  2
ｽﾀｲﾙ3
 70
     0
 40
10.0
 41
1.0
 50
0.0
 71
     0
 42
10.0
  3
isocp.shx
  4
extfont.shx
  0
ENDTAB
  0
TABLE
  2
VIEW
  5
6
330
0
100
AcDbSymbolTable
 70
     0
  0
ENDTAB
  0
TABLE
  2
UCS
  5
7
330
0
100
AcDbSymbolTable
 70
     0
  0
ENDTAB
  0
TABLE
  2
APPID
  5
9
330
0
100
AcDbSymbolTable
 70
     4
  0
APPID
  5
10
330
9
100
AcDbSymbolTableRecord
100
AcDbRegAppTableRecord
  2
ACAD
 70
     0
  0
APPID
  5
F013
330
9
100
AcDbSymbolTableRecord
100
AcDbRegAppTableRecord
  2
CONTENTBLOCKDESCRIPTION
 70
     0
  0
APPID
  5
F014
330
9
100
AcDbSymbolTableRecord
100
AcDbRegAppTableRecord
  2
CONTENTBLOCKICON
 70
     0
  0
APPID
  5
1A9A0
330
9
100
AcDbSymbolTableRecord
100
AcDbRegAppTableRecord
  2
DCO15
 70
     0
  0
ENDTAB
  0
TABLE
  2
DIMSTYLE
  5
A
330
0
100
AcDbSymbolTable
 70
     2
  0
DIMSTYLE
105
1D
330
A
100
AcDbSymbolTableRecord
100
AcDbDimStyleTableRecord
  2
STANDARD
 70
     0
  3

  4

  5

  6

  7

 40
1.0
 41
0.18
 42
0.0625
 43
0.38
 44
0.18
 45
0.0
 46
0.0
 47
0.0
 48
0.0
140
0.18
141
0.09
142
0.0
143
25.4
144
1.0
145
0.0
146
1.0
147
0.09
 71
     0
 72
     0
 73
     1
 74
     1
 75
     0
 76
     0
 77
     0
 78
     0
170
     0
171
     2
172
     0
173
     0
174
     0
175
     0
176
     0
177
     0
178
     0
270
     2
271
     4
272
     4
273
     2
274
     2
340
F
275
     0
280
     0
281
     0
282
     0
283
     1
284
     0
285
     0
286
     0
287
     3
288
     0
  0
DIMSTYLE
105
1A84D
102
{ACAD_REACTORS
330
215E2
330
216B2
102
}
330
A
100
AcDbSymbolTableRecord
100
AcDbDimStyleTableRecord
  2
まこ
 70
     0
  3

  4

  5
OPEN30
  6

  7

 40
1.0
 41
2.5
 42
0.8
 43
0.38
 44
0.18
 45
0.0
 46
0.0
 47
0.0
 48
0.0
140
3.0
141
0.0
142
0.0
143
25.4
144
1.0
145
0.0
146
1.0
147
0.5
 71
     0
 72
     0
 73
     0
 74
     0
 75
     0
 76
     0
 77
     3
 78
     8
170
     0
171
     2
172
     0
173
     0
174
     0
175
     0
176
     4
177
     4
178
     7
270
     2
271
     2
272
     2
273
     2
274
     2
340
1A849
275
     0
280
     0
281
     0
282
     0
283
     1
284
     0
285
     0
286
     0
287
     3
288
     0
  0
ENDTAB
  0
TABLE
  2
BLOCK_RECORD
  5
1
330
0
100
AcDbSymbolTable
 70
    25
  0
BLOCK_RECORD
  5
18
102
{ACAD_XDICTIONARY
360
EFC6
102
}
330
1
100
AcDbSymbolTableRecord
100
AcDbBlockTableRecord
  2
*MODEL_SPACE
  0
BLOCK_RECORD
  5
15
102
{ACAD_XDICTIONARY
360
EFC4
102
}
330
1
100
AcDbSymbolTableRecord
100
AcDbBlockTableRecord
  2
*PAPER_SPACE
  0
BLOCK_RECORD
  5
115C
330
1
100
AcDbSymbolTableRecord
100
AcDbBlockTableRecord
  2
機械A4横_LBP
  0
BLOCK_RECORD
  5
1215D
330
1
100
AcDbSymbolTableRecord
100
AcDbBlockTableRecord
  2
_OPEN30
  0
ENDTAB
  0
ENDSEC
  0
SECTION
  2
BLOCKS
  0
BLOCK
  5
19
330
18
100
AcDbEntity
  8
0
100
AcDbBlockBegin
  2
*MODEL_SPACE
 70
     0
 10
0.0
 20
0.0
 30
0.0
  3
*MODEL_SPACE
  1

  0
ENDBLK
  5
1A
330
18
100
AcDbEntity
  8
0
100
AcDbBlockEnd
  0
BLOCK
  5
16
330
15
100
AcDbEntity
 67
     1
  8
0
100
AcDbBlockBegin
  2
*PAPER_SPACE
 70
     0
 10
0.0
 20
0.0
 30
0.0
  3
*PAPER_SPACE
  1

  0
ENDBLK
  5
17
330
15
100
AcDbEntity
 67
     1
  8
0
100
AcDbBlockEnd
  0
BLOCK
  5
115D
330
115C
100
AcDbEntity
  8
0
100
AcDbBlockBegin
  2
機械A4横_LBP
 70
     0
 10
0.0
 20
0.0
 30
0.0
  3
機械A4横_LBP
  1

  0
ENDBLK
  5
115E
330
115C
100
AcDbEntity
  8
0
100
AcDbBlockEnd
  0
BLOCK
  5
12161
330
1215D
100
AcDbEntity
  8
0
100
AcDbBlockBegin
  2
_OPEN30
 70
     0
 10
0.0
 20
0.0
 30
0.0
  3
_OPEN30
  1

  0
LINE
  5
1215E
330
1215D
100
AcDbEntity
  8
0
  6
BYBLOCK
 62
     0
100
AcDbLine
 10
-1.0
 20
0.26794919
 30
0.0
 11
0.0
 21
0.0
 31
0.0
  0
LINE
  5
1215F
330
1215D
100
AcDbEntity
  8
0
  6
BYBLOCK
 62
     0
100
AcDbLine
 10
0.0
 20
0.0
 30
0.0
 11
-1.0
 21
-0.26794919
 31
0.0
  0
LINE
  5
12160
330
1215D
100
AcDbEntity
  8
0
  6
BYBLOCK
 62
     0
100
AcDbLine
 10
0.0
 20
0.0
 30
0.0
 11
-1.0
 21
0.0
 31
0.0
  0
ENDBLK
  5
12162
330
1215D
100
AcDbEntity
  8
0
100
AcDbBlockEnd
  0
ENDSEC
  0
SECTION
  2
ENTITIES
  0
MTEXT
  5
176FC
330
18
100
AcDbEntity
  8
DIMENSION
 62
     2
100
AcDbMText
 10
-100.7823601383244
 20
171.6213144128389
 30
0.0
 40
8.0
 41
0.0
 71
     4
 72
     1
  1

1001
ACAD
1000
MTEXTBEGIN
1070
    73
1070
     1
1070
    44
1040
1.0
1070
    74
1070
     0
1000
MTEXTEND
1000
MTEXTBEGIN
1070
    73
1070
     1
1070
    44
1040
1.0
1070
    74
1070
     0
1000
MTEXTEND
  0
TEXT
  5
187C8
330
18
100
AcDbEntity
  8
A
100
AcDbText
 10
27.08248755054501
 20
1784.547672862095
 30
0.0
 40
2.5
  1

  7
MSｺ_ｼｯｸ
100
AcDbText
  0
TEXT
  5
187C9
330
18
100
AcDbEntity
  8
A
100
AcDbText
 10
19.25748755054502
 20
1784.547672862095
 30
0.0
 40
2.5
  1

 41
0.5
  7
MSｺ_ｼｯｸ
100
AcDbText
  0
TEXT
  5
187CA
330
18
100
AcDbEntity
  8
A
100
AcDbText
 10
167.1825875009164
 20
2214.514692980458
 30
0.0
 40
3.524999999999999
  1
�    
100
AcDbText
  0
MTEXT
  5
187CB
330
18
100
AcDbEntity
  8
0
  6
BYBLOCK
100
AcDbMText
 10
325.4874764241681
 20
2232.511722574347
 30
0.0
 40
2.0
 41
0.0
 71
     4
 72
     5
  1

 11
-0.0000000000000002
 21
-1.0
 31
0.0
1001
ACAD
1000
MTEXTBEGIN
1070
    73
1070
     1
1070
    44
1040
1.0
1070
    74
1070
     0
1000
MTEXTEND
1000
MTEXTBEGIN
1070
    73
1070
     1
1070
    44
1040
1.0
1070
    74
1070
     0
1000
MTEXTEND
1000
MTEXTBEGIN
1070
    73
1070
     1
1070
    44
1040
1.0
1070
    74
1070
     0
1000
MTEXTEND
  0
MTEXT
  5
187CC
330
18
100
AcDbEntity
  8
0
  6
BYBLOCK
100
AcDbMText
 10
360.9528647873208
 20
2221.718414215929
 30
0.0
 40
2.0
 41
0.0
 71
     7
 72
     5
  1

 11
0.0000000000000001
 21
1.0
 31
0.0
1001
ACAD
1000
MTEXTBEGIN
1070
    73
1070
     1
1070
    44
1040
1.0
1070
    74
1070
     0
1000
MTEXTEND
1000
MTEXTBEGIN
1070
    73
1070
     1
1070
    44
1040
1.0
1070
    74
1070
     0
1000
MTEXTEND
1000
MTEXTBEGIN
1070
    73
1070
     1
1070
    44
1040
1.0
1070
    74
1070
     0
1000
MTEXTEND
  0
MTEXT
  5
187CD
330
18
100
AcDbEntity
  8
0
100
AcDbMText
 10
325.1733668026532
 20
2146.938903673639
 30
0.0
 40
2.0
 41
10.1453
 71
     1
 72
     5
  1

 11
-0.0000000000000002
 21
-1.0
 31
0.0
1001
ACAD
1000
MTEXTBEGIN
1070
    73
1070
     1
1070
    44
1040
1.0
1070
    74
1070
     0
1000
MTEXTEND
1000
MTEXTBEGIN
1070
    73
1070
     1
1070
    44
1040
1.0
1070
    74
1070
     0
1000
MTEXTEND
1000
MTEXTBEGIN
1070
    73
1070
     1
1070
    44
1040
1.0
1070
    74
1070
     0
1000
MTEXTEND
  0
MTEXT
  5
187CE
330
18
100
AcDbEntity
  8
0
100
AcDbMText
 10
280.7738750495033
 20
2115.30742008065
 30
0.0
 40
2.0
 41
0.0
 71
     1
 72
     5
  1

1001
ACAD
1000
MTEXTBEGIN
1070
    73
1070
     1
1070
    44
1040
1.0
1070
    74
1070
     0
1000
MTEXTEND
1000
MTEXTBEGIN
1070
    73
1070
     1
1070
    44
1040
1.0
1070
    74
1070
     0
1000
MTEXTEND
1000
MTEXTBEGIN
1070
    73
1070
     1
1070
    44
1040
1.0
1070
    74
1070
     0
1000
MTEXTEND
  0
MTEXT
  5
187CF
330
18
100
AcDbEntity
  8
0
  6
CENTER
100
AcDbMText
 10
606.3621522332661
 20
2216.239946825076
 30
0.0
 40
2.0
 41
15.6417
 71
     1
 72
     5
  1

  7
BIGFONT
1001
ACAD
1000
MTEXTBEGIN
1070
    73
1070
     1
1070
    44
1040
1.0
1070
    74
1070
     0
1000
MTEXTEND
1000
MTEXTBEGIN
1070
    73
1070
     1
1070
    44
1040
1.0
1070
    74
1070
     0
1000
MTEXTEND
1000
MTEXTBEGIN
1070
    73
1070
     1
1070
    44
1040
1.0
1070
    74
1070
     0
1000
MTEXTEND
  0
MTEXT
  5
187D0
330
18
100
AcDbEntity
  8
0
  6
DASHDOT
100
AcDbMText
 10
368.6842112890943
 20
2323.029441652852
 30
0.0
 40
1.0
 41
2.0
 71
     1
 72
     5
  1

  7
BIGFONT
1001
ACAD
1000
MTEXTBEGIN
1070
    73
1070
     1
1070
    44
1040
1.0
1070
    74
1070
     0
1000
MTEXTEND
1000
MTEXTBEGIN
1070
    73
1070
     1
1070
    44
1040
1.0
1070
    74
1070
     0
1000
MTEXTEND
1000
MTEXTBEGIN
1070
    73
1070
     1
1070
    44
1040
1.0
1070
    74
1070
     0
1000
MTEXTEND
  0
MTEXT
  5
187D1
330
18
100
AcDbEntity
  8
0
  6
BYBLOCK
100
AcDbMText
 10
325.4873894192177
 20
2232.511722574347
 30
0.0
 40
2.0
 41
0.0
 71
     4
 72
     5
  1

 11
-0.0000000000000002
 21
-1.0
 31
0.0
1001
ACAD
1000
MTEXTBEGIN
1070
    73
1070
     1
1070
    44
1040
1.0
1070
    74
1070
     0
1000
MTEXTEND
1000
MTEXTBEGIN
1070
    73
1070
     1
1070
    44
1040
1.0
1070
    74
1070
     0
1000
MTEXTEND
1000
MTEXTBEGIN
1070
    73
1070
     1
1070
    44
1040
1.0
1070
    74
1070
     0
1000
MTEXTEND
  0
MTEXT
  5
187D2
330
18
100
AcDbEntity
  8
0
  6
BYBLOCK
100
AcDbMText
 10
360.9527777823706
 20
2221.718414215929
 30
0.0
 40
2.0
 41
0.0
 71
     7
 72
     5
  1

 11
0.0000000000000001
 21
1.0
 31
0.0
1001
ACAD
1000
MTEXTBEGIN
1070
    73
1070
     1
1070
    44
1040
1.0
1070
    74
1070
     0
1000
MTEXTEND
1000
MTEXTBEGIN
1070
    73
1070
     1
1070
    44
1040
1.0
1070
    74
1070
     0
1000
MTEXTEND
1000
MTEXTBEGIN
1070
    73
1070
     1
1070
    44
1040
1.0
1070
    74
1070
     0
1000
MTEXTEND
  0
MTEXT
  5
187D3
330
18
100
AcDbEntity
  8
0
100
AcDbMText
 10
325.1732797977028
 20
2146.938903673639
 30
0.0
 40
2.0
 41
10.1453
 71
     1
 72
     5
  1

 11
-0.0000000000000002
 21
-1.0
 31
0.0
1001
ACAD
1000
MTEXTBEGIN
1070
    73
1070
     1
1070
    44
1040
1.0
1070
    74
1070
     0
1000
MTEXTEND
1000
MTEXTBEGIN
1070
    73
1070
     1
1070
    44
1040
1.0
1070
    74
1070
     0
1000
MTEXTEND
1000
MTEXTBEGIN
1070
    73
1070
     1
1070
    44
1040
1.0
1070
    74
1070
     0
1000
MTEXTEND
  0
MTEXT
  5
187D4
330
18
100
AcDbEntity
  8
0
100
AcDbMText
 10
280.7737880445529
 20
2115.30742008065
 30
0.0
 40
2.0
 41
0.0
 71
     1
 72
     5
  1

1001
ACAD
1000
MTEXTBEGIN
1070
    73
1070
     1
1070
    44
1040
1.0
1070
    74
1070
     0
1000
MTEXTEND
1000
MTEXTBEGIN
1070
    73
1070
     1
1070
    44
1040
1.0
1070
    74
1070
     0
1000
MTEXTEND
1000
MTEXTBEGIN
1070
    73
1070
     1
1070
    44
1040
1.0
1070
    74
1070
     0
1000
MTEXTEND
  0
MTEXT
  5
187D5
330
18
100
AcDbEntity
  8
0
  6
CENTER
100
AcDbMText
 10
606.3620652283159
 20
2216.239946825076
 30
0.0
 40
2.0
 41
15.6417
 71
     1
 72
     5
  1

  7
BIGFONT
1001
ACAD
1000
MTEXTBEGIN
1070
    73
1070
     1
1070
    44
1040
1.0
1070
    74
1070
     0
1000
MTEXTEND
1000
MTEXTBEGIN
1070
    73
1070
     1
1070
    44
1040
1.0
1070
    74
1070
     0
1000
MTEXTEND
1000
MTEXTBEGIN
1070
    73
1070
     1
1070
    44
1040
1.0
1070
    74
1070
     0
1000
MTEXTEND
  0
MTEXT
  5
187D6
330
18
100
AcDbEntity
  8
0
  6
DASHDOT
100
AcDbMText
 10
368.6841242841442
 20
2323.029441652852
 30
0.0
 40
1.0
 41
2.0
 71
     1
 72
     5
  1

  7
BIGFONT
1001
ACAD
1000
MTEXTBEGIN
1070
    73
1070
     1
1070
    44
1040
1.0
1070
    74
1070
     0
1000
MTEXTEND
1000
MTEXTBEGIN
1070
    73
1070
     1
1070
    44
1040
1.0
1070
    74
1070
     0
1000
MTEXTEND
1000
MTEXTBEGIN
1070
    73
1070
     1
1070
    44
1040
1.0
1070
    74
1070
     0
1000
MTEXTEND
  0
INSERT
  5
187D7
330
18
100
AcDbEntity
  8
FRAME025
100
AcDbBlockReference
  2
機械A4横_LBP
 10
271.0019941658661
 20
2006.88884056487
 30
0.0
  0
LINE
  5
215E3
330
18
100
AcDbEntity
  8
２点鎖線
 48
0.5
100
AcDbLine
 10
-2839.901541286175
 20
-290.1605945596912
 30
0.0
 11
-2839.901541286182
 21
-237.6264102248078
 31
0.0
  0
LINE
  5
215FE
330
18
100
AcDbEntity
  8
中心線
100
AcDbLine
 10
-3018.000706413845
 20
-291.8675871000248
 30
0.0
 11
-2919.984368763867
 21
-291.8675871000246
 31
0.0
  0
LINE
  5
21623
330
18
100
AcDbEntity
  8
実線
100
AcDbLine
 10
-3005.539689507407
 20
-341.8675871000232
 30
0.0
 11
-3005.539689507407
 21
-246.8675871000226
 31
0.0
  0
LINE
  5
21627
330
18
100
AcDbEntity
  8
実線
100
AcDbLine
 10
-2969.21047875006
 20
-316.867587100023
 30
0.0
 11
-2937.539689507407
 21
-316.867587100023
 31
0.0
  0
LINE
  5
21628
330
18
100
AcDbEntity
  8
実線
100
AcDbLine
 10
-2972.204382864179
 20
-341.8675871000121
 30
0.0
 11
-2937.539689507407
 21
-341.8675871000036
 31
0.0
  0
LINE
  5
2162A
330
18
100
AcDbEntity
  8
実線
100
AcDbLine
 10
-3005.539689507407
 20
-341.8675871000232
 30
0.0
 11
-2972.204382864179
 21
-341.8675871000121
 31
0.0
  0
LINE
  5
2162B
330
18
100
AcDbEntity
  8
中心線
 48
3.0
100
AcDbLine
 10
-2991.539689507407
 20
-336.3675871000233
 30
0.0
 11
-2991.539689507407
 21
-327.3675871000232
 31
0.0
  0
CIRCLE
  5
2162C
330
18
100
AcDbEntity
  8
実線
100
AcDbCircle
 10
-2991.539689507408
 20
-331.8675871000233
 30
0.0
 40
2.1
  0
LINE
  5
2162D
330
18
100
AcDbEntity
  8
中心線
 48
3.0
100
AcDbLine
 10
-2996.039689507407
 20
-331.8675871000227
 30
0.0
 11
-2987.039689507407
 21
-331.8675871000229
 31
0.0
  0
CIRCLE
  5
2162E
330
18
100
AcDbEntity
  8
細線
100
AcDbCircle
 10
-2991.539689507407
 20
-331.8675871000223
 30
0.0
 40
2.5
  0
LINE
  5
2162F
330
18
100
AcDbEntity
  8
実線
100
AcDbLine
 10
-3002.539689507408
 20
-316.8675871000227
 30
0.0
 11
-2969.21047875006
 21
-316.867587100023
 31
0.0
  0
LINE
  5
21630
330
18
100
AcDbEntity
  8
中心線
 48
3.0
100
AcDbLine
 10
-2951.539689507407
 20
-336.3675871000233
 30
0.0
 11
-2951.539689507407
 21
-327.3675871000232
 31
0.0
  0
CIRCLE
  5
21631
330
18
100
AcDbEntity
  8
実線
100
AcDbCircle
 10
-2951.539689507407
 20
-331.8675871000233
 30
0.0
 40
2.1
  0
LINE
  5
21632
330
18
100
AcDbEntity
  8
中心線
 48
3.0
100
AcDbLine
 10
-2956.039689507408
 20
-331.8675871000227
 30
0.0
 11
-2947.039689507407
 21
-331.8675871000229
 31
0.0
  0
CIRCLE
  5
21633
330
18
100
AcDbEntity
  8
細線
100
AcDbCircle
 10
-2951.539689507407
 20
-331.8675871000223
 30
0.0
 40
2.5
  0
ARC
  5
21638
330
18
100
AcDbEntity
  8
実線
100
AcDbCircle
 10
-2904.998266622603
 20
-338.7217721402957
 30
0.0
 40
5.0
100
AcDbArc
 50
0.0
 51
90.0
  0
LINE
  5
21639
102
{ACAD_REACTORS
330
231F5
102
}
330
18
100
AcDbEntity
  8
中心線
 48
0.4
100
AcDbLine
 10
-2916.21928631865
 20
-341.0759571805673
 30
0.0
 11
-2914.736663809668
 21
-332.6675871000243
 31
0.0
  0
LINE
  5
2163A
330
18
100
AcDbEntity
  8
中心線
 48
0.4
100
AcDbLine
 10
-2914.21928631865
 20
-341.0759571805673
 30
0.0
 11
-2912.736663809667
 21
-332.6675871000243
 31
0.0
  0
LINE
  5
2163B
330
18
100
AcDbEntity
  8
実線
100
AcDbLine
 10
-2876.410772918582
 20
-348.9103389001284
 30
0.0
 11
-2900.083798198711
 21
-348.9103389001284
 31
0.0
  0
LINE
  5
2163C
330
18
100
AcDbEntity
  8
実線
100
AcDbLine
 10
-2896.998266622603
 20
-342.6103389001281
 30
0.0
 11
-2876.410772918582
 21
-342.6103389001281
 31
0.0
  0
LINE
  5
2163D
330
18
100
AcDbEntity
  8
実線
100
AcDbLine
 10
-2908.083798198711
 20
-340.0217721402958
 30
0.0
 11
-2914.033405053391
 21
-340.0217721402958
 31
0.0
  0
LINE
  5
2163E
102
{ACAD_REACTORS
330
231F5
102
}
330
18
100
AcDbEntity
  8
実線
100
AcDbLine
 10
-2916.03340505339
 20
-340.021772140296
 30
0.0
 11
-2917.539689507407
 21
-340.021772140296
 31
0.0
  0
ARC
  5
2163F
330
18
100
AcDbEntity
  8
実線
100
AcDbCircle
 10
-2900.083798198711
 20
-343.9103389001284
 30
0.0
 40
5.0
100
AcDbArc
 50
180.0
 51
270.0
  0
ARC
  5
21640
330
18
100
AcDbEntity
  8
実線
100
AcDbCircle
 10
-2908.083798198711
 20
-343.0217721402958
 30
0.0
 40
3.0
100
AcDbArc
 50
0.0
 51
90.0
  0
ARC
  5
21641
330
18
100
AcDbEntity
  8
実線
100
AcDbCircle
 10
-2896.998266622603
 20
-339.6103389001281
 30
0.0
 40
3.0
100
AcDbArc
 50
179.9999999999934
 51
270.0
  0
LINE
  5
21642
330
18
100
AcDbEntity
  8
実線
100
AcDbLine
 10
-2899.998266622603
 20
-339.6103389001278
 30
0.0
 11
-2899.998266622603
 21
-338.7217721402957
 31
0.0
  0
LINE
  5
21643
330
18
100
AcDbEntity
  8
実線
100
AcDbLine
 10
-2905.083798198711
 20
-343.9103389001284
 30
0.0
 11
-2905.083798198711
 21
-343.0217721402958
 31
0.0
  0
LINE
  5
21644
330
18
100
AcDbEntity
  8
実線
100
AcDbLine
 10
-2856.710772918582
 20
-353.0103389001278
 30
0.0
 11
-2857.710772918581
 21
-354.0103389001276
 31
0.0
  0
LINE
  5
21645
330
18
100
AcDbEntity
  8
実線
100
AcDbLine
 10
-2858.710772918581
 20
-353.0103389001278
 30
0.0
 11
-2858.710772918581
 21
-354.0103389001276
 31
0.0
  0
LINE
  5
21646
330
18
100
AcDbEntity
  8
実線
100
AcDbLine
 10
-2862.210772918581
 20
-353.0103389001278
 30
0.0
 11
-2862.210772918581
 21
-354.0103389001276
 31
0.0
  0
LINE
  5
21647
330
18
100
AcDbEntity
  8
実線
100
AcDbLine
 10
-2868.710772918582
 20
-352.6103389001277
 30
0.0
 11
-2868.710772918582
 21
-354.6103389001277
 31
0.0
  0
LINE
  5
21648
330
18
100
AcDbEntity
  8
実線
100
AcDbLine
 10
-2857.710772918581
 20
-354.0103389001276
 30
0.0
 11
-2858.710772918581
 21
-354.0103389001276
 31
0.0
  0
LINE
  5
21649
330
18
100
AcDbEntity
  8
実線
100
AcDbLine
 10
-2859.110772918581
 20
-354.0103389001276
 30
0.0
 11
-2859.710772918582
 21
-354.6103389001277
 31
0.0
  0
LINE
  5
2164A
330
18
100
AcDbEntity
  8
実線
100
AcDbLine
 10
-2858.710772918581
 20
-354.0103389001276
 30
0.0
 11
-2859.110772918581
 21
-354.0103389001276
 31
0.0
  0
LINE
  5
2164B
330
18
100
AcDbEntity
  8
実線
100
AcDbLine
 10
-2859.110772918581
 20
-354.0103389001276
 30
0.0
 11
-2862.210772918581
 21
-354.0103389001276
 31
0.0
  0
LINE
  5
2164C
330
18
100
AcDbEntity
  8
実線
100
AcDbLine
 10
-2867.91077291858
 20
-354.6103389001277
 30
0.0
 11
-2868.710772918582
 21
-354.6103389001277
 31
0.0
  0
LINE
  5
2164D
330
18
100
AcDbEntity
  8
実線
100
AcDbLine
 10
-2867.91077291858
 20
-354.0103389001276
 30
0.0
 11
-2867.91077291858
 21
-354.6103389001277
 31
0.0
  0
LINE
  5
2164E
330
18
100
AcDbEntity
  8
実線
100
AcDbLine
 10
-2862.210772918581
 20
-354.0103389001276
 30
0.0
 11
-2867.91077291858
 21
-354.0103389001276
 31
0.0
  0
LINE
  5
2164F
330
18
100
AcDbEntity
  8
実線
100
AcDbLine
 10
-2859.710772918582
 20
-354.6103389001277
 30
0.0
 11
-2867.91077291858
 21
-354.6103389001277
 31
0.0
  0
LINE
  5
21650
330
18
100
AcDbEntity
  8
実線
100
AcDbLine
 10
-2850.71077291858
 20
-349.810338900128
 30
0.0
 11
-2861.210772918582
 21
-349.810338900128
 31
0.0
  0
LINE
  5
21651
330
18
100
AcDbEntity
  8
実線
100
AcDbLine
 10
-2861.210772918582
 20
-346.3703389001277
 30
0.0
 11
-2850.71077291858
 21
-346.3703389001277
 31
0.0
  0
LINE
  5
21652
330
18
100
AcDbEntity
  8
実線
100
AcDbLine
 10
-2850.71077291858
 20
-345.2503389001281
 30
0.0
 11
-2861.210772918582
 21
-345.2503389001281
 31
0.0
  0
LINE
  5
21653
330
18
100
AcDbEntity
  8
実線
100
AcDbLine
 10
-2861.210772918582
 20
-341.8103389001279
 30
0.0
 11
-2850.71077291858
 21
-341.8103389001274
 31
0.0
  0
LINE
  5
21654
330
18
100
AcDbEntity
  8
実線
100
AcDbLine
 10
-2856.710772918582
 20
-352.2103389001276
 30
0.0
 11
-2856.710772918582
 21
-353.0103389001278
 31
0.0
  0
LINE
  5
21655
330
18
100
AcDbEntity
  8
実線
100
AcDbLine
 10
-2857.710772918581
 20
-351.2103389001276
 30
0.0
 11
-2856.710772918582
 21
-352.2103389001276
 31
0.0
  0
LINE
  5
21656
330
18
100
AcDbEntity
  8
実線
100
AcDbLine
 10
-2858.710772918581
 20
-351.2103389001276
 30
0.0
 11
-2857.710772918581
 21
-351.2103389001276
 31
0.0
  0
LINE
  5
21657
330
18
100
AcDbEntity
  8
実線
100
AcDbLine
 10
-2861.210772918582
 20
-345.810338900128
 30
0.0
 11
-2861.210772918582
 21
-350.7103389001276
 31
0.0
  0
LINE
  5
21658
330
18
100
AcDbEntity
  8
実線
100
AcDbLine
 10
-2858.710772918581
 20
-352.2103389001276
 30
0.0
 11
-2858.710772918581
 21
-351.2103389001276
 31
0.0
  0
LINE
  5
21659
330
18
100
AcDbEntity
  8
実線
100
AcDbLine
 10
-2862.210772918581
 20
-352.2103389001276
 30
0.0
 11
-2862.210772918581
 21
-353.0103389001278
 31
0.0
  0
LINE
  5
2165A
330
18
100
AcDbEntity
  8
実線
100
AcDbLine
 10
-2860.803985127274
 20
-352.2103389001276
 30
0.0
 11
-2860.803985127274
 21
-353.0103389001278
 31
0.0
  0
ARC
  5
2165B
330
18
100
AcDbEntity
  8
実線
100
AcDbCircle
 10
-2864.256251405977
 20
-351.2558173875238
 30
0.0
 40
0.545478487396098
100
AcDbArc
 50
280.1852278629175
 51
90.0
  0
LINE
  5
2165C
330
18
100
AcDbEntity
  8
実線
100
AcDbLine
 10
-2860.803985127274
 20
-352.2103389001276
 30
0.0
 11
-2862.210772918581
 21
-352.2103389001276
 31
0.0
  0
LINE
  5
2165D
330
18
100
AcDbEntity
  8
実線
100
AcDbLine
 10
-2862.210772918581
 20
-351.8073755310307
 30
0.0
 11
-2862.210772918581
 21
-352.2103389001276
 31
0.0
  0
LINE
  5
2165E
330
18
100
AcDbEntity
  8
実線
100
AcDbLine
 10
-2861.210772918582
 20
-350.7103389001276
 30
0.0
 11
-2862.123147379475
 21
-351.5996070443948
 31
0.0
  0
ARC
  5
2165F
330
18
100
AcDbEntity
  8
実線
100
AcDbCircle
 10
-2861.92064072846
 20
-351.8073755310307
 30
0.0
 40
0.2901321901215654
100
AcDbArc
 50
134.2652139555196
 51
180.0
  0
LINE
  5
21660
330
18
100
AcDbEntity
  8
実線
100
AcDbLine
 10
-2862.210772918581
 20
-353.0103389001278
 30
0.0
 11
-2860.803985127274
 21
-353.0103389001278
 31
0.0
  0
LINE
  5
21661
330
18
100
AcDbEntity
  8
実線
100
AcDbLine
 10
-2858.710772918581
 20
-352.2103389001276
 30
0.0
 11
-2860.803985127274
 21
-352.2103389001276
 31
0.0
  0
LINE
  5
21662
330
18
100
AcDbEntity
  8
実線
100
AcDbLine
 10
-2860.803985127274
 20
-353.0103389001278
 30
0.0
 11
-2858.710772918581
 21
-353.0103389001278
 31
0.0
  0
LINE
  5
21663
330
18
100
AcDbEntity
  8
実線
100
AcDbLine
 10
-2861.210772918582
 20
-340.9103389001279
 30
0.0
 11
-2861.210772918582
 21
-345.810338900128
 31
0.0
  0
LINE
  5
21664
330
18
100
AcDbEntity
  8
実線
100
AcDbLine
 10
-2876.410772918582
 20
-342.6103389001281
 30
0.0
 11
-2876.410772918582
 21
-348.9103389001284
 31
0.0
  0
LINE
  5
21665
330
18
100
AcDbEntity
  8
実線
100
AcDbLine
 10
-2874.41077291858
 20
-345.810338900128
 30
0.0
 11
-2874.41077291858
 21
-351.7103389001277
 31
0.0
  0
LINE
  5
21666
330
18
100
AcDbEntity
  8
実線
100
AcDbLine
 10
-2873.910772918581
 20
-351.7103389001277
 30
0.0
 11
-2874.41077291858
 21
-351.7103389001277
 31
0.0
  0
LINE
  5
21667
330
18
100
AcDbEntity
  8
実線
100
AcDbLine
 10
-2873.41077291858
 20
-350.7103389001276
 30
0.0
 11
-2873.41077291858
 21
-351.2103389001276
 31
0.0
  0
ARC
  5
21668
330
18
100
AcDbEntity
  8
実線
100
AcDbCircle
 10
-2873.910772918581
 20
-351.2103389001276
 30
0.0
 40
0.5
100
AcDbArc
 50
270.0
 51
0.0
  0
LINE
  5
21669
330
18
100
AcDbEntity
  8
実線
100
AcDbLine
 10
-2874.41077291858
 20
-339.9103389001278
 30
0.0
 11
-2873.910772918581
 21
-339.9103389001278
 31
0.0
  0
LINE
  5
2166A
330
18
100
AcDbEntity
  8
実線
100
AcDbLine
 10
-2873.41077291858
 20
-340.4103389001278
 30
0.0
 11
-2873.41077291858
 21
-340.9103389001279
 31
0.0
  0
ARC
  5
2166B
330
18
100
AcDbEntity
  8
実線
100
AcDbCircle
 10
-2873.910772918581
 20
-340.4103389001278
 30
0.0
 40
0.5
100
AcDbArc
 50
0.0
 51
90.0
  0
LINE
  5
2166C
330
18
100
AcDbEntity
  8
実線
100
AcDbLine
 10
-2876.410772918582
 20
-343.1103389001281
 30
0.0
 11
-2874.41077291858
 21
-343.1103389001281
 31
0.0
  0
LINE
  5
2166D
330
18
100
AcDbEntity
  8
実線
100
AcDbLine
 10
-2874.41077291858
 20
-345.810338900128
 30
0.0
 11
-2876.410772918582
 21
-345.810338900128
 31
0.0
  0
LINE
  5
2166E
330
18
100
AcDbEntity
  8
実線
100
AcDbLine
 10
-2874.41077291858
 20
-344.4103389001281
 30
0.0
 11
-2876.410772918582
 21
-344.4103389001281
 31
0.0
  0
LINE
  5
2166F
330
18
100
AcDbEntity
  8
実線
100
AcDbLine
 10
-2874.41077291858
 20
-347.1103389001281
 30
0.0
 11
-2876.410772918582
 21
-347.1103389001281
 31
0.0
  0
LINE
  5
21670
330
18
100
AcDbEntity
  8
実線
100
AcDbLine
 10
-2874.41077291858
 20
-348.4103389001284
 30
0.0
 11
-2876.410772918582
 21
-348.4103389001284
 31
0.0
  0
LINE
  5
21671
330
18
100
AcDbEntity
  8
実線
100
AcDbLine
 10
-2874.41077291858
 20
-348.4103389001284
 30
0.0
 11
-2874.41077291858
 21
-343.1103389001281
 31
0.0
  0
LINE
  5
21672
330
18
100
AcDbEntity
  8
実線
100
AcDbLine
 10
-2874.41077291858
 20
-339.9103389001278
 30
0.0
 11
-2874.41077291858
 21
-345.810338900128
 31
0.0
  0
LINE
  5
21673
330
18
100
AcDbEntity
  8
実線
100
AcDbLine
 10
-2873.41077291858
 20
-340.9103389001279
 30
0.0
 11
-2861.210772918582
 21
-340.9103389001279
 31
0.0
  0
LINE
  5
21674
330
18
100
AcDbEntity
  8
実線
100
AcDbLine
 10
-2864.256251405977
 20
-350.7103389001276
 30
0.0
 11
-2873.41077291858
 21
-350.7103389001276
 31
0.0
  0
LINE
  5
21675
330
18
100
AcDbEntity
  8
実線
100
AcDbLine
 10
-2864.159793906809
 20
-351.7926998058111
 30
0.0
 11
-2868.710772918582
 21
-352.6103389001277
 31
0.0
  0
LINE
  5
21676
330
18
100
AcDbEntity
  8
実線
100
AcDbLine
 10
-2850.71077291858
 20
-346.3703389001277
 30
0.0
 11
-2850.71077291858
 21
-349.810338900128
 31
0.0
  0
LINE
  5
21677
330
18
100
AcDbEntity
  8
実線
100
AcDbLine
 10
-2850.71077291858
 20
-341.8103389001274
 30
0.0
 11
-2850.71077291858
 21
-345.2503389001281
 31
0.0
  0
LINE
  5
21692
102
{ACAD_REACTORS
330
231F5
102
}
330
18
100
AcDbEntity
  8
実線
100
AcDbLine
 10
-2917.539689507407
 20
-333.7217721402958
 30
0.0
 11
-2914.922545074927
 21
-333.7217721402958
 31
0.0
  0
LINE
  5
21695
330
18
100
AcDbEntity
  8
実線
100
AcDbLine
 10
-2912.922545074928
 20
-333.7217721402956
 30
0.0
 11
-2904.998266622603
 21
-333.7217721402958
 31
0.0
  0
LINE
  5
21699
330
18
100
AcDbEntity
  8
実線
100
AcDbLine
 10
-2963.222670521818
 20
-266.8675871000236
 30
0.0
 11
-2937.539689507407
 21
-266.8675871000236
 31
0.0
  0
LINE
  5
2169A
330
18
100
AcDbEntity
  8
実線
100
AcDbLine
 10
-2960.82754723052
 20
-246.8675871000226
 30
0.0
 11
-2937.539689507407
 21
-246.8675871000232
 31
0.0
  0
LINE
  5
2169C
330
18
100
AcDbEntity
  8
実線
100
AcDbLine
 10
-3002.539689507407
 20
-266.8675871000235
 30
0.0
 11
-2963.222670521818
 21
-266.8675871000236
 31
0.0
  0
LINE
  5
2169D
330
18
100
AcDbEntity
  8
実線
100
AcDbLine
 10
-3005.539689507407
 20
-246.8675871000218
 30
0.0
 11
-2960.82754723052
 21
-246.8675871000226
 31
0.0
  0
CIRCLE
  5
2169E
330
18
100
AcDbEntity
  8
細線
100
AcDbCircle
 10
-2991.539689507407
 20
-251.8675871000223
 30
0.0
 40
2.5
  0
LINE
  5
2169F
330
18
100
AcDbEntity
  8
中心線
 48
3.0
100
AcDbLine
 10
-2991.539689507407
 20
-256.3675871000232
 30
0.0
 11
-2991.539689507407
 21
-247.3675871000233
 31
0.0
  0
CIRCLE
  5
216A0
330
18
100
AcDbEntity
  8
実線
100
AcDbCircle
 10
-2991.539689507408
 20
-251.8675871000233
 30
0.0
 40
2.1
  0
LINE
  5
216A1
330
18
100
AcDbEntity
  8
中心線
 48
3.0
100
AcDbLine
 10
-2996.039689507407
 20
-251.8675871000227
 30
0.0
 11
-2987.039689507407
 21
-251.867587100023
 31
0.0
  0
LINE
  5
216A2
330
18
100
AcDbEntity
  8
中心線
 48
3.0
100
AcDbLine
 10
-2951.539689507407
 20
-256.3675871000232
 30
0.0
 11
-2951.539689507407
 21
-247.3675871000233
 31
0.0
  0
CIRCLE
  5
216A3
330
18
100
AcDbEntity
  8
実線
100
AcDbCircle
 10
-2951.539689507407
 20
-251.8675871000233
 30
0.0
 40
2.1
  0
LINE
  5
216A4
330
18
100
AcDbEntity
  8
中心線
 48
3.0
100
AcDbLine
 10
-2956.039689507408
 20
-251.8675871000227
 30
0.0
 11
-2947.039689507407
 21
-251.867587100023
 31
0.0
  0
CIRCLE
  5
216A5
330
18
100
AcDbEntity
  8
細線
100
AcDbCircle
 10
-2951.539689507407
 20
-251.8675871000223
 30
0.0
 40
2.5
  0
LINE
  5
216B4
330
18
100
AcDbEntity
  8
２点鎖線
 48
0.5
100
AcDbLine
 10
-2839.901541286169
 20
-346.1087639752447
 30
0.0
 11
-2839.901541286175
 21
-290.1605945596912
 31
0.0
  0
LINE
  5
216B5
330
18
100
AcDbEntity
  8
実線
100
AcDbLine
 10
-2810.250471861688
 20
-261.8675871000224
 30
0.0
 11
-2810.250471861682
 21
-321.867587100022
 31
0.0
  0
LINE
  5
216B6
330
18
100
AcDbEntity
  8
実線
100
AcDbLine
 10
-2817.650471861682
 20
-312.6273900748123
 30
0.0
 11
-2817.650471861685
 21
-271.1077841252368
 31
0.0
  0
LINE
  5
216B7
102
{ACAD_REACTORS
330
23216
102
}
330
18
100
AcDbEntity
  8
２点鎖線
 48
0.3
100
AcDbLine
 10
-2809.750471861688
 20
-266.6675871000243
 30
0.0
 11
-2809.750471861688
 21
-317.0675871000243
 31
0.0
  0
LINE
  5
216B8
102
{ACAD_REACTORS
330
23216
102
}
330
18
100
AcDbEntity
  8
２点鎖線
 48
0.3
100
AcDbLine
 10
-2795.650471861689
 20
-251.8675871000243
 30
0.0
 11
-2795.650471861689
 21
-331.8675871000243
 31
0.0
  0
LINE
  5
216B9
102
{ACAD_REACTORS
330
23216
102
}
330
18
100
AcDbEntity
  8
２点鎖線
 48
0.3
100
AcDbLine
 10
-2799.650471861689
 20
-251.8675871000243
 30
0.0
 11
-2799.650471861689
 21
-331.8675871000243
 31
0.0
  0
LINE
  5
216BA
330
18
100
AcDbEntity
  8
中心線
  6
CENTER
 48
3.0
100
AcDbLine
 10
-2810.15047186168
 20
-341.3400530900543
 30
0.0
 11
-2810.150471861681
 21
-332.395121109993
 31
0.0
  0
LINE
  5
216BB
330
18
100
AcDbEntity
  8
実線
100
AcDbLine
 10
-2825.650471861679
 20
-341.3675871000247
 30
0.0
 11
-2825.650471861683
 21
-316.8675871000246
 31
0.0
  0
LINE
  5
216BC
330
18
100
AcDbEntity
  8
実線
  6
HIDDEN
 48
5.0
100
AcDbLine
 10
-2805.65047186168
 20
-341.3675871000238
 30
0.0
 11
-2805.65047186168
 21
-332.3675871000237
 31
0.0
  0
LINE
  5
216BD
330
18
100
AcDbEntity
  8
実線
100
AcDbLine
 10
-2805.65047186168
 20
-341.8675871000225
 30
0.0
 11
-2805.650471861682
 21
-321.8675871000215
 31
0.0
  0
CIRCLE
  5
216BE
330
18
100
AcDbEntity
  8
実線
100
AcDbCircle
 10
-2810.15047186168
 20
-336.8675871000236
 30
0.0
 40
3.5
  0
LINE
  5
216C0
330
18
100
AcDbEntity
  8
実線
100
AcDbLine
 10
-2822.650471861678
 20
-341.8675871000246
 30
0.0
 11
-2805.65047186168
 21
-341.8675871000225
 31
0.0
  0
LINE
  5
216C1
330
18
100
AcDbEntity
  8
２点鎖線
 48
0.5
100
AcDbLine
 10
-2839.901541286169
 20
-346.1087639752447
 30
0.0
 11
-2825.650471861681
 21
-346.1087639752418
 31
0.0
  0
LINE
  5
216C2
330
18
100
AcDbEntity
  8
実線
100
AcDbLine
 10
-2822.650471861678
 20
-341.8675871000246
 30
0.0
 11
-2825.150471861679
 21
-341.8675871000246
 31
0.0
  0
LINE
  5
216C3
330
18
100
AcDbEntity
  8
実線
100
AcDbLine
 10
-2825.150471861679
 20
-341.8675871000246
 30
0.0
 11
-2825.650471861679
 21
-341.3675871000247
 31
0.0
  0
LINE
  5
216C4
330
18
100
AcDbEntity
  8
実線
100
AcDbLine
 10
-2818.47809152993
 20
-313.612420541968
 30
0.0
 11
-2824.822852193434
 21
-314.7227536580814
 31
0.0
  0
LINE
  5
216C5
330
18
100
AcDbEntity
  8
中心線
 48
0.5
100
AcDbLine
 10
-2812.162024151858
 20
-331.8675871000229
 30
0.0
 11
-2827.650471861682
 21
-331.8675871000243
 31
0.0
  0
LINE
  5
216C6
330
18
100
AcDbEntity
  8
中心線
  6
CENTER
 48
3.0
100
AcDbLine
 10
-2814.62293785171
 20
-336.8675871000253
 30
0.0
 11
-2805.678005871649
 21
-336.8675871000238
 31
0.0
  0
LINE
  5
216C7
330
18
100
AcDbEntity
  8
実線
 48
4.0
100
AcDbLine
 10
-2805.650471861682
 20
-321.8675871000215
 30
0.0
 11
-2810.250471861682
 21
-321.867587100022
 31
0.0
  0
LINE
  5
216C8
102
{ACAD_REACTORS
330
23216
102
}
330
18
100
AcDbEntity
  8
２点鎖線
 48
0.3
100
AcDbLine
 10
-2799.650471861689
 20
-323.3675871000243
 30
0.0
 11
-2795.650471861689
 21
-323.3675871000243
 31
0.0
  0
LINE
  5
216C9
102
{ACAD_REACTORS
330
23216
102
}
330
18
100
AcDbEntity
  8
２点鎖線
 48
0.3
100
AcDbLine
 10
-2799.650471861689
 20
-331.8675871000243
 30
0.0
 11
-2795.650471861689
 21
-331.8675871000243
 31
0.0
  0
LINE
  5
216CA
102
{ACAD_REACTORS
330
23216
102
}
330
18
100
AcDbEntity
  8
２点鎖線
 48
0.3
100
AcDbLine
 10
-2799.650471861689
 20
-328.3675871000243
 30
0.0
 11
-2795.650471861689
 21
-328.3675871000243
 31
0.0
  0
LINE
  5
216CB
102
{ACAD_REACTORS
330
23216
102
}
330
18
100
AcDbEntity
  8
２点鎖線
 48
0.3
100
AcDbLine
 10
-2801.650471861689
 20
-325.8675871000245
 30
0.0
 11
-2793.65047186169
 21
-325.8675871000245
 31
0.0
  0
LINE
  5
216CC
102
{ACAD_REACTORS
330
23216
102
}
330
18
100
AcDbEntity
  8
２点鎖線
 48
0.3
100
AcDbLine
 10
-2809.750471861688
 20
-317.0675871000243
 30
0.0
 11
-2799.650471861689
 21
-317.0675871000243
 31
0.0
  0
LINE
  5
216CE
330
18
100
AcDbEntity
  8
中心線
100
AcDbLine
 10
-2793.078789729958
 20
-291.8675871000221
 30
0.0
 11
-2829.309262629775
 21
-291.8675871000251
 31
0.0
  0
LINE
  5
216D0
330
18
100
AcDbEntity
  8
実線
100
AcDbLine
 10
-2808.65047186169
 20
-246.8675871000237
 30
0.0
 11
-2822.65047186169
 21
-246.8675871000246
 31
0.0
  0
LINE
  5
216D1
330
18
100
AcDbEntity
  8
実線
100
AcDbLine
 10
-2818.478091529933
 20
-270.1227536580812
 30
0.0
 11
-2824.822852193435
 21
-269.0124205419679
 31
0.0
  0
LINE
  5
216D3
330
18
100
AcDbEntity
  8
実線
100
AcDbLine
 10
-2825.650471861688
 20
-266.8675871000248
 30
0.0
 11
-2825.65047186169
 21
-247.3675871000238
 31
0.0
  0
LINE
  5
216D4
330
18
100
AcDbEntity
  8
実線
100
AcDbLine
 10
-2822.65047186169
 20
-246.8675871000243
 30
0.0
 11
-2825.15047186169
 21
-246.8675871000237
 31
0.0
  0
LINE
  5
216D5
330
18
100
AcDbEntity
  8
実線
100
AcDbLine
 10
-2825.65047186169
 20
-247.3675871000238
 30
0.0
 11
-2825.15047186169
 21
-246.8675871000237
 31
0.0
  0
LINE
  5
216D6
330
18
100
AcDbEntity
  8
実線
100
AcDbLine
 10
-2808.650471861689
 20
-261.8675871000228
 30
0.0
 11
-2808.65047186169
 21
-246.8675871000229
 31
0.0
  0
LINE
  5
216D7
330
18
100
AcDbEntity
  8
実線
 48
4.0
100
AcDbLine
 10
-2808.650471861689
 20
-261.8675871000228
 30
0.0
 11
-2810.250471861689
 21
-261.8675871000228
 31
0.0
  0
LINE
  5
216D8
102
{ACAD_REACTORS
330
23216
102
}
330
18
100
AcDbEntity
  8
２点鎖線
 48
0.3
100
AcDbLine
 10
-2809.750471861688
 20
-266.6675871000243
 30
0.0
 11
-2799.650471861689
 21
-266.6675871000243
 31
0.0
  0
LINE
  5
216D9
102
{ACAD_REACTORS
330
23216
102
}
330
18
100
AcDbEntity
  8
２点鎖線
 48
0.3
100
AcDbLine
 10
-2799.650471861689
 20
-260.3675871000243
 30
0.0
 11
-2795.650471861689
 21
-260.3675871000243
 31
0.0
  0
LINE
  5
216DA
330
18
100
AcDbEntity
  8
中心線
  6
CENTER
 48
3.0
100
AcDbLine
 10
-2801.650471861689
 20
-257.8675871000242
 30
0.0
 11
-2793.65047186169
 21
-257.8675871000242
 31
0.0
  0
LINE
  5
216DB
330
18
100
AcDbEntity
  8
実線
100
AcDbLine
 10
-2808.650471861689
 20
-255.8675871000238
 30
0.0
 11
-2808.65047186169
 21
-246.8675871000237
 31
0.0
  0
LINE
  5
216DC
102
{ACAD_REACTORS
330
23216
102
}
330
18
100
AcDbEntity
  8
２点鎖線
 48
0.3
100
AcDbLine
 10
-2799.650471861689
 20
-251.8675871000243
 30
0.0
 11
-2795.650471861689
 21
-251.8675871000243
 31
0.0
  0
LINE
  5
216DD
102
{ACAD_REACTORS
330
23216
102
}
330
18
100
AcDbEntity
  8
２点鎖線
 48
0.3
100
AcDbLine
 10
-2799.650471861689
 20
-255.3675871000243
 30
0.0
 11
-2795.650471861689
 21
-255.3675871000243
 31
0.0
  0
LINE
  5
216E1
330
18
100
AcDbEntity
  8
２点鎖線
 48
0.5
100
AcDbLine
 10
-2839.901541286182
 20
-237.6264102248078
 30
0.0
 11
-2825.650471861683
 21
-237.6264102248078
 31
0.0
  0
LINE
  5
23075
330
18
100
AcDbEntity
  8
実線
100
AcDbLine
 10
-2937.539689507407
 20
-341.8675871000232
 30
0.0
 11
-2937.539689507407
 21
-246.8675871000226
 31
0.0
  0
LINE
  5
231F6
330
18
100
AcDbEntity
  8
実線
100
AcDbLine
 10
-2916.792428322562
 20
-214.5206770214401
 30
0.0
 11
-2910.859088016751
 21
-214.5206770214401
 31
0.0
  0
LINE
  5
231F7
330
18
100
AcDbEntity
  8
実線
100
AcDbLine
 10
-2911.969947995214
 20
-220.8206770214403
 30
0.0
 11
-2916.792428322562
 21
-220.8206770214403
 31
0.0
  0
LINE
  5
231F8
330
18
100
AcDbEntity
  8
中心線
 48
0.4
100
AcDbLine
 10
-2912.155829260474
 20
-221.8748620617119
 30
0.0
 11
-2910.673206751491
 21
-213.4664919811688
 31
0.0
  0
LINE
  5
24236
330
18
100
AcDbEntity
  8
0
100
AcDbLine
 10
-2962.28837671369
 20
-216.7245620903336
 30
0.0
 11
-2996.288376713691
 21
-216.7245620903336
 31
0.0
  0
LINE
  5
24237
330
18
100
AcDbEntity
  8
0
100
AcDbLine
 10
-2961.788376713691
 20
-221.7245620903336
 30
0.0
 11
-2996.788376713691
 21
-221.7245620903336
 31
0.0
  0
LINE
  5
24238
330
18
100
AcDbEntity
  8
0
100
AcDbLine
 10
-2996.288376713691
 20
-228.7245620903338
 30
0.0
 11
-2962.28837671369
 21
-228.7245620903338
 31
0.0
  0
LINE
  5
2423B
330
18
100
AcDbEntity
  8
実線
100
AcDbLine
 10
-2936.792428322561
 20
-230.2206770214402
 30
0.0
 11
-3003.998982640639
 21
-230.2206770214402
 31
0.0
  0
LINE
  5
2423C
330
18
100
AcDbEntity
  8
実線
100
AcDbLine
 10
-2936.792428322561
 20
-213.2206770214402
 30
0.0
 11
-3002.035635100761
 21
-213.2206770214402
 31
0.0
  0
ARC
  5
2423D
330
18
100
AcDbEntity
  8
0
100
AcDbCircle
 10
-2996.288376713691
 20
-217.2245620903336
 30
0.0
 40
0.5
100
AcDbArc
 50
90.0
 51
180.0
  0
ARC
  5
2423E
330
18
100
AcDbEntity
  8
0
100
AcDbCircle
 10
-2996.288376713691
 20
-228.2245620903338
 30
0.0
 40
0.5
100
AcDbArc
 50
180.0
 51
270.0
  0
LINE
  5
2423F
330
18
100
AcDbEntity
  8
0
100
AcDbLine
 10
-2996.788376713691
 20
-217.2245620903336
 30
0.0
 11
-2996.788376713691
 21
-228.2245620903338
 31
0.0
  0
SPLINE
  5
24240
330
18
100
AcDbEntity
  8
実線
100
AcDbSpline
210
0.0
220
0.0
230
1.0
 70
     8
 71
     3
 72
    12
 73
     8
 74
     6
 42
0.0000000001
 43
0.0000000001
 44
0.0000000001
 40
0.0
 40
0.0
 40
0.0
 40
0.0
 40
3.393404858669341
 40
9.239086133662063
 40
13.2345509709152
 40
17.27372249097055
 40
24.76338539146006
 40
24.76338539146006
 40
24.76338539146006
 40
24.76338539146006
 10
-2999.865064564584
 20
-210.3653715038544
 30
0.0
 10
-3000.593465483005
 20
-211.2153728163464
 30
0.0
 10
-3002.576653197239
 20
-213.529637004357
 30
0.0
 10
-3004.189758094462
 20
-218.32322128097
 30
0.0
 10
-3001.342960248035
 20
-222.3514859084414
 30
0.0
 10
-3001.903502043075
 20
-227.8583372815805
 30
0.0
 10
-3004.431500331407
 20
-230.8601251003237
 30
0.0
 10
-3006.073804687767
 20
-232.8102250012398
 30
0.0
 11
-2999.865064564584
 21
-210.3653715038544
 31
0.0
 11
-3001.934647730186
 21
-213.0546134147834
 31
0.0
 11
-3003.279874913101
 21
-218.7434053247715
 31
0.0
 11
-3001.831162947732
 21
-222.466975239131
 31
0.0
 11
-3002.038123139016
 21
-226.5008411327435
 31
0.0
 11
-3006.073804687767
 21
-232.8102250012398
 31
0.0
  0
ARC
  5
24253
330
18
100
AcDbEntity
  8
0
100
AcDbCircle
 10
-2962.28837671369
 20
-217.2245620903336
 30
0.0
 40
0.5
100
AcDbArc
 50
0.0
 51
90.0
  0
ARC
  5
24254
330
18
100
AcDbEntity
  8
0
100
AcDbCircle
 10
-2962.28837671369
 20
-228.2245620903338
 30
0.0
 40
0.5
100
AcDbArc
 50
270.0
 51
0.0
  0
LINE
  5
24256
330
18
100
AcDbEntity
  8
0
100
AcDbLine
 10
-2961.788376713691
 20
-228.2245620903338
 30
0.0
 11
-2961.788376713691
 21
-217.2245620903336
 31
0.0
  0
LWPOLYLINE
  5
24258
330
18
100
AcDbEntity
  8
0
100
AcDbPolyline
 90
        8
 70
     1
 43
0.0
 10
-2942.28837671369
 20
-217.7245620903338
 10
-2956.288376713691
 20
-217.7245620903333
 42
0.4142135623730951
 10
-2956.78837671369
 20
-218.2245620903333
 10
-2956.78837671369
 20
-227.2245620903333
 42
0.4142135623730951
 10
-2956.288376713691
 20
-227.7245620903333
 10
-2942.28837671369
 20
-227.7245620903333
 42
0.4142135623730996
 10
-2941.788376713691
 20
-227.2245620903333
 10
-2941.788376713691
 20
-218.2245620903338
 42
0.4142135623730904
  0
LINE
  5
2425B
330
18
100
AcDbEntity
  8
0
100
AcDbLine
 10
-2941.788376713691
 20
-223.7245620903336
 30
0.0
 11
-2956.78837671369
 21
-223.7245620903336
 31
0.0
  0
LINE
  5
2425C
330
18
100
AcDbEntity
  8
実線
100
AcDbLine
 10
-2936.792428322561
 20
-213.2206770214406
 30
0.0
 11
-2936.792428322561
 21
-230.2206770214402
 31
0.0
  0
LINE
  5
243AF
330
18
100
AcDbEntity
  8
実線
100
AcDbLine
 10
-2937.539689507407
 20
-340.3717721402764
 30
0.0
 11
-2917.539689507407
 21
-340.3717721402764
 31
0.0
  0
LINE
  5
243B0
330
18
100
AcDbEntity
  8
実線
100
AcDbLine
 10
-2917.539689507407
 20
-340.3717721402764
 30
0.0
 11
-2917.539689507407
 21
-333.3717721402763
 31
0.0
  0
LINE
  5
243B1
330
18
100
AcDbEntity
  8
実線
100
AcDbLine
 10
-2917.539689507407
 20
-333.3717721402763
 30
0.0
 11
-2937.539689507407
 21
-333.3717721402763
 31
0.0
  0
LINE
  5
243E0
330
18
100
AcDbEntity
  8
実線
100
AcDbLine
 10
-3005.539689507408
 20
-314.8675871000227
 30
0.0
 11
-2969.21047875006
 21
-314.867587100023
 31
0.0
  0
LINE
  5
243E1
330
18
100
AcDbEntity
  8
実線
100
AcDbLine
 10
-2969.21047875006
 20
-314.867587100023
 30
0.0
 11
-2937.539689507407
 21
-314.867587100023
 31
0.0
  0
LINE
  5
243E2
330
18
100
AcDbEntity
  8
実線
100
AcDbLine
 10
-3005.539689507407
 20
-268.8675871000235
 30
0.0
 11
-2963.222670521818
 21
-268.8675871000236
 31
0.0
  0
LINE
  5
243E3
330
18
100
AcDbEntity
  8
実線
100
AcDbLine
 10
-2963.222670521818
 20
-268.8675871000236
 30
0.0
 11
-2937.539689507407
 21
-268.8675871000236
 31
0.0
  0
LINE
  5
243E4
330
18
100
AcDbEntity
  8
実線
100
AcDbLine
 10
-3002.539689507407
 20
-341.8675871000232
 30
0.0
 11
-3002.539689507408
 21
-316.8675871000227
 31
0.0
  0
LINE
  5
243E5
330
18
100
AcDbEntity
  8
実線
100
AcDbLine
 10
-3002.539689507407
 20
-266.8675871000235
 30
0.0
 11
-3002.539689507407
 21
-246.8675871000226
 31
0.0
  0
LINE
  5
243FC
330
18
100
AcDbEntity
  8
実線
100
AcDbLine
 10
-2810.6618294331
 20
-255.8675871000239
 30
0.0
 11
-2810.661829433101
 21
-246.8675871000239
 31
0.0
  0
LINE
  5
243FD
330
18
100
AcDbEntity
  8
中心線
  6
CENTER
 48
0.3
100
AcDbLine
 10
-2811.9841629738
 20
-251.8675871000231
 30
0.0
 11
-2827.650471861683
 21
-251.8675871000244
 31
0.0
  0
LINE
  5
243FE
330
18
100
AcDbEntity
  8
実線
100
AcDbLine
 10
-2810.6618294331
 20
-255.8675871000239
 30
0.0
 11
-2821.650471861689
 21
-255.8675871000246
 31
0.0
  0
LINE
  5
243FF
330
18
100
AcDbEntity
  8
実線
100
AcDbLine
 10
-2821.650471861687
 20
-266.8675871000244
 30
0.0
 11
-2821.650471861689
 21
-255.8675871000246
 31
0.0
  0
LINE
  5
24400
330
18
100
AcDbEntity
  8
実線
100
AcDbLine
 10
-2821.650471861687
 20
-266.8675871000244
 30
0.0
 11
-2825.650471861688
 21
-266.8675871000238
 31
0.0
  0
LINE
  5
24414
330
18
100
AcDbEntity
  8
実線
100
AcDbLine
 10
-2817.650471861679
 20
-341.867587100024
 30
0.0
 11
-2817.650471861682
 21
-332.3675871000239
 31
0.0
  0
LINE
  5
24415
330
18
100
AcDbEntity
  8
実線
100
AcDbLine
 10
-2817.650471861681
 20
-332.367587100024
 30
0.0
 11
-2810.650471861681
 21
-332.3675871000231
 31
0.0
  0
LINE
  5
24416
330
18
100
AcDbEntity
  8
実線
100
AcDbLine
 10
-2810.65047186168
 20
-332.3675871000231
 30
0.0
 11
-2810.650471861681
 21
-327.8675871000231
 31
0.0
  0
LINE
  5
24418
330
18
100
AcDbEntity
  8
実線
100
AcDbLine
 10
-2821.650471861681
 20
-327.8675871000245
 30
0.0
 11
-2810.650471861681
 21
-327.8675871000231
 31
0.0
  0
LINE
  5
24419
330
18
100
AcDbEntity
  8
実線
100
AcDbLine
 10
-2821.650471861681
 20
-327.8675871000246
 30
0.0
 11
-2821.650471861682
 21
-316.8675871000248
 31
0.0
  0
LINE
  5
2441A
330
18
100
AcDbEntity
  8
実線
100
AcDbLine
 10
-2821.650471861682
 20
-316.8675871000248
 30
0.0
 11
-2825.650471861682
 21
-316.8675871000246
 31
0.0
  0
LINE
  5
2441B
330
18
100
AcDbEntity
  8
中心線
 48
0.2
100
AcDbLine
 10
-2819.95047186168
 20
-333.2613102464118
 30
0.0
 11
-2819.95047186168
 21
-328.1357323902001
 31
0.0
  0
CIRCLE
  5
2441C
330
18
100
AcDbEntity
  8
実線
 48
0.1
100
AcDbCircle
 10
-2819.95047186168
 20
-330.3675871000243
 30
0.0
 40
1.25
  0
CIRCLE
  5
2441D
330
18
100
AcDbEntity
  8
細線
100
AcDbCircle
 10
-2819.95047186168
 20
-330.3675871000243
 30
0.0
 40
1.5
  0
LINE
  5
2441E
330
18
100
AcDbEntity
  8
中心線
  6
CENTER
 48
0.2
100
AcDbLine
 10
-2821.837587532995
 20
-330.3675871000243
 30
0.0
 11
-2817.002085046397
 21
-330.3675871000243
 31
0.0
  0
CIRCLE
  5
2441F
330
18
100
AcDbEntity
  8
細線
100
AcDbCircle
 10
-2819.95047186168
 20
-337.3675871000243
 30
0.0
 40
1.5
  0
CIRCLE
  5
24420
330
18
100
AcDbEntity
  8
実線
 48
0.1
100
AcDbCircle
 10
-2819.95047186168
 20
-337.3675871000243
 30
0.0
 40
1.25
  0
LINE
  5
24421
330
18
100
AcDbEntity
  8
中心線
  6
CENTER
 48
0.2
100
AcDbLine
 10
-2821.837587532995
 20
-337.3675871000243
 30
0.0
 11
-2817.002085046397
 21
-337.3675871000243
 31
0.0
  0
LINE
  5
24422
330
18
100
AcDbEntity
  8
中心線
 48
0.2
100
AcDbLine
 10
-2819.950471861679
 20
-339.9245578268236
 30
0.0
 11
-2819.95047186168
 21
-334.6640992107083
 31
0.0
  0
LINE
  5
24425
330
18
100
AcDbEntity
  8
実線
100
AcDbLine
 10
-3005.539689507407
 20
-313.4675871000248
 30
0.0
 11
-2937.539689507407
 21
-313.4675871000246
 31
0.0
  0
LINE
  5
24426
330
18
100
AcDbEntity
  8
実線
100
AcDbLine
 10
-3005.539689507407
 20
-270.2675871000248
 30
0.0
 11
-2937.539689507407
 21
-270.2675871000246
 31
0.0
  0
LINE
  5
2442A
330
18
100
AcDbEntity
  8
実線
100
AcDbLine
 10
-2825.650471861682
 20
-266.8675871000238
 30
0.0
 11
-2825.650471861682
 21
-268.0273900748122
 31
0.0
  0
LINE
  5
2442D
330
18
100
AcDbEntity
  8
実線
100
AcDbLine
 10
-2825.650471861682
 20
-315.7077841252366
 30
0.0
 11
-2825.650471861683
 21
-316.8675871000246
 31
0.0
  0
ARC
  5
244D1
330
18
100
AcDbEntity
  8
実線
 48
0.5
100
AcDbCircle
 10
-2824.650471861682
 20
-268.0273900748122
 30
0.0
 40
1.0
100
AcDbArc
 50
180.0000000000006
 51
260.0737544933445
  0
ARC
  5
244D2
330
18
100
AcDbEntity
  8
実線
100
AcDbCircle
 10
-2824.650471861682
 20
-315.7077841252371
 30
0.0
 40
1.0
100
AcDbArc
 50
99.92624550665249
 51
179.9999999999739
  0
ARC
  5
244D3
330
18
100
AcDbEntity
  8
実線
100
AcDbCircle
 10
-2818.650471861682
 20
-312.6273900748124
 30
0.0
 40
1.0
100
AcDbArc
 50
279.9262455066524
 51
0.0000000000048217
  0
ARC
  5
244D4
330
18
100
AcDbEntity
  8
実線
100
AcDbCircle
 10
-2818.650471861685
 20
-271.1077841252369
 30
0.0
 40
1.0
100
AcDbArc
 50
0.0000000000049362
 51
80.07375449334302
  0
LINE
  5
244D5
330
18
100
AcDbEntity
  8
２点鎖線
100
AcDbLine
 10
-2825.650471861683
 20
-237.6264102248078
 30
0.0
 11
-2825.65047186169
 21
-247.3675871000238
 31
0.0
  0
LINE
  5
244D6
330
18
100
AcDbEntity
  8
２点鎖線
100
AcDbLine
 10
-2825.650471861682
 20
-268.0273900748122
 30
0.0
 11
-2825.650471861682
 21
-315.7077841252363
 31
0.0
  0
LINE
  5
244D7
330
18
100
AcDbEntity
  8
２点鎖線
100
AcDbLine
 10
-2825.650471861679
 20
-341.3675871000247
 30
0.0
 11
-2825.650471861678
 21
-346.1087639752418
 31
0.0
  0
LINE
  5
244D9
330
18
100
AcDbEntity
  8
実線
100
AcDbLine
 10
-2936.792428322561
 20
-214.1706770214402
 30
0.0
 11
-2916.792428322562
 21
-214.1706770214403
 31
0.0
  0
LINE
  5
244DA
330
18
100
AcDbEntity
  8
実線
100
AcDbLine
 10
-2916.792428322562
 20
-221.1706770214403
 30
0.0
 11
-2936.792428322561
 21
-221.1706770214403
 31
0.0
  0
LINE
  5
244DB
330
18
100
AcDbEntity
  8
実線
100
AcDbLine
 10
-2916.792428322562
 20
-214.1706770214403
 30
0.0
 11
-2916.792428322562
 21
-221.1706770214403
 31
0.0
  0
LINE
  5
244DD
330
18
100
AcDbEntity
  8
実線
100
AcDbLine
 10
-2936.792428322561
 20
-215.2206770214402
 30
0.0
 11
-3002.974109741977
 21
-215.2206770214402
 31
0.0
  0
VIEWPORT
  5
23
330
15
100
AcDbEntity
 67
     1
  8
0
100
AcDbViewport
 10
199.9959689860175
 20
143.9991547931412
 30
0.0
 40
443.4955840629076
 41
290.2612294365209
 68
     1
 69
     1
1001
ACAD
1000
MVIEW
1002
{
1070
    16
1010
0.0
1020
0.0
1030
0.0
1010
0.0
1020
0.0
1030
1.0
1040
0.0
1040
290.2612294365209
1040
199.9959689860175
1040
143.9991547931412
1040
50.0
1040
0.0
1040
0.0
1070
     0
1070
   100
1070
     1
1070
     0
1070
     0
1070
     0
1070
     0
1070
     0
1040
0.0
1040
0.0
1040
0.0
1040
10.0
1040
10.0
1040
10.0
1040
10.0
1070
     0
1002
{
1002
}
1002
}
  0
VIEWPORT
  5
2E
330
15
100
AcDbEntity
 67
     1
  8
M_VIEW
100
AcDbViewport
 10
200.0
 20
144.0
 30
0.0
 40
400.0
 41
288.0
 68
     2
 69
     2
1001
ACAD
1000
MVIEW
1002
{
1070
    16
1010
0.0
1020
0.0
1030
0.0
1010
0.0
1020
0.0
1030
1.0
1040
0.0
1040
240.0499049846533
1040
-2872.465096299262
1040
-311.8089643841495
1040
50.0
1040
0.0
1040
0.0
1070
     0
1070
   100
1070
     1
1070
     0
1070
     0
1070
     0
1070
     0
1070
     0
1040
0.0
1040
0.0
1040
0.0
1040
10.0
1040
10.0
1040
10.0
1040
10.0
1070
     0
1002
{
1002
}
1002
}
  0
INSERT
  5
115F
330
15
100
AcDbEntity
 67
     1
  8
FRAME025
100
AcDbBlockReference
  2
機械A4横_LBP
 10
82.74908858651452
 20
152.030959079227
 30
0.0
  0
TEXT
  5
AA6A
330
15
100
AcDbEntity
 67
     1
  8
文字
  6
BYBLOCK
 62
     0
100
AcDbText
 10
32.81885892396519
 20
73.01882819621747
 30
0.0
 40
3.2
  1

 50
90.0
 41
0.625
  7
MSｺ_ｼｯｸ
100
AcDbText
  0
TEXT
  5
AA6C
330
15
100
AcDbEntity
 67
     1
  8
文字
  6
BYBLOCK
 62
     0
100
AcDbText
 10
37.25020936743055
 20
73.01882819621747
 30
0.0
 40
3.2
  1

 50
90.0
 41
0.625
  7
MSｺ_ｼｯｸ
100
AcDbText
  0
TEXT
  5
FCA5
330
15
100
AcDbEntity
 67
     1
  8
FRAME020
  6
CONTINUOUS
100
AcDbText
 10
126.6213117262079
 20
29.63926951973459
 30
0.0
 40
2.5
  1

 41
0.625
  7
MSｺ_ｼｯｸ
100
AcDbText
  0
TEXT
  5
12229
330
15
100
AcDbEntity
 67
     1
  8
0
100
AcDbText
 10
324.703280378293
 20
10.63168299257869
 30
0.0
 40
6.0
  1
ＳＥ－３７００１B
 41
1.1
100
AcDbText
  0
MTEXT
  5
21047
330
15
100
AcDbEntity
 67
     1
  8
0
 48
10.0
100
AcDbMText
 10
327.7719738752167
 20
55.46212977036839
 30
0.0
 40
6.0
 41
50.05040000000001
 71
     1
 72
     5
  1
{\fＭＳ ゴシック|b0|i0|c128|p49;\L質量：0.24kg}
1001
ACAD
1000
MTEXTBEGIN
1070
    73
1070
     1
1070
    44
1040
1.0
1070
    74
1070
     0
1000
MTEXTEND
1000
MTEXTBEGIN
1070
    73
1070
     1
1070
    44
1040
1.0
1070
    74
1070
     0
1000
MTEXTEND
  0
MTEXT
  5
24642
330
15
100
AcDbEntity
 67
     1
  8
実線
100
AcDbMText
 10
206.6121474647983
 20
24.63796443721832
 30
0.0
 40
6.0
 41
191.789959493035
 71
     1
 72
     5
  1
{\fＭＳ ゴシック|b0|i0|c128|p49;τﾘﾆｱﾓｰﾀ ｺｱﾚｽﾌﾗｯﾄ NVA-AM CLﾕﾆｯﾄ CLV-AMA30A2B 23N}
  7
ｽﾀｲﾙ3
1001
ACAD
1000
MTEXTBEGIN
1070
    73
1070
     1
1070
    44
1040
1.0
1070
    74
1070
     0
1000
MTEXTEND
1000
MTEXTBEGIN
1070
    73
1070
     1
1070
    44
1040
1.0
1070
    74
1070
     0
1000
MTEXTEND
1000
MTEXTBEGIN
1070
    73
1070
     1
1070
    44
1040
1.0
1070
    74
1070
     0
1000
MTEXTEND
  0
ENDSEC
  0
SECTION
  2
OBJECTS
  0
DICTIONARY
  5
C
330
0
100
AcDbDictionary
  3
ACAD_GROUP
350
D
  3
ACAD_LAYOUT
350
DB2
  3
ACAD_MLINESTYLE
350
1B
  3
ACAD_PLOTSETTINGS
350
DB3
  3
ACAD_PLOTSTYLENAME
350
FB5B
  3
ACADDIM
350
1B534
  3
ACDBHEADERROUNDTRIPXREC
350
246D3
  3
ACDBVARIABLEDICTIONARY
350
106A6
  3
ASE_INDEX_DICTIONARY
350
1A99F
  3
DWGPROPS
350
15EC9
1001
ACAD
1000
TREAT_AS_HARD
1070
     0
  0
DICTIONARY
  5
243B5
330
2
100
AcDbDictionary
280
     1
  3
ACAD_LAYERFILTERS
360
243B6
  3
ACAD_LAYERSTATES
360
243C2
  0
DICTIONARY
  5
EFC6
330
18
100
AcDbDictionary
280
     1
  3
ACAD_LAYOUTSELFREF
360
246F5
  0
DICTIONARY
  5
EFC4
330
15
100
AcDbDictionary
280
     1
  3
ACAD_LAYOUTSELFREF
360
246F4
  0
DICTIONARY
  5
D
102
{ACAD_REACTORS
330
C
102
}
330
C
100
AcDbDictionary
  3
*A1
350
AC8A
  3
*A10
350
2001F
  3
*A100
350
20013
  3
*A101
350
23F0E
  3
*A102
350
1EB80
  3
*A103
350
1A695
  3
*A104
350
1B73B
  3
*A105
350
1D68E
  3
*A106
350
18F21
  3
*A107
350
19861
  3
*A108
350
FCB8
  3
*A109
350
22A70
  3
*A11
350
23432
  3
*A110
350
23216
  3
*A111
350
17389
  3
*A112
350
1F918
  3
*A113
350
20016
  3
*A114
350
2002B
  3
*A115
350
173BE
  3
*A116
350
2284F
  3
*A117
350
1D698
  3
*A118
350
18F23
  3
*A119
350
ACAB
  3
*A12
350
20CA6
  3
*A120
350
22A73
  3
*A121
350
16068
  3
*A122
350
1F8F5
  3
*A123
350
23C26
  3
*A124
350
19988
  3
*A125
350
198F1
  3
*A126
350
1A691
  3
*A127
350
FC91
  3
*A128
350
20019
  3
*A129
350
FBFF
  3
*A13
350
ACA1
  3
*A130
350
173BF
  3
*A131
350
22CA2
  3
*A132
350
1D706
  3
*A133
350
2222F
  3
*A134
350
1998A
  3
*A135
350
1606A
  3
*A136
350
1D6FC
  3
*A137
350
19F99
  3
*A138
350
20236
  3
*A139
350
2263A
  3
*A14
350
19A86
  3
*A140
350
2001C
  3
*A141
350
1EB7F
  3
*A142
350
21D4E
  3
*A143
350
1F904
  3
*A144
350
20222
  3
*A145
350
19F55
  3
*A146
350
19787
  3
*A147
350
2284E
  3
*A148
350
1D6D4
  3
*A149
350
FC95
  3
*A15
350
1F90E
  3
*A150
350
22016
  3
*A151
350
2242E
  3
*A152
350
169DA
  3
*A153
350
2242F
  3
*A154
350
22A71
  3
*A155
350
22232
  3
*A156
350
1B720
  3
*A157
350
2263B
  3
*A158
350
22430
  3
*A159
350
22014
  3
*A16
350
21D4D
  3
*A160
350
20025
  3
*A161
350
1B732
  3
*A162
350
2284C
  3
*A163
350
18FA8
  3
*A164
350
19A5A
  3
*A165
350
1AA94
  3
*A166
350
22231
  3
*A167
350
22015
  3
*A168
350
22A72
  3
*A169
350
19794
  3
*A17
350
22639
  3
*A170
350
22CA1
  3
*A171
350
231F5
  3
*A172
350
AC9A
  3
*A173
350
ACB4
  3
*A174
350
2022C
  3
*A175
350
16059
  3
*A176
350
1D6A2
  3
*A177
350
2342F
  3
*A178
350
19989
  3
*A179
350
23C27
  3
*A18
350
23788
  3
*A180
350
16069
  3
*A181
350
173BD
  3
*A182
350
19FAB
  3
*A183
350
1B74D
  3
*A184
350
1F8FF
  3
*A185
350
16058
  3
*A186
350
20218
  3
*A187
350
196C2
  3
*A188
350
106C6
  3
*A19
350
1D6C0
  3
*A2
350
19255
  3
*A20
350
20CA2
  3
*A21
350
FB6B
  3
*A22
350
21E50
  3
*A23
350
22CA0
  3
*A24
350
2263C
  3
*A25
350
20028
  3
*A26
350
23789
  3
*A27
350
1EB7C
  3
*A28
350
2021D
  3
*A29
350
2342E
  3
*A3
350
1EB7E
  3
*A30
350
20227
  3
*A31
350
2378A
  3
*A32
350
17901
  3
*A33
350
1D670
  3
*A34
350
1D6CA
  3
*A35
350
23430
  3
*A36
350
22CA3
  3
*A37
350
FB6C
  3
*A38
350
17B11
  3
*A39
350
20231
  3
*A4
350
19259
  3
*A40
350
23F0C
  3
*A41
350
106A5
  3
*A42
350
2020E
  3
*A43
350
23F0D
  3
*A44
350
1D6B6
  3
*A45
350
19256
  3
*A46
350
1D6DE
  3
*A47
350
23F10
  3
*A48
350
1D6E8
  3
*A49
350
1F913
  3
*A5
350
23431
  3
*A50
350
19881
  3
*A51
350
21E86
  3
*A52
350
22230
  3
*A53
350
FC9A
  3
*A54
350
19AA4
  3
*A55
350
18F22
  3
*A56
350
1606B
  3
*A57
350
1D6AC
  3
*A58
350
231AE
  3
*A59
350
106B3
  3
*A6
350
1EB7D
  3
*A60
350
20213
  3
*A61
350
18FA6
  3
*A62
350
ACA2
  3
*A63
350
1D67A
  3
*A64
350
19786
  3
*A65
350
1B729
  3
*A66
350
1D684
  3
*A67
350
20010
  3
*A68
350
18F1F
  3
*A69
350
19729
  3
*A7
350
18F20
  3
*A70
350
1B744
  3
*A71
350
1F8F0
  3
*A72
350
1A692
  3
*A73
350
1A09A
  3
*A74
350
17BFF
  3
*A75
350
18FA7
  3
*A76
350
2284D
  3
*A77
350
106C7
  3
*A78
350
19F67
  3
*A79
350
1D6F2
  3
*A8
350
FC9B
  3
*A80
350
1B756
  3
*A81
350
19F87
  3
*A82
350
2242D
  3
*A83
350
19A51
  3
*A84
350
20209
  3
*A85
350
1D710
  3
*A86
350
22017
  3
*A87
350
1F909
  3
*A88
350
1F8FA
  3
*A89
350
ACBD
  3
*A9
350
1F91D
  3
*A90
350
19A52
  3
*A91
350
23F0F
  3
*A92
350
1738B
  3
*A93
350
20022
  3
*A94
350
1738A
  3
*A95
350
2378B
  3
*A96
350
2378C
  3
*A97
350
23C23
  3
*A98
350
23C24
  3
*A99
350
23C25
1001
ACAD
1000
TREAT_AS_HARD
1070
     0
  0
DICTIONARY
  5
DB2
102
{ACAD_REACTORS
330
C
102
}
330
C
100
AcDbDictionary
1001
ACAD
1000
TREAT_AS_HARD
1070
     0
  0
DICTIONARY
  5
1B
102
{ACAD_REACTORS
330
C
102
}
330
C
100
AcDbDictionary
  3
STANDARD
350
1C
1001
ACAD
1000
TREAT_AS_HARD
1070
     0
  0
DICTIONARY
  5
DB3
102
{ACAD_REACTORS
330
C
102
}
330
C
100
AcDbDictionary
1001
ACAD
1000
TREAT_AS_HARD
1070
     0
  0
ACDBDICTIONARYWDFLT
  5
FB5B
102
{ACAD_REACTORS
330
C
102
}
330
C
100
AcDbDictionary
281
     1
  3
Normal
350
FB5C
100
AcDbDictionaryWithDefault
340
FB5C
  0
XRECORD
  5
1B534
102
{ACAD_REACTORS
330
C
102
}
330
C
100
AcDbXrecord
 90
   990106
  3

 60
     0
 61
     0
 62
     4
 63
     4
 64
     1
 65
     0
 66
     0
 67
     3
 68
     1
 69
     0
 70
     0
 71
     0
 72
     0
 40
0.0
170
     2
340
0
  0
DICTIONARY
  5
246D3
102
{ACAD_REACTORS
330
C
102
}
330
C
100
AcDbDictionary
  3
CEPSNTYPE
350
246DD
  3
DIMSTYLEDATA
350
246E1
  3
FINGERPRINTGUID
350
246DE
  3
HYPERLINKBASE
350
246D6
  3
INSUNITS
350
246DC
  3
LAYOUTDICT
350
246D8
  3
LWETCUNION
350
246DB
  3
PLOTSETDICT
350
246D9
  3
PLOTSTYLNAMDICT
350
246DA
  3
PSVPSCALE
350
246E0
  3
PUCSBASE
350
246E4
  3
PUCSORGBACK
350
246EA
  3
PUCSORGBOTTOM
350
246E6
  3
PUCSORGFRONT
350
246E9
  3
PUCSORGLEFT
350
246E7
  3
PUCSORGRIGHT
350
246E8
  3
PUCSORGTOP
350
246E5
  3
PUCSORTHOREF
350
246E2
  3
PUCSORTHOVIEW
350
246E3
  3
STYLESHEET
350
246D7
  3
TSTACKALIGN
350
246D4
  3
TSTACKSIZE
350
246D5
  3
UCSBASE
350
246ED
  3
UCSORGBACK
350
246F3
  3
UCSORGBOTTOM
350
246EF
  3
UCSORGFRONT
350
246F2
  3
UCSORGLEFT
350
246F0
  3
UCSORGRIGHT
350
246F1
  3
UCSORGTOP
350
246EE
  3
UCSORTHOREF
350
246EB
  3
UCSORTHOVIEW
350
246EC
  3
VERSIONGUID
350
246DF
  0
DICTIONARY
  5
106A6
102
{ACAD_REACTORS
330
C
102
}
330
C
100
AcDbDictionary
  3
SORTENTS
350
106A7
  0
DICTIONARY
  5
1A99F
102
{ACAD_REACTORS
330
C
102
}
330
C
100
AcDbDictionary
  3
ASEBLOCKHIERARCHYINDEXRECORD
350
1A9A1
1001
DCO15
1040
1464612067.17
  0
XRECORD
  5
15EC9
102
{ACAD_REACTORS
330
C
102
}
330
C
100
AcDbXrecord
  1
DWGPROPS COOKIE
  2

  3

  4

  6

  7

  8

  9

300
=
301
=
302
=
303
=
304
=
305
=
306
=
307
=
308
=
309
=
 40
12.65185717592592
 41
2451224.660162384
 42
2452395.660827315
  1

 90
        0
  0
DICTIONARY
  5
243B6
102
{ACAD_REACTORS
330
243B5
102
}
330
243B5
100
AcDbDictionary
280
     1
  3
0
360
243B7
  3
11
360
243B8
  3
150_
360
243B9
  3
160_
360
243BA
  3
170_
360
243BB
  3
171_
360
243BC
  3
350_
360
243BD
  3
4
360
243BE
  3
5
360
243BF
  3
7
360
243C0
  3
KISEKI
360
243C1
  0
DICTIONARY
  5
243C2
102
{ACAD_REACTORS
330
243B5
102
}
330
243B5
100
AcDbDictionary
  0
XRECORD
  5
246F5
102
{ACAD_REACTORS
330
EFC6
102
}
330
EFC6
100
AcDbXrecord
340
18
  0
XRECORD
  5
246F4
102
{ACAD_REACTORS
330
EFC4
102
}
330
EFC4
100
AcDbXrecord
340
15
  0
GROUP
  5
AC8A
102
{ACAD_REACTORS
330
D
102
}
330
D
100
AcDbGroup
300

 70
     1
 71
     1
  0
GROUP
  5
2001F
102
{ACAD_REACTORS
330
D
102
}
330
D
100
AcDbGroup
300

 70
     1
 71
     1
  0
GROUP
  5
20013
102
{ACAD_REACTORS
330
D
102
}
330
D
100
AcDbGroup
300

 70
     1
 71
     1
  0
GROUP
  5
23F0E
102
{ACAD_REACTORS
330
D
102
}
330
D
100
AcDbGroup
300

 70
     1
 71
     1
  0
GROUP
  5
1EB80
102
{ACAD_REACTORS
330
D
102
}
330
D
100
AcDbGroup
300

 70
     1
 71
     1
  0
GROUP
  5
1A695
102
{ACAD_REACTORS
330
D
102
}
330
D
100
AcDbGroup
300

 70
     1
 71
     1
  0
GROUP
  5
1B73B
102
{ACAD_REACTORS
330
D
102
}
330
D
100
AcDbGroup
300

 70
     1
 71
     1
  0
GROUP
  5
1D68E
102
{ACAD_REACTORS
330
D
102
}
330
D
100
AcDbGroup
300

 70
     1
 71
     1
  0
GROUP
  5
18F21
102
{ACAD_REACTORS
330
D
102
}
330
D
100
AcDbGroup
300

 70
     1
 71
     1
  0
GROUP
  5
19861
102
{ACAD_REACTORS
330
D
102
}
330
D
100
AcDbGroup
300

 70
     1
 71
     1
  0
GROUP
  5
FCB8
102
{ACAD_REACTORS
330
D
102
}
330
D
100
AcDbGroup
300

 70
     1
 71
     1
  0
GROUP
  5
22A70
102
{ACAD_REACTORS
330
D
102
}
330
D
100
AcDbGroup
300

 70
     1
 71
     1
  0
GROUP
  5
23432
102
{ACAD_REACTORS
330
D
102
}
330
D
100
AcDbGroup
300

 70
     1
 71
     1
  0
GROUP
  5
23216
102
{ACAD_REACTORS
330
D
102
}
330
D
100
AcDbGroup
300

 70
     1
 71
     1
340
216D9
340
216DC
340
216DD
340
216D8
340
216B7
340
216CC
340
216C9
340
216CA
340
216C8
340
216CB
340
216B8
340
216B9
  0
GROUP
  5
17389
102
{ACAD_REACTORS
330
D
102
}
330
D
100
AcDbGroup
300

 70
     1
 71
     1
  0
GROUP
  5
1F918
102
{ACAD_REACTORS
330
D
102
}
330
D
100
AcDbGroup
300

 70
     1
 71
     1
  0
GROUP
  5
20016
102
{ACAD_REACTORS
330
D
102
}
330
D
100
AcDbGroup
300

 70
     1
 71
     1
  0
GROUP
  5
2002B
102
{ACAD_REACTORS
330
D
102
}
330
D
100
AcDbGroup
300

 70
     1
 71
     1
  0
GROUP
  5
173BE
102
{ACAD_REACTORS
330
D
102
}
330
D
100
AcDbGroup
300

 70
     1
 71
     1
  0
GROUP
  5
2284F
102
{ACAD_REACTORS
330
D
102
}
330
D
100
AcDbGroup
300

 70
     1
 71
     1
  0
GROUP
  5
1D698
102
{ACAD_REACTORS
330
D
102
}
330
D
100
AcDbGroup
300

 70
     1
 71
     1
  0
GROUP
  5
18F23
102
{ACAD_REACTORS
330
D
102
}
330
D
100
AcDbGroup
300

 70
     1
 71
     1
  0
GROUP
  5
ACAB
102
{ACAD_REACTORS
330
D
102
}
330
D
100
AcDbGroup
300

 70
     1
 71
     1
  0
GROUP
  5
20CA6
102
{ACAD_REACTORS
330
D
102
}
330
D
100
AcDbGroup
300

 70
     1
 71
     1
  0
GROUP
  5
22A73
102
{ACAD_REACTORS
330
D
102
}
330
D
100
AcDbGroup
300

 70
     1
 71
     1
  0
GROUP
  5
16068
102
{ACAD_REACTORS
330
D
102
}
330
D
100
AcDbGroup
300

 70
     1
 71
     1
  0
GROUP
  5
1F8F5
102
{ACAD_REACTORS
330
D
102
}
330
D
100
AcDbGroup
300

 70
     1
 71
     1
  0
GROUP
  5
23C26
102
{ACAD_REACTORS
330
D
102
}
330
D
100
AcDbGroup
300

 70
     1
 71
     1
  0
GROUP
  5
19988
102
{ACAD_REACTORS
330
D
102
}
330
D
100
AcDbGroup
300

 70
     1
 71
     1
  0
GROUP
  5
198F1
102
{ACAD_REACTORS
330
D
102
}
330
D
100
AcDbGroup
300

 70
     1
 71
     1
  0
GROUP
  5
1A691
102
{ACAD_REACTORS
330
D
102
}
330
D
100
AcDbGroup
300

 70
     1
 71
     1
  0
GROUP
  5
FC91
102
{ACAD_REACTORS
330
D
102
}
330
D
100
AcDbGroup
300

 70
     1
 71
     1
  0
GROUP
  5
20019
102
{ACAD_REACTORS
330
D
102
}
330
D
100
AcDbGroup
300

 70
     1
 71
     1
  0
GROUP
  5
FBFF
102
{ACAD_REACTORS
330
D
102
}
330
D
100
AcDbGroup
300

 70
     1
 71
     1
  0
GROUP
  5
ACA1
102
{ACAD_REACTORS
330
D
102
}
330
D
100
AcDbGroup
300

 70
     1
 71
     1
  0
GROUP
  5
173BF
102
{ACAD_REACTORS
330
D
102
}
330
D
100
AcDbGroup
300

 70
     1
 71
     1
  0
GROUP
  5
22CA2
102
{ACAD_REACTORS
330
D
102
}
330
D
100
AcDbGroup
300

 70
     1
 71
     1
  0
GROUP
  5
1D706
102
{ACAD_REACTORS
330
D
102
}
330
D
100
AcDbGroup
300

 70
     1
 71
     1
  0
GROUP
  5
2222F
102
{ACAD_REACTORS
330
D
102
}
330
D
100
AcDbGroup
300

 70
     1
 71
     1
  0
GROUP
  5
1998A
102
{ACAD_REACTORS
330
D
102
}
330
D
100
AcDbGroup
300

 70
     1
 71
     1
  0
GROUP
  5
1606A
102
{ACAD_REACTORS
330
D
102
}
330
D
100
AcDbGroup
300

 70
     1
 71
     1
  0
GROUP
  5
1D6FC
102
{ACAD_REACTORS
330
D
102
}
330
D
100
AcDbGroup
300

 70
     1
 71
     1
  0
GROUP
  5
19F99
102
{ACAD_REACTORS
330
D
102
}
330
D
100
AcDbGroup
300

 70
     1
 71
     1
  0
GROUP
  5
20236
102
{ACAD_REACTORS
330
D
102
}
330
D
100
AcDbGroup
300

 70
     1
 71
     1
  0
GROUP
  5
2263A
102
{ACAD_REACTORS
330
D
102
}
330
D
100
AcDbGroup
300

 70
     1
 71
     1
  0
GROUP
  5
19A86
102
{ACAD_REACTORS
330
D
102
}
330
D
100
AcDbGroup
300

 70
     1
 71
     1
  0
GROUP
  5
2001C
102
{ACAD_REACTORS
330
D
102
}
330
D
100
AcDbGroup
300

 70
     1
 71
     1
  0
GROUP
  5
1EB7F
102
{ACAD_REACTORS
330
D
102
}
330
D
100
AcDbGroup
300

 70
     1
 71
     1
  0
GROUP
  5
21D4E
102
{ACAD_REACTORS
330
D
102
}
330
D
100
AcDbGroup
300

 70
     1
 71
     1
  0
GROUP
  5
1F904
102
{ACAD_REACTORS
330
D
102
}
330
D
100
AcDbGroup
300

 70
     1
 71
     1
  0
GROUP
  5
20222
102
{ACAD_REACTORS
330
D
102
}
330
D
100
AcDbGroup
300

 70
     1
 71
     1
  0
GROUP
  5
19F55
102
{ACAD_REACTORS
330
D
102
}
330
D
100
AcDbGroup
300

 70
     1
 71
     1
  0
GROUP
  5
19787
102
{ACAD_REACTORS
330
D
102
}
330
D
100
AcDbGroup
300

 70
     1
 71
     1
  0
GROUP
  5
2284E
102
{ACAD_REACTORS
330
D
102
}
330
D
100
AcDbGroup
300

 70
     1
 71
     1
  0
GROUP
  5
1D6D4
102
{ACAD_REACTORS
330
D
102
}
330
D
100
AcDbGroup
300

 70
     1
 71
     1
  0
GROUP
  5
FC95
102
{ACAD_REACTORS
330
D
102
}
330
D
100
AcDbGroup
300

 70
     1
 71
     1
  0
GROUP
  5
1F90E
102
{ACAD_REACTORS
330
D
102
}
330
D
100
AcDbGroup
300

 70
     1
 71
     1
  0
GROUP
  5
22016
102
{ACAD_REACTORS
330
D
102
}
330
D
100
AcDbGroup
300

 70
     1
 71
     1
  0
GROUP
  5
2242E
102
{ACAD_REACTORS
330
D
102
}
330
D
100
AcDbGroup
300

 70
     1
 71
     1
  0
GROUP
  5
169DA
102
{ACAD_REACTORS
330
D
102
}
330
D
100
AcDbGroup
300

 70
     1
 71
     1
  0
GROUP
  5
2242F
102
{ACAD_REACTORS
330
D
102
}
330
D
100
AcDbGroup
300

 70
     1
 71
     1
  0
GROUP
  5
22A71
102
{ACAD_REACTORS
330
D
102
}
330
D
100
AcDbGroup
300

 70
     1
 71
     1
  0
GROUP
  5
22232
102
{ACAD_REACTORS
330
D
102
}
330
D
100
AcDbGroup
300

 70
     1
 71
     1
  0
GROUP
  5
1B720
102
{ACAD_REACTORS
330
D
102
}
330
D
100
AcDbGroup
300

 70
     1
 71
     1
  0
GROUP
  5
2263B
102
{ACAD_REACTORS
330
D
102
}
330
D
100
AcDbGroup
300

 70
     1
 71
     1
  0
GROUP
  5
22430
102
{ACAD_REACTORS
330
D
102
}
330
D
100
AcDbGroup
300

 70
     1
 71
     1
  0
GROUP
  5
22014
102
{ACAD_REACTORS
330
D
102
}
330
D
100
AcDbGroup
300

 70
     1
 71
     1
  0
GROUP
  5
21D4D
102
{ACAD_REACTORS
330
D
102
}
330
D
100
AcDbGroup
300

 70
     1
 71
     1
  0
GROUP
  5
20025
102
{ACAD_REACTORS
330
D
102
}
330
D
100
AcDbGroup
300

 70
     1
 71
     1
  0
GROUP
  5
1B732
102
{ACAD_REACTORS
330
D
102
}
330
D
100
AcDbGroup
300

 70
     1
 71
     1
  0
GROUP
  5
2284C
102
{ACAD_REACTORS
330
D
102
}
330
D
100
AcDbGroup
300

 70
     1
 71
     1
  0
GROUP
  5
18FA8
102
{ACAD_REACTORS
330
D
102
}
330
D
100
AcDbGroup
300

 70
     1
 71
     1
  0
GROUP
  5
19A5A
102
{ACAD_REACTORS
330
D
102
}
330
D
100
AcDbGroup
300

 70
     1
 71
     1
  0
GROUP
  5
1AA94
102
{ACAD_REACTORS
330
D
102
}
330
D
100
AcDbGroup
300

 70
     1
 71
     1
  0
GROUP
  5
22231
102
{ACAD_REACTORS
330
D
102
}
330
D
100
AcDbGroup
300

 70
     1
 71
     1
  0
GROUP
  5
22015
102
{ACAD_REACTORS
330
D
102
}
330
D
100
AcDbGroup
300

 70
     1
 71
     1
  0
GROUP
  5
22A72
102
{ACAD_REACTORS
330
D
102
}
330
D
100
AcDbGroup
300

 70
     1
 71
     1
  0
GROUP
  5
19794
102
{ACAD_REACTORS
330
D
102
}
330
D
100
AcDbGroup
300

 70
     1
 71
     1
  0
GROUP
  5
22639
102
{ACAD_REACTORS
330
D
102
}
330
D
100
AcDbGroup
300

 70
     1
 71
     1
  0
GROUP
  5
22CA1
102
{ACAD_REACTORS
330
D
102
}
330
D
100
AcDbGroup
300

 70
     1
 71
     1
  0
GROUP
  5
231F5
102
{ACAD_REACTORS
330
D
102
}
330
D
100
AcDbGroup
300

 70
     1
 71
     1
340
21692
340
2163E
340
21639
  0
GROUP
  5
AC9A
102
{ACAD_REACTORS
330
D
102
}
330
D
100
AcDbGroup
300

 70
     1
 71
     1
  0
GROUP
  5
ACB4
102
{ACAD_REACTORS
330
D
102
}
330
D
100
AcDbGroup
300

 70
     1
 71
     1
  0
GROUP
  5
2022C
102
{ACAD_REACTORS
330
D
102
}
330
D
100
AcDbGroup
300

 70
     1
 71
     1
  0
GROUP
  5
16059
102
{ACAD_REACTORS
330
D
102
}
330
D
100
AcDbGroup
300

 70
     1
 71
     1
  0
GROUP
  5
1D6A2
102
{ACAD_REACTORS
330
D
102
}
330
D
100
AcDbGroup
300

 70
     1
 71
     1
  0
GROUP
  5
2342F
102
{ACAD_REACTORS
330
D
102
}
330
D
100
AcDbGroup
300

 70
     1
 71
     1
  0
GROUP
  5
19989
102
{ACAD_REACTORS
330
D
102
}
330
D
100
AcDbGroup
300

 70
     1
 71
     1
  0
GROUP
  5
23C27
102
{ACAD_REACTORS
330
D
102
}
330
D
100
AcDbGroup
300

 70
     1
 71
     1
  0
GROUP
  5
23788
102
{ACAD_REACTORS
330
D
102
}
330
D
100
AcDbGroup
300

 70
     1
 71
     1
  0
GROUP
  5
16069
102
{ACAD_REACTORS
330
D
102
}
330
D
100
AcDbGroup
300

 70
     1
 71
     1
  0
GROUP
  5
173BD
102
{ACAD_REACTORS
330
D
102
}
330
D
100
AcDbGroup
300

 70
     1
 71
     1
  0
GROUP
  5
19FAB
102
{ACAD_REACTORS
330
D
102
}
330
D
100
AcDbGroup
300

 70
     1
 71
     1
  0
GROUP
  5
1B74D
102
{ACAD_REACTORS
330
D
102
}
330
D
100
AcDbGroup
300

 70
     1
 71
     1
  0
GROUP
  5
1F8FF
102
{ACAD_REACTORS
330
D
102
}
330
D
100
AcDbGroup
300

 70
     1
 71
     1
  0
GROUP
  5
16058
102
{ACAD_REACTORS
330
D
102
}
330
D
100
AcDbGroup
300

 70
     1
 71
     1
  0
GROUP
  5
20218
102
{ACAD_REACTORS
330
D
102
}
330
D
100
AcDbGroup
300

 70
     1
 71
     1
  0
GROUP
  5
196C2
102
{ACAD_REACTORS
330
D
102
}
330
D
100
AcDbGroup
300

 70
     1
 71
     1
  0
GROUP
  5
106C6
102
{ACAD_REACTORS
330
D
102
}
330
D
100
AcDbGroup
300

 70
     1
 71
     1
  0
GROUP
  5
1D6C0
102
{ACAD_REACTORS
330
D
102
}
330
D
100
AcDbGroup
300

 70
     1
 71
     1
  0
GROUP
  5
19255
102
{ACAD_REACTORS
330
D
102
}
330
D
100
AcDbGroup
300

 70
     1
 71
     1
  0
GROUP
  5
20CA2
102
{ACAD_REACTORS
330
D
102
}
330
D
100
AcDbGroup
300

 70
     1
 71
     1
  0
GROUP
  5
FB6B
102
{ACAD_REACTORS
330
D
102
}
330
D
100
AcDbGroup
300

 70
     1
 71
     1
  0
GROUP
  5
21E50
102
{ACAD_REACTORS
330
D
102
}
330
D
100
AcDbGroup
300

 70
     1
 71
     1
  0
GROUP
  5
22CA0
102
{ACAD_REACTORS
330
D
102
}
330
D
100
AcDbGroup
300

 70
     1
 71
     1
  0
GROUP
  5
2263C
102
{ACAD_REACTORS
330
D
102
}
330
D
100
AcDbGroup
300

 70
     1
 71
     1
  0
GROUP
  5
20028
102
{ACAD_REACTORS
330
D
102
}
330
D
100
AcDbGroup
300

 70
     1
 71
     1
  0
GROUP
  5
23789
102
{ACAD_REACTORS
330
D
102
}
330
D
100
AcDbGroup
300

 70
     1
 71
     1
  0
GROUP
  5
1EB7C
102
{ACAD_REACTORS
330
D
102
}
330
D
100
AcDbGroup
300

 70
     1
 71
     1
  0
GROUP
  5
2021D
102
{ACAD_REACTORS
330
D
102
}
330
D
100
AcDbGroup
300

 70
     1
 71
     1
  0
GROUP
  5
2342E
102
{ACAD_REACTORS
330
D
102
}
330
D
100
AcDbGroup
300

 70
     1
 71
     1
  0
GROUP
  5
1EB7E
102
{ACAD_REACTORS
330
D
102
}
330
D
100
AcDbGroup
300

 70
     1
 71
     1
  0
GROUP
  5
20227
102
{ACAD_REACTORS
330
D
102
}
330
D
100
AcDbGroup
300

 70
     1
 71
     1
  0
GROUP
  5
2378A
102
{ACAD_REACTORS
330
D
102
}
330
D
100
AcDbGroup
300

 70
     1
 71
     1
  0
GROUP
  5
17901
102
{ACAD_REACTORS
330
D
102
}
330
D
100
AcDbGroup
300

 70
     1
 71
     1
  0
GROUP
  5
1D670
102
{ACAD_REACTORS
330
D
102
}
330
D
100
AcDbGroup
300

 70
     1
 71
     1
  0
GROUP
  5
1D6CA
102
{ACAD_REACTORS
330
D
102
}
330
D
100
AcDbGroup
300

 70
     1
 71
     1
  0
GROUP
  5
23430
102
{ACAD_REACTORS
330
D
102
}
330
D
100
AcDbGroup
300

 70
     1
 71
     1
  0
GROUP
  5
22CA3
102
{ACAD_REACTORS
330
D
102
}
330
D
100
AcDbGroup
300

 70
     1
 71
     1
  0
GROUP
  5
FB6C
102
{ACAD_REACTORS
330
D
102
}
330
D
100
AcDbGroup
300

 70
     1
 71
     1
  0
GROUP
  5
17B11
102
{ACAD_REACTORS
330
D
102
}
330
D
100
AcDbGroup
300

 70
     1
 71
     1
  0
GROUP
  5
20231
102
{ACAD_REACTORS
330
D
102
}
330
D
100
AcDbGroup
300

 70
     1
 71
     1
  0
GROUP
  5
19259
102
{ACAD_REACTORS
330
D
102
}
330
D
100
AcDbGroup
300

 70
     1
 71
     1
  0
GROUP
  5
23F0C
102
{ACAD_REACTORS
330
D
102
}
330
D
100
AcDbGroup
300

 70
     1
 71
     1
  0
GROUP
  5
106A5
102
{ACAD_REACTORS
330
D
102
}
330
D
100
AcDbGroup
300

 70
     1
 71
     1
  0
GROUP
  5
2020E
102
{ACAD_REACTORS
330
D
102
}
330
D
100
AcDbGroup
300

 70
     1
 71
     1
  0
GROUP
  5
23F0D
102
{ACAD_REACTORS
330
D
102
}
330
D
100
AcDbGroup
300

 70
     1
 71
     1
  0
GROUP
  5
1D6B6
102
{ACAD_REACTORS
330
D
102
}
330
D
100
AcDbGroup
300

 70
     1
 71
     1
  0
GROUP
  5
19256
102
{ACAD_REACTORS
330
D
102
}
330
D
100
AcDbGroup
300

 70
     1
 71
     1
  0
GROUP
  5
1D6DE
102
{ACAD_REACTORS
330
D
102
}
330
D
100
AcDbGroup
300

 70
     1
 71
     1
  0
GROUP
  5
23F10
102
{ACAD_REACTORS
330
D
102
}
330
D
100
AcDbGroup
300

 70
     1
 71
     1
  0
GROUP
  5
1D6E8
102
{ACAD_REACTORS
330
D
102
}
330
D
100
AcDbGroup
300

 70
     1
 71
     1
  0
GROUP
  5
1F913
102
{ACAD_REACTORS
330
D
102
}
330
D
100
AcDbGroup
300

 70
     1
 71
     1
  0
GROUP
  5
23431
102
{ACAD_REACTORS
330
D
102
}
330
D
100
AcDbGroup
300

 70
     1
 71
     1
  0
GROUP
  5
19881
102
{ACAD_REACTORS
330
D
102
}
330
D
100
AcDbGroup
300

 70
     1
 71
     1
  0
GROUP
  5
21E86
102
{ACAD_REACTORS
330
D
102
}
330
D
100
AcDbGroup
300

 70
     1
 71
     1
  0
GROUP
  5
22230
102
{ACAD_REACTORS
330
D
102
}
330
D
100
AcDbGroup
300

 70
     1
 71
     1
  0
GROUP
  5
FC9A
102
{ACAD_REACTORS
330
D
102
}
330
D
100
AcDbGroup
300

 70
     1
 71
     1
  0
GROUP
  5
19AA4
102
{ACAD_REACTORS
330
D
102
}
330
D
100
AcDbGroup
300

 70
     1
 71
     1
  0
GROUP
  5
18F22
102
{ACAD_REACTORS
330
D
102
}
330
D
100
AcDbGroup
300

 70
     1
 71
     1
  0
GROUP
  5
1606B
102
{ACAD_REACTORS
330
D
102
}
330
D
100
AcDbGroup
300

 70
     1
 71
     1
  0
GROUP
  5
1D6AC
102
{ACAD_REACTORS
330
D
102
}
330
D
100
AcDbGroup
300

 70
     1
 71
     1
  0
GROUP
  5
231AE
102
{ACAD_REACTORS
330
D
102
}
330
D
100
AcDbGroup
300

 70
     1
 71
     1
  0
GROUP
  5
106B3
102
{ACAD_REACTORS
330
D
102
}
330
D
100
AcDbGroup
300

 70
     1
 71
     1
  0
GROUP
  5
1EB7D
102
{ACAD_REACTORS
330
D
102
}
330
D
100
AcDbGroup
300

 70
     1
 71
     1
  0
GROUP
  5
20213
102
{ACAD_REACTORS
330
D
102
}
330
D
100
AcDbGroup
300

 70
     1
 71
     1
  0
GROUP
  5
18FA6
102
{ACAD_REACTORS
330
D
102
}
330
D
100
AcDbGroup
300

 70
     1
 71
     1
  0
GROUP
  5
ACA2
102
{ACAD_REACTORS
330
D
102
}
330
D
100
AcDbGroup
300

 70
     1
 71
     1
  0
GROUP
  5
1D67A
102
{ACAD_REACTORS
330
D
102
}
330
D
100
AcDbGroup
300

 70
     1
 71
     1
  0
GROUP
  5
19786
102
{ACAD_REACTORS
330
D
102
}
330
D
100
AcDbGroup
300

 70
     1
 71
     1
  0
GROUP
  5
1B729
102
{ACAD_REACTORS
330
D
102
}
330
D
100
AcDbGroup
300

 70
     1
 71
     1
  0
GROUP
  5
1D684
102
{ACAD_REACTORS
330
D
102
}
330
D
100
AcDbGroup
300

 70
     1
 71
     1
  0
GROUP
  5
20010
102
{ACAD_REACTORS
330
D
102
}
330
D
100
AcDbGroup
300

 70
     1
 71
     1
  0
GROUP
  5
18F1F
102
{ACAD_REACTORS
330
D
102
}
330
D
100
AcDbGroup
300

 70
     1
 71
     1
  0
GROUP
  5
19729
102
{ACAD_REACTORS
330
D
102
}
330
D
100
AcDbGroup
300

 70
     1
 71
     1
  0
GROUP
  5
18F20
102
{ACAD_REACTORS
330
D
102
}
330
D
100
AcDbGroup
300

 70
     1
 71
     1
  0
GROUP
  5
1B744
102
{ACAD_REACTORS
330
D
102
}
330
D
100
AcDbGroup
300

 70
     1
 71
     1
  0
GROUP
  5
1F8F0
102
{ACAD_REACTORS
330
D
102
}
330
D
100
AcDbGroup
300

 70
     1
 71
     1
  0
GROUP
  5
1A692
102
{ACAD_REACTORS
330
D
102
}
330
D
100
AcDbGroup
300

 70
     1
 71
     1
  0
GROUP
  5
1A09A
102
{ACAD_REACTORS
330
D
102
}
330
D
100
AcDbGroup
300

 70
     1
 71
     1
  0
GROUP
  5
17BFF
102
{ACAD_REACTORS
330
D
102
}
330
D
100
AcDbGroup
300

 70
     1
 71
     1
  0
GROUP
  5
18FA7
102
{ACAD_REACTORS
330
D
102
}
330
D
100
AcDbGroup
300

 70
     1
 71
     1
  0
GROUP
  5
2284D
102
{ACAD_REACTORS
330
D
102
}
330
D
100
AcDbGroup
300

 70
     1
 71
     1
  0
GROUP
  5
106C7
102
{ACAD_REACTORS
330
D
102
}
330
D
100
AcDbGroup
300

 70
     1
 71
     1
  0
GROUP
  5
19F67
102
{ACAD_REACTORS
330
D
102
}
330
D
100
AcDbGroup
300

 70
     1
 71
     1
  0
GROUP
  5
1D6F2
102
{ACAD_REACTORS
330
D
102
}
330
D
100
AcDbGroup
300

 70
     1
 71
     1
  0
GROUP
  5
FC9B
102
{ACAD_REACTORS
330
D
102
}
330
D
100
AcDbGroup
300

 70
     1
 71
     1
  0
GROUP
  5
1B756
102
{ACAD_REACTORS
330
D
102
}
330
D
100
AcDbGroup
300

 70
     1
 71
     1
  0
GROUP
  5
19F87
102
{ACAD_REACTORS
330
D
102
}
330
D
100
AcDbGroup
300

 70
     1
 71
     1
  0
GROUP
  5
2242D
102
{ACAD_REACTORS
330
D
102
}
330
D
100
AcDbGroup
300

 70
     1
 71
     1
  0
GROUP
  5
19A51
102
{ACAD_REACTORS
330
D
102
}
330
D
100
AcDbGroup
300

 70
     1
 71
     1
  0
GROUP
  5
20209
102
{ACAD_REACTORS
330
D
102
}
330
D
100
AcDbGroup
300

 70
     1
 71
     1
  0
GROUP
  5
1D710
102
{ACAD_REACTORS
330
D
102
}
330
D
100
AcDbGroup
300

 70
     1
 71
     1
  0
GROUP
  5
22017
102
{ACAD_REACTORS
330
D
102
}
330
D
100
AcDbGroup
300

 70
     1
 71
     1
  0
GROUP
  5
1F909
102
{ACAD_REACTORS
330
D
102
}
330
D
100
AcDbGroup
300

 70
     1
 71
     1
  0
GROUP
  5
1F8FA
102
{ACAD_REACTORS
330
D
102
}
330
D
100
AcDbGroup
300

 70
     1
 71
     1
  0
GROUP
  5
ACBD
102
{ACAD_REACTORS
330
D
102
}
330
D
100
AcDbGroup
300

 70
     1
 71
     1
  0
GROUP
  5
1F91D
102
{ACAD_REACTORS
330
D
102
}
330
D
100
AcDbGroup
300

 70
     1
 71
     1
  0
GROUP
  5
19A52
102
{ACAD_REACTORS
330
D
102
}
330
D
100
AcDbGroup
300

 70
     1
 71
     1
  0
GROUP
  5
23F0F
102
{ACAD_REACTORS
330
D
102
}
330
D
100
AcDbGroup
300

 70
     1
 71
     1
  0
GROUP
  5
1738B
102
{ACAD_REACTORS
330
D
102
}
330
D
100
AcDbGroup
300

 70
     1
 71
     1
  0
GROUP
  5
20022
102
{ACAD_REACTORS
330
D
102
}
330
D
100
AcDbGroup
300

 70
     1
 71
     1
  0
GROUP
  5
1738A
102
{ACAD_REACTORS
330
D
102
}
330
D
100
AcDbGroup
300

 70
     1
 71
     1
  0
GROUP
  5
2378B
102
{ACAD_REACTORS
330
D
102
}
330
D
100
AcDbGroup
300

 70
     1
 71
     1
  0
GROUP
  5
2378C
102
{ACAD_REACTORS
330
D
102
}
330
D
100
AcDbGroup
300

 70
     1
 71
     1
  0
GROUP
  5
23C23
102
{ACAD_REACTORS
330
D
102
}
330
D
100
AcDbGroup
300

 70
     1
 71
     1
  0
GROUP
  5
23C24
102
{ACAD_REACTORS
330
D
102
}
330
D
100
AcDbGroup
300

 70
     1
 71
     1
  0
GROUP
  5
23C25
102
{ACAD_REACTORS
330
D
102
}
330
D
100
AcDbGroup
300

 70
     1
 71
     1
  0
MLINESTYLE
  5
1C
102
{ACAD_REACTORS
330
1B
102
}
330
1B
100
AcDbMlineStyle
  2
STANDARD
 70
     0
  3

 62
   256
 51
90.0
 52
90.0
 71
     2
 49
0.5
 62
   256
  6
BYLAYER
 49
-0.5
 62
   256
  6
BYLAYER
  0
ACDBPLACEHOLDER
  5
FB5C
102
{ACAD_REACTORS
330
FB5B
102
}
330
FB5B
100
AcDbPlaceHolder
280
     0
  0
XRECORD
  5
246DD
102
{ACAD_REACTORS
330
246D3
102
}
330
246D3
100
AcDbXrecord
 90
        0
  0
XRECORD
  5
246E1
102
{ACAD_REACTORS
330
246D3
102
}
330
246D3
100
AcDbXrecord
1000
DSTYLE
1002
{
1070
   341
340
1215D
1070
   342
340
1215D
1070
   371
 70
    13
1070
   372
 70
    13
1002
}
  0
XRECORD
  5
246DE
102
{ACAD_REACTORS
330
246D3
102
}
330
246D3
100
AcDbXrecord
  1
{D14EE3FF-941A-415A-9907-344E0A80D794}
  0
XRECORD
  5
246D6
102
{ACAD_REACTORS
330
246D3
102
}
330
246D3
100
AcDbXrecord
  1

  0
XRECORD
  5
246DC
102
{ACAD_REACTORS
330
246D3
102
}
330
246D3
100
AcDbXrecord
 90
        0
  0
XRECORD
  5
246D8
102
{ACAD_REACTORS
330
246D3
102
}
330
246D3
100
AcDbXrecord
340
DB2
  0
XRECORD
  5
246DB
102
{ACAD_REACTORS
330
246D3
102
}
330
246D3
100
AcDbXrecord
 90
    10781
  0
XRECORD
  5
246D9
102
{ACAD_REACTORS
330
246D3
102
}
330
246D3
100
AcDbXrecord
340
DB3
  0
XRECORD
  5
246DA
102
{ACAD_REACTORS
330
246D3
102
}
330
246D3
100
AcDbXrecord
340
FB5B
  0
XRECORD
  5
246E0
102
{ACAD_REACTORS
330
246D3
102
}
330
246D3
100
AcDbXrecord
 40
0.0
  0
XRECORD
  5
246E4
102
{ACAD_REACTORS
330
246D3
102
}
330
246D3
100
AcDbXrecord
340
0
  0
XRECORD
  5
246EA
102
{ACAD_REACTORS
330
246D3
102
}
330
246D3
100
AcDbXrecord
 10
0.0
 20
0.0
 30
0.0
  0
XRECORD
  5
246E6
102
{ACAD_REACTORS
330
246D3
102
}
330
246D3
100
AcDbXrecord
 10
0.0
 20
0.0
 30
0.0
  0
XRECORD
  5
246E9
102
{ACAD_REACTORS
330
246D3
102
}
330
246D3
100
AcDbXrecord
 10
0.0
 20
0.0
 30
0.0
  0
XRECORD
  5
246E7
102
{ACAD_REACTORS
330
246D3
102
}
330
246D3
100
AcDbXrecord
 10
0.0
 20
0.0
 30
0.0
  0
XRECORD
  5
246E8
102
{ACAD_REACTORS
330
246D3
102
}
330
246D3
100
AcDbXrecord
 10
0.0
 20
0.0
 30
0.0
  0
XRECORD
  5
246E5
102
{ACAD_REACTORS
330
246D3
102
}
330
246D3
100
AcDbXrecord
 10
0.0
 20
0.0
 30
0.0
  0
XRECORD
  5
246E2
102
{ACAD_REACTORS
330
246D3
102
}
330
246D3
100
AcDbXrecord
340
0
  0
XRECORD
  5
246E3
102
{ACAD_REACTORS
330
246D3
102
}
330
246D3
100
AcDbXrecord
 70
     0
  0
XRECORD
  5
246D7
102
{ACAD_REACTORS
330
246D3
102
}
330
246D3
100
AcDbXrecord
  1
monochrome.ctb
  0
XRECORD
  5
246D4
102
{ACAD_REACTORS
330
246D3
102
}
330
246D3
100
AcDbXrecord
 90
        1
  0
XRECORD
  5
246D5
102
{ACAD_REACTORS
330
246D3
102
}
330
246D3
100
AcDbXrecord
 90
       70
  0
XRECORD
  5
246ED
102
{ACAD_REACTORS
330
246D3
102
}
330
246D3
100
AcDbXrecord
340
0
  0
XRECORD
  5
246F3
102
{ACAD_REACTORS
330
246D3
102
}
330
246D3
100
AcDbXrecord
 10
0.0
 20
0.0
 30
0.0
  0
XRECORD
  5
246EF
102
{ACAD_REACTORS
330
246D3
102
}
330
246D3
100
AcDbXrecord
 10
0.0
 20
0.0
 30
0.0
  0
XRECORD
  5
246F2
102
{ACAD_REACTORS
330
246D3
102
}
330
246D3
100
AcDbXrecord
 10
0.0
 20
0.0
 30
0.0
  0
XRECORD
  5
246F0
102
{ACAD_REACTORS
330
246D3
102
}
330
246D3
100
AcDbXrecord
 10
0.0
 20
0.0
 30
0.0
  0
XRECORD
  5
246F1
102
{ACAD_REACTORS
330
246D3
102
}
330
246D3
100
AcDbXrecord
 10
0.0
 20
0.0
 30
0.0
  0
XRECORD
  5
246EE
102
{ACAD_REACTORS
330
246D3
102
}
330
246D3
100
AcDbXrecord
 10
0.0
 20
0.0
 30
0.0
  0
XRECORD
  5
246EB
102
{ACAD_REACTORS
330
246D3
102
}
330
246D3
100
AcDbXrecord
340
0
  0
XRECORD
  5
246EC
102
{ACAD_REACTORS
330
246D3
102
}
330
246D3
100
AcDbXrecord
 70
     0
  0
XRECORD
  5
246DF
102
{ACAD_REACTORS
330
246D3
102
}
330
246D3
100
AcDbXrecord
  1
{9151F4A3-550B-4844-B9F6-DD2A8CA4C6C0}
  0
DICTIONARYVAR
  5
106A7
102
{ACAD_REACTORS
330
106A6
102
}
330
106A6
100
DictionaryVariables
280
     0
  1
96
  0
XRECORD
  5
1A9A1
102
{ACAD_REACTORS
330
1A99F
102
}
330
1A99F
100
AcDbXrecord
330
187D7
330
0
330
0
330
0
330
0
330
0
330
0
330
0
330
0
330
0
330
0
330
115F
330
0
330
0
330
0
330
0
330
0
330
0
330
0
330
0
330
0
330
0
330
0
330
0
330
0
330
0
330
0
330
0
330
0
330
0
330
0
330
0
330
0
330
0
330
0
330
0
330
0
330
0
330
0
330
0
330
0
330
0
330
0
330
0
  0
XRECORD
  5
243B7
102
{ACAD_REACTORS
330
243B6
102
}
330
243B6
100
AcDbXrecord
  1
0
  1
*0
  1
*
  1
*
 70
     0
  1
*
  1
*
  0
XRECORD
  5
243B8
102
{ACAD_REACTORS
330
243B6
102
}
330
243B6
100
AcDbXrecord
  1
11
  1
*11
  1
*
  1
*
 70
     0
  1
*
  1
*
  0
XRECORD
  5
243B9
102
{ACAD_REACTORS
330
243B6
102
}
330
243B6
100
AcDbXrecord
  1
150_
  1
150_*
  1
*
  1
*
 70
     0
  1
*
  1
*
  0
XRECORD
  5
243BA
102
{ACAD_REACTORS
330
243B6
102
}
330
243B6
100
AcDbXrecord
  1
160_
  1
160_*
  1
*
  1
*
 70
     0
  1
*
  1
*
  0
XRECORD
  5
243BB
102
{ACAD_REACTORS
330
243B6
102
}
330
243B6
100
AcDbXrecord
  1
170_
  1
170_*
  1
*
  1
*
 70
     0
  1
*
  1
*
  0
XRECORD
  5
243BC
102
{ACAD_REACTORS
330
243B6
102
}
330
243B6
100
AcDbXrecord
  1
171_
  1
171_*
  1
*
  1
*
 70
     0
  1
*
  1
*
  0
XRECORD
  5
243BD
102
{ACAD_REACTORS
330
243B6
102
}
330
243B6
100
AcDbXrecord
  1
350_
  1
350_*
  1
*
  1
*
 70
     0
  1
*
  1
*
  0
XRECORD
  5
243BE
102
{ACAD_REACTORS
330
243B6
102
}
330
243B6
100
AcDbXrecord
  1
4
  1
*4
  1
*
  1
*
 70
     0
  1
*
  1
*
  0
XRECORD
  5
243BF
102
{ACAD_REACTORS
330
243B6
102
}
330
243B6
100
AcDbXrecord
  1
5
  1
*5
  1
*
  1
*
 70
     0
  1
*
  1
*
  0
XRECORD
  5
243C0
102
{ACAD_REACTORS
330
243B6
102
}
330
243B6
100
AcDbXrecord
  1
7
  1
*7
  1
*
  1
*
 70
     0
  1
*
  1
*
  0
XRECORD
  5
243C1
102
{ACAD_REACTORS
330
243B6
102
}
330
243B6
100
AcDbXrecord
  1
kiseki
  1
kiseki*
  1
*
  1
*
 70
     0
  1
*
  1
*
  0
ENDSEC
  0
EOF
