  0
SECTION
  2
HEADER
  9
$ACADVER
  1
AC1014
  9
$ACADMAINTVER
 70
     9
  9
$DWGCODEPAGE
  3
ANSI_932
  9
$INSBASE
 10
0.0
 20
0.0
 30
0.0
  9
$EXTMIN
 10
-3331.451613008982
 20
-1823.995483380589
 30
-0.0000000349181948
  9
$EXTMAX
 10
-2785.373792097755
 20
-1661.53405334098
 30
0.0000000814935746
  9
$LIMMIN
 10
0.0
 20
0.0
  9
$LIMMAX
 10
420.0
 20
297.0
  9
$ORTHOMODE
 70
     0
  9
$REGENMODE
 70
     1
  9
$FILLMODE
 70
     1
  9
$QTEXTMODE
 70
     0
  9
$MIRRTEXT
 70
     0
  9
$DRAGMODE
 70
     2
  9
$LTSCALE
 40
20.0
  9
$OSMODE
 70
    37
  9
$ATTMODE
 70
     2
  9
$TEXTSIZE
 40
10.0
  9
$TRACEWID
 40
1.0
  9
$TEXTSTYLE
  7
ｽﾀｲﾙ3
  9
$CLAYER
  8
文字
  9
$CELTYPE
  6
BYLAYER
  9
$CECOLOR
 62
   256
  9
$CELTSCALE
 40
1.0
  9
$DELOBJ
 70
     1
  9
$DISPSILH
 70
     0
  9
$DIMSCALE
 40
1.0
  9
$DIMASZ
 40
4.0
  9
$DIMEXO
 40
1.0
  9
$DIMDLI
 40
0.38
  9
$DIMRND
 40
0.0
  9
$DIMDLE
 40
0.0
  9
$DIMEXE
 40
1.0
  9
$DIMTP
 40
0.0
  9
$DIMTM
 40
0.0
  9
$DIMTXT
 40
5.0
  9
$DIMCEN
 40
0.0
  9
$DIMTSZ
 40
0.0
  9
$DIMTOL
 70
     0
  9
$DIMLIM
 70
     0
  9
$DIMTIH
 70
     0
  9
$DIMTOH
 70
     0
  9
$DIMSE1
 70
     0
  9
$DIMSE2
 70
     0
  9
$DIMTAD
 70
     3
  9
$DIMZIN
 70
     8
  9
$DIMBLK
  1
OPEN30
  9
$DIMASO
 70
     1
  9
$DIMSHO
 70
     1
  9
$DIMPOST
  1

  9
$DIMAPOST
  1

  9
$DIMALT
 70
     0
  9
$DIMALTD
 70
     2
  9
$DIMALTF
 40
25.4
  9
$DIMLFAC
 40
1.0
  9
$DIMTOFL
 70
     0
  9
$DIMTVP
 40
0.0
  9
$DIMTIX
 70
     0
  9
$DIMSOXD
 70
     0
  9
$DIMSAH
 70
     0
  9
$DIMBLK1
  1

  9
$DIMBLK2
  1

  9
$DIMSTYLE
  2
まこ-１_２
  9
$DIMCLRD
 70
     4
  9
$DIMCLRE
 70
     4
  9
$DIMCLRT
 70
   256
  9
$DIMTFAC
 40
1.0
  9
$DIMGAP
 40
1.0
  9
$DIMJUST
 70
     0
  9
$DIMSD1
 70
     0
  9
$DIMSD2
 70
     0
  9
$DIMTOLJ
 70
     1
  9
$DIMTZIN
 70
     0
  9
$DIMALTZ
 70
     0
  9
$DIMALTTZ
 70
     0
  9
$DIMFIT
 70
     3
  9
$DIMUPT
 70
     0
  9
$DIMUNIT
 70
     2
  9
$DIMDEC
 70
     2
  9
$DIMTDEC
 70
     2
  9
$DIMALTU
 70
     2
  9
$DIMALTTD
 70
     2
  9
$DIMTXSTY
  7
MSゴシック-0
  9
$DIMAUNIT
 70
     0
  9
$LUNITS
 70
     2
  9
$LUPREC
 70
     4
  9
$SKETCHINC
 40
1.0
  9
$FILLETRAD
 40
0.0
  9
$AUNITS
 70
     0
  9
$AUPREC
 70
     0
  9
$MENU
  1
.
  9
$ELEVATION
 40
0.0
  9
$PELEVATION
 40
0.0
  9
$THICKNESS
 40
0.0
  9
$LIMCHECK
 70
     0
  9
$BLIPMODE
 70
     0
  9
$CHAMFERA
 40
0.5
  9
$CHAMFERB
 40
0.5
  9
$CHAMFERC
 40
20.0
  9
$CHAMFERD
 40
0.0
  9
$SKPOLY
 70
     0
  9
$TDCREATE
 40
2451224.660162384
  9
$TDUPDATE
 40
2455638.672964224
  9
$TDINDWG
 40
16.2902685069
  9
$TDUSRTIMER
 40
16.2902685069
  9
$USRTIMER
 70
     1
  9
$ANGBASE
 50
0.0
  9
$ANGDIR
 70
     0
  9
$PDMODE
 70
     0
  9
$PDSIZE
 40
0.0
  9
$PLINEWID
 40
0.0
  9
$COORDS
 70
     0
  9
$SPLFRAME
 70
     0
  9
$SPLINETYPE
 70
     6
  9
$SPLINESEGS
 70
     8
  9
$ATTDIA
 70
     0
  9
$ATTREQ
 70
     1
  9
$HANDLING
 70
-16383
  9
$HANDSEED
  5
24B16
  9
$SURFTAB1
 70
     6
  9
$SURFTAB2
 70
     6
  9
$SURFTYPE
 70
     6
  9
$SURFU
 70
     6
  9
$SURFV
 70
     6
  9
$UCSNAME
  2

  9
$UCSORG
 10
0.0
 20
0.0
 30
0.0
  9
$UCSXDIR
 10
1.0
 20
0.0
 30
0.0
  9
$UCSYDIR
 10
0.0
 20
1.0
 30
0.0
  9
$PUCSNAME
  2

  9
$PUCSORG
 10
0.0
 20
0.0
 30
0.0
  9
$PUCSXDIR
 10
1.0
 20
0.0
 30
0.0
  9
$PUCSYDIR
 10
0.0
 20
1.0
 30
0.0
  9
$USERI1
 70
     0
  9
$USERI2
 70
     0
  9
$USERI3
 70
     0
  9
$USERI4
 70
     0
  9
$USERI5
 70
     0
  9
$USERR1
 40
245.9999999999999
  9
$USERR2
 40
0.0
  9
$USERR3
 40
0.0
  9
$USERR4
 40
0.0
  9
$USERR5
 40
0.0
  9
$WORLDVIEW
 70
     1
  9
$SHADEDGE
 70
     3
  9
$SHADEDIF
 70
    70
  9
$TILEMODE
 70
     0
  9
$MAXACTVP
 70
    48
  9
$PINSBASE
 10
0.0
 20
0.0
 30
0.0
  9
$PLIMCHECK
 70
     0
  9
$PEXTMIN
 10
0.0
 20
0.0
 30
0.0
  9
$PEXTMAX
 10
400.0
 20
288.0
 30
0.0
  9
$PLIMMIN
 10
-8.56291547663735
 20
-8.543269151281808
  9
$PLIMMAX
 10
422.8652341061566
 20
296.5442131447129
  9
$UNITMODE
 70
     0
  9
$VISRETAIN
 70
     1
  9
$PLINEGEN
 70
     0
  9
$PSLTSCALE
 70
     0
  9
$TREEDEPTH
 70
  3020
  9
$PICKSTYLE
 70
     0
  9
$CMLSTYLE
  2
STANDARD
  9
$CMLJUST
 70
     0
  9
$CMLSCALE
 40
20.0
  9
$PROXYGRAPHICS
 70
     1
  9
$MEASUREMENT
 70
     0
  0
ENDSEC
  0
SECTION
  2
CLASSES
  0
CLASS
  1
HATCH
  2
AcDbHatch
  3
AutoCAD 2000
 90
        0
280
     0
281
     1
  0
CLASS
  1
LWPOLYLINE
  2
AcDbPolyline
  3
AutoCAD 2000
 90
        0
280
     0
281
     1
  0
CLASS
  1
ACDBDICTIONARYWDFLT
  2
AcDbDictionaryWithDefault
  3
AutoCAD 2000
 90
        0
280
     0
281
     0
  0
CLASS
  1
ACDBPLACEHOLDER
  2
AcDbPlaceHolder
  3
AutoCAD 2000
 90
        0
280
     0
281
     0
  0
CLASS
  1
LAYOUT
  2
AcDbLayout
  3
AutoCAD 2000
 90
        0
280
     0
281
     0
  0
CLASS
  1
LONG_TRANSACTION
  2
AcDbLongTransaction
  3
AutoCAD 2000
 90
        0
280
     0
281
     0
  0
CLASS
  1
LWPOLYLINE
  2
AcDbPolyline
  3
AutoCAD 2000
 90
        0
280
     0
281
     1
  0
CLASS
  1
HATCH
  2
AcDbHatch
  3
AutoCAD 2000
 90
        0
280
     0
281
     1
  0
CLASS
  1
XRECORD
  2
AcDbXrecord
  3
AutoCAD 2000
 90
        0
280
     0
281
     0
  0
CLASS
  1
DICTIONARYVAR
  2
AcDbDictionaryVar
  3
AutoCAD 2000
 90
        0
280
     0
281
     0
  0
CLASS
  1
LONG_TRANSACTION
  2
AcDbLongTransaction
  3
AutoCAD 2000
 90
        0
280
     0
281
     0
  0
CLASS
  1
LWPOLYLINE
  2
AcDbPolyline
  3
AutoCAD 2000
 90
        0
280
     0
281
     1
  0
CLASS
  1
HATCH
  2
AcDbHatch
  3
AutoCAD 2000
 90
        0
280
     0
281
     1
  0
CLASS
  1
XRECORD
  2
AcDbXrecord
  3
AutoCAD 2000
 90
        0
280
     0
281
     0
  0
CLASS
  1
LONG_TRANSACTION
  2
AcDbLongTransaction
  3
AutoCAD 2000
 90
        0
280
     0
281
     0
  0
CLASS
  1
LWPOLYLINE
  2
AcDbPolyline
  3
AutoCAD 2000
 90
        0
280
     0
281
     1
  0
CLASS
  1
HATCH
  2
AcDbHatch
  3
AutoCAD 2000
 90
        0
280
     0
281
     1
  0
CLASS
  1
XRECORD
  2
AcDbXrecord
  3
AutoCAD 2000
 90
        0
280
     0
281
     0
  0
ENDSEC
  0
SECTION
  2
TABLES
  0
TABLE
  2
VPORT
  5
8
330
0
100
AcDbSymbolTable
 70
     4
  0
VPORT
  5
24ACF
330
8
100
AcDbSymbolTableRecord
100
AcDbViewportTableRecord
  2
*ACTIVE
 70
     0
 10
0.0
 20
0.0
 11
1.0
 21
1.0
 12
-3058.306561159587
 22
-1742.702526328566
 13
0.0
 23
0.0
 14
10.0
 24
10.0
 15
10.0
 25
10.0
 16
0.0
 26
0.0
 36
1.0
 17
0.0
 27
0.0
 37
0.0
 40
359.1676143524243
 41
1.527918781725888
 42
50.0
 43
0.0
 44
0.0
 50
0.0
 51
0.0
 71
     0
 72
   100
 73
     1
 74
     0
 75
     0
 76
     0
 77
     0
 78
     0
  0
ENDTAB
  0
TABLE
  2
LTYPE
  5
5
330
0
100
AcDbSymbolTable
 70
     6
  0
LTYPE
  5
12
330
5
100
AcDbSymbolTableRecord
100
AcDbLinetypeTableRecord
  2
BYBLOCK
 70
     0
  3

 72
    65
 73
     0
 40
0.0
  0
LTYPE
  5
13
330
5
100
AcDbSymbolTableRecord
100
AcDbLinetypeTableRecord
  2
BYLAYER
 70
     0
  3

 72
    65
 73
     0
 40
0.0
  0
LTYPE
  5
14
330
5
100
AcDbSymbolTableRecord
100
AcDbLinetypeTableRecord
  2
CONTINUOUS
 70
     0
  3
Solid line
 72
    65
 73
     0
 40
0.0
  0
LTYPE
  5
126C
330
5
100
AcDbSymbolTableRecord
100
AcDbLinetypeTableRecord
  2
CENTER
 70
     0
  3
____ _ ____ _ ____ _ ____ _ ____ _ ____ _ ____
 72
    65
 73
     4
 40
2.0
 49
1.25
 74
     0
 49
-0.25
 74
     0
 49
0.25
 74
     0
 49
-0.25
 74
     0
  0
LTYPE
  5
126E
330
5
100
AcDbSymbolTableRecord
100
AcDbLinetypeTableRecord
  2
DASHDOT
 70
     0
  3
__ . __ . __ . __ . __ . __ . __ . __ . __ . __
 72
    65
 73
     4
 40
1.0
 49
0.5
 74
     0
 49
-0.25
 74
     0
 49
0.0
 74
     0
 49
-0.25
 74
     0
  0
LTYPE
  5
1541F
330
5
100
AcDbSymbolTableRecord
100
AcDbLinetypeTableRecord
  2
HIDDEN
 70
     0
  3
_ _ _ _ _ _ _ _ _ _ _ _ _ _ _ _ _ _ _ _ _ _ _
 72
    65
 73
     2
 40
0.375
 49
0.25
 74
     0
 49
-0.125
 74
     0
  0
LTYPE
  5
15420
330
5
100
AcDbSymbolTableRecord
100
AcDbLinetypeTableRecord
  2
CENTER2
 70
     0
  3
Center (.5x) ___ _ ___ _ ___ _ ___ _ ___ _ ___
 72
    65
 73
     4
 40
1.125
 49
0.75
 74
     0
 49
-0.125
 74
     0
 49
0.125
 74
     0
 49
-0.125
 74
     0
  0
LTYPE
  5
1615D
330
5
100
AcDbSymbolTableRecord
100
AcDbLinetypeTableRecord
  2
PHANTOM
 70
     0
  3
Phantom ______  __  __  ______  __  __  ______
 72
    65
 73
     6
 40
2.5
 49
1.25
 74
     0
 49
-0.25
 74
     0
 49
0.25
 74
     0
 49
-0.25
 74
     0
 49
0.25
 74
     0
 49
-0.25
 74
     0
  0
ENDTAB
  0
TABLE
  2
LAYER
  5
2
102
{ACAD_XDICTIONARY
360
24648
102
}
330
0
100
AcDbSymbolTable
 70
    12
  0
LAYER
  5
E
330
2
100
AcDbSymbolTableRecord
100
AcDbLayerTableRecord
  2
0
 70
     2
 62
     7
  6
CONTINUOUS
  0
LAYER
  5
2C
330
2
100
AcDbSymbolTableRecord
100
AcDbLayerTableRecord
  2
M_VIEW
 70
     4
 62
    -1
  6
CONTINUOUS
  0
LAYER
  5
30
330
2
100
AcDbSymbolTableRecord
100
AcDbLayerTableRecord
  2
FRAME025
 70
     0
 62
     7
  6
CONTINUOUS
  0
LAYER
  5
12B
330
2
100
AcDbSymbolTableRecord
100
AcDbLayerTableRecord
  2
DEFPOINTS
 70
     4
 62
    -7
  6
CONTINUOUS
  0
LAYER
  5
651
330
2
100
AcDbSymbolTableRecord
100
AcDbLayerTableRecord
  2
FRAME020
 70
     0
 62
     7
  6
CONTINUOUS
  0
LAYER
  5
1271
330
2
100
AcDbSymbolTableRecord
100
AcDbLayerTableRecord
  2
A
 70
     0
 62
     7
  6
CONTINUOUS
  0
LAYER
  5
A9BB
330
2
100
AcDbSymbolTableRecord
100
AcDbLayerTableRecord
  2
文字
 70
     0
 62
     7
  6
CONTINUOUS
  0
LAYER
  5
122DE
330
2
100
AcDbSymbolTableRecord
100
AcDbLayerTableRecord
  2
DIMENSION
 70
     0
 62
     7
  6
CONTINUOUS
  0
LAYER
  5
15422
330
2
100
AcDbSymbolTableRecord
100
AcDbLayerTableRecord
  2
細線
 70
     0
 62
     7
  6
CONTINUOUS
  0
LAYER
  5
15425
330
2
100
AcDbSymbolTableRecord
100
AcDbLayerTableRecord
  2
中心線
 70
     0
 62
     7
  6
CENTER2
  0
LAYER
  5
1615E
330
2
100
AcDbSymbolTableRecord
100
AcDbLayerTableRecord
  2
２点鎖線
 70
     0
 62
     7
  6
PHANTOM
  0
LAYER
  5
1A846
330
2
100
AcDbSymbolTableRecord
100
AcDbLayerTableRecord
  2
実線
 70
     0
 62
     7
  6
CONTINUOUS
  0
ENDTAB
  0
TABLE
  2
STYLE
  5
3
330
0
100
AcDbSymbolTable
 70
     8
  0
STYLE
  5
F
330
3
100
AcDbSymbolTableRecord
100
AcDbTextStyleTableRecord
  2
STANDARD
 70
     0
 40
0.0
 41
1.0
 50
0.0
 71
     0
 42
2.5
  3
isocp.shx
  4
bigfont.shx
  0
STYLE
  5
35
330
3
100
AcDbSymbolTableRecord
100
AcDbTextStyleTableRecord
  2
MSｺ_ｼｯｸ
 70
     0
 40
0.0
 41
1.0
 50
0.0
 71
     0
 42
5.0
  3
MS Gothic.ttf
  4

1001
ACAD
1000
MS Gothic
1071
    32817
  0
STYLE
  5
1275
330
3
100
AcDbSymbolTableRecord
100
AcDbTextStyleTableRecord
  2
BIGFONT
 70
     0
 40
2.0
 41
1.0
 50
0.0
 71
     0
 42
2.0
  3
txt.shx
  4
bigfont.shx
  0
STYLE
  5
1A84A
330
3
100
AcDbSymbolTableRecord
100
AcDbTextStyleTableRecord
  2
ｽﾀｲﾙ3
 70
     0
 40
10.0
 41
1.0
 50
0.0
 71
     0
 42
10.0
  3
isocp.shx
  4
extfont.shx
  0
STYLE
  5
1FA55
330
3
100
AcDbSymbolTableRecord
100
AcDbTextStyleTableRecord
  2
MSゴシック-0
 70
     0
 40
0.0
 41
1.0
 50
0.0
 71
     0
 42
4.0
  3
simplex.shx
  4
bigfont.shx
  0
ENDTAB
  0
TABLE
  2
VIEW
  5
6
330
0
100
AcDbSymbolTable
 70
     0
  0
ENDTAB
  0
TABLE
  2
UCS
  5
7
330
0
100
AcDbSymbolTable
 70
     0
  0
ENDTAB
  0
TABLE
  2
APPID
  5
9
330
0
100
AcDbSymbolTable
 70
     4
  0
APPID
  5
10
330
9
100
AcDbSymbolTableRecord
100
AcDbRegAppTableRecord
  2
ACAD
 70
     0
  0
APPID
  5
F013
330
9
100
AcDbSymbolTableRecord
100
AcDbRegAppTableRecord
  2
CONTENTBLOCKDESCRIPTION
 70
     0
  0
APPID
  5
F014
330
9
100
AcDbSymbolTableRecord
100
AcDbRegAppTableRecord
  2
CONTENTBLOCKICON
 70
     0
  0
APPID
  5
1A9A0
330
9
100
AcDbSymbolTableRecord
100
AcDbRegAppTableRecord
  2
DCO15
 70
     0
  0
ENDTAB
  0
TABLE
  2
DIMSTYLE
  5
A
330
0
100
AcDbSymbolTable
 70
     2
  0
DIMSTYLE
105
1D
330
A
100
AcDbSymbolTableRecord
100
AcDbDimStyleTableRecord
  2
STANDARD
 70
     0
  3

  4

  5

  6

  7

 40
1.0
 41
0.18
 42
0.0625
 43
0.38
 44
0.18
 45
0.0
 46
0.0
 47
0.0
 48
0.0
140
0.18
141
0.09
142
0.0
143
25.4
144
1.0
145
0.0
146
1.0
147
0.09
 71
     0
 72
     0
 73
     1
 74
     1
 75
     0
 76
     0
 77
     0
 78
     0
170
     0
171
     2
172
     0
173
     0
174
     0
175
     0
176
     0
177
     0
178
     0
270
     2
271
     4
272
     4
273
     2
274
     2
340
F
275
     0
280
     0
281
     0
282
     0
283
     1
284
     0
285
     0
286
     0
287
     3
288
     0
  0
DIMSTYLE
105
1FA57
330
A
100
AcDbSymbolTableRecord
100
AcDbDimStyleTableRecord
  2
まこ-１_２
 70
     0
  3

  4

  5
OPEN30
  6

  7

 40
1.0
 41
4.0
 42
1.0
 43
0.38
 44
1.0
 45
0.0
 46
0.0
 47
0.0
 48
0.0
140
5.0
141
0.0
142
0.0
143
25.4
144
1.0
145
0.0
146
1.0
147
1.0
 71
     0
 72
     0
 73
     0
 74
     0
 75
     0
 76
     0
 77
     3
 78
     8
170
     0
171
     2
172
     0
173
     0
174
     0
175
     0
176
     4
177
     4
178
   256
270
     2
271
     2
272
     2
273
     2
274
     2
340
1FA55
275
     0
280
     0
281
     0
282
     0
283
     1
284
     0
285
     0
286
     0
287
     3
288
     0
  0
ENDTAB
  0
TABLE
  2
BLOCK_RECORD
  5
1
330
0
100
AcDbSymbolTable
 70
    26
  0
BLOCK_RECORD
  5
18
102
{ACAD_XDICTIONARY
360
EFC6
102
}
330
1
100
AcDbSymbolTableRecord
100
AcDbBlockTableRecord
  2
*MODEL_SPACE
  0
BLOCK_RECORD
  5
15
102
{ACAD_XDICTIONARY
360
EFC4
102
}
330
1
100
AcDbSymbolTableRecord
100
AcDbBlockTableRecord
  2
*PAPER_SPACE
  0
BLOCK_RECORD
  5
115C
330
1
100
AcDbSymbolTableRecord
100
AcDbBlockTableRecord
  2
機械A4横_LBP
  0
BLOCK_RECORD
  5
1215D
330
1
100
AcDbSymbolTableRecord
100
AcDbBlockTableRecord
  2
_OPEN30
  0
ENDTAB
  0
ENDSEC
  0
SECTION
  2
BLOCKS
  0
BLOCK
  5
19
330
18
100
AcDbEntity
  8
0
100
AcDbBlockBegin
  2
*MODEL_SPACE
 70
     0
 10
0.0
 20
0.0
 30
0.0
  3
*MODEL_SPACE
  1

  0
ENDBLK
  5
1A
330
18
100
AcDbEntity
  8
0
100
AcDbBlockEnd
  0
BLOCK
  5
16
330
15
100
AcDbEntity
 67
     1
  8
0
100
AcDbBlockBegin
  2
*PAPER_SPACE
 70
     0
 10
0.0
 20
0.0
 30
0.0
  3
*PAPER_SPACE
  1

  0
ENDBLK
  5
17
330
15
100
AcDbEntity
 67
     1
  8
0
100
AcDbBlockEnd
  0
BLOCK
  5
115D
330
115C
100
AcDbEntity
  8
0
100
AcDbBlockBegin
  2
機械A4横_LBP
 70
     0
 10
0.0
 20
0.0
 30
0.0
  3
機械A4横_LBP
  1

  0
ENDBLK
  5
115E
330
115C
100
AcDbEntity
  8
0
100
AcDbBlockEnd
  0
BLOCK
  5
12161
330
1215D
100
AcDbEntity
  8
0
100
AcDbBlockBegin
  2
_OPEN30
 70
     0
 10
0.0
 20
0.0
 30
0.0
  3
_OPEN30
  1

  0
LINE
  5
1215E
330
1215D
100
AcDbEntity
  8
0
  6
BYBLOCK
 62
     0
100
AcDbLine
 10
-1.0
 20
0.26794919
 30
0.0
 11
0.0
 21
0.0
 31
0.0
  0
LINE
  5
1215F
330
1215D
100
AcDbEntity
  8
0
  6
BYBLOCK
 62
     0
100
AcDbLine
 10
0.0
 20
0.0
 30
0.0
 11
-1.0
 21
-0.26794919
 31
0.0
  0
LINE
  5
12160
330
1215D
100
AcDbEntity
  8
0
  6
BYBLOCK
 62
     0
100
AcDbLine
 10
0.0
 20
0.0
 30
0.0
 11
-1.0
 21
0.0
 31
0.0
  0
ENDBLK
  5
12162
330
1215D
100
AcDbEntity
  8
0
100
AcDbBlockEnd
  0
ENDSEC
  0
SECTION
  2
ENTITIES
  0
MTEXT
  5
176FC
330
18
100
AcDbEntity
  8
DIMENSION
 62
     2
100
AcDbMText
 10
-100.7823601383244
 20
171.6213144128389
 30
0.0
 40
8.0
 41
0.0
 71
     4
 72
     1
  1

1001
ACAD
1000
MTEXTBEGIN
1070
    73
1070
     1
1070
    44
1040
1.0
1070
    74
1070
     0
1000
MTEXTEND
1000
MTEXTBEGIN
1070
    73
1070
     1
1070
    44
1040
1.0
1070
    74
1070
     0
1000
MTEXTEND
  0
TEXT
  5
187C8
330
18
100
AcDbEntity
  8
A
100
AcDbText
 10
27.08248755054501
 20
1784.547672862095
 30
0.0
 40
2.5
  1

  7
MSｺ_ｼｯｸ
100
AcDbText
  0
TEXT
  5
187C9
330
18
100
AcDbEntity
  8
A
100
AcDbText
 10
19.25748755054502
 20
1784.547672862095
 30
0.0
 40
2.5
  1

 41
0.5
  7
MSｺ_ｼｯｸ
100
AcDbText
  0
TEXT
  5
187CA
330
18
100
AcDbEntity
  8
A
100
AcDbText
 10
167.1825875009164
 20
2214.514692980458
 30
0.0
 40
3.524999999999999
  1
�    
100
AcDbText
  0
MTEXT
  5
187CB
330
18
100
AcDbEntity
  8
0
  6
BYBLOCK
100
AcDbMText
 10
325.4874764241681
 20
2232.511722574347
 30
0.0
 40
2.0
 41
0.0
 71
     4
 72
     5
  1

 11
-0.0000000000000002
 21
-1.0
 31
0.0
1001
ACAD
1000
MTEXTBEGIN
1070
    73
1070
     1
1070
    44
1040
1.0
1070
    74
1070
     0
1000
MTEXTEND
1000
MTEXTBEGIN
1070
    73
1070
     1
1070
    44
1040
1.0
1070
    74
1070
     0
1000
MTEXTEND
1000
MTEXTBEGIN
1070
    73
1070
     1
1070
    44
1040
1.0
1070
    74
1070
     0
1000
MTEXTEND
  0
MTEXT
  5
187CC
330
18
100
AcDbEntity
  8
0
  6
BYBLOCK
100
AcDbMText
 10
360.9528647873208
 20
2221.718414215929
 30
0.0
 40
2.0
 41
0.0
 71
     7
 72
     5
  1

 11
0.0000000000000001
 21
1.0
 31
0.0
1001
ACAD
1000
MTEXTBEGIN
1070
    73
1070
     1
1070
    44
1040
1.0
1070
    74
1070
     0
1000
MTEXTEND
1000
MTEXTBEGIN
1070
    73
1070
     1
1070
    44
1040
1.0
1070
    74
1070
     0
1000
MTEXTEND
1000
MTEXTBEGIN
1070
    73
1070
     1
1070
    44
1040
1.0
1070
    74
1070
     0
1000
MTEXTEND
  0
MTEXT
  5
187CD
330
18
100
AcDbEntity
  8
0
100
AcDbMText
 10
325.1733668026532
 20
2146.938903673639
 30
0.0
 40
2.0
 41
10.1453
 71
     1
 72
     5
  1

 11
-0.0000000000000002
 21
-1.0
 31
0.0
1001
ACAD
1000
MTEXTBEGIN
1070
    73
1070
     1
1070
    44
1040
1.0
1070
    74
1070
     0
1000
MTEXTEND
1000
MTEXTBEGIN
1070
    73
1070
     1
1070
    44
1040
1.0
1070
    74
1070
     0
1000
MTEXTEND
1000
MTEXTBEGIN
1070
    73
1070
     1
1070
    44
1040
1.0
1070
    74
1070
     0
1000
MTEXTEND
  0
MTEXT
  5
187CE
330
18
100
AcDbEntity
  8
0
100
AcDbMText
 10
280.7738750495033
 20
2115.30742008065
 30
0.0
 40
2.0
 41
0.0
 71
     1
 72
     5
  1

1001
ACAD
1000
MTEXTBEGIN
1070
    73
1070
     1
1070
    44
1040
1.0
1070
    74
1070
     0
1000
MTEXTEND
1000
MTEXTBEGIN
1070
    73
1070
     1
1070
    44
1040
1.0
1070
    74
1070
     0
1000
MTEXTEND
1000
MTEXTBEGIN
1070
    73
1070
     1
1070
    44
1040
1.0
1070
    74
1070
     0
1000
MTEXTEND
  0
MTEXT
  5
187CF
330
18
100
AcDbEntity
  8
0
  6
CENTER
100
AcDbMText
 10
606.3621522332661
 20
2216.239946825076
 30
0.0
 40
2.0
 41
15.6417
 71
     1
 72
     5
  1

  7
BIGFONT
1001
ACAD
1000
MTEXTBEGIN
1070
    73
1070
     1
1070
    44
1040
1.0
1070
    74
1070
     0
1000
MTEXTEND
1000
MTEXTBEGIN
1070
    73
1070
     1
1070
    44
1040
1.0
1070
    74
1070
     0
1000
MTEXTEND
1000
MTEXTBEGIN
1070
    73
1070
     1
1070
    44
1040
1.0
1070
    74
1070
     0
1000
MTEXTEND
  0
MTEXT
  5
187D0
330
18
100
AcDbEntity
  8
0
  6
DASHDOT
100
AcDbMText
 10
368.6842112890943
 20
2323.029441652852
 30
0.0
 40
1.0
 41
2.0
 71
     1
 72
     5
  1

  7
BIGFONT
1001
ACAD
1000
MTEXTBEGIN
1070
    73
1070
     1
1070
    44
1040
1.0
1070
    74
1070
     0
1000
MTEXTEND
1000
MTEXTBEGIN
1070
    73
1070
     1
1070
    44
1040
1.0
1070
    74
1070
     0
1000
MTEXTEND
1000
MTEXTBEGIN
1070
    73
1070
     1
1070
    44
1040
1.0
1070
    74
1070
     0
1000
MTEXTEND
  0
MTEXT
  5
187D1
330
18
100
AcDbEntity
  8
0
  6
BYBLOCK
100
AcDbMText
 10
325.4873894192177
 20
2232.511722574347
 30
0.0
 40
2.0
 41
0.0
 71
     4
 72
     5
  1

 11
-0.0000000000000002
 21
-1.0
 31
0.0
1001
ACAD
1000
MTEXTBEGIN
1070
    73
1070
     1
1070
    44
1040
1.0
1070
    74
1070
     0
1000
MTEXTEND
1000
MTEXTBEGIN
1070
    73
1070
     1
1070
    44
1040
1.0
1070
    74
1070
     0
1000
MTEXTEND
1000
MTEXTBEGIN
1070
    73
1070
     1
1070
    44
1040
1.0
1070
    74
1070
     0
1000
MTEXTEND
  0
MTEXT
  5
187D2
330
18
100
AcDbEntity
  8
0
  6
BYBLOCK
100
AcDbMText
 10
360.9527777823706
 20
2221.718414215929
 30
0.0
 40
2.0
 41
0.0
 71
     7
 72
     5
  1

 11
0.0000000000000001
 21
1.0
 31
0.0
1001
ACAD
1000
MTEXTBEGIN
1070
    73
1070
     1
1070
    44
1040
1.0
1070
    74
1070
     0
1000
MTEXTEND
1000
MTEXTBEGIN
1070
    73
1070
     1
1070
    44
1040
1.0
1070
    74
1070
     0
1000
MTEXTEND
1000
MTEXTBEGIN
1070
    73
1070
     1
1070
    44
1040
1.0
1070
    74
1070
     0
1000
MTEXTEND
  0
MTEXT
  5
187D3
330
18
100
AcDbEntity
  8
0
100
AcDbMText
 10
325.1732797977028
 20
2146.938903673639
 30
0.0
 40
2.0
 41
10.1453
 71
     1
 72
     5
  1

 11
-0.0000000000000002
 21
-1.0
 31
0.0
1001
ACAD
1000
MTEXTBEGIN
1070
    73
1070
     1
1070
    44
1040
1.0
1070
    74
1070
     0
1000
MTEXTEND
1000
MTEXTBEGIN
1070
    73
1070
     1
1070
    44
1040
1.0
1070
    74
1070
     0
1000
MTEXTEND
1000
MTEXTBEGIN
1070
    73
1070
     1
1070
    44
1040
1.0
1070
    74
1070
     0
1000
MTEXTEND
  0
MTEXT
  5
187D4
330
18
100
AcDbEntity
  8
0
100
AcDbMText
 10
280.7737880445529
 20
2115.30742008065
 30
0.0
 40
2.0
 41
0.0
 71
     1
 72
     5
  1

1001
ACAD
1000
MTEXTBEGIN
1070
    73
1070
     1
1070
    44
1040
1.0
1070
    74
1070
     0
1000
MTEXTEND
1000
MTEXTBEGIN
1070
    73
1070
     1
1070
    44
1040
1.0
1070
    74
1070
     0
1000
MTEXTEND
1000
MTEXTBEGIN
1070
    73
1070
     1
1070
    44
1040
1.0
1070
    74
1070
     0
1000
MTEXTEND
  0
MTEXT
  5
187D5
330
18
100
AcDbEntity
  8
0
  6
CENTER
100
AcDbMText
 10
606.3620652283159
 20
2216.239946825076
 30
0.0
 40
2.0
 41
15.6417
 71
     1
 72
     5
  1

  7
BIGFONT
1001
ACAD
1000
MTEXTBEGIN
1070
    73
1070
     1
1070
    44
1040
1.0
1070
    74
1070
     0
1000
MTEXTEND
1000
MTEXTBEGIN
1070
    73
1070
     1
1070
    44
1040
1.0
1070
    74
1070
     0
1000
MTEXTEND
1000
MTEXTBEGIN
1070
    73
1070
     1
1070
    44
1040
1.0
1070
    74
1070
     0
1000
MTEXTEND
  0
MTEXT
  5
187D6
330
18
100
AcDbEntity
  8
0
  6
DASHDOT
100
AcDbMText
 10
368.6841242841442
 20
2323.029441652852
 30
0.0
 40
1.0
 41
2.0
 71
     1
 72
     5
  1

  7
BIGFONT
1001
ACAD
1000
MTEXTBEGIN
1070
    73
1070
     1
1070
    44
1040
1.0
1070
    74
1070
     0
1000
MTEXTEND
1000
MTEXTBEGIN
1070
    73
1070
     1
1070
    44
1040
1.0
1070
    74
1070
     0
1000
MTEXTEND
1000
MTEXTBEGIN
1070
    73
1070
     1
1070
    44
1040
1.0
1070
    74
1070
     0
1000
MTEXTEND
  0
INSERT
  5
187D7
330
18
100
AcDbEntity
  8
FRAME025
100
AcDbBlockReference
  2
機械A4横_LBP
 10
271.0019941658661
 20
2006.88884056487
 30
0.0
  0
LINE
  5
23CC5
330
18
100
AcDbEntity
  8
実線
100
AcDbLine
 10
-2922.681247637014
 20
-1811.866043891207
 30
0.0
 11
-2902.093753932992
 21
-1811.866043891207
 31
0.0
  0
LINE
  5
23CC6
330
18
100
AcDbEntity
  8
実線
100
AcDbLine
 10
-2902.093753932992
 20
-1818.166043891207
 30
0.0
 11
-2925.76677921312
 21
-1818.166043891207
 31
0.0
  0
LINE
  5
23CCC
330
18
100
AcDbEntity
  8
実線
100
AcDbLine
 10
-2963.222670521818
 20
-1811.123292091102
 30
0.0
 11
-2963.222670521818
 21
-1716.123292091102
 31
0.0
  0
LINE
  5
23CD3
330
18
100
AcDbEntity
  8
実線
100
AcDbLine
 10
-3328.222670521817
 20
-1786.123292091102
 30
0.0
 11
-2994.893459764471
 21
-1786.123292091102
 31
0.0
  0
LINE
  5
23CD4
330
18
100
AcDbEntity
  8
中心線
 48
3.0
100
AcDbLine
 10
-3111.722670521819
 20
-1801.123292091102
 30
0.0
 11
-3102.722670521819
 21
-1801.123292091102
 31
0.0
  0
CIRCLE
  5
23CD5
330
18
100
AcDbEntity
  8
細線
100
AcDbCircle
 10
-3107.222670521819
 20
-1801.123292091101
 30
0.0
 40
2.5
  0
CIRCLE
  5
23CD6
330
18
100
AcDbEntity
  8
実線
100
AcDbCircle
 10
-3107.222670521819
 20
-1801.123292091102
 30
0.0
 40
2.1
  0
LINE
  5
23CD7
330
18
100
AcDbEntity
  8
実線
100
AcDbLine
 10
-3331.222670521817
 20
-1811.123292091102
 30
0.0
 11
-2997.887363878589
 21
-1811.123292091091
 31
0.0
  0
CIRCLE
  5
23D05
330
18
100
AcDbEntity
  8
実線
100
AcDbCircle
 10
-3187.222670521821
 20
-1801.123292091103
 30
0.0
 40
2.1
  0
CIRCLE
  5
23D06
330
18
100
AcDbEntity
  8
細線
100
AcDbCircle
 10
-3187.22267052182
 20
-1801.123292091102
 30
0.0
 40
2.5
  0
LINE
  5
23D07
330
18
100
AcDbEntity
  8
中心線
 48
3.0
100
AcDbLine
 10
-3191.722670521821
 20
-1801.123292091102
 30
0.0
 11
-3182.722670521821
 21
-1801.123292091102
 31
0.0
  0
LINE
  5
23D08
330
18
100
AcDbEntity
  8
中心線
 48
3.0
100
AcDbLine
 10
-3187.222670521821
 20
-1805.623292091103
 30
0.0
 11
-3187.222670521821
 21
-1796.623292091102
 31
0.0
  0
LINE
  5
23D09
330
18
100
AcDbEntity
  8
中心線
 48
3.0
100
AcDbLine
 10
-3147.222670521819
 20
-1805.623292091102
 30
0.0
 11
-3147.222670521819
 21
-1796.623292091102
 31
0.0
  0
LINE
  5
23D0A
330
18
100
AcDbEntity
  8
中心線
 48
3.0
100
AcDbLine
 10
-3151.72267052182
 20
-1801.123292091102
 30
0.0
 11
-3142.72267052182
 21
-1801.123292091102
 31
0.0
  0
CIRCLE
  5
23D0B
330
18
100
AcDbEntity
  8
細線
100
AcDbCircle
 10
-3147.222670521819
 20
-1801.123292091101
 30
0.0
 40
2.5
  0
CIRCLE
  5
23D0C
330
18
100
AcDbEntity
  8
実線
100
AcDbCircle
 10
-3147.22267052182
 20
-1801.123292091102
 30
0.0
 40
2.1
  0
LINE
  5
23D11
330
18
100
AcDbEntity
  8
中心線
 48
3.0
100
AcDbLine
 10
-3107.222670521819
 20
-1805.623292091102
 30
0.0
 11
-3107.222670521819
 21
-1796.623292091102
 31
0.0
  0
LINE
  5
23D12
330
18
100
AcDbEntity
  8
中心線
 48
3.0
100
AcDbLine
 10
-3067.222670521818
 20
-1805.623292091102
 30
0.0
 11
-3067.222670521818
 21
-1796.623292091102
 31
0.0
  0
CIRCLE
  5
23D13
330
18
100
AcDbEntity
  8
実線
100
AcDbCircle
 10
-3067.222670521819
 20
-1801.123292091102
 30
0.0
 40
2.1
  0
CIRCLE
  5
23D14
330
18
100
AcDbEntity
  8
細線
100
AcDbCircle
 10
-3067.222670521818
 20
-1801.123292091101
 30
0.0
 40
2.5
  0
LINE
  5
23D15
330
18
100
AcDbEntity
  8
中心線
 48
3.0
100
AcDbLine
 10
-3071.722670521819
 20
-1801.123292091102
 30
0.0
 11
-3062.722670521819
 21
-1801.123292091102
 31
0.0
  0
LINE
  5
23D16
330
18
100
AcDbEntity
  8
中心線
 48
3.0
100
AcDbLine
 10
-3027.222670521818
 20
-1805.623292091102
 30
0.0
 11
-3027.222670521818
 21
-1796.623292091102
 31
0.0
  0
CIRCLE
  5
23D17
330
18
100
AcDbEntity
  8
実線
100
AcDbCircle
 10
-3027.222670521819
 20
-1801.123292091102
 30
0.0
 40
2.1
  0
CIRCLE
  5
23D18
330
18
100
AcDbEntity
  8
細線
100
AcDbCircle
 10
-3027.222670521817
 20
-1801.123292091101
 30
0.0
 40
2.5
  0
LINE
  5
23D19
330
18
100
AcDbEntity
  8
中心線
 48
3.0
100
AcDbLine
 10
-3031.722670521818
 20
-1801.123292091102
 30
0.0
 11
-3022.722670521818
 21
-1801.123292091102
 31
0.0
  0
ARC
  5
23D1B
330
18
100
AcDbEntity
  8
実線
100
AcDbCircle
 10
-2933.766779213122
 20
-1812.277477131375
 30
0.0
 40
3.0
100
AcDbArc
 50
0.0
 51
90.0
  0
ARC
  5
23D1C
330
18
100
AcDbEntity
  8
実線
100
AcDbCircle
 10
-2922.681247637014
 20
-1808.866043891207
 30
0.0
 40
3.0
100
AcDbArc
 50
179.9999999999934
 51
270.0
  0
ARC
  5
23D1D
330
18
100
AcDbEntity
  8
実線
100
AcDbCircle
 10
-2925.76677921312
 20
-1813.166043891207
 30
0.0
 40
5.0
100
AcDbArc
 50
180.0
 51
270.0
  0
LINE
  5
23D1E
330
18
100
AcDbEntity
  8
実線
100
AcDbLine
 10
-2930.766779213122
 20
-1813.166043891207
 30
0.0
 11
-2930.766779213122
 21
-1812.277477131375
 31
0.0
  0
LINE
  5
23D1F
102
{ACAD_REACTORS
330
23F10
102
}
330
18
100
AcDbEntity
  8
実線
100
AcDbLine
 10
-2943.222670521818
 20
-1802.977477131375
 30
0.0
 11
-2940.605526089338
 21
-1802.977477131375
 31
0.0
  0
LINE
  5
23D20
102
{ACAD_REACTORS
330
23F10
102
}
330
18
100
AcDbEntity
  8
実線
100
AcDbLine
 10
-2941.716386067801
 20
-1809.277477131375
 30
0.0
 11
-2943.222670521818
 21
-1809.277477131375
 31
0.0
  0
LINE
  5
23D21
330
18
100
AcDbEntity
  8
中心線
 48
3.0
100
AcDbLine
 10
-2987.222670521818
 20
-1805.623292091102
 30
0.0
 11
-2987.222670521818
 21
-1796.623292091102
 31
0.0
  0
CIRCLE
  5
23D22
330
18
100
AcDbEntity
  8
実線
100
AcDbCircle
 10
-2987.222670521818
 20
-1801.123292091102
 30
0.0
 40
2.1
  0
CIRCLE
  5
23D23
330
18
100
AcDbEntity
  8
細線
100
AcDbCircle
 10
-2987.222670521818
 20
-1801.123292091101
 30
0.0
 40
2.5
  0
LINE
  5
23D24
330
18
100
AcDbEntity
  8
中心線
 48
3.0
100
AcDbLine
 10
-2991.722670521818
 20
-1801.123292091102
 30
0.0
 11
-2982.722670521818
 21
-1801.123292091102
 31
0.0
  0
LINE
  5
23D25
330
18
100
AcDbEntity
  8
実線
100
AcDbLine
 10
-2994.893459764471
 20
-1786.123292091102
 30
0.0
 11
-2963.222670521818
 21
-1786.123292091102
 31
0.0
  0
LINE
  5
23D26
330
18
100
AcDbEntity
  8
実線
100
AcDbLine
 10
-2997.887363878589
 20
-1811.123292091091
 30
0.0
 11
-2963.222670521818
 21
-1811.123292091083
 31
0.0
  0
LINE
  5
23D27
330
18
100
AcDbEntity
  8
実線
100
AcDbLine
 10
-2938.605526089339
 20
-1802.977477131375
 30
0.0
 11
-2930.681247637012
 21
-1802.977477131375
 31
0.0
  0
LINE
  5
23D28
330
18
100
AcDbEntity
  8
実線
100
AcDbLine
 10
-2925.681247637014
 20
-1808.866043891207
 30
0.0
 11
-2925.681247637013
 21
-1807.977477131375
 31
0.0
  0
LINE
  5
23D29
330
18
100
AcDbEntity
  8
実線
100
AcDbLine
 10
-2933.766779213122
 20
-1809.277477131375
 30
0.0
 11
-2939.716386067802
 21
-1809.277477131375
 31
0.0
  0
ARC
  5
23D2A
330
18
100
AcDbEntity
  8
実線
100
AcDbCircle
 10
-2930.681247637012
 20
-1807.977477131375
 30
0.0
 40
5.0
100
AcDbArc
 50
0.0
 51
90.0
  0
LINE
  5
23D2B
330
18
100
AcDbEntity
  8
中心線
 48
0.4
100
AcDbLine
 10
-2939.902267333062
 20
-1810.331662171646
 30
0.0
 11
-2938.419644824079
 21
-1801.923292091102
 31
0.0
  0
LINE
  5
23D2C
102
{ACAD_REACTORS
330
23F10
102
}
330
18
100
AcDbEntity
  8
中心線
 48
0.4
100
AcDbLine
 10
-2941.90226733306
 20
-1810.331662171646
 30
0.0
 11
-2940.419644824078
 21
-1801.923292091102
 31
0.0
  0
LINE
  5
23D2D
330
18
100
AcDbEntity
  8
実線
100
AcDbLine
 10
-3328.222670521817
 20
-1736.123292091102
 30
0.0
 11
-2988.905651536229
 21
-1736.123292091102
 31
0.0
  0
LINE
  5
23D2E
330
18
100
AcDbEntity
  8
中心線
100
AcDbLine
 10
-3329.345455864813
 20
-1761.123292091105
 30
0.0
 11
-2954.780823556006
 21
-1761.123292091102
 31
0.0
  0
LINE
  5
23D2F
330
18
100
AcDbEntity
  8
中心線
 48
3.0
100
AcDbLine
 10
-3111.722670521819
 20
-1721.123292091101
 30
0.0
 11
-3102.722670521819
 21
-1721.123292091101
 31
0.0
  0
CIRCLE
  5
23D30
330
18
100
AcDbEntity
  8
実線
100
AcDbCircle
 10
-3107.222670521819
 20
-1721.123292091101
 30
0.0
 40
2.1
  0
CIRCLE
  5
23D31
330
18
100
AcDbEntity
  8
細線
100
AcDbCircle
 10
-3107.222670521819
 20
-1721.123292091101
 30
0.0
 40
2.5
  0
LINE
  5
23D32
330
18
100
AcDbEntity
  8
実線
100
AcDbLine
 10
-3331.222670521817
 20
-1716.123292091102
 30
0.0
 11
-2986.510528244931
 21
-1716.123292091102
 31
0.0
  0
CIRCLE
  5
23D35
330
18
100
AcDbEntity
  8
細線
100
AcDbCircle
 10
-3187.22267052182
 20
-1721.123292091101
 30
0.0
 40
2.5
  0
CIRCLE
  5
23D36
330
18
100
AcDbEntity
  8
実線
100
AcDbCircle
 10
-3187.222670521821
 20
-1721.123292091101
 30
0.0
 40
2.1
  0
LINE
  5
23D37
330
18
100
AcDbEntity
  8
中心線
 48
3.0
100
AcDbLine
 10
-3191.722670521821
 20
-1721.123292091101
 30
0.0
 11
-3182.722670521821
 21
-1721.123292091101
 31
0.0
  0
LINE
  5
23D38
330
18
100
AcDbEntity
  8
中心線
 48
3.0
100
AcDbLine
 10
-3187.222670521821
 20
-1725.623292091102
 30
0.0
 11
-3187.222670521821
 21
-1716.623292091102
 31
0.0
  0
LINE
  5
23D39
330
18
100
AcDbEntity
  8
中心線
 48
3.0
100
AcDbLine
 10
-3147.222670521819
 20
-1725.623292091102
 30
0.0
 11
-3147.222670521819
 21
-1716.623292091102
 31
0.0
  0
LINE
  5
23D3A
330
18
100
AcDbEntity
  8
中心線
 48
3.0
100
AcDbLine
 10
-3151.72267052182
 20
-1721.123292091101
 30
0.0
 11
-3142.72267052182
 21
-1721.123292091101
 31
0.0
  0
CIRCLE
  5
23D3B
330
18
100
AcDbEntity
  8
実線
100
AcDbCircle
 10
-3147.22267052182
 20
-1721.123292091101
 30
0.0
 40
2.1
  0
CIRCLE
  5
23D3C
330
18
100
AcDbEntity
  8
細線
100
AcDbCircle
 10
-3147.222670521819
 20
-1721.123292091101
 30
0.0
 40
2.5
  0
LINE
  5
23D3D
330
18
100
AcDbEntity
  8
中心線
 48
3.0
100
AcDbLine
 10
-3107.222670521819
 20
-1725.623292091102
 30
0.0
 11
-3107.222670521819
 21
-1716.623292091102
 31
0.0
  0
LINE
  5
23D3E
330
18
100
AcDbEntity
  8
中心線
 48
3.0
100
AcDbLine
 10
-3067.222670521818
 20
-1725.623292091102
 30
0.0
 11
-3067.222670521818
 21
-1716.623292091102
 31
0.0
  0
CIRCLE
  5
23D3F
330
18
100
AcDbEntity
  8
細線
100
AcDbCircle
 10
-3067.222670521818
 20
-1721.123292091101
 30
0.0
 40
2.5
  0
CIRCLE
  5
23D40
330
18
100
AcDbEntity
  8
実線
100
AcDbCircle
 10
-3067.222670521819
 20
-1721.123292091101
 30
0.0
 40
2.1
  0
LINE
  5
23D41
330
18
100
AcDbEntity
  8
中心線
 48
3.0
100
AcDbLine
 10
-3071.722670521819
 20
-1721.123292091101
 30
0.0
 11
-3062.722670521819
 21
-1721.123292091101
 31
0.0
  0
CIRCLE
  5
23D42
330
18
100
AcDbEntity
  8
細線
100
AcDbCircle
 10
-3027.222670521817
 20
-1721.123292091101
 30
0.0
 40
2.5
  0
LINE
  5
23D43
330
18
100
AcDbEntity
  8
中心線
 48
3.0
100
AcDbLine
 10
-3027.222670521818
 20
-1725.623292091102
 30
0.0
 11
-3027.222670521818
 21
-1716.623292091102
 31
0.0
  0
CIRCLE
  5
23D44
330
18
100
AcDbEntity
  8
実線
100
AcDbCircle
 10
-3027.222670521819
 20
-1721.123292091101
 30
0.0
 40
2.1
  0
LINE
  5
23D45
330
18
100
AcDbEntity
  8
中心線
 48
3.0
100
AcDbLine
 10
-3031.722670521818
 20
-1721.123292091101
 30
0.0
 11
-3022.722670521818
 21
-1721.123292091101
 31
0.0
  0
LINE
  5
23D46
330
18
100
AcDbEntity
  8
中心線
 48
3.0
100
AcDbLine
 10
-2987.222670521818
 20
-1725.623292091102
 30
0.0
 11
-2987.222670521818
 21
-1716.623292091102
 31
0.0
  0
CIRCLE
  5
23D47
330
18
100
AcDbEntity
  8
実線
100
AcDbCircle
 10
-2987.222670521818
 20
-1721.123292091101
 30
0.0
 40
2.1
  0
LINE
  5
23D48
330
18
100
AcDbEntity
  8
中心線
 48
3.0
100
AcDbLine
 10
-2991.722670521818
 20
-1721.123292091101
 30
0.0
 11
-2982.722670521818
 21
-1721.123292091101
 31
0.0
  0
CIRCLE
  5
23D49
330
18
100
AcDbEntity
  8
細線
100
AcDbCircle
 10
-2987.222670521818
 20
-1721.123292091101
 30
0.0
 40
2.5
  0
LINE
  5
23D4A
330
18
100
AcDbEntity
  8
実線
100
AcDbLine
 10
-2986.510528244931
 20
-1716.123292091102
 30
0.0
 11
-2963.222670521818
 21
-1716.123292091102
 31
0.0
  0
LINE
  5
23D4B
330
18
100
AcDbEntity
  8
実線
100
AcDbLine
 10
-2988.905651536229
 20
-1736.123292091102
 30
0.0
 11
-2963.222670521818
 21
-1736.123292091102
 31
0.0
  0
LINE
  5
23D57
330
18
100
AcDbEntity
  8
実線
100
AcDbLine
 10
-2876.393753932992
 20
-1811.066043891207
 30
0.0
 11
-2876.393753932992
 21
-1814.506043891206
 31
0.0
  0
LINE
  5
23D58
330
18
100
AcDbEntity
  8
実線
100
AcDbLine
 10
-2886.893753932993
 20
-1810.166043891207
 30
0.0
 11
-2886.893753932993
 21
-1815.066043891206
 31
0.0
  0
LINE
  5
23D59
330
18
100
AcDbEntity
  8
実線
100
AcDbLine
 10
-2902.093753932992
 20
-1811.866043891207
 30
0.0
 11
-2902.093753932992
 21
-1818.166043891207
 31
0.0
  0
LINE
  5
23D5A
330
18
100
AcDbEntity
  8
実線
100
AcDbLine
 10
-2900.093753932992
 20
-1809.166043891206
 30
0.0
 11
-2900.093753932992
 21
-1815.066043891206
 31
0.0
  0
LINE
  5
23D5D
330
18
100
AcDbEntity
  8
実線
100
AcDbLine
 10
-2902.093753932992
 20
-1812.366043891207
 30
0.0
 11
-2900.093753932992
 21
-1812.366043891207
 31
0.0
  0
LINE
  5
23D5E
330
18
100
AcDbEntity
  8
実線
100
AcDbLine
 10
-2876.393753932992
 20
-1815.626043891206
 30
0.0
 11
-2876.393753932992
 21
-1819.066043891207
 31
0.0
  0
LINE
  5
23D5F
330
18
100
AcDbEntity
  8
実線
100
AcDbLine
 10
-2889.84277492122
 20
-1821.04840479689
 30
0.0
 11
-2894.393753932993
 21
-1821.866043891207
 31
0.0
  0
LINE
  5
23D60
330
18
100
AcDbEntity
  8
実線
100
AcDbLine
 10
-2889.939232420388
 20
-1819.966043891207
 30
0.0
 11
-2899.093753932993
 21
-1819.966043891207
 31
0.0
  0
LINE
  5
23D61
330
18
100
AcDbEntity
  8
実線
100
AcDbLine
 10
-2900.093753932992
 20
-1817.666043891207
 30
0.0
 11
-2902.093753932992
 21
-1817.666043891207
 31
0.0
  0
LINE
  5
23D62
330
18
100
AcDbEntity
  8
実線
100
AcDbLine
 10
-2900.093753932992
 20
-1816.366043891207
 30
0.0
 11
-2902.093753932992
 21
-1816.366043891207
 31
0.0
  0
LINE
  5
23D63
330
18
100
AcDbEntity
  8
実線
100
AcDbLine
 10
-2900.093753932992
 20
-1813.666043891207
 30
0.0
 11
-2902.093753932992
 21
-1813.666043891207
 31
0.0
  0
LINE
  5
23D64
330
18
100
AcDbEntity
  8
実線
100
AcDbLine
 10
-2900.093753932992
 20
-1815.066043891206
 30
0.0
 11
-2902.093753932992
 21
-1815.066043891206
 31
0.0
  0
ARC
  5
23D65
330
18
100
AcDbEntity
  8
実線
100
AcDbCircle
 10
-2899.593753932992
 20
-1820.466043891206
 30
0.0
 40
0.5
100
AcDbArc
 50
270.0
 51
0.0
  0
LINE
  5
23D66
330
18
100
AcDbEntity
  8
実線
100
AcDbLine
 10
-2899.093753932993
 20
-1819.966043891207
 30
0.0
 11
-2899.093753932993
 21
-1820.466043891206
 31
0.0
  0
LINE
  5
23D67
330
18
100
AcDbEntity
  8
実線
100
AcDbLine
 10
-2899.593753932992
 20
-1820.966043891207
 30
0.0
 11
-2900.093753932992
 21
-1820.966043891207
 31
0.0
  0
LINE
  5
23D68
330
18
100
AcDbEntity
  8
実線
100
AcDbLine
 10
-2900.093753932992
 20
-1815.066043891206
 30
0.0
 11
-2900.093753932992
 21
-1820.966043891207
 31
0.0
  0
LINE
  5
23D69
330
18
100
AcDbEntity
  8
実線
100
AcDbLine
 10
-2886.486966141685
 20
-1822.266043891207
 30
0.0
 11
-2884.393753932993
 21
-1822.266043891207
 31
0.0
  0
LINE
  5
23D6A
330
18
100
AcDbEntity
  8
実線
100
AcDbLine
 10
-2884.393753932993
 20
-1821.466043891207
 30
0.0
 11
-2886.486966141685
 21
-1821.466043891207
 31
0.0
  0
LINE
  5
23D6B
330
18
100
AcDbEntity
  8
実線
100
AcDbLine
 10
-2887.893753932992
 20
-1822.266043891207
 30
0.0
 11
-2886.486966141685
 21
-1822.266043891207
 31
0.0
  0
ARC
  5
23D6C
330
18
100
AcDbEntity
  8
実線
100
AcDbCircle
 10
-2887.60362174287
 20
-1821.06308052211
 30
0.0
 40
0.2901321901215654
100
AcDbArc
 50
134.2652139555196
 51
180.0
  0
LINE
  5
23D6D
330
18
100
AcDbEntity
  8
実線
100
AcDbLine
 10
-2886.893753932993
 20
-1819.966043891207
 30
0.0
 11
-2887.806128393886
 21
-1820.855312035472
 31
0.0
  0
LINE
  5
23D6E
330
18
100
AcDbEntity
  8
実線
100
AcDbLine
 10
-2887.893753932992
 20
-1821.06308052211
 30
0.0
 11
-2887.893753932992
 21
-1821.466043891207
 31
0.0
  0
LINE
  5
23D6F
330
18
100
AcDbEntity
  8
実線
100
AcDbLine
 10
-2886.486966141685
 20
-1821.466043891207
 30
0.0
 11
-2887.893753932992
 21
-1821.466043891207
 31
0.0
  0
ARC
  5
23D70
330
18
100
AcDbEntity
  8
実線
100
AcDbCircle
 10
-2889.939232420388
 20
-1820.511522378603
 30
0.0
 40
0.545478487396098
100
AcDbArc
 50
280.1852278629175
 51
90.0
  0
LINE
  5
23D71
330
18
100
AcDbEntity
  8
実線
100
AcDbLine
 10
-2886.486966141685
 20
-1821.466043891207
 30
0.0
 11
-2886.486966141685
 21
-1822.266043891207
 31
0.0
  0
LINE
  5
23D72
330
18
100
AcDbEntity
  8
実線
100
AcDbLine
 10
-2887.893753932992
 20
-1821.466043891207
 30
0.0
 11
-2887.893753932992
 21
-1822.266043891207
 31
0.0
  0
LINE
  5
23D73
330
18
100
AcDbEntity
  8
実線
100
AcDbLine
 10
-2884.393753932993
 20
-1821.466043891207
 30
0.0
 11
-2884.393753932993
 21
-1820.466043891206
 31
0.0
  0
LINE
  5
23D74
330
18
100
AcDbEntity
  8
実線
100
AcDbLine
 10
-2886.893753932993
 20
-1815.066043891206
 30
0.0
 11
-2886.893753932993
 21
-1819.966043891207
 31
0.0
  0
LINE
  5
23D75
330
18
100
AcDbEntity
  8
実線
100
AcDbLine
 10
-2884.393753932993
 20
-1820.466043891206
 30
0.0
 11
-2883.393753932992
 21
-1820.466043891206
 31
0.0
  0
LINE
  5
23D76
330
18
100
AcDbEntity
  8
実線
100
AcDbLine
 10
-2883.393753932992
 20
-1820.466043891206
 30
0.0
 11
-2882.393753932992
 21
-1821.466043891207
 31
0.0
  0
LINE
  5
23D77
330
18
100
AcDbEntity
  8
実線
100
AcDbLine
 10
-2882.393753932992
 20
-1821.466043891207
 30
0.0
 11
-2882.393753932992
 21
-1822.266043891207
 31
0.0
  0
LINE
  5
23D78
330
18
100
AcDbEntity
  8
実線
100
AcDbLine
 10
-2876.393753932992
 20
-1814.506043891206
 30
0.0
 11
-2886.893753932993
 21
-1814.506043891206
 31
0.0
  0
LINE
  5
23D79
330
18
100
AcDbEntity
  8
実線
100
AcDbLine
 10
-2886.893753932993
 20
-1815.626043891206
 30
0.0
 11
-2876.393753932992
 21
-1815.626043891206
 31
0.0
  0
LINE
  5
23D7A
330
18
100
AcDbEntity
  8
実線
100
AcDbLine
 10
-2876.393753932992
 20
-1819.066043891207
 30
0.0
 11
-2886.893753932993
 21
-1819.066043891207
 31
0.0
  0
LINE
  5
23D7B
330
18
100
AcDbEntity
  8
実線
100
AcDbLine
 10
-2885.393753932993
 20
-1823.866043891207
 30
0.0
 11
-2893.593753932993
 21
-1823.866043891207
 31
0.0
  0
LINE
  5
23D7C
330
18
100
AcDbEntity
  8
実線
100
AcDbLine
 10
-2887.893753932992
 20
-1823.266043891205
 30
0.0
 11
-2893.593753932993
 21
-1823.266043891205
 31
0.0
  0
LINE
  5
23D7D
330
18
100
AcDbEntity
  8
実線
100
AcDbLine
 10
-2893.593753932993
 20
-1823.266043891205
 30
0.0
 11
-2893.593753932993
 21
-1823.866043891207
 31
0.0
  0
LINE
  5
23D7E
330
18
100
AcDbEntity
  8
実線
100
AcDbLine
 10
-2893.593753932993
 20
-1823.866043891207
 30
0.0
 11
-2894.393753932993
 21
-1823.866043891207
 31
0.0
  0
LINE
  5
23D7F
330
18
100
AcDbEntity
  8
実線
100
AcDbLine
 10
-2884.793753932992
 20
-1823.266043891205
 30
0.0
 11
-2887.893753932992
 21
-1823.266043891205
 31
0.0
  0
LINE
  5
23D80
330
18
100
AcDbEntity
  8
実線
100
AcDbLine
 10
-2884.393753932993
 20
-1823.266043891205
 30
0.0
 11
-2884.793753932992
 21
-1823.266043891205
 31
0.0
  0
LINE
  5
23D81
330
18
100
AcDbEntity
  8
実線
100
AcDbLine
 10
-2884.793753932992
 20
-1823.266043891205
 30
0.0
 11
-2885.393753932993
 21
-1823.866043891207
 31
0.0
  0
LINE
  5
23D82
330
18
100
AcDbEntity
  8
実線
100
AcDbLine
 10
-2883.393753932992
 20
-1823.266043891205
 30
0.0
 11
-2884.393753932993
 21
-1823.266043891205
 31
0.0
  0
LINE
  5
23D83
330
18
100
AcDbEntity
  8
実線
100
AcDbLine
 10
-2894.393753932993
 20
-1821.866043891207
 30
0.0
 11
-2894.393753932993
 21
-1823.866043891207
 31
0.0
  0
LINE
  5
23D84
330
18
100
AcDbEntity
  8
実線
100
AcDbLine
 10
-2887.893753932992
 20
-1822.266043891207
 30
0.0
 11
-2887.893753932992
 21
-1823.266043891205
 31
0.0
  0
LINE
  5
23D85
330
18
100
AcDbEntity
  8
実線
100
AcDbLine
 10
-2884.393753932993
 20
-1822.266043891207
 30
0.0
 11
-2884.393753932993
 21
-1823.266043891205
 31
0.0
  0
LINE
  5
23D86
330
18
100
AcDbEntity
  8
実線
100
AcDbLine
 10
-2882.393753932992
 20
-1822.266043891207
 30
0.0
 11
-2883.393753932992
 21
-1823.266043891205
 31
0.0
  0
LINE
  5
23D87
330
18
100
AcDbEntity
  8
実線
100
AcDbLine
 10
-2900.093753932992
 20
-1817.666043891207
 30
0.0
 11
-2900.093753932992
 21
-1812.366043891207
 31
0.0
  0
LINE
  5
23D88
330
18
100
AcDbEntity
  8
実線
100
AcDbLine
 10
-2900.093753932992
 20
-1809.166043891206
 30
0.0
 11
-2899.593753932992
 21
-1809.166043891206
 31
0.0
  0
LINE
  5
23D89
330
18
100
AcDbEntity
  8
実線
100
AcDbLine
 10
-2899.093753932993
 20
-1810.166043891207
 30
0.0
 11
-2886.893753932993
 21
-1810.166043891207
 31
0.0
  0
LINE
  5
23D8A
330
18
100
AcDbEntity
  8
実線
100
AcDbLine
 10
-2899.093753932993
 20
-1809.666043891207
 30
0.0
 11
-2899.093753932993
 21
-1810.166043891207
 31
0.0
  0
LINE
  5
23D8B
330
18
100
AcDbEntity
  8
実線
100
AcDbLine
 10
-2886.893753932993
 20
-1811.066043891207
 30
0.0
 11
-2876.393753932992
 21
-1811.066043891207
 31
0.0
  0
ARC
  5
23D8C
330
18
100
AcDbEntity
  8
実線
100
AcDbCircle
 10
-2899.593753932992
 20
-1809.666043891207
 30
0.0
 40
0.5
100
AcDbArc
 50
0.0
 51
90.0
  0
LINE
  5
23F11
330
18
100
AcDbEntity
  8
実線
100
AcDbLine
 10
-3331.222670521817
 20
-1811.123292091102
 30
0.0
 11
-3331.222670521817
 21
-1716.123292091102
 31
0.0
  0
CIRCLE
  5
23F12
330
18
100
AcDbEntity
  8
実線
100
AcDbCircle
 10
-3227.222670521823
 20
-1801.123292091103
 30
0.0
 40
2.1
  0
CIRCLE
  5
23F13
330
18
100
AcDbEntity
  8
細線
100
AcDbCircle
 10
-3227.222670521821
 20
-1801.123292091102
 30
0.0
 40
2.5
  0
LINE
  5
23F14
330
18
100
AcDbEntity
  8
中心線
 48
3.0
100
AcDbLine
 10
-3231.722670521822
 20
-1801.123292091103
 30
0.0
 11
-3222.722670521823
 21
-1801.123292091103
 31
0.0
  0
LINE
  5
23F15
330
18
100
AcDbEntity
  8
中心線
 48
3.0
100
AcDbLine
 10
-3267.222670521823
 20
-1805.623292091103
 30
0.0
 11
-3267.222670521823
 21
-1796.623292091102
 31
0.0
  0
LINE
  5
23F16
330
18
100
AcDbEntity
  8
中心線
 48
3.0
100
AcDbLine
 10
-3307.222670521823
 20
-1805.623292091103
 30
0.0
 11
-3307.222670521823
 21
-1796.623292091104
 31
0.0
  0
LINE
  5
23F17
330
18
100
AcDbEntity
  8
中心線
 48
3.0
100
AcDbLine
 10
-3311.722670521823
 20
-1801.123292091103
 30
0.0
 11
-3302.722670521823
 21
-1801.123292091103
 31
0.0
  0
CIRCLE
  5
23F18
330
18
100
AcDbEntity
  8
細線
100
AcDbCircle
 10
-3307.222670521823
 20
-1801.123292091103
 30
0.0
 40
2.5
  0
CIRCLE
  5
23F19
330
18
100
AcDbEntity
  8
実線
100
AcDbCircle
 10
-3307.222670521825
 20
-1801.123292091103
 30
0.0
 40
2.1
  0
CIRCLE
  5
23F1A
330
18
100
AcDbEntity
  8
実線
100
AcDbCircle
 10
-3267.222670521823
 20
-1801.123292091103
 30
0.0
 40
2.1
  0
CIRCLE
  5
23F1B
330
18
100
AcDbEntity
  8
細線
100
AcDbCircle
 10
-3267.222670521822
 20
-1801.123292091102
 30
0.0
 40
2.5
  0
LINE
  5
23F1C
330
18
100
AcDbEntity
  8
中心線
 48
3.0
100
AcDbLine
 10
-3271.722670521823
 20
-1801.123292091103
 30
0.0
 11
-3262.722670521823
 21
-1801.123292091103
 31
0.0
  0
LINE
  5
23F1D
330
18
100
AcDbEntity
  8
中心線
 48
3.0
100
AcDbLine
 10
-3227.222670521821
 20
-1805.623292091103
 30
0.0
 11
-3227.222670521821
 21
-1796.623292091102
 31
0.0
  0
CIRCLE
  5
23F1E
330
18
100
AcDbEntity
  8
細線
100
AcDbCircle
 10
-3227.222670521821
 20
-1721.123292091101
 30
0.0
 40
2.5
  0
CIRCLE
  5
23F1F
330
18
100
AcDbEntity
  8
実線
100
AcDbCircle
 10
-3227.222670521823
 20
-1721.123292091102
 30
0.0
 40
2.1
  0
LINE
  5
23F20
330
18
100
AcDbEntity
  8
中心線
 48
3.0
100
AcDbLine
 10
-3231.722670521822
 20
-1721.123292091101
 30
0.0
 11
-3222.722670521823
 21
-1721.123292091101
 31
0.0
  0
LINE
  5
23F21
330
18
100
AcDbEntity
  8
中心線
 48
3.0
100
AcDbLine
 10
-3307.222670521823
 20
-1725.623292091102
 30
0.0
 11
-3307.222670521823
 21
-1716.623292091102
 31
0.0
  0
LINE
  5
23F22
330
18
100
AcDbEntity
  8
中心線
 48
3.0
100
AcDbLine
 10
-3311.722670521823
 20
-1721.123292091102
 30
0.0
 11
-3302.722670521823
 21
-1721.123292091102
 31
0.0
  0
CIRCLE
  5
23F23
330
18
100
AcDbEntity
  8
実線
100
AcDbCircle
 10
-3307.222670521825
 20
-1721.123292091104
 30
0.0
 40
2.1
  0
CIRCLE
  5
23F24
330
18
100
AcDbEntity
  8
細線
100
AcDbCircle
 10
-3307.222670521823
 20
-1721.123292091101
 30
0.0
 40
2.5
  0
CIRCLE
  5
23F25
330
18
100
AcDbEntity
  8
細線
100
AcDbCircle
 10
-3267.222670521822
 20
-1721.123292091101
 30
0.0
 40
2.5
  0
CIRCLE
  5
23F26
330
18
100
AcDbEntity
  8
実線
100
AcDbCircle
 10
-3267.222670521823
 20
-1721.123292091102
 30
0.0
 40
2.1
  0
LINE
  5
23F27
330
18
100
AcDbEntity
  8
中心線
 48
3.0
100
AcDbLine
 10
-3271.722670521823
 20
-1721.123292091101
 30
0.0
 11
-3262.722670521823
 21
-1721.123292091101
 31
0.0
  0
LINE
  5
23F28
330
18
100
AcDbEntity
  8
中心線
 48
3.0
100
AcDbLine
 10
-3267.222670521823
 20
-1725.623292091102
 30
0.0
 11
-3267.222670521823
 21
-1716.623292091102
 31
0.0
  0
LINE
  5
23F29
330
18
100
AcDbEntity
  8
中心線
 48
3.0
100
AcDbLine
 10
-3227.222670521821
 20
-1725.623292091102
 30
0.0
 11
-3227.222670521821
 21
-1716.623292091102
 31
0.0
  0
LINE
  5
24240
330
18
100
AcDbEntity
  8
実線
100
AcDbLine
 10
-2963.222670521818
 20
-1664.4071779259
 30
0.0
 11
-3028.465877300017
 21
-1664.4071779259
 31
0.0
  0
LINE
  5
24241
330
18
100
AcDbEntity
  8
実線
100
AcDbLine
 10
-2963.222670521818
 20
-1681.4071779259
 30
0.0
 11
-3030.429224839896
 21
-1681.4071779259
 31
0.0
  0
LINE
  5
24243
330
18
100
AcDbEntity
  8
0
100
AcDbLine
 10
-3022.718618912946
 20
-1679.911062994793
 30
0.0
 11
-2988.718618912946
 21
-1679.911062994793
 31
0.0
  0
LINE
  5
24244
330
18
100
AcDbEntity
  8
0
100
AcDbLine
 10
-2988.218618912947
 20
-1672.911062994794
 30
0.0
 11
-3023.218618912946
 21
-1672.911062994794
 31
0.0
  0
LINE
  5
24245
330
18
100
AcDbEntity
  8
0
100
AcDbLine
 10
-2988.718618912946
 20
-1667.911062994795
 30
0.0
 11
-3022.718618912946
 21
-1667.911062994795
 31
0.0
  0
SPLINE
  5
24247
330
18
100
AcDbEntity
  8
実線
100
AcDbSpline
210
0.0
220
0.0
230
1.0
 70
     8
 71
     3
 72
    12
 73
     8
 74
     6
 42
0.0000000001
 43
0.0000000001
 44
0.0000000001
 40
0.0
 40
0.0
 40
0.0
 40
0.0
 40
3.393404858668809
 40
9.239086133661164
 40
13.23455097091434
 40
17.27372249097025
 40
24.76338539145929
 40
24.76338539145929
 40
24.76338539145929
 40
24.76338539145929
 10
-3026.295306763841
 20
-1661.551872408315
 30
0.0
 10
-3027.023707682261
 20
-1662.401873720807
 30
0.0
 10
-3029.006895396494
 20
-1664.716137908818
 30
0.0
 10
-3030.62000029372
 20
-1669.50972218543
 30
0.0
 10
-3027.773202447289
 20
-1673.537986812902
 30
0.0
 10
-3028.333744242333
 20
-1679.04483818604
 30
0.0
 10
-3030.861742530664
 20
-1682.046626004784
 30
0.0
 10
-3032.504046887023
 20
-1683.9967259057
 30
0.0
 11
-3026.295306763841
 21
-1661.551872408315
 31
0.0
 11
-3028.364889929442
 21
-1664.241114319244
 31
0.0
 11
-3029.710117112358
 21
-1669.929906229231
 31
0.0
 11
-3028.261405146988
 21
-1673.653476143591
 31
0.0
 11
-3028.468365338273
 21
-1677.687342037204
 31
0.0
 11
-3032.504046887023
 21
-1683.9967259057
 31
0.0
  0
LINE
  5
24248
330
18
100
AcDbEntity
  8
0
100
AcDbLine
 10
-3023.218618912946
 20
-1668.411062994795
 30
0.0
 11
-3023.218618912946
 21
-1679.411062994794
 31
0.0
  0
ARC
  5
24249
330
18
100
AcDbEntity
  8
0
100
AcDbCircle
 10
-3022.718618912946
 20
-1679.411062994794
 30
0.0
 40
0.5
100
AcDbArc
 50
180.0
 51
270.0
  0
ARC
  5
2424A
330
18
100
AcDbEntity
  8
0
100
AcDbCircle
 10
-3022.718618912946
 20
-1668.411062994795
 30
0.0
 40
0.5
100
AcDbArc
 50
90.0
 51
180.0
  0
LINE
  5
2424B
330
18
100
AcDbEntity
  8
0
100
AcDbLine
 10
-2968.218618912946
 20
-1674.911062994794
 30
0.0
 11
-2983.218618912948
 21
-1674.911062994794
 31
0.0
  0
LWPOLYLINE
  5
2424D
330
18
100
AcDbEntity
  8
0
100
AcDbPolyline
 90
        8
 70
     1
 43
0.0
 10
-2968.718618912948
 20
-1668.911062994794
 10
-2982.718618912946
 20
-1668.911062994794
 42
0.4142135623730951
 10
-2983.218618912948
 20
-1669.411062994794
 10
-2983.218618912948
 20
-1678.411062994793
 42
0.4142135623730951
 10
-2982.718618912946
 20
-1678.911062994794
 10
-2968.718618912948
 20
-1678.911062994794
 42
0.4142135623730996
 10
-2968.218618912946
 20
-1678.411062994793
 10
-2968.218618912946
 20
-1669.411062994794
 42
0.4142135623730904
  0
LINE
  5
24256
330
18
100
AcDbEntity
  8
0
100
AcDbLine
 10
-2988.218618912947
 20
-1679.411062994794
 30
0.0
 11
-2988.218618912947
 21
-1668.411062994795
 31
0.0
  0
ARC
  5
24258
330
18
100
AcDbEntity
  8
0
100
AcDbCircle
 10
-2988.718618912946
 20
-1679.411062994794
 30
0.0
 40
0.5
100
AcDbArc
 50
270.0
 51
0.0
  0
ARC
  5
24259
330
18
100
AcDbEntity
  8
0
100
AcDbCircle
 10
-2988.718618912946
 20
-1668.411062994795
 30
0.0
 40
0.5
100
AcDbArc
 50
0.0
 51
90.0
  0
LINE
  5
2426D
330
18
100
AcDbEntity
  8
実線
100
AcDbLine
 10
-2963.222670521818
 20
-1664.4071779259
 30
0.0
 11
-2963.222670521818
 21
-1681.4071779259
 31
0.0
  0
LINE
  5
24644
330
18
100
AcDbEntity
  8
実線
100
AcDbLine
 10
-2963.222670521818
 20
-1809.627477131375
 30
0.0
 11
-2943.222670521818
 21
-1809.627477131375
 31
0.0
  0
LINE
  5
24645
330
18
100
AcDbEntity
  8
実線
100
AcDbLine
 10
-2943.222670521818
 20
-1809.627477131375
 30
0.0
 11
-2943.222670521818
 21
-1802.627477131375
 31
0.0
  0
LINE
  5
24646
330
18
100
AcDbEntity
  8
実線
100
AcDbLine
 10
-2943.222670521818
 20
-1802.627477131375
 30
0.0
 11
-2963.222670521818
 21
-1802.627477131375
 31
0.0
  0
LINE
  5
2475F
330
18
100
AcDbEntity
  8
２点鎖線
 48
0.5
100
AcDbLine
 10
-2831.677810497199
 20
-1815.364468966325
 30
0.0
 11
-2831.677810497214
 21
-1706.882115215886
 31
0.0
  0
LINE
  5
24760
330
18
100
AcDbEntity
  8
実線
100
AcDbLine
 10
-2817.426741072711
 20
-1810.623292091104
 30
0.0
 11
-2817.426741072715
 21
-1786.123292091104
 31
0.0
  0
LINE
  5
24761
330
18
100
AcDbEntity
  8
実線
100
AcDbLine
 10
-2809.426741072711
 20
-1811.123292091104
 30
0.0
 11
-2809.426741072714
 21
-1801.623292091104
 31
0.0
  0
LINE
  5
24764
330
18
100
AcDbEntity
  8
実線
100
AcDbLine
 10
-2797.426741072711
 20
-1811.123292091102
 30
0.0
 11
-2797.426741072713
 21
-1791.123292091101
 31
0.0
  0
LINE
  5
24765
330
18
100
AcDbEntity
  8
実線
  6
HIDDEN
 48
5.0
100
AcDbLine
 10
-2797.426741072711
 20
-1810.623292091104
 30
0.0
 11
-2797.426741072711
 21
-1801.623292091104
 31
0.0
  0
LINE
  5
24766
330
18
100
AcDbEntity
  8
中心線
  6
CENTER
 48
3.0
100
AcDbLine
 10
-2801.926741072712
 20
-1810.595758081134
 30
0.0
 11
-2801.926741072713
 21
-1801.650826101073
 31
0.0
  0
LINE
  5
24769
330
18
100
AcDbEntity
  8
２点鎖線
 48
0.5
100
AcDbLine
 10
-2831.677810497199
 20
-1815.364468966325
 30
0.0
 11
-2817.426741072713
 21
-1815.364468966322
 31
0.0
  0
LINE
  5
2476B
330
18
100
AcDbEntity
  8
２点鎖線
100
AcDbLine
 10
-2817.426741072711
 20
-1810.623292091104
 30
0.0
 11
-2817.42674107271
 21
-1815.36446896632
 31
0.0
  0
LINE
  5
2476C
330
18
100
AcDbEntity
  8
実線
100
AcDbLine
 10
-2814.426741072711
 20
-1811.123292091104
 30
0.0
 11
-2816.926741072711
 21
-1811.123292091104
 31
0.0
  0
LINE
  5
2476D
330
18
100
AcDbEntity
  8
実線
100
AcDbLine
 10
-2816.926741072711
 20
-1811.123292091104
 30
0.0
 11
-2817.426741072711
 21
-1810.623292091104
 31
0.0
  0
LINE
  5
2476F
330
18
100
AcDbEntity
  8
実線
100
AcDbLine
 10
-2814.426741072711
 20
-1811.123292091104
 30
0.0
 11
-2797.426741072711
 21
-1811.123292091102
 31
0.0
  0
LINE
  5
24773
330
18
100
AcDbEntity
  8
２点鎖線
100
AcDbLine
 10
-2817.426741072714
 20
-1737.283095065891
 30
0.0
 11
-2817.426741072713
 21
-1784.963489116315
 31
0.0
  0
LINE
  5
24774
330
18
100
AcDbEntity
  8
実線
100
AcDbLine
 10
-2809.426741072714
 20
-1781.883095065892
 30
0.0
 11
-2809.426741072718
 21
-1740.363489116315
 31
0.0
  0
LINE
  5
24775
330
18
100
AcDbEntity
  8
実線
100
AcDbLine
 10
-2802.026741072719
 20
-1731.123292091102
 30
0.0
 11
-2802.026741072713
 21
-1791.123292091102
 31
0.0
  0
LINE
  5
24776
330
18
100
AcDbEntity
  8
２点鎖線
 48
0.3
100
AcDbLine
 10
-2801.526741072721
 20
-1735.923292091104
 30
0.0
 11
-2801.526741072721
 21
-1786.323292091104
 31
0.0
  0
LINE
  5
24777
330
18
100
AcDbEntity
  8
２点鎖線
 48
0.3
100
AcDbLine
 10
-2791.426741072721
 20
-1721.123292091104
 30
0.0
 11
-2791.426741072721
 21
-1801.123292091104
 31
0.0
  0
LINE
  5
24778
330
18
100
AcDbEntity
  8
２点鎖線
 48
0.3
100
AcDbLine
 10
-2787.426741072721
 20
-1721.123292091104
 30
0.0
 11
-2787.426741072721
 21
-1801.123292091104
 31
0.0
  0
LINE
  5
2477B
330
18
100
AcDbEntity
  8
２点鎖線
 48
0.3
100
AcDbLine
 10
-2791.426741072721
 20
-1801.123292091104
 30
0.0
 11
-2787.426741072721
 21
-1801.123292091104
 31
0.0
  0
LINE
  5
2477C
330
18
100
AcDbEntity
  8
２点鎖線
 48
0.3
100
AcDbLine
 10
-2791.426741072721
 20
-1797.623292091104
 30
0.0
 11
-2787.426741072721
 21
-1797.623292091104
 31
0.0
  0
LINE
  5
2477D
330
18
100
AcDbEntity
  8
２点鎖線
 48
0.3
100
AcDbLine
 10
-2791.426741072721
 20
-1792.623292091104
 30
0.0
 11
-2787.426741072721
 21
-1792.623292091104
 31
0.0
  0
LINE
  5
2477E
330
18
100
AcDbEntity
  8
２点鎖線
 48
0.3
100
AcDbLine
 10
-2793.426741072721
 20
-1795.123292091104
 30
0.0
 11
-2785.426741072722
 21
-1795.123292091104
 31
0.0
  0
LINE
  5
2477F
330
18
100
AcDbEntity
  8
２点鎖線
 48
0.3
100
AcDbLine
 10
-2801.526741072721
 20
-1786.323292091104
 30
0.0
 11
-2791.426741072721
 21
-1786.323292091104
 31
0.0
  0
LINE
  5
24780
330
18
100
AcDbEntity
  8
実線
 48
4.0
100
AcDbLine
 10
-2797.426741072713
 20
-1791.123292091101
 30
0.0
 11
-2802.026741072713
 21
-1791.123292091102
 31
0.0
  0
LINE
  5
24781
330
18
100
AcDbEntity
  8
実線
100
AcDbLine
 10
-2802.426741072711
 20
-1801.623292091102
 30
0.0
 11
-2802.426741072713
 21
-1797.123292091103
 31
0.0
  0
LINE
  5
24782
330
18
100
AcDbEntity
  8
中心線
  6
CENTER
 48
3.0
100
AcDbLine
 10
-2806.399207062742
 20
-1806.123292091104
 30
0.0
 11
-2797.454275082681
 21
-1806.123292091103
 31
0.0
  0
CIRCLE
  5
24783
330
18
100
AcDbEntity
  8
実線
100
AcDbCircle
 10
-2801.926741072712
 20
-1806.123292091103
 30
0.0
 40
3.5
  0
LINE
  5
24784
330
18
100
AcDbEntity
  8
実線
100
AcDbLine
 10
-2813.426741072713
 20
-1797.123292091105
 30
0.0
 11
-2813.426741072714
 21
-1786.123292091104
 31
0.0
  0
LINE
  5
24785
330
18
100
AcDbEntity
  8
中心線
 48
0.2
100
AcDbLine
 10
-2811.726741072713
 20
-1802.517015237492
 30
0.0
 11
-2811.726741072713
 21
-1797.39143738128
 31
0.0
  0
LINE
  5
24786
330
18
100
AcDbEntity
  8
中心線
  6
CENTER
 48
0.2
100
AcDbLine
 10
-2813.613856744026
 20
-1799.623292091104
 30
0.0
 11
-2808.77835425743
 21
-1799.623292091104
 31
0.0
  0
CIRCLE
  5
24787
330
18
100
AcDbEntity
  8
細線
100
AcDbCircle
 10
-2811.726741072712
 20
-1799.623292091104
 30
0.0
 40
1.5
  0
CIRCLE
  5
24788
330
18
100
AcDbEntity
  8
実線
 48
0.1
100
AcDbCircle
 10
-2811.726741072712
 20
-1799.623292091104
 30
0.0
 40
1.25
  0
LINE
  5
24789
330
18
100
AcDbEntity
  8
中心線
 48
0.2
100
AcDbLine
 10
-2811.726741072711
 20
-1809.180262817903
 30
0.0
 11
-2811.726741072712
 21
-1803.919804201788
 31
0.0
  0
LINE
  5
2478A
330
18
100
AcDbEntity
  8
中心線
  6
CENTER
 48
0.2
100
AcDbLine
 10
-2813.613856744026
 20
-1806.623292091104
 30
0.0
 11
-2808.77835425743
 21
-1806.623292091104
 31
0.0
  0
CIRCLE
  5
2478B
330
18
100
AcDbEntity
  8
実線
 48
0.1
100
AcDbCircle
 10
-2811.726741072712
 20
-1806.623292091104
 30
0.0
 40
1.25
  0
CIRCLE
  5
2478C
330
18
100
AcDbEntity
  8
細線
100
AcDbCircle
 10
-2811.726741072712
 20
-1806.623292091104
 30
0.0
 40
1.5
  0
LINE
  5
2478D
330
18
100
AcDbEntity
  8
実線
100
AcDbLine
 10
-2817.426741072713
 20
-1784.963489116315
 30
0.0
 11
-2817.426741072715
 21
-1786.123292091104
 31
0.0
  0
LINE
  5
2478E
330
18
100
AcDbEntity
  8
実線
100
AcDbLine
 10
-2813.426741072714
 20
-1786.123292091104
 30
0.0
 11
-2817.426741072713
 21
-1786.123292091104
 31
0.0
  0
ARC
  5
2478F
330
18
100
AcDbEntity
  8
実線
100
AcDbCircle
 10
-2810.426741072713
 20
-1781.883095065892
 30
0.0
 40
1.0
100
AcDbArc
 50
279.9262455066533
 51
0.0
  0
LINE
  5
24790
330
18
100
AcDbEntity
  8
実線
100
AcDbLine
 10
-2810.254360740961
 20
-1782.868125533048
 30
0.0
 11
-2816.599121404466
 21
-1783.978458649161
 31
0.0
  0
ARC
  5
24791
330
18
100
AcDbEntity
  8
実線
100
AcDbCircle
 10
-2816.426741072714
 20
-1784.963489116317
 30
0.0
 40
1.0
100
AcDbArc
 50
99.92624550665331
 51
179.9999999999739
  0
LINE
  5
24792
330
18
100
AcDbEntity
  8
実線
100
AcDbLine
 10
-2813.426741072713
 20
-1797.123292091104
 30
0.0
 11
-2802.426741072713
 21
-1797.123292091103
 31
0.0
  0
LINE
  5
24793
330
18
100
AcDbEntity
  8
中心線
 48
0.5
100
AcDbLine
 10
-2803.93829336289
 20
-1801.123292091103
 30
0.0
 11
-2819.426741072714
 21
-1801.123292091104
 31
0.0
  0
LINE
  5
24794
330
18
100
AcDbEntity
  8
実線
100
AcDbLine
 10
-2809.426741072713
 20
-1801.623292091104
 30
0.0
 11
-2802.426741072713
 21
-1801.623292091102
 31
0.0
  0
LINE
  5
24796
330
18
100
AcDbEntity
  8
中心線
 48
0.5
100
AcDbLine
 10
-2790.548150328474
 20
-1761.123292091102
 30
0.0
 11
-2821.085531840807
 21
-1761.123292091105
 31
0.0
  0
LINE
  5
24798
330
18
100
AcDbEntity
  8
２点鎖線
 48
0.5
100
AcDbLine
 10
-2831.677810497214
 20
-1706.882115215886
 30
0.0
 11
-2817.426741072715
 21
-1706.882115215887
 31
0.0
  0
LINE
  5
2479C
330
18
100
AcDbEntity
  8
２点鎖線
100
AcDbLine
 10
-2817.426741072722
 20
-1706.882115215887
 30
0.0
 11
-2817.426741072722
 21
-1716.623292091102
 31
0.0
  0
LINE
  5
2479F
330
18
100
AcDbEntity
  8
中心線
  6
CENTER
 48
3.0
100
AcDbLine
 10
-2793.426741072721
 20
-1727.123292091104
 30
0.0
 11
-2785.426741072722
 21
-1727.123292091104
 31
0.0
  0
LINE
  5
247A0
330
18
100
AcDbEntity
  8
２点鎖線
 48
0.3
100
AcDbLine
 10
-2791.426741072721
 20
-1729.623292091104
 30
0.0
 11
-2787.426741072721
 21
-1729.623292091104
 31
0.0
  0
LINE
  5
247A1
330
18
100
AcDbEntity
  8
２点鎖線
 48
0.3
100
AcDbLine
 10
-2791.426741072721
 20
-1721.123292091104
 30
0.0
 11
-2787.426741072721
 21
-1721.123292091104
 31
0.0
  0
LINE
  5
247A2
330
18
100
AcDbEntity
  8
２点鎖線
 48
0.3
100
AcDbLine
 10
-2791.426741072721
 20
-1724.623292091104
 30
0.0
 11
-2787.426741072721
 21
-1724.623292091104
 31
0.0
  0
LINE
  5
247A4
330
18
100
AcDbEntity
  8
２点鎖線
 48
0.3
100
AcDbLine
 10
-2801.526741072721
 20
-1735.923292091104
 30
0.0
 11
-2791.426741072721
 21
-1735.923292091104
 31
0.0
  0
LINE
  5
247A5
330
18
100
AcDbEntity
  8
実線
100
AcDbLine
 10
-2800.426741072721
 20
-1725.123292091104
 30
0.0
 11
-2800.426741072722
 21
-1716.123292091102
 31
0.0
  0
LINE
  5
247A6
330
18
100
AcDbEntity
  8
実線
 48
4.0
100
AcDbLine
 10
-2800.426741072721
 20
-1731.123292091103
 30
0.0
 11
-2802.026741072721
 21
-1731.123292091103
 31
0.0
  0
LINE
  5
247A7
330
18
100
AcDbEntity
  8
実線
100
AcDbLine
 10
-2800.426741072721
 20
-1731.123292091103
 30
0.0
 11
-2800.426741072722
 21
-1716.123292091102
 31
0.0
  0
LINE
  5
247A8
330
18
100
AcDbEntity
  8
実線
100
AcDbLine
 10
-2802.438098644131
 20
-1725.123292091104
 30
0.0
 11
-2802.438098644131
 21
-1716.123292091102
 31
0.0
  0
LINE
  5
247A9
330
18
100
AcDbEntity
  8
実線
100
AcDbLine
 10
-2817.426741072714
 20
-1736.123292091104
 30
0.0
 11
-2817.426741072717
 21
-1716.623292091102
 31
0.0
  0
LINE
  5
247AA
330
18
100
AcDbEntity
  8
実線
100
AcDbLine
 10
-2817.426741072714
 20
-1736.123292091104
 30
0.0
 11
-2817.426741072714
 21
-1737.283095065891
 31
0.0
  0
LINE
  5
247AB
330
18
100
AcDbEntity
  8
実線
100
AcDbLine
 10
-2813.426741072719
 20
-1736.123292091104
 30
0.0
 11
-2817.426741072719
 21
-1736.123292091104
 31
0.0
  0
ARC
  5
247AC
330
18
100
AcDbEntity
  8
実線
100
AcDbCircle
 10
-2810.426741072717
 20
-1740.363489116315
 30
0.0
 40
1.0
100
AcDbArc
 50
0.0
 51
80.0737544933467
  0
LINE
  5
247AD
330
18
100
AcDbEntity
  8
実線
100
AcDbLine
 10
-2810.254360740964
 20
-1739.378458649161
 30
0.0
 11
-2816.599121404466
 21
-1738.268125533048
 31
0.0
  0
ARC
  5
247AE
330
18
100
AcDbEntity
  8
実線
 48
0.5
100
AcDbCircle
 10
-2816.426741072714
 20
-1737.283095065891
 30
0.0
 40
1.0
100
AcDbArc
 50
180.0
 51
260.0737544933465
  0
LINE
  5
247AF
330
18
100
AcDbEntity
  8
実線
100
AcDbLine
 10
-2813.426741072719
 20
-1736.123292091104
 30
0.0
 11
-2813.426741072721
 21
-1725.123292091104
 31
0.0
  0
LINE
  5
247B0
330
18
100
AcDbEntity
  8
実線
100
AcDbLine
 10
-2814.426741072722
 20
-1716.123292091103
 30
0.0
 11
-2816.926741072722
 21
-1716.123292091102
 31
0.0
  0
LINE
  5
247B1
330
18
100
AcDbEntity
  8
実線
100
AcDbLine
 10
-2817.426741072722
 20
-1716.623292091102
 30
0.0
 11
-2816.926741072722
 21
-1716.123292091102
 31
0.0
  0
LINE
  5
247B2
330
18
100
AcDbEntity
  8
中心線
  6
CENTER
 48
0.3
100
AcDbLine
 10
-2803.557325278415
 20
-1721.123292091102
 30
0.0
 11
-2819.426741072715
 21
-1721.123292091104
 31
0.0
  0
LINE
  5
247B3
330
18
100
AcDbEntity
  8
実線
100
AcDbLine
 10
-2802.438098644131
 20
-1725.123292091104
 30
0.0
 11
-2813.426741072721
 21
-1725.123292091104
 31
0.0
  0
LINE
  5
247B4
330
18
100
AcDbEntity
  8
実線
100
AcDbLine
 10
-2800.426741072722
 20
-1716.123292091102
 30
0.0
 11
-2814.426741072722
 21
-1716.123292091103
 31
0.0
  0
LINE
  5
248C8
330
18
100
AcDbEntity
  8
実線
100
AcDbLine
 10
-2938.400190194471
 20
-1672.0071779259
 30
0.0
 11
-2943.222670521818
 21
-1672.0071779259
 31
0.0
  0
LINE
  5
248C9
330
18
100
AcDbEntity
  8
実線
100
AcDbLine
 10
-2943.222670521818
 20
-1665.7071779259
 30
0.0
 11
-2937.289330216007
 21
-1665.7071779259
 31
0.0
  0
LINE
  5
248CA
330
18
100
AcDbEntity
  8
実線
100
AcDbLine
 10
-2943.222670521818
 20
-1665.357177925901
 30
0.0
 11
-2943.222670521818
 21
-1672.357177925901
 31
0.0
  0
LINE
  5
248CB
330
18
100
AcDbEntity
  8
実線
100
AcDbLine
 10
-2943.222670521818
 20
-1672.357177925901
 30
0.0
 11
-2963.222670521818
 21
-1672.357177925901
 31
0.0
  0
LINE
  5
248CC
330
18
100
AcDbEntity
  8
実線
100
AcDbLine
 10
-2963.222670521818
 20
-1665.357177925901
 30
0.0
 11
-2943.222670521818
 21
-1665.357177925901
 31
0.0
  0
LINE
  5
248CD
330
18
100
AcDbEntity
  8
中心線
 48
0.4
100
AcDbLine
 10
-2938.58607145973
 20
-1673.061362966173
 30
0.0
 11
-2937.103448950748
 21
-1664.652992885629
 31
0.0
  0
LINE
  5
248CE
330
18
100
AcDbEntity
  8
実線
100
AcDbLine
 10
-2963.222670521818
 20
-1666.407177925901
 30
0.0
 11
-3029.404351941233
 21
-1666.407177925901
 31
0.0
  0
LINE
  5
2490E
330
18
100
AcDbEntity
  8
実線
100
AcDbLine
 10
-3331.222670521817
 20
-1738.123292091102
 30
0.0
 11
-2963.222670521817
 21
-1738.123292091102
 31
0.0
  0
LINE
  5
2490F
330
18
100
AcDbEntity
  8
実線
100
AcDbLine
 10
-3331.222670521817
 20
-1739.523292091102
 30
0.0
 11
-2963.222670521817
 21
-1739.523292091102
 31
0.0
  0
LINE
  5
24910
330
18
100
AcDbEntity
  8
実線
100
AcDbLine
 10
-3331.222670521817
 20
-1784.123292091102
 30
0.0
 11
-2963.222670521818
 21
-1784.123292091102
 31
0.0
  0
LINE
  5
24911
330
18
100
AcDbEntity
  8
実線
100
AcDbLine
 10
-3328.222670521817
 20
-1811.123292091102
 30
0.0
 11
-3328.222670521817
 21
-1786.123292091102
 31
0.0
  0
LINE
  5
24912
330
18
100
AcDbEntity
  8
実線
100
AcDbLine
 10
-3331.222670521817
 20
-1782.723292091102
 30
0.0
 11
-2963.222670521818
 21
-1782.723292091102
 31
0.0
  0
LINE
  5
24913
330
18
100
AcDbEntity
  8
実線
100
AcDbLine
 10
-3328.222670521817
 20
-1736.123292091102
 30
0.0
 11
-3328.222670521817
 21
-1716.123292091102
 31
0.0
  0
VIEWPORT
  5
23
330
15
100
AcDbEntity
 67
     1
  8
0
100
AcDbViewport
 10
199.9934302168833
 20
144.0004726895514
 30
0.0
 40
443.4155262838284
 41
290.2088328169907
 68
     1
 69
     1
1001
ACAD
1000
MVIEW
1002
{
1070
    16
1010
0.0
1020
0.0
1030
0.0
1010
0.0
1020
0.0
1030
1.0
1040
0.0
1040
290.2088328169907
1040
199.9934302168833
1040
144.0004726895514
1040
50.0
1040
0.0
1040
0.0
1070
     0
1070
   100
1070
     1
1070
     0
1070
     0
1070
     0
1070
     0
1070
     0
1040
0.0
1040
0.0
1040
0.0
1040
10.0
1040
10.0
1040
10.0
1040
10.0
1070
     0
1002
{
1002
}
1002
}
  0
VIEWPORT
  5
2E
330
15
100
AcDbEntity
 67
     1
  8
M_VIEW
100
AcDbViewport
 10
200.0
 20
144.0
 30
0.0
 40
400.0
 41
288.0
 68
     2
 69
     2
1001
ACAD
1000
MVIEW
1002
{
1070
    16
1010
0.0
1020
0.0
1030
0.0
1010
0.0
1020
0.0
1030
1.0
1040
0.0
1040
432.0000006182952
1040
-3052.88783054407
1040
-1825.629488026426
1040
50.0
1040
0.0
1040
0.0
1070
     0
1070
   100
1070
     1
1070
     0
1070
     0
1070
     0
1070
     0
1070
     0
1040
0.0
1040
0.0
1040
0.0
1040
10.0
1040
10.0
1040
10.0
1040
10.0
1070
     0
1002
{
1002
}
1002
}
  0
INSERT
  5
115F
330
15
100
AcDbEntity
 67
     1
  8
FRAME025
100
AcDbBlockReference
  2
機械A4横_LBP
 10
82.74908858651452
 20
152.030959079227
 30
0.0
  0
TEXT
  5
AA6A
330
15
100
AcDbEntity
 67
     1
  8
文字
  6
BYBLOCK
 62
     0
100
AcDbText
 10
32.81885892396519
 20
73.01882819621747
 30
0.0
 40
3.2
  1

 50
90.0
 41
0.625
  7
MSｺ_ｼｯｸ
100
AcDbText
  0
TEXT
  5
AA6C
330
15
100
AcDbEntity
 67
     1
  8
文字
  6
BYBLOCK
 62
     0
100
AcDbText
 10
37.25020936743055
 20
73.01882819621747
 30
0.0
 40
3.2
  1

 50
90.0
 41
0.625
  7
MSｺ_ｼｯｸ
100
AcDbText
  0
TEXT
  5
FCA5
330
15
100
AcDbEntity
 67
     1
  8
FRAME020
  6
CONTINUOUS
100
AcDbText
 10
126.6213117262079
 20
29.63926951973459
 30
0.0
 40
2.5
  1

 41
0.625
  7
MSｺ_ｼｯｸ
100
AcDbText
  0
TEXT
  5
12229
330
15
100
AcDbEntity
 67
     1
  8
0
100
AcDbText
 10
324.703280378293
 20
10.63168299257869
 30
0.0
 40
6.0
  1
ＳＥ－３７０４１B
 41
1.1
100
AcDbText
  0
MTEXT
  5
21047
330
15
100
AcDbEntity
 67
     1
  8
0
 48
10.0
100
AcDbMText
 10
327.7719738752167
 20
55.46212977036839
 30
0.0
 40
6.0
 41
50.05040000000001
 71
     1
 72
     5
  1
{\fＭＳ ゴシック|b0|i0|c128|p49;\L質量：1.44kg}
1001
ACAD
1000
MTEXTBEGIN
1070
    73
1070
     1
1070
    44
1040
1.0
1070
    74
1070
     0
1000
MTEXTEND
1000
MTEXTBEGIN
1070
    73
1070
     1
1070
    44
1040
1.0
1070
    74
1070
     0
1000
MTEXTEND
  0
MTEXT
  5
24A4D
330
15
100
AcDbEntity
 67
     1
  8
文字
100
AcDbMText
 10
204.9391202562754
 20
27.55123652441556
 30
0.0
 40
6.0
 41
195.1884197476466
 71
     1
 72
     5
  1
{\fＭＳ ゴシック|b0|i0|c128|p49;τﾘﾆｱﾓｰﾀ ｺｱﾚｽﾌﾗｯﾄ NVA-AM CLﾕﾆｯﾄ CLV-AME30A2B 135N}
  7
ｽﾀｲﾙ3
1001
ACAD
1000
MTEXTBEGIN
1070
    73
1070
     1
1070
    44
1040
1.0
1070
    74
1070
     0
1000
MTEXTEND
1000
MTEXTBEGIN
1070
    73
1070
     1
1070
    44
1040
1.0
1070
    74
1070
     0
1000
MTEXTEND
1000
MTEXTBEGIN
1070
    73
1070
     1
1070
    44
1040
1.0
1070
    74
1070
     0
1000
MTEXTEND
  0
ENDSEC
  0
SECTION
  2
OBJECTS
  0
DICTIONARY
  5
C
330
0
100
AcDbDictionary
  3
ACAD_GROUP
350
D
  3
ACAD_LAYOUT
350
DB2
  3
ACAD_MLINESTYLE
350
1B
  3
ACAD_PLOTSETTINGS
350
DB3
  3
ACAD_PLOTSTYLENAME
350
FB5B
  3
ACADDIM
350
1B534
  3
ACDBHEADERROUNDTRIPXREC
350
24AF3
  3
ACDBVARIABLEDICTIONARY
350
106A6
  3
ASE_INDEX_DICTIONARY
350
1A99F
  3
DWGPROPS
350
15EC9
1001
ACAD
1000
TREAT_AS_HARD
1070
     0
  0
DICTIONARY
  5
24648
330
2
100
AcDbDictionary
280
     1
  3
ACAD_LAYERFILTERS
360
24649
  3
ACAD_LAYERSTATES
360
24655
  0
DICTIONARY
  5
EFC6
330
18
100
AcDbDictionary
280
     1
  3
ACAD_LAYOUTSELFREF
360
24B15
  0
DICTIONARY
  5
EFC4
330
15
100
AcDbDictionary
280
     1
  3
ACAD_LAYOUTSELFREF
360
24B14
  0
DICTIONARY
  5
D
102
{ACAD_REACTORS
330
C
102
}
330
C
100
AcDbDictionary
  3
*A1
350
AC8A
  3
*A10
350
22A72
  3
*A100
350
17901
  3
*A101
350
17BFF
  3
*A102
350
2284E
  3
*A103
350
1F8FA
  3
*A104
350
21D4D
  3
*A105
350
19988
  3
*A106
350
1D684
  3
*A107
350
1606A
  3
*A108
350
FC9A
  3
*A109
350
16059
  3
*A11
350
19794
  3
*A110
350
1F8F0
  3
*A111
350
173BD
  3
*A112
350
FC9B
  3
*A113
350
20022
  3
*A114
350
1EB7F
  3
*A115
350
1D6B6
  3
*A116
350
22CA1
  3
*A117
350
2222F
  3
*A118
350
ACBD
  3
*A119
350
18F22
  3
*A12
350
17389
  3
*A120
350
22016
  3
*A121
350
21E50
  3
*A122
350
ACA2
  3
*A123
350
19255
  3
*A124
350
19729
  3
*A125
350
18FA7
  3
*A126
350
2242D
  3
*A127
350
231AD
  3
*A128
350
2001C
  3
*A129
350
ACA1
  3
*A13
350
2001F
  3
*A130
350
2242E
  3
*A131
350
22230
  3
*A132
350
1EB7C
  3
*A133
350
19F99
  3
*A134
350
1D6F2
  3
*A135
350
20209
  3
*A136
350
1D6C0
  3
*A137
350
1D6CA
  3
*A138
350
19A52
  3
*A139
350
2263B
  3
*A14
350
1EB7D
  3
*A140
350
19F67
  3
*A141
350
1998A
  3
*A142
350
18FA8
  3
*A143
350
ACB4
  3
*A144
350
FC95
  3
*A145
350
FCB8
  3
*A146
350
2284F
  3
*A147
350
1B73B
  3
*A148
350
1EB80
  3
*A149
350
198F1
  3
*A15
350
1738B
  3
*A150
350
20019
  3
*A151
350
2002B
  3
*A152
350
16069
  3
*A153
350
19259
  3
*A154
350
1D68E
  3
*A155
350
20016
  3
*A156
350
16068
  3
*A157
350
19A86
  3
*A158
350
106C6
  3
*A159
350
ACAB
  3
*A16
350
22015
  3
*A160
350
1A691
  3
*A161
350
196C2
  3
*A162
350
20013
  3
*A163
350
1D706
  3
*A164
350
20218
  3
*A165
350
1D6AC
  3
*A166
350
1B74D
  3
*A167
350
16058
  3
*A168
350
FC91
  3
*A169
350
1B732
  3
*A17
350
1F8FF
  3
*A170
350
1A695
  3
*A171
350
20222
  3
*A172
350
19989
  3
*A173
350
20010
  3
*A174
350
1A692
  3
*A175
350
19256
  3
*A176
350
1A09A
  3
*A177
350
1F918
  3
*A178
350
1F913
  3
*A179
350
19A51
  3
*A18
350
1D6E8
  3
*A180
350
1F90E
  3
*A181
350
231F9
  3
*A182
350
231AE
  3
*A183
350
22CA2
  3
*A184
350
22A73
  3
*A185
350
22A70
  3
*A186
350
2263C
  3
*A187
350
2242F
  3
*A188
350
22017
  3
*A189
350
2021D
  3
*A19
350
1AA94
  3
*A2
350
106C7
  3
*A20
350
1B756
  3
*A21
350
20231
  3
*A22
350
2342E
  3
*A23
350
22430
  3
*A24
350
19881
  3
*A25
350
19787
  3
*A26
350
1F909
  3
*A27
350
2284C
  3
*A28
350
1D6DE
  3
*A29
350
FBFF
  3
*A3
350
19FAB
  3
*A30
350
21E86
  3
*A31
350
20236
  3
*A32
350
1F904
  3
*A33
350
23F10
  3
*A34
350
2342F
  3
*A35
350
1D6D4
  3
*A36
350
1B729
  3
*A37
350
18F23
  3
*A38
350
22A71
  3
*A39
350
23F0C
  3
*A4
350
19861
  3
*A40
350
22231
  3
*A41
350
AC9A
  3
*A42
350
173BF
  3
*A43
350
1D698
  3
*A44
350
23430
  3
*A45
350
106B3
  3
*A46
350
19F55
  3
*A47
350
1F8F5
  3
*A48
350
23C27
  3
*A49
350
22639
  3
*A5
350
19AA4
  3
*A50
350
173BE
  3
*A51
350
1B744
  3
*A52
350
23431
  3
*A53
350
20CA2
  3
*A54
350
18F20
  3
*A55
350
23C26
  3
*A56
350
2284D
  3
*A57
350
1D710
  3
*A58
350
1D67A
  3
*A59
350
23432
  3
*A6
350
1D6A2
  3
*A60
350
23F0F
  3
*A61
350
23C25
  3
*A62
350
106A5
  3
*A63
350
20025
  3
*A64
350
23788
  3
*A65
350
23F0E
  3
*A66
350
23C24
  3
*A67
350
22CA0
  3
*A68
350
20227
  3
*A69
350
23789
  3
*A7
350
18F1F
  3
*A70
350
23C23
  3
*A71
350
22CA3
  3
*A72
350
2378A
  3
*A73
350
2378C
  3
*A74
350
231F5
  3
*A75
350
17B11
  3
*A76
350
2378B
  3
*A77
350
19786
  3
*A78
350
2020E
  3
*A79
350
1738A
  3
*A8
350
23216
  3
*A80
350
1D670
  3
*A81
350
FB6B
  3
*A82
350
1606B
  3
*A83
350
1F91D
  3
*A84
350
22014
  3
*A85
350
22232
  3
*A86
350
2263A
  3
*A87
350
19A5A
  3
*A88
350
1EB7E
  3
*A89
350
21D4E
  3
*A9
350
169DA
  3
*A90
350
1D6FC
  3
*A91
350
1B720
  3
*A92
350
20213
  3
*A93
350
19F87
  3
*A94
350
FB6C
  3
*A95
350
20028
  3
*A96
350
20CA6
  3
*A97
350
18F21
  3
*A98
350
18FA6
  3
*A99
350
2022C
1001
ACAD
1000
TREAT_AS_HARD
1070
     0
  0
DICTIONARY
  5
DB2
102
{ACAD_REACTORS
330
C
102
}
330
C
100
AcDbDictionary
1001
ACAD
1000
TREAT_AS_HARD
1070
     0
  0
DICTIONARY
  5
1B
102
{ACAD_REACTORS
330
C
102
}
330
C
100
AcDbDictionary
  3
STANDARD
350
1C
1001
ACAD
1000
TREAT_AS_HARD
1070
     0
  0
DICTIONARY
  5
DB3
102
{ACAD_REACTORS
330
C
102
}
330
C
100
AcDbDictionary
1001
ACAD
1000
TREAT_AS_HARD
1070
     0
  0
ACDBDICTIONARYWDFLT
  5
FB5B
102
{ACAD_REACTORS
330
C
102
}
330
C
100
AcDbDictionary
281
     1
  3
Normal
350
FB5C
100
AcDbDictionaryWithDefault
340
FB5C
  0
XRECORD
  5
1B534
102
{ACAD_REACTORS
330
C
102
}
330
C
100
AcDbXrecord
 90
   990106
  3

 60
     0
 61
     0
 62
     4
 63
     4
 64
     1
 65
     0
 66
     0
 67
     3
 68
     1
 69
     0
 70
     0
 71
     0
 72
     0
 40
0.0
170
     2
340
0
  0
DICTIONARY
  5
24AF3
102
{ACAD_REACTORS
330
C
102
}
330
C
100
AcDbDictionary
  3
CEPSNTYPE
350
24AFD
  3
DIMSTYLEDATA
350
24B01
  3
FINGERPRINTGUID
350
24AFE
  3
HYPERLINKBASE
350
24AF6
  3
INSUNITS
350
24AFC
  3
LAYOUTDICT
350
24AF8
  3
LWETCUNION
350
24AFB
  3
PLOTSETDICT
350
24AF9
  3
PLOTSTYLNAMDICT
350
24AFA
  3
PSVPSCALE
350
24B00
  3
PUCSBASE
350
24B04
  3
PUCSORGBACK
350
24B0A
  3
PUCSORGBOTTOM
350
24B06
  3
PUCSORGFRONT
350
24B09
  3
PUCSORGLEFT
350
24B07
  3
PUCSORGRIGHT
350
24B08
  3
PUCSORGTOP
350
24B05
  3
PUCSORTHOREF
350
24B02
  3
PUCSORTHOVIEW
350
24B03
  3
STYLESHEET
350
24AF7
  3
TSTACKALIGN
350
24AF4
  3
TSTACKSIZE
350
24AF5
  3
UCSBASE
350
24B0D
  3
UCSORGBACK
350
24B13
  3
UCSORGBOTTOM
350
24B0F
  3
UCSORGFRONT
350
24B12
  3
UCSORGLEFT
350
24B10
  3
UCSORGRIGHT
350
24B11
  3
UCSORGTOP
350
24B0E
  3
UCSORTHOREF
350
24B0B
  3
UCSORTHOVIEW
350
24B0C
  3
VERSIONGUID
350
24AFF
  0
DICTIONARY
  5
106A6
102
{ACAD_REACTORS
330
C
102
}
330
C
100
AcDbDictionary
  3
SORTENTS
350
106A7
  0
DICTIONARY
  5
1A99F
102
{ACAD_REACTORS
330
C
102
}
330
C
100
AcDbDictionary
  3
ASEBLOCKHIERARCHYINDEXRECORD
350
1A9A1
1001
DCO15
1040
1464612067.17
  0
XRECORD
  5
15EC9
102
{ACAD_REACTORS
330
C
102
}
330
C
100
AcDbXrecord
  1
DWGPROPS COOKIE
  2

  3

  4

  6

  7

  8

  9

300
=
301
=
302
=
303
=
304
=
305
=
306
=
307
=
308
=
309
=
 40
12.65185717592592
 41
2451224.660162384
 42
2452395.660827315
  1

 90
        0
  0
DICTIONARY
  5
24649
102
{ACAD_REACTORS
330
24648
102
}
330
24648
100
AcDbDictionary
280
     1
  3
0
360
2464A
  3
11
360
2464B
  3
150_
360
2464C
  3
160_
360
2464D
  3
170_
360
2464E
  3
171_
360
2464F
  3
350_
360
24650
  3
4
360
24651
  3
5
360
24652
  3
7
360
24653
  3
KISEKI
360
24654
  0
DICTIONARY
  5
24655
102
{ACAD_REACTORS
330
24648
102
}
330
24648
100
AcDbDictionary
  0
XRECORD
  5
24B15
102
{ACAD_REACTORS
330
EFC6
102
}
330
EFC6
100
AcDbXrecord
340
18
  0
XRECORD
  5
24B14
102
{ACAD_REACTORS
330
EFC4
102
}
330
EFC4
100
AcDbXrecord
340
15
  0
GROUP
  5
AC8A
102
{ACAD_REACTORS
330
D
102
}
330
D
100
AcDbGroup
300

 70
     1
 71
     1
  0
GROUP
  5
22A72
102
{ACAD_REACTORS
330
D
102
}
330
D
100
AcDbGroup
300

 70
     1
 71
     1
  0
GROUP
  5
17901
102
{ACAD_REACTORS
330
D
102
}
330
D
100
AcDbGroup
300

 70
     1
 71
     1
  0
GROUP
  5
17BFF
102
{ACAD_REACTORS
330
D
102
}
330
D
100
AcDbGroup
300

 70
     1
 71
     1
  0
GROUP
  5
2284E
102
{ACAD_REACTORS
330
D
102
}
330
D
100
AcDbGroup
300

 70
     1
 71
     1
  0
GROUP
  5
1F8FA
102
{ACAD_REACTORS
330
D
102
}
330
D
100
AcDbGroup
300

 70
     1
 71
     1
  0
GROUP
  5
21D4D
102
{ACAD_REACTORS
330
D
102
}
330
D
100
AcDbGroup
300

 70
     1
 71
     1
  0
GROUP
  5
19988
102
{ACAD_REACTORS
330
D
102
}
330
D
100
AcDbGroup
300

 70
     1
 71
     1
  0
GROUP
  5
1D684
102
{ACAD_REACTORS
330
D
102
}
330
D
100
AcDbGroup
300

 70
     1
 71
     1
  0
GROUP
  5
1606A
102
{ACAD_REACTORS
330
D
102
}
330
D
100
AcDbGroup
300

 70
     1
 71
     1
  0
GROUP
  5
FC9A
102
{ACAD_REACTORS
330
D
102
}
330
D
100
AcDbGroup
300

 70
     1
 71
     1
  0
GROUP
  5
16059
102
{ACAD_REACTORS
330
D
102
}
330
D
100
AcDbGroup
300

 70
     1
 71
     1
  0
GROUP
  5
19794
102
{ACAD_REACTORS
330
D
102
}
330
D
100
AcDbGroup
300

 70
     1
 71
     1
  0
GROUP
  5
1F8F0
102
{ACAD_REACTORS
330
D
102
}
330
D
100
AcDbGroup
300

 70
     1
 71
     1
  0
GROUP
  5
173BD
102
{ACAD_REACTORS
330
D
102
}
330
D
100
AcDbGroup
300

 70
     1
 71
     1
  0
GROUP
  5
FC9B
102
{ACAD_REACTORS
330
D
102
}
330
D
100
AcDbGroup
300

 70
     1
 71
     1
  0
GROUP
  5
20022
102
{ACAD_REACTORS
330
D
102
}
330
D
100
AcDbGroup
300

 70
     1
 71
     1
  0
GROUP
  5
1EB7F
102
{ACAD_REACTORS
330
D
102
}
330
D
100
AcDbGroup
300

 70
     1
 71
     1
  0
GROUP
  5
1D6B6
102
{ACAD_REACTORS
330
D
102
}
330
D
100
AcDbGroup
300

 70
     1
 71
     1
  0
GROUP
  5
22CA1
102
{ACAD_REACTORS
330
D
102
}
330
D
100
AcDbGroup
300

 70
     1
 71
     1
  0
GROUP
  5
2222F
102
{ACAD_REACTORS
330
D
102
}
330
D
100
AcDbGroup
300

 70
     1
 71
     1
  0
GROUP
  5
ACBD
102
{ACAD_REACTORS
330
D
102
}
330
D
100
AcDbGroup
300

 70
     1
 71
     1
  0
GROUP
  5
18F22
102
{ACAD_REACTORS
330
D
102
}
330
D
100
AcDbGroup
300

 70
     1
 71
     1
  0
GROUP
  5
17389
102
{ACAD_REACTORS
330
D
102
}
330
D
100
AcDbGroup
300

 70
     1
 71
     1
  0
GROUP
  5
22016
102
{ACAD_REACTORS
330
D
102
}
330
D
100
AcDbGroup
300

 70
     1
 71
     1
  0
GROUP
  5
21E50
102
{ACAD_REACTORS
330
D
102
}
330
D
100
AcDbGroup
300

 70
     1
 71
     1
  0
GROUP
  5
ACA2
102
{ACAD_REACTORS
330
D
102
}
330
D
100
AcDbGroup
300

 70
     1
 71
     1
  0
GROUP
  5
19255
102
{ACAD_REACTORS
330
D
102
}
330
D
100
AcDbGroup
300

 70
     1
 71
     1
  0
GROUP
  5
19729
102
{ACAD_REACTORS
330
D
102
}
330
D
100
AcDbGroup
300

 70
     1
 71
     1
  0
GROUP
  5
18FA7
102
{ACAD_REACTORS
330
D
102
}
330
D
100
AcDbGroup
300

 70
     1
 71
     1
  0
GROUP
  5
2242D
102
{ACAD_REACTORS
330
D
102
}
330
D
100
AcDbGroup
300

 70
     1
 71
     1
  0
GROUP
  5
231AD
102
{ACAD_REACTORS
330
D
102
}
330
D
100
AcDbGroup
300

 70
     1
 71
     1
  0
GROUP
  5
2001C
102
{ACAD_REACTORS
330
D
102
}
330
D
100
AcDbGroup
300

 70
     1
 71
     1
  0
GROUP
  5
ACA1
102
{ACAD_REACTORS
330
D
102
}
330
D
100
AcDbGroup
300

 70
     1
 71
     1
  0
GROUP
  5
2001F
102
{ACAD_REACTORS
330
D
102
}
330
D
100
AcDbGroup
300

 70
     1
 71
     1
  0
GROUP
  5
2242E
102
{ACAD_REACTORS
330
D
102
}
330
D
100
AcDbGroup
300

 70
     1
 71
     1
  0
GROUP
  5
22230
102
{ACAD_REACTORS
330
D
102
}
330
D
100
AcDbGroup
300

 70
     1
 71
     1
  0
GROUP
  5
1EB7C
102
{ACAD_REACTORS
330
D
102
}
330
D
100
AcDbGroup
300

 70
     1
 71
     1
  0
GROUP
  5
19F99
102
{ACAD_REACTORS
330
D
102
}
330
D
100
AcDbGroup
300

 70
     1
 71
     1
  0
GROUP
  5
1D6F2
102
{ACAD_REACTORS
330
D
102
}
330
D
100
AcDbGroup
300

 70
     1
 71
     1
  0
GROUP
  5
20209
102
{ACAD_REACTORS
330
D
102
}
330
D
100
AcDbGroup
300

 70
     1
 71
     1
  0
GROUP
  5
1D6C0
102
{ACAD_REACTORS
330
D
102
}
330
D
100
AcDbGroup
300

 70
     1
 71
     1
  0
GROUP
  5
1D6CA
102
{ACAD_REACTORS
330
D
102
}
330
D
100
AcDbGroup
300

 70
     1
 71
     1
  0
GROUP
  5
19A52
102
{ACAD_REACTORS
330
D
102
}
330
D
100
AcDbGroup
300

 70
     1
 71
     1
  0
GROUP
  5
2263B
102
{ACAD_REACTORS
330
D
102
}
330
D
100
AcDbGroup
300

 70
     1
 71
     1
  0
GROUP
  5
1EB7D
102
{ACAD_REACTORS
330
D
102
}
330
D
100
AcDbGroup
300

 70
     1
 71
     1
  0
GROUP
  5
19F67
102
{ACAD_REACTORS
330
D
102
}
330
D
100
AcDbGroup
300

 70
     1
 71
     1
  0
GROUP
  5
1998A
102
{ACAD_REACTORS
330
D
102
}
330
D
100
AcDbGroup
300

 70
     1
 71
     1
  0
GROUP
  5
18FA8
102
{ACAD_REACTORS
330
D
102
}
330
D
100
AcDbGroup
300

 70
     1
 71
     1
  0
GROUP
  5
ACB4
102
{ACAD_REACTORS
330
D
102
}
330
D
100
AcDbGroup
300

 70
     1
 71
     1
  0
GROUP
  5
FC95
102
{ACAD_REACTORS
330
D
102
}
330
D
100
AcDbGroup
300

 70
     1
 71
     1
  0
GROUP
  5
FCB8
102
{ACAD_REACTORS
330
D
102
}
330
D
100
AcDbGroup
300

 70
     1
 71
     1
  0
GROUP
  5
2284F
102
{ACAD_REACTORS
330
D
102
}
330
D
100
AcDbGroup
300

 70
     1
 71
     1
  0
GROUP
  5
1B73B
102
{ACAD_REACTORS
330
D
102
}
330
D
100
AcDbGroup
300

 70
     1
 71
     1
  0
GROUP
  5
1EB80
102
{ACAD_REACTORS
330
D
102
}
330
D
100
AcDbGroup
300

 70
     1
 71
     1
  0
GROUP
  5
198F1
102
{ACAD_REACTORS
330
D
102
}
330
D
100
AcDbGroup
300

 70
     1
 71
     1
  0
GROUP
  5
1738B
102
{ACAD_REACTORS
330
D
102
}
330
D
100
AcDbGroup
300

 70
     1
 71
     1
  0
GROUP
  5
20019
102
{ACAD_REACTORS
330
D
102
}
330
D
100
AcDbGroup
300

 70
     1
 71
     1
  0
GROUP
  5
2002B
102
{ACAD_REACTORS
330
D
102
}
330
D
100
AcDbGroup
300

 70
     1
 71
     1
  0
GROUP
  5
16069
102
{ACAD_REACTORS
330
D
102
}
330
D
100
AcDbGroup
300

 70
     1
 71
     1
  0
GROUP
  5
19259
102
{ACAD_REACTORS
330
D
102
}
330
D
100
AcDbGroup
300

 70
     1
 71
     1
  0
GROUP
  5
1D68E
102
{ACAD_REACTORS
330
D
102
}
330
D
100
AcDbGroup
300

 70
     1
 71
     1
  0
GROUP
  5
20016
102
{ACAD_REACTORS
330
D
102
}
330
D
100
AcDbGroup
300

 70
     1
 71
     1
  0
GROUP
  5
16068
102
{ACAD_REACTORS
330
D
102
}
330
D
100
AcDbGroup
300

 70
     1
 71
     1
  0
GROUP
  5
19A86
102
{ACAD_REACTORS
330
D
102
}
330
D
100
AcDbGroup
300

 70
     1
 71
     1
  0
GROUP
  5
106C6
102
{ACAD_REACTORS
330
D
102
}
330
D
100
AcDbGroup
300

 70
     1
 71
     1
  0
GROUP
  5
ACAB
102
{ACAD_REACTORS
330
D
102
}
330
D
100
AcDbGroup
300

 70
     1
 71
     1
  0
GROUP
  5
22015
102
{ACAD_REACTORS
330
D
102
}
330
D
100
AcDbGroup
300

 70
     1
 71
     1
  0
GROUP
  5
1A691
102
{ACAD_REACTORS
330
D
102
}
330
D
100
AcDbGroup
300

 70
     1
 71
     1
  0
GROUP
  5
196C2
102
{ACAD_REACTORS
330
D
102
}
330
D
100
AcDbGroup
300

 70
     1
 71
     1
  0
GROUP
  5
20013
102
{ACAD_REACTORS
330
D
102
}
330
D
100
AcDbGroup
300

 70
     1
 71
     1
  0
GROUP
  5
1D706
102
{ACAD_REACTORS
330
D
102
}
330
D
100
AcDbGroup
300

 70
     1
 71
     1
  0
GROUP
  5
20218
102
{ACAD_REACTORS
330
D
102
}
330
D
100
AcDbGroup
300

 70
     1
 71
     1
  0
GROUP
  5
1D6AC
102
{ACAD_REACTORS
330
D
102
}
330
D
100
AcDbGroup
300

 70
     1
 71
     1
  0
GROUP
  5
1B74D
102
{ACAD_REACTORS
330
D
102
}
330
D
100
AcDbGroup
300

 70
     1
 71
     1
  0
GROUP
  5
16058
102
{ACAD_REACTORS
330
D
102
}
330
D
100
AcDbGroup
300

 70
     1
 71
     1
  0
GROUP
  5
FC91
102
{ACAD_REACTORS
330
D
102
}
330
D
100
AcDbGroup
300

 70
     1
 71
     1
  0
GROUP
  5
1B732
102
{ACAD_REACTORS
330
D
102
}
330
D
100
AcDbGroup
300

 70
     1
 71
     1
  0
GROUP
  5
1F8FF
102
{ACAD_REACTORS
330
D
102
}
330
D
100
AcDbGroup
300

 70
     1
 71
     1
  0
GROUP
  5
1A695
102
{ACAD_REACTORS
330
D
102
}
330
D
100
AcDbGroup
300

 70
     1
 71
     1
  0
GROUP
  5
20222
102
{ACAD_REACTORS
330
D
102
}
330
D
100
AcDbGroup
300

 70
     1
 71
     1
  0
GROUP
  5
19989
102
{ACAD_REACTORS
330
D
102
}
330
D
100
AcDbGroup
300

 70
     1
 71
     1
  0
GROUP
  5
20010
102
{ACAD_REACTORS
330
D
102
}
330
D
100
AcDbGroup
300

 70
     1
 71
     1
  0
GROUP
  5
1A692
102
{ACAD_REACTORS
330
D
102
}
330
D
100
AcDbGroup
300

 70
     1
 71
     1
  0
GROUP
  5
19256
102
{ACAD_REACTORS
330
D
102
}
330
D
100
AcDbGroup
300

 70
     1
 71
     1
  0
GROUP
  5
1A09A
102
{ACAD_REACTORS
330
D
102
}
330
D
100
AcDbGroup
300

 70
     1
 71
     1
  0
GROUP
  5
1F918
102
{ACAD_REACTORS
330
D
102
}
330
D
100
AcDbGroup
300

 70
     1
 71
     1
  0
GROUP
  5
1F913
102
{ACAD_REACTORS
330
D
102
}
330
D
100
AcDbGroup
300

 70
     1
 71
     1
  0
GROUP
  5
19A51
102
{ACAD_REACTORS
330
D
102
}
330
D
100
AcDbGroup
300

 70
     1
 71
     1
  0
GROUP
  5
1D6E8
102
{ACAD_REACTORS
330
D
102
}
330
D
100
AcDbGroup
300

 70
     1
 71
     1
  0
GROUP
  5
1F90E
102
{ACAD_REACTORS
330
D
102
}
330
D
100
AcDbGroup
300

 70
     1
 71
     1
  0
GROUP
  5
231F9
102
{ACAD_REACTORS
330
D
102
}
330
D
100
AcDbGroup
300

 70
     1
 71
     1
  0
GROUP
  5
231AE
102
{ACAD_REACTORS
330
D
102
}
330
D
100
AcDbGroup
300

 70
     1
 71
     1
  0
GROUP
  5
22CA2
102
{ACAD_REACTORS
330
D
102
}
330
D
100
AcDbGroup
300

 70
     1
 71
     1
  0
GROUP
  5
22A73
102
{ACAD_REACTORS
330
D
102
}
330
D
100
AcDbGroup
300

 70
     1
 71
     1
  0
GROUP
  5
22A70
102
{ACAD_REACTORS
330
D
102
}
330
D
100
AcDbGroup
300

 70
     1
 71
     1
  0
GROUP
  5
2263C
102
{ACAD_REACTORS
330
D
102
}
330
D
100
AcDbGroup
300

 70
     1
 71
     1
  0
GROUP
  5
2242F
102
{ACAD_REACTORS
330
D
102
}
330
D
100
AcDbGroup
300

 70
     1
 71
     1
  0
GROUP
  5
22017
102
{ACAD_REACTORS
330
D
102
}
330
D
100
AcDbGroup
300

 70
     1
 71
     1
  0
GROUP
  5
2021D
102
{ACAD_REACTORS
330
D
102
}
330
D
100
AcDbGroup
300

 70
     1
 71
     1
  0
GROUP
  5
1AA94
102
{ACAD_REACTORS
330
D
102
}
330
D
100
AcDbGroup
300

 70
     1
 71
     1
  0
GROUP
  5
106C7
102
{ACAD_REACTORS
330
D
102
}
330
D
100
AcDbGroup
300

 70
     1
 71
     1
  0
GROUP
  5
1B756
102
{ACAD_REACTORS
330
D
102
}
330
D
100
AcDbGroup
300

 70
     1
 71
     1
  0
GROUP
  5
20231
102
{ACAD_REACTORS
330
D
102
}
330
D
100
AcDbGroup
300

 70
     1
 71
     1
  0
GROUP
  5
2342E
102
{ACAD_REACTORS
330
D
102
}
330
D
100
AcDbGroup
300

 70
     1
 71
     1
  0
GROUP
  5
22430
102
{ACAD_REACTORS
330
D
102
}
330
D
100
AcDbGroup
300

 70
     1
 71
     1
  0
GROUP
  5
19881
102
{ACAD_REACTORS
330
D
102
}
330
D
100
AcDbGroup
300

 70
     1
 71
     1
  0
GROUP
  5
19787
102
{ACAD_REACTORS
330
D
102
}
330
D
100
AcDbGroup
300

 70
     1
 71
     1
  0
GROUP
  5
1F909
102
{ACAD_REACTORS
330
D
102
}
330
D
100
AcDbGroup
300

 70
     1
 71
     1
  0
GROUP
  5
2284C
102
{ACAD_REACTORS
330
D
102
}
330
D
100
AcDbGroup
300

 70
     1
 71
     1
  0
GROUP
  5
1D6DE
102
{ACAD_REACTORS
330
D
102
}
330
D
100
AcDbGroup
300

 70
     1
 71
     1
  0
GROUP
  5
FBFF
102
{ACAD_REACTORS
330
D
102
}
330
D
100
AcDbGroup
300

 70
     1
 71
     1
  0
GROUP
  5
19FAB
102
{ACAD_REACTORS
330
D
102
}
330
D
100
AcDbGroup
300

 70
     1
 71
     1
  0
GROUP
  5
21E86
102
{ACAD_REACTORS
330
D
102
}
330
D
100
AcDbGroup
300

 70
     1
 71
     1
  0
GROUP
  5
20236
102
{ACAD_REACTORS
330
D
102
}
330
D
100
AcDbGroup
300

 70
     1
 71
     1
  0
GROUP
  5
1F904
102
{ACAD_REACTORS
330
D
102
}
330
D
100
AcDbGroup
300

 70
     1
 71
     1
  0
GROUP
  5
23F10
102
{ACAD_REACTORS
330
D
102
}
330
D
100
AcDbGroup
300

 70
     1
 71
     1
340
23D1F
340
23D20
340
23D2C
  0
GROUP
  5
2342F
102
{ACAD_REACTORS
330
D
102
}
330
D
100
AcDbGroup
300

 70
     1
 71
     1
  0
GROUP
  5
1D6D4
102
{ACAD_REACTORS
330
D
102
}
330
D
100
AcDbGroup
300

 70
     1
 71
     1
  0
GROUP
  5
1B729
102
{ACAD_REACTORS
330
D
102
}
330
D
100
AcDbGroup
300

 70
     1
 71
     1
  0
GROUP
  5
18F23
102
{ACAD_REACTORS
330
D
102
}
330
D
100
AcDbGroup
300

 70
     1
 71
     1
  0
GROUP
  5
22A71
102
{ACAD_REACTORS
330
D
102
}
330
D
100
AcDbGroup
300

 70
     1
 71
     1
  0
GROUP
  5
23F0C
102
{ACAD_REACTORS
330
D
102
}
330
D
100
AcDbGroup
300

 70
     1
 71
     1
  0
GROUP
  5
19861
102
{ACAD_REACTORS
330
D
102
}
330
D
100
AcDbGroup
300

 70
     1
 71
     1
  0
GROUP
  5
22231
102
{ACAD_REACTORS
330
D
102
}
330
D
100
AcDbGroup
300

 70
     1
 71
     1
  0
GROUP
  5
AC9A
102
{ACAD_REACTORS
330
D
102
}
330
D
100
AcDbGroup
300

 70
     1
 71
     1
  0
GROUP
  5
173BF
102
{ACAD_REACTORS
330
D
102
}
330
D
100
AcDbGroup
300

 70
     1
 71
     1
  0
GROUP
  5
1D698
102
{ACAD_REACTORS
330
D
102
}
330
D
100
AcDbGroup
300

 70
     1
 71
     1
  0
GROUP
  5
23430
102
{ACAD_REACTORS
330
D
102
}
330
D
100
AcDbGroup
300

 70
     1
 71
     1
  0
GROUP
  5
106B3
102
{ACAD_REACTORS
330
D
102
}
330
D
100
AcDbGroup
300

 70
     1
 71
     1
  0
GROUP
  5
19F55
102
{ACAD_REACTORS
330
D
102
}
330
D
100
AcDbGroup
300

 70
     1
 71
     1
  0
GROUP
  5
1F8F5
102
{ACAD_REACTORS
330
D
102
}
330
D
100
AcDbGroup
300

 70
     1
 71
     1
  0
GROUP
  5
23C27
102
{ACAD_REACTORS
330
D
102
}
330
D
100
AcDbGroup
300

 70
     1
 71
     1
  0
GROUP
  5
22639
102
{ACAD_REACTORS
330
D
102
}
330
D
100
AcDbGroup
300

 70
     1
 71
     1
  0
GROUP
  5
19AA4
102
{ACAD_REACTORS
330
D
102
}
330
D
100
AcDbGroup
300

 70
     1
 71
     1
  0
GROUP
  5
173BE
102
{ACAD_REACTORS
330
D
102
}
330
D
100
AcDbGroup
300

 70
     1
 71
     1
  0
GROUP
  5
1B744
102
{ACAD_REACTORS
330
D
102
}
330
D
100
AcDbGroup
300

 70
     1
 71
     1
  0
GROUP
  5
23431
102
{ACAD_REACTORS
330
D
102
}
330
D
100
AcDbGroup
300

 70
     1
 71
     1
  0
GROUP
  5
20CA2
102
{ACAD_REACTORS
330
D
102
}
330
D
100
AcDbGroup
300

 70
     1
 71
     1
  0
GROUP
  5
18F20
102
{ACAD_REACTORS
330
D
102
}
330
D
100
AcDbGroup
300

 70
     1
 71
     1
  0
GROUP
  5
23C26
102
{ACAD_REACTORS
330
D
102
}
330
D
100
AcDbGroup
300

 70
     1
 71
     1
  0
GROUP
  5
2284D
102
{ACAD_REACTORS
330
D
102
}
330
D
100
AcDbGroup
300

 70
     1
 71
     1
  0
GROUP
  5
1D710
102
{ACAD_REACTORS
330
D
102
}
330
D
100
AcDbGroup
300

 70
     1
 71
     1
  0
GROUP
  5
1D67A
102
{ACAD_REACTORS
330
D
102
}
330
D
100
AcDbGroup
300

 70
     1
 71
     1
  0
GROUP
  5
23432
102
{ACAD_REACTORS
330
D
102
}
330
D
100
AcDbGroup
300

 70
     1
 71
     1
  0
GROUP
  5
1D6A2
102
{ACAD_REACTORS
330
D
102
}
330
D
100
AcDbGroup
300

 70
     1
 71
     1
  0
GROUP
  5
23F0F
102
{ACAD_REACTORS
330
D
102
}
330
D
100
AcDbGroup
300

 70
     1
 71
     1
  0
GROUP
  5
23C25
102
{ACAD_REACTORS
330
D
102
}
330
D
100
AcDbGroup
300

 70
     1
 71
     1
  0
GROUP
  5
106A5
102
{ACAD_REACTORS
330
D
102
}
330
D
100
AcDbGroup
300

 70
     1
 71
     1
  0
GROUP
  5
20025
102
{ACAD_REACTORS
330
D
102
}
330
D
100
AcDbGroup
300

 70
     1
 71
     1
  0
GROUP
  5
23788
102
{ACAD_REACTORS
330
D
102
}
330
D
100
AcDbGroup
300

 70
     1
 71
     1
  0
GROUP
  5
23F0E
102
{ACAD_REACTORS
330
D
102
}
330
D
100
AcDbGroup
300

 70
     1
 71
     1
  0
GROUP
  5
23C24
102
{ACAD_REACTORS
330
D
102
}
330
D
100
AcDbGroup
300

 70
     1
 71
     1
  0
GROUP
  5
22CA0
102
{ACAD_REACTORS
330
D
102
}
330
D
100
AcDbGroup
300

 70
     1
 71
     1
  0
GROUP
  5
20227
102
{ACAD_REACTORS
330
D
102
}
330
D
100
AcDbGroup
300

 70
     1
 71
     1
  0
GROUP
  5
23789
102
{ACAD_REACTORS
330
D
102
}
330
D
100
AcDbGroup
300

 70
     1
 71
     1
  0
GROUP
  5
18F1F
102
{ACAD_REACTORS
330
D
102
}
330
D
100
AcDbGroup
300

 70
     1
 71
     1
  0
GROUP
  5
23C23
102
{ACAD_REACTORS
330
D
102
}
330
D
100
AcDbGroup
300

 70
     1
 71
     1
  0
GROUP
  5
22CA3
102
{ACAD_REACTORS
330
D
102
}
330
D
100
AcDbGroup
300

 70
     1
 71
     1
  0
GROUP
  5
2378A
102
{ACAD_REACTORS
330
D
102
}
330
D
100
AcDbGroup
300

 70
     1
 71
     1
  0
GROUP
  5
2378C
102
{ACAD_REACTORS
330
D
102
}
330
D
100
AcDbGroup
300

 70
     1
 71
     1
  0
GROUP
  5
231F5
102
{ACAD_REACTORS
330
D
102
}
330
D
100
AcDbGroup
300

 70
     1
 71
     1
  0
GROUP
  5
17B11
102
{ACAD_REACTORS
330
D
102
}
330
D
100
AcDbGroup
300

 70
     1
 71
     1
  0
GROUP
  5
2378B
102
{ACAD_REACTORS
330
D
102
}
330
D
100
AcDbGroup
300

 70
     1
 71
     1
  0
GROUP
  5
19786
102
{ACAD_REACTORS
330
D
102
}
330
D
100
AcDbGroup
300

 70
     1
 71
     1
  0
GROUP
  5
2020E
102
{ACAD_REACTORS
330
D
102
}
330
D
100
AcDbGroup
300

 70
     1
 71
     1
  0
GROUP
  5
1738A
102
{ACAD_REACTORS
330
D
102
}
330
D
100
AcDbGroup
300

 70
     1
 71
     1
  0
GROUP
  5
23216
102
{ACAD_REACTORS
330
D
102
}
330
D
100
AcDbGroup
300

 70
     1
 71
     1
  0
GROUP
  5
1D670
102
{ACAD_REACTORS
330
D
102
}
330
D
100
AcDbGroup
300

 70
     1
 71
     1
  0
GROUP
  5
FB6B
102
{ACAD_REACTORS
330
D
102
}
330
D
100
AcDbGroup
300

 70
     1
 71
     1
  0
GROUP
  5
1606B
102
{ACAD_REACTORS
330
D
102
}
330
D
100
AcDbGroup
300

 70
     1
 71
     1
  0
GROUP
  5
1F91D
102
{ACAD_REACTORS
330
D
102
}
330
D
100
AcDbGroup
300

 70
     1
 71
     1
  0
GROUP
  5
22014
102
{ACAD_REACTORS
330
D
102
}
330
D
100
AcDbGroup
300

 70
     1
 71
     1
  0
GROUP
  5
22232
102
{ACAD_REACTORS
330
D
102
}
330
D
100
AcDbGroup
300

 70
     1
 71
     1
  0
GROUP
  5
2263A
102
{ACAD_REACTORS
330
D
102
}
330
D
100
AcDbGroup
300

 70
     1
 71
     1
  0
GROUP
  5
19A5A
102
{ACAD_REACTORS
330
D
102
}
330
D
100
AcDbGroup
300

 70
     1
 71
     1
  0
GROUP
  5
1EB7E
102
{ACAD_REACTORS
330
D
102
}
330
D
100
AcDbGroup
300

 70
     1
 71
     1
  0
GROUP
  5
21D4E
102
{ACAD_REACTORS
330
D
102
}
330
D
100
AcDbGroup
300

 70
     1
 71
     1
  0
GROUP
  5
169DA
102
{ACAD_REACTORS
330
D
102
}
330
D
100
AcDbGroup
300

 70
     1
 71
     1
  0
GROUP
  5
1D6FC
102
{ACAD_REACTORS
330
D
102
}
330
D
100
AcDbGroup
300

 70
     1
 71
     1
  0
GROUP
  5
1B720
102
{ACAD_REACTORS
330
D
102
}
330
D
100
AcDbGroup
300

 70
     1
 71
     1
  0
GROUP
  5
20213
102
{ACAD_REACTORS
330
D
102
}
330
D
100
AcDbGroup
300

 70
     1
 71
     1
  0
GROUP
  5
19F87
102
{ACAD_REACTORS
330
D
102
}
330
D
100
AcDbGroup
300

 70
     1
 71
     1
  0
GROUP
  5
FB6C
102
{ACAD_REACTORS
330
D
102
}
330
D
100
AcDbGroup
300

 70
     1
 71
     1
  0
GROUP
  5
20028
102
{ACAD_REACTORS
330
D
102
}
330
D
100
AcDbGroup
300

 70
     1
 71
     1
  0
GROUP
  5
20CA6
102
{ACAD_REACTORS
330
D
102
}
330
D
100
AcDbGroup
300

 70
     1
 71
     1
  0
GROUP
  5
18F21
102
{ACAD_REACTORS
330
D
102
}
330
D
100
AcDbGroup
300

 70
     1
 71
     1
  0
GROUP
  5
18FA6
102
{ACAD_REACTORS
330
D
102
}
330
D
100
AcDbGroup
300

 70
     1
 71
     1
  0
GROUP
  5
2022C
102
{ACAD_REACTORS
330
D
102
}
330
D
100
AcDbGroup
300

 70
     1
 71
     1
  0
MLINESTYLE
  5
1C
102
{ACAD_REACTORS
330
1B
102
}
330
1B
100
AcDbMlineStyle
  2
STANDARD
 70
     0
  3

 62
   256
 51
90.0
 52
90.0
 71
     2
 49
0.5
 62
   256
  6
BYLAYER
 49
-0.5
 62
   256
  6
BYLAYER
  0
ACDBPLACEHOLDER
  5
FB5C
102
{ACAD_REACTORS
330
FB5B
102
}
330
FB5B
100
AcDbPlaceHolder
280
     0
  0
XRECORD
  5
24AFD
102
{ACAD_REACTORS
330
24AF3
102
}
330
24AF3
100
AcDbXrecord
 90
        0
  0
XRECORD
  5
24B01
102
{ACAD_REACTORS
330
24AF3
102
}
330
24AF3
100
AcDbXrecord
1000
DSTYLE
1002
{
1070
    79
 70
     2
1070
   341
340
1215D
1070
   342
340
1215D
1070
   371
 70
    13
1070
   372
 70
    13
1002
}
  0
XRECORD
  5
24AFE
102
{ACAD_REACTORS
330
24AF3
102
}
330
24AF3
100
AcDbXrecord
  1
{D14EE3FF-941A-415A-9907-344E0A80D794}
  0
XRECORD
  5
24AF6
102
{ACAD_REACTORS
330
24AF3
102
}
330
24AF3
100
AcDbXrecord
  1

  0
XRECORD
  5
24AFC
102
{ACAD_REACTORS
330
24AF3
102
}
330
24AF3
100
AcDbXrecord
 90
        0
  0
XRECORD
  5
24AF8
102
{ACAD_REACTORS
330
24AF3
102
}
330
24AF3
100
AcDbXrecord
340
DB2
  0
XRECORD
  5
24AFB
102
{ACAD_REACTORS
330
24AF3
102
}
330
24AF3
100
AcDbXrecord
 90
    10781
  0
XRECORD
  5
24AF9
102
{ACAD_REACTORS
330
24AF3
102
}
330
24AF3
100
AcDbXrecord
340
DB3
  0
XRECORD
  5
24AFA
102
{ACAD_REACTORS
330
24AF3
102
}
330
24AF3
100
AcDbXrecord
340
FB5B
  0
XRECORD
  5
24B00
102
{ACAD_REACTORS
330
24AF3
102
}
330
24AF3
100
AcDbXrecord
 40
0.0
  0
XRECORD
  5
24B04
102
{ACAD_REACTORS
330
24AF3
102
}
330
24AF3
100
AcDbXrecord
340
0
  0
XRECORD
  5
24B0A
102
{ACAD_REACTORS
330
24AF3
102
}
330
24AF3
100
AcDbXrecord
 10
0.0
 20
0.0
 30
0.0
  0
XRECORD
  5
24B06
102
{ACAD_REACTORS
330
24AF3
102
}
330
24AF3
100
AcDbXrecord
 10
0.0
 20
0.0
 30
0.0
  0
XRECORD
  5
24B09
102
{ACAD_REACTORS
330
24AF3
102
}
330
24AF3
100
AcDbXrecord
 10
0.0
 20
0.0
 30
0.0
  0
XRECORD
  5
24B07
102
{ACAD_REACTORS
330
24AF3
102
}
330
24AF3
100
AcDbXrecord
 10
0.0
 20
0.0
 30
0.0
  0
XRECORD
  5
24B08
102
{ACAD_REACTORS
330
24AF3
102
}
330
24AF3
100
AcDbXrecord
 10
0.0
 20
0.0
 30
0.0
  0
XRECORD
  5
24B05
102
{ACAD_REACTORS
330
24AF3
102
}
330
24AF3
100
AcDbXrecord
 10
0.0
 20
0.0
 30
0.0
  0
XRECORD
  5
24B02
102
{ACAD_REACTORS
330
24AF3
102
}
330
24AF3
100
AcDbXrecord
340
0
  0
XRECORD
  5
24B03
102
{ACAD_REACTORS
330
24AF3
102
}
330
24AF3
100
AcDbXrecord
 70
     0
  0
XRECORD
  5
24AF7
102
{ACAD_REACTORS
330
24AF3
102
}
330
24AF3
100
AcDbXrecord
  1
monochrome.ctb
  0
XRECORD
  5
24AF4
102
{ACAD_REACTORS
330
24AF3
102
}
330
24AF3
100
AcDbXrecord
 90
        1
  0
XRECORD
  5
24AF5
102
{ACAD_REACTORS
330
24AF3
102
}
330
24AF3
100
AcDbXrecord
 90
       70
  0
XRECORD
  5
24B0D
102
{ACAD_REACTORS
330
24AF3
102
}
330
24AF3
100
AcDbXrecord
340
0
  0
XRECORD
  5
24B13
102
{ACAD_REACTORS
330
24AF3
102
}
330
24AF3
100
AcDbXrecord
 10
0.0
 20
0.0
 30
0.0
  0
XRECORD
  5
24B0F
102
{ACAD_REACTORS
330
24AF3
102
}
330
24AF3
100
AcDbXrecord
 10
0.0
 20
0.0
 30
0.0
  0
XRECORD
  5
24B12
102
{ACAD_REACTORS
330
24AF3
102
}
330
24AF3
100
AcDbXrecord
 10
0.0
 20
0.0
 30
0.0
  0
XRECORD
  5
24B10
102
{ACAD_REACTORS
330
24AF3
102
}
330
24AF3
100
AcDbXrecord
 10
0.0
 20
0.0
 30
0.0
  0
XRECORD
  5
24B11
102
{ACAD_REACTORS
330
24AF3
102
}
330
24AF3
100
AcDbXrecord
 10
0.0
 20
0.0
 30
0.0
  0
XRECORD
  5
24B0E
102
{ACAD_REACTORS
330
24AF3
102
}
330
24AF3
100
AcDbXrecord
 10
0.0
 20
0.0
 30
0.0
  0
XRECORD
  5
24B0B
102
{ACAD_REACTORS
330
24AF3
102
}
330
24AF3
100
AcDbXrecord
340
0
  0
XRECORD
  5
24B0C
102
{ACAD_REACTORS
330
24AF3
102
}
330
24AF3
100
AcDbXrecord
 70
     0
  0
XRECORD
  5
24AFF
102
{ACAD_REACTORS
330
24AF3
102
}
330
24AF3
100
AcDbXrecord
  1
{75122B11-50DF-4F86-BD0B-5760701B0B08}
  0
DICTIONARYVAR
  5
106A7
102
{ACAD_REACTORS
330
106A6
102
}
330
106A6
100
DictionaryVariables
280
     0
  1
96
  0
XRECORD
  5
1A9A1
102
{ACAD_REACTORS
330
1A99F
102
}
330
1A99F
100
AcDbXrecord
330
187D7
330
0
330
0
330
0
330
0
330
0
330
0
330
0
330
0
330
0
330
0
330
115F
330
0
330
0
330
0
330
0
330
0
330
0
330
0
330
0
330
0
330
0
330
0
330
0
330
0
330
0
330
0
330
0
330
0
330
0
330
0
330
0
330
0
330
0
330
0
330
0
330
0
330
0
330
0
330
0
330
0
330
0
330
0
330
0
  0
XRECORD
  5
2464A
102
{ACAD_REACTORS
330
24649
102
}
330
24649
100
AcDbXrecord
  1
0
  1
*0
  1
*
  1
*
 70
     0
  1
*
  1
*
  0
XRECORD
  5
2464B
102
{ACAD_REACTORS
330
24649
102
}
330
24649
100
AcDbXrecord
  1
11
  1
*11
  1
*
  1
*
 70
     0
  1
*
  1
*
  0
XRECORD
  5
2464C
102
{ACAD_REACTORS
330
24649
102
}
330
24649
100
AcDbXrecord
  1
150_
  1
150_*
  1
*
  1
*
 70
     0
  1
*
  1
*
  0
XRECORD
  5
2464D
102
{ACAD_REACTORS
330
24649
102
}
330
24649
100
AcDbXrecord
  1
160_
  1
160_*
  1
*
  1
*
 70
     0
  1
*
  1
*
  0
XRECORD
  5
2464E
102
{ACAD_REACTORS
330
24649
102
}
330
24649
100
AcDbXrecord
  1
170_
  1
170_*
  1
*
  1
*
 70
     0
  1
*
  1
*
  0
XRECORD
  5
2464F
102
{ACAD_REACTORS
330
24649
102
}
330
24649
100
AcDbXrecord
  1
171_
  1
171_*
  1
*
  1
*
 70
     0
  1
*
  1
*
  0
XRECORD
  5
24650
102
{ACAD_REACTORS
330
24649
102
}
330
24649
100
AcDbXrecord
  1
350_
  1
350_*
  1
*
  1
*
 70
     0
  1
*
  1
*
  0
XRECORD
  5
24651
102
{ACAD_REACTORS
330
24649
102
}
330
24649
100
AcDbXrecord
  1
4
  1
*4
  1
*
  1
*
 70
     0
  1
*
  1
*
  0
XRECORD
  5
24652
102
{ACAD_REACTORS
330
24649
102
}
330
24649
100
AcDbXrecord
  1
5
  1
*5
  1
*
  1
*
 70
     0
  1
*
  1
*
  0
XRECORD
  5
24653
102
{ACAD_REACTORS
330
24649
102
}
330
24649
100
AcDbXrecord
  1
7
  1
*7
  1
*
  1
*
 70
     0
  1
*
  1
*
  0
XRECORD
  5
24654
102
{ACAD_REACTORS
330
24649
102
}
330
24649
100
AcDbXrecord
  1
kiseki
  1
kiseki*
  1
*
  1
*
 70
     0
  1
*
  1
*
  0
ENDSEC
  0
EOF
