  0
SECTION
  2
HEADER
  9
$ACADVER
  1
AC1014
  9
$ACADMAINTVER
 70
     9
  9
$DWGCODEPAGE
  3
ANSI_932
  9
$INSBASE
 10
0.0
 20
0.0
 30
0.0
  9
$EXTMIN
 10
404.0313104846307
 20
-1383.602004686351
 30
0.0
  9
$EXTMAX
 10
611.2385215170652
 20
-1262.343834391253
 30
0.0
  9
$LIMMIN
 10
0.0
 20
0.0
  9
$LIMMAX
 10
420.0
 20
297.0
  9
$ORTHOMODE
 70
     0
  9
$REGENMODE
 70
     1
  9
$FILLMODE
 70
     1
  9
$QTEXTMODE
 70
     0
  9
$MIRRTEXT
 70
     0
  9
$DRAGMODE
 70
     2
  9
$LTSCALE
 40
20.0
  9
$OSMODE
 70
   959
  9
$ATTMODE
 70
     2
  9
$TEXTSIZE
 40
10.0
  9
$TRACEWID
 40
1.0
  9
$TEXTSTYLE
  7
ｽﾀｲﾙ3
  9
$CLAYER
  8
0
  9
$CELTYPE
  6
BYLAYER
  9
$CECOLOR
 62
   256
  9
$CELTSCALE
 40
1.0
  9
$DELOBJ
 70
     1
  9
$DISPSILH
 70
     0
  9
$DIMSCALE
 40
1.0
  9
$DIMASZ
 40
2.5
  9
$DIMEXO
 40
0.8
  9
$DIMDLI
 40
0.38
  9
$DIMRND
 40
0.0
  9
$DIMDLE
 40
0.0
  9
$DIMEXE
 40
0.18
  9
$DIMTP
 40
0.0
  9
$DIMTM
 40
0.0
  9
$DIMTXT
 40
3.0
  9
$DIMCEN
 40
0.0
  9
$DIMTSZ
 40
0.0
  9
$DIMTOL
 70
     0
  9
$DIMLIM
 70
     0
  9
$DIMTIH
 70
     0
  9
$DIMTOH
 70
     0
  9
$DIMSE1
 70
     0
  9
$DIMSE2
 70
     0
  9
$DIMTAD
 70
     3
  9
$DIMZIN
 70
     8
  9
$DIMBLK
  1
OPEN30
  9
$DIMASO
 70
     1
  9
$DIMSHO
 70
     1
  9
$DIMPOST
  1

  9
$DIMAPOST
  1

  9
$DIMALT
 70
     0
  9
$DIMALTD
 70
     2
  9
$DIMALTF
 40
25.4
  9
$DIMLFAC
 40
1.0
  9
$DIMTOFL
 70
     0
  9
$DIMTVP
 40
0.0
  9
$DIMTIX
 70
     0
  9
$DIMSOXD
 70
     0
  9
$DIMSAH
 70
     0
  9
$DIMBLK1
  1

  9
$DIMBLK2
  1

  9
$DIMSTYLE
  2
まこ
  9
$DIMCLRD
 70
     4
  9
$DIMCLRE
 70
     4
  9
$DIMCLRT
 70
   256
  9
$DIMTFAC
 40
1.0
  9
$DIMGAP
 40
0.5
  9
$DIMJUST
 70
     0
  9
$DIMSD1
 70
     0
  9
$DIMSD2
 70
     0
  9
$DIMTOLJ
 70
     1
  9
$DIMTZIN
 70
     0
  9
$DIMALTZ
 70
     0
  9
$DIMALTTZ
 70
     0
  9
$DIMFIT
 70
     1
  9
$DIMUPT
 70
     0
  9
$DIMUNIT
 70
     2
  9
$DIMDEC
 70
     8
  9
$DIMTDEC
 70
     8
  9
$DIMALTU
 70
     2
  9
$DIMALTTD
 70
     2
  9
$DIMTXSTY
  7
まこ
  9
$DIMAUNIT
 70
     0
  9
$LUNITS
 70
     2
  9
$LUPREC
 70
     4
  9
$SKETCHINC
 40
1.0
  9
$FILLETRAD
 40
2.0
  9
$AUNITS
 70
     0
  9
$AUPREC
 70
     0
  9
$MENU
  1
.
  9
$ELEVATION
 40
0.0
  9
$PELEVATION
 40
0.0
  9
$THICKNESS
 40
0.0
  9
$LIMCHECK
 70
     0
  9
$BLIPMODE
 70
     0
  9
$CHAMFERA
 40
0.5
  9
$CHAMFERB
 40
0.5
  9
$CHAMFERC
 40
20.0
  9
$CHAMFERD
 40
0.0
  9
$SKPOLY
 70
     0
  9
$TDCREATE
 40
2451224.660162384
  9
$TDUPDATE
 40
2455601.369610278
  9
$TDINDWG
 40
16.7309098843
  9
$TDUSRTIMER
 40
16.7309097106
  9
$USRTIMER
 70
     1
  9
$ANGBASE
 50
0.0
  9
$ANGDIR
 70
     0
  9
$PDMODE
 70
     0
  9
$PDSIZE
 40
0.0
  9
$PLINEWID
 40
0.0
  9
$COORDS
 70
     1
  9
$SPLFRAME
 70
     0
  9
$SPLINETYPE
 70
     6
  9
$SPLINESEGS
 70
     8
  9
$ATTDIA
 70
     0
  9
$ATTREQ
 70
     1
  9
$HANDLING
 70
-16383
  9
$HANDSEED
  5
24516
  9
$SURFTAB1
 70
     6
  9
$SURFTAB2
 70
     6
  9
$SURFTYPE
 70
     6
  9
$SURFU
 70
     6
  9
$SURFV
 70
     6
  9
$UCSNAME
  2

  9
$UCSORG
 10
0.0
 20
0.0
 30
0.0
  9
$UCSXDIR
 10
1.0
 20
0.0
 30
0.0
  9
$UCSYDIR
 10
0.0
 20
1.0
 30
0.0
  9
$PUCSNAME
  2

  9
$PUCSORG
 10
0.0
 20
0.0
 30
0.0
  9
$PUCSXDIR
 10
1.0
 20
0.0
 30
0.0
  9
$PUCSYDIR
 10
0.0
 20
1.0
 30
0.0
  9
$USERI1
 70
     0
  9
$USERI2
 70
     0
  9
$USERI3
 70
     0
  9
$USERI4
 70
     0
  9
$USERI5
 70
     0
  9
$USERR1
 40
245.9999999999999
  9
$USERR2
 40
0.0
  9
$USERR3
 40
0.0
  9
$USERR4
 40
0.0
  9
$USERR5
 40
0.0
  9
$WORLDVIEW
 70
     1
  9
$SHADEDGE
 70
     3
  9
$SHADEDIF
 70
    70
  9
$TILEMODE
 70
     0
  9
$MAXACTVP
 70
    48
  9
$PINSBASE
 10
0.0
 20
0.0
 30
0.0
  9
$PLIMCHECK
 70
     0
  9
$PEXTMIN
 10
-0.005478850351551
 20
-0.0201967404570951
 30
-0.0015258207003583
  9
$PEXTMAX
 10
400.0062697141537
 20
288.0167819456182
 30
0.0000000349246037
  9
$PLIMMIN
 10
-12.00743426907706
 20
-5.244875113376433
  9
$PLIMMAX
 10
407.9392210043604
 20
291.7234476405297
  9
$UNITMODE
 70
     0
  9
$VISRETAIN
 70
     1
  9
$PLINEGEN
 70
     0
  9
$PSLTSCALE
 70
     0
  9
$TREEDEPTH
 70
  3020
  9
$PICKSTYLE
 70
     0
  9
$CMLSTYLE
  2
STANDARD
  9
$CMLJUST
 70
     0
  9
$CMLSCALE
 40
20.0
  9
$PROXYGRAPHICS
 70
     1
  9
$MEASUREMENT
 70
     0
  0
ENDSEC
  0
SECTION
  2
CLASSES
  0
CLASS
  1
HATCH
  2
AcDbHatch
  3
AutoCAD 2000
 90
        0
280
     0
281
     1
  0
CLASS
  1
LWPOLYLINE
  2
AcDbPolyline
  3
AutoCAD 2000
 90
        0
280
     0
281
     1
  0
CLASS
  1
ACDBDICTIONARYWDFLT
  2
AcDbDictionaryWithDefault
  3
AutoCAD 2000
 90
        0
280
     0
281
     0
  0
CLASS
  1
ACDBPLACEHOLDER
  2
AcDbPlaceHolder
  3
AutoCAD 2000
 90
        0
280
     0
281
     0
  0
CLASS
  1
LAYOUT
  2
AcDbLayout
  3
AutoCAD 2000
 90
        0
280
     0
281
     0
  0
CLASS
  1
LONG_TRANSACTION
  2
AcDbLongTransaction
  3
AutoCAD 2000
 90
        0
280
     0
281
     0
  0
CLASS
  1
LWPOLYLINE
  2
AcDbPolyline
  3
AutoCAD 2000
 90
        0
280
     0
281
     1
  0
CLASS
  1
HATCH
  2
AcDbHatch
  3
AutoCAD 2000
 90
        0
280
     0
281
     1
  0
CLASS
  1
XRECORD
  2
AcDbXrecord
  3
AutoCAD 2000
 90
        0
280
     0
281
     0
  0
CLASS
  1
DICTIONARYVAR
  2
AcDbDictionaryVar
  3
AutoCAD 2000
 90
        0
280
     0
281
     0
  0
CLASS
  1
LONG_TRANSACTION
  2
AcDbLongTransaction
  3
AutoCAD 2000
 90
        0
280
     0
281
     0
  0
CLASS
  1
LWPOLYLINE
  2
AcDbPolyline
  3
AutoCAD 2000
 90
        0
280
     0
281
     1
  0
CLASS
  1
HATCH
  2
AcDbHatch
  3
AutoCAD 2000
 90
        0
280
     0
281
     1
  0
CLASS
  1
XRECORD
  2
AcDbXrecord
  3
AutoCAD 2000
 90
        0
280
     0
281
     0
  0
ENDSEC
  0
SECTION
  2
TABLES
  0
TABLE
  2
VPORT
  5
8
330
0
100
AcDbSymbolTable
 70
     2
  0
VPORT
  5
244F2
330
8
100
AcDbSymbolTableRecord
100
AcDbViewportTableRecord
  2
*ACTIVE
 70
     0
 10
0.0
 20
0.0
 11
1.0
 21
1.0
 12
507.6311382086849
 22
-1322.989055302722
 13
0.0
 23
0.0
 14
10.0
 24
10.0
 15
10.0
 25
10.0
 16
0.0
 26
0.0
 36
1.0
 17
0.0
 27
0.0
 37
0.0
 40
122.2899014035215
 41
2.184834123222748
 42
50.0
 43
0.0
 44
0.0
 50
0.0
 51
0.0
 71
     0
 72
   100
 73
     1
 74
     0
 75
     0
 76
     0
 77
     0
 78
     0
  0
ENDTAB
  0
TABLE
  2
LTYPE
  5
5
330
0
100
AcDbSymbolTable
 70
     6
  0
LTYPE
  5
12
330
5
100
AcDbSymbolTableRecord
100
AcDbLinetypeTableRecord
  2
BYBLOCK
 70
     0
  3

 72
    65
 73
     0
 40
0.0
  0
LTYPE
  5
13
330
5
100
AcDbSymbolTableRecord
100
AcDbLinetypeTableRecord
  2
BYLAYER
 70
     0
  3

 72
    65
 73
     0
 40
0.0
  0
LTYPE
  5
14
330
5
100
AcDbSymbolTableRecord
100
AcDbLinetypeTableRecord
  2
CONTINUOUS
 70
     0
  3
Solid line
 72
    65
 73
     0
 40
0.0
  0
LTYPE
  5
126C
330
5
100
AcDbSymbolTableRecord
100
AcDbLinetypeTableRecord
  2
CENTER
 70
     0
  3
____ _ ____ _ ____ _ ____ _ ____ _ ____ _ ____
 72
    65
 73
     4
 40
2.0
 49
1.25
 74
     0
 49
-0.25
 74
     0
 49
0.25
 74
     0
 49
-0.25
 74
     0
  0
LTYPE
  5
126E
330
5
100
AcDbSymbolTableRecord
100
AcDbLinetypeTableRecord
  2
DASHDOT
 70
     0
  3
__ . __ . __ . __ . __ . __ . __ . __ . __ . __
 72
    65
 73
     4
 40
1.0
 49
0.5
 74
     0
 49
-0.25
 74
     0
 49
0.0
 74
     0
 49
-0.25
 74
     0
  0
LTYPE
  5
1541F
330
5
100
AcDbSymbolTableRecord
100
AcDbLinetypeTableRecord
  2
HIDDEN
 70
     0
  3
_ _ _ _ _ _ _ _ _ _ _ _ _ _ _ _ _ _ _ _ _ _ _
 72
    65
 73
     2
 40
0.375
 49
0.25
 74
     0
 49
-0.125
 74
     0
  0
LTYPE
  5
15420
330
5
100
AcDbSymbolTableRecord
100
AcDbLinetypeTableRecord
  2
CENTER2
 70
     0
  3
Center (.5x) ___ _ ___ _ ___ _ ___ _ ___ _ ___
 72
    65
 73
     4
 40
1.125
 49
0.75
 74
     0
 49
-0.125
 74
     0
 49
0.125
 74
     0
 49
-0.125
 74
     0
  0
LTYPE
  5
1615D
330
5
100
AcDbSymbolTableRecord
100
AcDbLinetypeTableRecord
  2
PHANTOM
 70
     0
  3
Phantom ______  __  __  ______  __  __  ______
 72
    65
 73
     6
 40
2.5
 49
1.25
 74
     0
 49
-0.25
 74
     0
 49
0.25
 74
     0
 49
-0.25
 74
     0
 49
0.25
 74
     0
 49
-0.25
 74
     0
  0
ENDTAB
  0
TABLE
  2
LAYER
  5
2
102
{ACAD_XDICTIONARY
360
244AA
102
}
330
0
100
AcDbSymbolTable
 70
    13
  0
LAYER
  5
E
330
2
100
AcDbSymbolTableRecord
100
AcDbLayerTableRecord
  2
0
 70
     2
 62
     7
  6
CONTINUOUS
  0
LAYER
  5
2C
330
2
100
AcDbSymbolTableRecord
100
AcDbLayerTableRecord
  2
M_VIEW
 70
     4
 62
    -1
  6
CONTINUOUS
  0
LAYER
  5
30
330
2
100
AcDbSymbolTableRecord
100
AcDbLayerTableRecord
  2
FRAME025
 70
     0
 62
     7
  6
CONTINUOUS
  0
LAYER
  5
12B
330
2
100
AcDbSymbolTableRecord
100
AcDbLayerTableRecord
  2
DEFPOINTS
 70
     4
 62
    -7
  6
CONTINUOUS
  0
LAYER
  5
651
330
2
100
AcDbSymbolTableRecord
100
AcDbLayerTableRecord
  2
FRAME020
 70
     0
 62
     7
  6
CONTINUOUS
  0
LAYER
  5
1271
330
2
100
AcDbSymbolTableRecord
100
AcDbLayerTableRecord
  2
A
 70
     0
 62
     7
  6
CONTINUOUS
  0
LAYER
  5
A9BB
330
2
100
AcDbSymbolTableRecord
100
AcDbLayerTableRecord
  2
文字
 70
     0
 62
     7
  6
CONTINUOUS
  0
LAYER
  5
122DE
330
2
100
AcDbSymbolTableRecord
100
AcDbLayerTableRecord
  2
DIMENSION
 70
     0
 62
     7
  6
CONTINUOUS
  0
LAYER
  5
15422
330
2
100
AcDbSymbolTableRecord
100
AcDbLayerTableRecord
  2
細線
 70
     0
 62
     7
  6
CONTINUOUS
  0
LAYER
  5
1A846
330
2
100
AcDbSymbolTableRecord
100
AcDbLayerTableRecord
  2
実線
 70
     0
 62
     7
  6
CONTINUOUS
  0
LAYER
  5
1BB4F
330
2
100
AcDbSymbolTableRecord
100
AcDbLayerTableRecord
  2
隠れ線
 70
     0
 62
     7
  6
HIDDEN
  0
LAYER
  5
21733
330
2
100
AcDbSymbolTableRecord
100
AcDbLayerTableRecord
  2
コイル
 70
     0
 62
     7
  6
CONTINUOUS
  0
ENDTAB
  0
TABLE
  2
STYLE
  5
3
330
0
100
AcDbSymbolTable
 70
     5
  0
STYLE
  5
F
330
3
100
AcDbSymbolTableRecord
100
AcDbTextStyleTableRecord
  2
STANDARD
 70
     0
 40
0.0
 41
1.0
 50
0.0
 71
     0
 42
2.5
  3
isocp.shx
  4
bigfont.shx
  0
STYLE
  5
35
330
3
100
AcDbSymbolTableRecord
100
AcDbTextStyleTableRecord
  2
MSｺ_ｼｯｸ
 70
     0
 40
0.0
 41
1.0
 50
0.0
 71
     0
 42
5.0
  3
MS Gothic.ttf
  4

1001
ACAD
1000
MS Gothic
1071
    32817
  0
STYLE
  5
1275
330
3
100
AcDbSymbolTableRecord
100
AcDbTextStyleTableRecord
  2
BIGFONT
 70
     0
 40
2.0
 41
1.0
 50
0.0
 71
     0
 42
2.0
  3
txt.shx
  4
bigfont.shx
  0
STYLE
  5
1A849
330
3
100
AcDbSymbolTableRecord
100
AcDbTextStyleTableRecord
  2
まこ
 70
     0
 40
0.0
 41
1.0
 50
0.0
 71
     0
 42
2.5
  3
simplex.shx
  4
bigfont.shx
  0
STYLE
  5
1A84A
330
3
100
AcDbSymbolTableRecord
100
AcDbTextStyleTableRecord
  2
ｽﾀｲﾙ3
 70
     0
 40
10.0
 41
1.0
 50
0.0
 71
     0
 42
10.0
  3
isocp.shx
  4
extfont.shx
  0
ENDTAB
  0
TABLE
  2
VIEW
  5
6
330
0
100
AcDbSymbolTable
 70
     0
  0
ENDTAB
  0
TABLE
  2
UCS
  5
7
330
0
100
AcDbSymbolTable
 70
     0
  0
ENDTAB
  0
TABLE
  2
APPID
  5
9
330
0
100
AcDbSymbolTable
 70
     4
  0
APPID
  5
10
330
9
100
AcDbSymbolTableRecord
100
AcDbRegAppTableRecord
  2
ACAD
 70
     0
  0
APPID
  5
F013
330
9
100
AcDbSymbolTableRecord
100
AcDbRegAppTableRecord
  2
CONTENTBLOCKDESCRIPTION
 70
     0
  0
APPID
  5
F014
330
9
100
AcDbSymbolTableRecord
100
AcDbRegAppTableRecord
  2
CONTENTBLOCKICON
 70
     0
  0
APPID
  5
1A9A0
330
9
100
AcDbSymbolTableRecord
100
AcDbRegAppTableRecord
  2
DCO15
 70
     0
  0
ENDTAB
  0
TABLE
  2
DIMSTYLE
  5
A
330
0
100
AcDbSymbolTable
 70
     2
  0
DIMSTYLE
105
1D
330
A
100
AcDbSymbolTableRecord
100
AcDbDimStyleTableRecord
  2
STANDARD
 70
     0
  3

  4

  5

  6

  7

 40
1.0
 41
0.18
 42
0.0625
 43
0.38
 44
0.18
 45
0.0
 46
0.0
 47
0.0
 48
0.0
140
0.18
141
0.09
142
0.0
143
25.4
144
1.0
145
0.0
146
1.0
147
0.09
 71
     0
 72
     0
 73
     1
 74
     1
 75
     0
 76
     0
 77
     0
 78
     0
170
     0
171
     2
172
     0
173
     0
174
     0
175
     0
176
     0
177
     0
178
     0
270
     2
271
     4
272
     4
273
     2
274
     2
340
F
275
     0
280
     0
281
     0
282
     0
283
     1
284
     0
285
     0
286
     0
287
     3
288
     0
  0
DIMSTYLE
105
1A84D
102
{ACAD_REACTORS
330
23B36
330
23B38
330
23C81
330
23C85
102
}
330
A
100
AcDbSymbolTableRecord
100
AcDbDimStyleTableRecord
  2
まこ
 70
     0
  3

  4

  5
OPEN30
  6

  7

 40
1.0
 41
2.5
 42
0.8
 43
0.38
 44
0.18
 45
0.0
 46
0.0
 47
0.0
 48
0.0
140
3.0
141
0.0
142
0.0
143
25.4
144
1.0
145
0.0
146
1.0
147
0.5
 71
     0
 72
     0
 73
     0
 74
     0
 75
     0
 76
     0
 77
     3
 78
     8
170
     0
171
     2
172
     0
173
     0
174
     0
175
     0
176
     4
177
     4
178
   256
270
     2
271
     8
272
     8
273
     2
274
     2
340
1A849
275
     0
280
     0
281
     0
282
     0
283
     1
284
     0
285
     0
286
     0
287
     1
288
     0
  0
ENDTAB
  0
TABLE
  2
BLOCK_RECORD
  5
1
330
0
100
AcDbSymbolTable
 70
    24
  0
BLOCK_RECORD
  5
18
102
{ACAD_XDICTIONARY
360
EFC6
102
}
330
1
100
AcDbSymbolTableRecord
100
AcDbBlockTableRecord
  2
*MODEL_SPACE
  0
BLOCK_RECORD
  5
15
102
{ACAD_XDICTIONARY
360
EFC4
102
}
330
1
100
AcDbSymbolTableRecord
100
AcDbBlockTableRecord
  2
*PAPER_SPACE
  0
BLOCK_RECORD
  5
115C
330
1
100
AcDbSymbolTableRecord
100
AcDbBlockTableRecord
  2
機械A4横_LBP
  0
BLOCK_RECORD
  5
1215D
330
1
100
AcDbSymbolTableRecord
100
AcDbBlockTableRecord
  2
_OPEN30
  0
ENDTAB
  0
ENDSEC
  0
SECTION
  2
BLOCKS
  0
BLOCK
  5
19
330
18
100
AcDbEntity
  8
0
100
AcDbBlockBegin
  2
*MODEL_SPACE
 70
     0
 10
0.0
 20
0.0
 30
0.0
  3
*MODEL_SPACE
  1

  0
ENDBLK
  5
1A
330
18
100
AcDbEntity
  8
0
100
AcDbBlockEnd
  0
BLOCK
  5
16
330
15
100
AcDbEntity
 67
     1
  8
0
100
AcDbBlockBegin
  2
*PAPER_SPACE
 70
     0
 10
0.0
 20
0.0
 30
0.0
  3
*PAPER_SPACE
  1

  0
ENDBLK
  5
17
330
15
100
AcDbEntity
 67
     1
  8
0
100
AcDbBlockEnd
  0
BLOCK
  5
115D
330
115C
100
AcDbEntity
  8
0
100
AcDbBlockBegin
  2
機械A4横_LBP
 70
     0
 10
0.0
 20
0.0
 30
0.0
  3
機械A4横_LBP
  1

  0
ENDBLK
  5
115E
330
115C
100
AcDbEntity
  8
0
100
AcDbBlockEnd
  0
BLOCK
  5
12161
330
1215D
100
AcDbEntity
  8
0
100
AcDbBlockBegin
  2
_OPEN30
 70
     0
 10
0.0
 20
0.0
 30
0.0
  3
_OPEN30
  1

  0
LINE
  5
1215E
330
1215D
100
AcDbEntity
  8
0
  6
BYBLOCK
 62
     0
100
AcDbLine
 10
-1.0
 20
0.26794919
 30
0.0
 11
0.0
 21
0.0
 31
0.0
  0
LINE
  5
1215F
330
1215D
100
AcDbEntity
  8
0
  6
BYBLOCK
 62
     0
100
AcDbLine
 10
0.0
 20
0.0
 30
0.0
 11
-1.0
 21
-0.26794919
 31
0.0
  0
LINE
  5
12160
330
1215D
100
AcDbEntity
  8
0
  6
BYBLOCK
 62
     0
100
AcDbLine
 10
0.0
 20
0.0
 30
0.0
 11
-1.0
 21
0.0
 31
0.0
  0
ENDBLK
  5
12162
330
1215D
100
AcDbEntity
  8
0
100
AcDbBlockEnd
  0
ENDSEC
  0
SECTION
  2
ENTITIES
  0
MTEXT
  5
176FC
330
18
100
AcDbEntity
  8
DIMENSION
 62
     2
100
AcDbMText
 10
-100.7823601383244
 20
171.6213144128388
 30
0.0
 40
8.0
 41
0.0
 71
     4
 72
     1
  1

1001
ACAD
1000
MTEXTBEGIN
1070
    73
1070
     1
1070
    44
1040
1.0
1070
    74
1070
     0
1000
MTEXTEND
  0
TEXT
  5
187C8
330
18
100
AcDbEntity
  8
A
100
AcDbText
 10
27.08248755054501
 20
1784.547672862094
 30
0.0
 40
2.5
  1

  7
MSｺ_ｼｯｸ
100
AcDbText
  0
TEXT
  5
187C9
330
18
100
AcDbEntity
  8
A
100
AcDbText
 10
19.25748755054502
 20
1784.547672862094
 30
0.0
 40
2.5
  1

 41
0.5
  7
MSｺ_ｼｯｸ
100
AcDbText
  0
TEXT
  5
187CA
330
18
100
AcDbEntity
  8
A
100
AcDbText
 10
167.1825875009164
 20
2214.514692980458
 30
0.0
 40
3.524999999999999
  1
�    
100
AcDbText
  0
MTEXT
  5
187CB
330
18
100
AcDbEntity
  8
0
  6
BYBLOCK
100
AcDbMText
 10
325.4874764241681
 20
2232.511722574347
 30
0.0
 40
2.0
 41
0.0
 71
     4
 72
     5
  1

 11
-0.0000000000000002
 21
-1.0
 31
0.0
1001
ACAD
1000
MTEXTBEGIN
1070
    73
1070
     1
1070
    44
1040
1.0
1070
    74
1070
     0
1000
MTEXTEND
1000
MTEXTBEGIN
1070
    73
1070
     1
1070
    44
1040
1.0
1070
    74
1070
     0
1000
MTEXTEND
  0
MTEXT
  5
187CC
330
18
100
AcDbEntity
  8
0
  6
BYBLOCK
100
AcDbMText
 10
360.9528647873208
 20
2221.718414215929
 30
0.0
 40
2.0
 41
0.0
 71
     7
 72
     5
  1

 11
0.0000000000000001
 21
1.0
 31
0.0
1001
ACAD
1000
MTEXTBEGIN
1070
    73
1070
     1
1070
    44
1040
1.0
1070
    74
1070
     0
1000
MTEXTEND
1000
MTEXTBEGIN
1070
    73
1070
     1
1070
    44
1040
1.0
1070
    74
1070
     0
1000
MTEXTEND
  0
MTEXT
  5
187CD
330
18
100
AcDbEntity
  8
0
100
AcDbMText
 10
325.1733668026532
 20
2146.938903673639
 30
0.0
 40
2.0
 41
10.1453
 71
     1
 72
     5
  1

 11
-0.0000000000000002
 21
-1.0
 31
0.0
1001
ACAD
1000
MTEXTBEGIN
1070
    73
1070
     1
1070
    44
1040
1.0
1070
    74
1070
     0
1000
MTEXTEND
1000
MTEXTBEGIN
1070
    73
1070
     1
1070
    44
1040
1.0
1070
    74
1070
     0
1000
MTEXTEND
  0
MTEXT
  5
187CE
330
18
100
AcDbEntity
  8
0
100
AcDbMText
 10
280.7738750495033
 20
2115.30742008065
 30
0.0
 40
2.0
 41
0.0
 71
     1
 72
     5
  1

1001
ACAD
1000
MTEXTBEGIN
1070
    73
1070
     1
1070
    44
1040
1.0
1070
    74
1070
     0
1000
MTEXTEND
1000
MTEXTBEGIN
1070
    73
1070
     1
1070
    44
1040
1.0
1070
    74
1070
     0
1000
MTEXTEND
  0
MTEXT
  5
187CF
330
18
100
AcDbEntity
  8
0
  6
CENTER
100
AcDbMText
 10
606.3621522332661
 20
2216.239946825076
 30
0.0
 40
2.0
 41
15.6417
 71
     1
 72
     5
  1

  7
BIGFONT
1001
ACAD
1000
MTEXTBEGIN
1070
    73
1070
     1
1070
    44
1040
1.0
1070
    74
1070
     0
1000
MTEXTEND
1000
MTEXTBEGIN
1070
    73
1070
     1
1070
    44
1040
1.0
1070
    74
1070
     0
1000
MTEXTEND
  0
MTEXT
  5
187D0
330
18
100
AcDbEntity
  8
0
  6
DASHDOT
100
AcDbMText
 10
368.6842112890943
 20
2323.029441652852
 30
0.0
 40
1.0
 41
2.0
 71
     1
 72
     5
  1

  7
BIGFONT
1001
ACAD
1000
MTEXTBEGIN
1070
    73
1070
     1
1070
    44
1040
1.0
1070
    74
1070
     0
1000
MTEXTEND
1000
MTEXTBEGIN
1070
    73
1070
     1
1070
    44
1040
1.0
1070
    74
1070
     0
1000
MTEXTEND
  0
MTEXT
  5
187D1
330
18
100
AcDbEntity
  8
0
  6
BYBLOCK
100
AcDbMText
 10
325.4873894192176
 20
2232.511722574347
 30
0.0
 40
2.0
 41
0.0
 71
     4
 72
     5
  1

 11
-0.0000000000000002
 21
-1.0
 31
0.0
1001
ACAD
1000
MTEXTBEGIN
1070
    73
1070
     1
1070
    44
1040
1.0
1070
    74
1070
     0
1000
MTEXTEND
1000
MTEXTBEGIN
1070
    73
1070
     1
1070
    44
1040
1.0
1070
    74
1070
     0
1000
MTEXTEND
  0
MTEXT
  5
187D2
330
18
100
AcDbEntity
  8
0
  6
BYBLOCK
100
AcDbMText
 10
360.9527777823706
 20
2221.718414215929
 30
0.0
 40
2.0
 41
0.0
 71
     7
 72
     5
  1

 11
0.0000000000000001
 21
1.0
 31
0.0
1001
ACAD
1000
MTEXTBEGIN
1070
    73
1070
     1
1070
    44
1040
1.0
1070
    74
1070
     0
1000
MTEXTEND
1000
MTEXTBEGIN
1070
    73
1070
     1
1070
    44
1040
1.0
1070
    74
1070
     0
1000
MTEXTEND
  0
MTEXT
  5
187D3
330
18
100
AcDbEntity
  8
0
100
AcDbMText
 10
325.1732797977028
 20
2146.938903673639
 30
0.0
 40
2.0
 41
10.1453
 71
     1
 72
     5
  1

 11
-0.0000000000000002
 21
-1.0
 31
0.0
1001
ACAD
1000
MTEXTBEGIN
1070
    73
1070
     1
1070
    44
1040
1.0
1070
    74
1070
     0
1000
MTEXTEND
1000
MTEXTBEGIN
1070
    73
1070
     1
1070
    44
1040
1.0
1070
    74
1070
     0
1000
MTEXTEND
  0
MTEXT
  5
187D4
330
18
100
AcDbEntity
  8
0
100
AcDbMText
 10
280.7737880445529
 20
2115.30742008065
 30
0.0
 40
2.0
 41
0.0
 71
     1
 72
     5
  1

1001
ACAD
1000
MTEXTBEGIN
1070
    73
1070
     1
1070
    44
1040
1.0
1070
    74
1070
     0
1000
MTEXTEND
1000
MTEXTBEGIN
1070
    73
1070
     1
1070
    44
1040
1.0
1070
    74
1070
     0
1000
MTEXTEND
  0
MTEXT
  5
187D5
330
18
100
AcDbEntity
  8
0
  6
CENTER
100
AcDbMText
 10
606.3620652283159
 20
2216.239946825076
 30
0.0
 40
2.0
 41
15.6417
 71
     1
 72
     5
  1

  7
BIGFONT
1001
ACAD
1000
MTEXTBEGIN
1070
    73
1070
     1
1070
    44
1040
1.0
1070
    74
1070
     0
1000
MTEXTEND
1000
MTEXTBEGIN
1070
    73
1070
     1
1070
    44
1040
1.0
1070
    74
1070
     0
1000
MTEXTEND
  0
MTEXT
  5
187D6
330
18
100
AcDbEntity
  8
0
  6
DASHDOT
100
AcDbMText
 10
368.6841242841442
 20
2323.029441652852
 30
0.0
 40
1.0
 41
2.0
 71
     1
 72
     5
  1

  7
BIGFONT
1001
ACAD
1000
MTEXTBEGIN
1070
    73
1070
     1
1070
    44
1040
1.0
1070
    74
1070
     0
1000
MTEXTEND
1000
MTEXTBEGIN
1070
    73
1070
     1
1070
    44
1040
1.0
1070
    74
1070
     0
1000
MTEXTEND
  0
INSERT
  5
187D7
330
18
100
AcDbEntity
  8
FRAME025
100
AcDbBlockReference
  2
機械A4横_LBP
 10
271.0019941658661
 20
2006.88884056487
 30
0.0
  0
LWPOLYLINE
  5
21CD6
330
18
100
AcDbEntity
  8
コイル
100
AcDbPolyline
 90
        4
 70
     1
 43
0.0
 10
457.837510327461
 20
-1301.343834121253
 10
467.8375103274611
 20
-1301.343838411893
 10
467.8375103274611
 20
-1307.343834121253
 10
457.837510327461
 20
-1307.343834121253
  0
LWPOLYLINE
  5
21CD7
330
18
100
AcDbEntity
  8
コイル
100
AcDbPolyline
 90
        2
 70
     0
 43
0.0
 10
516.7125103274611
 20
-1306.843834121252
 10
467.8375103274611
 20
-1306.843834121252
  0
LWPOLYLINE
  5
21CD9
330
18
100
AcDbEntity
  8
コイル
100
AcDbPolyline
 90
        4
 70
     1
 43
0.0
 10
457.837510327461
 20
-1367.343834121252
 10
467.8375103274611
 20
-1367.343838411893
 10
467.8375103274611
 20
-1373.343834121253
 10
457.837510327461
 20
-1373.343834121253
  0
LWPOLYLINE
  5
21CDB
330
18
100
AcDbEntity
  8
コイル
100
AcDbPolyline
 90
        2
 70
     0
 43
0.0
 10
516.7125103274611
 20
-1372.843834121252
 10
467.8375103274611
 20
-1372.843834121252
  0
CIRCLE
  5
21CF2
330
18
100
AcDbEntity
  8
0
100
AcDbCircle
 10
412.8375103274611
 20
-1309.343834121253
 30
0.0
 40
2.0
  0
LINE
  5
21CF3
330
18
100
AcDbEntity
  8
0
  6
CENTER
 48
0.3
100
AcDbLine
 10
412.8375103274611
 20
-1311.843834121253
 30
0.0
 11
412.8375103274611
 21
-1306.843834121252
 31
0.0
  0
LINE
  5
21CF4
330
18
100
AcDbEntity
  8
0
  6
CENTER
 48
0.3
100
AcDbLine
 10
410.3375103274609
 20
-1309.343834121253
 30
0.0
 11
415.337510327461
 21
-1309.343834121253
 31
0.0
  0
CIRCLE
  5
21D01
330
18
100
AcDbEntity
  8
0
100
AcDbCircle
 10
432.837510327461
 20
-1309.343834121253
 30
0.0
 40
2.0
  0
LINE
  5
21D02
330
18
100
AcDbEntity
  8
0
  6
CENTER
 48
0.3
100
AcDbLine
 10
415.337510327461
 20
-1309.343834121253
 30
0.0
 11
435.3375103274609
 21
-1309.343834121253
 31
0.0
  0
CIRCLE
  5
21D0B
330
18
100
AcDbEntity
  8
0
100
AcDbCircle
 10
452.837510327461
 20
-1309.343834121253
 30
0.0
 40
2.0
  0
LINE
  5
21D0C
330
18
100
AcDbEntity
  8
0
  6
CENTER
 48
0.3
100
AcDbLine
 10
435.3375103274609
 20
-1309.343834121253
 30
0.0
 11
455.3375103274611
 21
-1309.343834121253
 31
0.0
  0
LINE
  5
21D0D
330
18
100
AcDbEntity
  8
0
  6
CENTER
 48
0.3
100
AcDbLine
 10
452.837510327461
 20
-1311.843834121253
 30
0.0
 11
452.837510327461
 21
-1306.843834121252
 31
0.0
  0
LWPOLYLINE
  5
21D0E
330
18
100
AcDbEntity
  8
コイル
100
AcDbPolyline
 90
        2
 70
     0
 43
0.0
 10
456.837510327461
 20
-1300.343834121252
 10
456.837510327461
 20
-1301.343834121253
  0
LWPOLYLINE
  5
21D15
330
18
100
AcDbEntity
  8
コイル
100
AcDbPolyline
 90
        4
 70
     1
 43
0.0
 10
527.8375103274611
 20
-1303.843834121253
 10
534.8375103274611
 20
-1303.843834121253
 10
534.8375103274611
 20
-1302.843834121253
 10
527.8375103274611
 20
-1302.843834121253
  0
LWPOLYLINE
  5
21D16
330
18
100
AcDbEntity
  8
コイル
100
AcDbPolyline
 90
        4
 70
     1
 43
0.0
 10
527.8375103274611
 20
-1305.843834121253
 10
534.8375103274611
 20
-1305.843834121253
 10
534.8375103274611
 20
-1304.843834121252
 10
527.8375103274611
 20
-1304.843834121252
  0
LWPOLYLINE
  5
21D17
330
18
100
AcDbEntity
  8
コイル
100
AcDbPolyline
 90
        4
 70
     1
 43
0.0
 10
527.8375103274611
 20
-1369.843834121253
 10
534.8375103274611
 20
-1369.843834121253
 10
534.8375103274611
 20
-1368.843834121252
 10
527.8375103274611
 20
-1368.843834121252
  0
LWPOLYLINE
  5
21D18
330
18
100
AcDbEntity
  8
コイル
100
AcDbPolyline
 90
        4
 70
     1
 43
0.0
 10
527.8375103274611
 20
-1371.843834121253
 10
534.8375103274611
 20
-1371.843834121253
 10
534.8375103274611
 20
-1370.843834121252
 10
527.8375103274611
 20
-1370.843834121252
  0
LWPOLYLINE
  5
21D1B
330
18
100
AcDbEntity
  8
コイル
100
AcDbPolyline
 90
        4
 70
     0
 43
0.0
 10
519.9625103274611
 20
-1367.843834121253
 10
527.8375103274611
 20
-1367.843834121253
 10
527.8375103274611
 20
-1372.843834121252
 10
518.7125103274611
 20
-1372.843834121252
  0
LINE
  5
21D1C
330
18
100
AcDbEntity
  8
0
  6
CENTER
 48
0.3
100
AcDbLine
 10
515.8375103274611
 20
-1376.343834121253
 30
0.0
 11
518.8375103274611
 21
-1364.343834121253
 31
0.0
  0
LINE
  5
21D1D
330
18
100
AcDbEntity
  8
0
  6
CENTER
 48
0.3
100
AcDbLine
 10
517.8375103274611
 20
-1376.343834121253
 30
0.0
 11
520.8375103274611
 21
-1364.343834121253
 31
0.0
  0
LWPOLYLINE
  5
21D1E
330
18
100
AcDbEntity
  8
コイル
100
AcDbPolyline
 90
        4
 70
     0
 43
0.0
 10
519.9625103274611
 20
-1301.843834121253
 10
527.8375103274611
 20
-1301.843834121253
 10
527.8375103274611
 20
-1306.843834121252
 10
518.7125103274611
 20
-1306.843834121252
  0
LINE
  5
21D1F
330
18
100
AcDbEntity
  8
0
  6
CENTER
 48
0.3
100
AcDbLine
 10
517.8375103274611
 20
-1310.343834121252
 30
0.0
 11
520.8375103274611
 21
-1298.343834121252
 31
0.0
  0
LINE
  5
21D20
330
18
100
AcDbEntity
  8
0
  6
CENTER
 48
0.3
100
AcDbLine
 10
515.8375103274611
 20
-1310.343834121252
 30
0.0
 11
518.8375103274611
 21
-1298.343834121252
 31
0.0
  0
LWPOLYLINE
  5
21D2F
330
18
100
AcDbEntity
  8
コイル
100
AcDbPolyline
 90
        6
 70
     0
 43
0.0
 10
548.8375103274611
 20
-1373.143834121253
 10
552.037510327461
 20
-1371.943834121253
 10
554.437510327461
 20
-1371.943834121253
 10
554.437510327461
 20
-1368.743834121253
 10
552.037510327461
 20
-1368.743834121253
 10
548.8375103274611
 20
-1367.543834121253
  0
LWPOLYLINE
  5
21D30
330
18
100
AcDbEntity
  8
コイル
100
AcDbPolyline
 90
        4
 70
     0
 43
0.0
 10
549.2375103274611
 20
-1374.143834121253
 10
558.5375103274611
 20
-1374.143834121253
 10
558.5375103274611
 20
-1370.743834121253
 10
554.437510327461
 20
-1370.743834121253
  0
LWPOLYLINE
  5
21D31
330
18
100
AcDbEntity
  8
コイル
100
AcDbPolyline
 90
        4
 70
     0
 43
0.0
 10
554.437510327461
 20
-1369.943834121253
 10
558.5375103274611
 20
-1369.943834121253
 10
558.5375103274611
 20
-1366.543834121253
 10
549.2375103274611
 20
-1366.543834121253
  0
LWPOLYLINE
  5
21D32
330
18
100
AcDbEntity
  8
コイル
100
AcDbPolyline
 90
        6
 70
     0
 43
0.0
 10
549.2375103274611
 20
-1367.693834121253
 10
549.2375103274611
 20
-1365.443834121253
 10
534.8375103274611
 20
-1365.443834121253
 10
534.8375103274611
 20
-1375.243834121253
 10
549.2375103274611
 20
-1375.243834121253
 10
549.2375103274611
 20
-1372.993834121253
  0
LWPOLYLINE
  5
21D33
330
18
100
AcDbEntity
  8
コイル
100
AcDbPolyline
 90
        4
 70
     0
 43
0.0
 10
534.8375103274611
 20
-1375.243834121253
 10
534.8375103274611
 20
-1375.743834121253
 10
549.2375103274611
 20
-1375.743834121253
 10
549.2375103274611
 20
-1375.243834121253
  0
LWPOLYLINE
  5
21D34
330
18
100
AcDbEntity
  8
コイル
100
AcDbPolyline
 90
        4
 70
     0
 43
0.0
 10
541.937510327461
 20
-1370.843834121252
 10
551.937510327461
 20
-1370.843834121252
 10
551.937510327461
 20
-1369.843834121253
 10
541.937510327461
 20
-1369.843834121253
  0
LWPOLYLINE
  5
21D35
330
18
100
AcDbEntity
  8
コイル
100
AcDbPolyline
 90
        6
 70
     0
 43
0.0
 10
548.8375103274611
 20
-1369.843834121253
 10
548.8375103274611
 20
-1367.543834121253
 10
540.8375103274611
 20
-1367.543834121253
 10
540.8375103274611
 20
-1373.143834121253
 10
548.8375103274611
 20
-1373.143834121253
 10
548.8375103274611
 20
-1370.843834121252
  0
LINE
  5
21D36
330
18
100
AcDbEntity
  8
コイル
100
AcDbLine
 10
541.937510327461
 20
-1369.843834121253
 30
0.0
 11
541.937510327461
 21
-1367.543834121253
 31
0.0
  0
LWPOLYLINE
  5
21D37
330
18
100
AcDbEntity
  8
コイル
100
AcDbPolyline
 90
        4
 70
     1
 43
0.0
 10
534.8375103274611
 20
-1367.543834121253
 10
536.2375103274611
 20
-1367.543834121253
 10
536.2375103274611
 20
-1365.443834121253
 10
534.8375103274611
 20
-1365.443834121253
  0
LWPOLYLINE
  5
21D38
330
18
100
AcDbEntity
  8
コイル
100
AcDbPolyline
 90
        4
 70
     1
 43
0.0
 10
534.8375103274611
 20
-1375.243834121253
 10
536.2375103274611
 20
-1375.243834121253
 10
536.2375103274611
 20
-1373.143834121253
 10
534.8375103274611
 20
-1373.143834121253
  0
LINE
  5
21D39
330
18
100
AcDbEntity
  8
コイル
100
AcDbLine
 10
541.937510327461
 20
-1373.143834121253
 30
0.0
 11
541.937510327461
 21
-1370.843834121252
 31
0.0
  0
LINE
  5
21D3A
330
18
100
AcDbEntity
  8
コイル
100
AcDbLine
 10
550.937510327461
 20
-1369.843834121253
 30
0.0
 11
550.937510327461
 21
-1370.843834121252
 31
0.0
  0
LINE
  5
21D3B
330
18
100
AcDbEntity
  8
コイル
100
AcDbLine
 10
553.437510327461
 20
-1371.943834121253
 30
0.0
 11
553.437510327461
 21
-1368.743834121253
 31
0.0
  0
LWPOLYLINE
  5
21D3C
330
18
100
AcDbEntity
  8
コイル
100
AcDbPolyline
 90
        4
 70
     1
 43
0.0
 10
549.2375103274611
 20
-1300.443834121253
 10
558.5375103274611
 20
-1300.443834121253
 10
558.5375103274611
 20
-1303.843834121253
 10
549.2375103274611
 20
-1303.843834121253
  0
LWPOLYLINE
  5
21D3D
330
18
100
AcDbEntity
  8
コイル
100
AcDbPolyline
 90
        4
 70
     1
 43
0.0
 10
549.2375103274611
 20
-1304.643834121253
 10
558.5375103274611
 20
-1304.643834121253
 10
558.5375103274611
 20
-1308.043834121253
 10
549.2375103274611
 20
-1308.043834121253
  0
LWPOLYLINE
  5
21D3E
330
18
100
AcDbEntity
  8
コイル
100
AcDbPolyline
 90
       16
 70
     0
 43
0.0
 10
546.7375103274611
 20
-1309.143834121253
 10
547.2375103274611
 20
-1309.643834121253
 10
547.2375103274611
 20
-1310.343834121252
 10
540.8375103274611
 20
-1311.643834121253
 10
540.8375103274611
 20
-1313.243834121253
 10
541.937510327461
 20
-1313.243834121253
 10
541.937510327461
 20
-1312.743834121253
 10
553.437510327461
 20
-1312.743834121253
 10
554.437510327461
 20
-1311.743834121253
 10
554.437510327461
 20
-1310.743834121253
 10
553.437510327461
 20
-1309.343834121253
 10
551.937510327461
 20
-1309.343834121253
 10
551.937510327461
 20
-1310.343834121252
 10
548.2375103274611
 20
-1310.343834121252
 10
548.2375103274611
 20
-1309.643834121253
 10
549.2375103274611
 20
-1309.143834121253
  0
LWPOLYLINE
  5
21D3F
330
18
100
AcDbEntity
  8
コイル
100
AcDbPolyline
 90
        4
 70
     1
 43
0.0
 10
534.8375103274611
 20
-1299.343834121253
 10
549.2375103274611
 20
-1299.343834121253
 10
549.2375103274611
 20
-1309.143834121253
 10
534.8375103274611
 20
-1309.143834121253
  0
LWPOLYLINE
  5
21D40
330
18
100
AcDbEntity
  8
コイル
100
AcDbPolyline
 90
        4
 70
     0
 43
0.0
 10
541.937510327461
 20
-1312.743834121253
 10
551.937510327461
 20
-1312.743834121253
 10
550.937510327461
 20
-1313.243834121253
 10
541.937510327461
 20
-1313.243834121253
  0
LWPOLYLINE
  5
21D41
330
18
100
AcDbEntity
  8
コイル
100
AcDbPolyline
 90
        3
 70
     0
 43
0.0
 10
540.8375103274611
 20
-1311.643834121253
 10
551.937510327461
 20
-1311.643834121253
 10
551.937510327461
 20
-1312.743834121253
  0
LWPOLYLINE
  5
21D42
330
18
100
AcDbEntity
  8
コイル
100
AcDbPolyline
 90
        4
 70
     1
 43
0.0
 10
534.8375103274611
 20
-1298.343834121252
 10
536.2375103274611
 20
-1298.343834121252
 10
536.2375103274611
 20
-1299.343834121253
 10
534.8375103274611
 20
-1299.343834121253
  0
LWPOLYLINE
  5
21D43
330
18
100
AcDbEntity
  8
コイル
100
AcDbPolyline
 90
        4
 70
     1
 43
0.0
 10
534.8375103274611
 20
-1309.143834121253
 10
536.2375103274611
 20
-1309.143834121253
 10
536.2375103274611
 20
-1310.143834121253
 10
534.8375103274611
 20
-1310.143834121253
  0
LWPOLYLINE
  5
21D44
330
18
100
AcDbEntity
  8
コイル
100
AcDbPolyline
 90
        4
 70
     1
 43
0.0
 10
548.2375103274611
 20
-1310.343834121252
 10
549.737510327461
 20
-1310.343834121252
 10
549.737510327461
 20
-1311.643834121253
 10
548.2375103274611
 20
-1311.643834121253
  0
LINE
  5
2351C
330
18
100
AcDbEntity
  8
コイル
100
AcDbLine
 10
408.337510327461
 20
-1312.343834121253
 30
0.0
 11
457.337510327461
 21
-1312.343834121253
 31
0.0
  0
LINE
  5
2351D
330
18
100
AcDbEntity
  8
コイル
100
AcDbLine
 10
457.337510327461
 20
-1312.343834121253
 30
0.0
 11
457.837510327461
 21
-1311.843834121253
 31
0.0
  0
LINE
  5
2351E
330
18
100
AcDbEntity
  8
コイル
100
AcDbLine
 10
457.837510327461
 20
-1311.843834121253
 30
0.0
 11
457.837510327461
 21
-1301.843834121253
 31
0.0
  0
LINE
  5
2351F
330
18
100
AcDbEntity
  8
コイル
100
AcDbLine
 10
457.837510327461
 20
-1301.843834121253
 30
0.0
 11
457.337510327461
 21
-1301.343834121253
 31
0.0
  0
LINE
  5
23520
330
18
100
AcDbEntity
  8
コイル
100
AcDbLine
 10
457.337510327461
 20
-1301.343834121253
 30
0.0
 11
408.337510327461
 21
-1301.343834121253
 31
0.0
  0
LINE
  5
23521
330
18
100
AcDbEntity
  8
コイル
100
AcDbLine
 10
408.337510327461
 20
-1301.343834121253
 30
0.0
 11
407.837510327461
 21
-1301.843834121253
 31
0.0
  0
LINE
  5
23523
330
18
100
AcDbEntity
  8
コイル
100
AcDbLine
 10
407.837510327461
 20
-1311.843834121253
 30
0.0
 11
408.337510327461
 21
-1312.343834121253
 31
0.0
  0
LINE
  5
23524
330
18
100
AcDbEntity
  8
コイル
100
AcDbLine
 10
408.3375103274612
 20
-1380.343838411893
 30
0.0
 11
457.337510327461
 21
-1380.343838411893
 31
0.0
  0
LINE
  5
23525
330
18
100
AcDbEntity
  8
コイル
100
AcDbLine
 10
457.337510327461
 20
-1380.343838411893
 30
0.0
 11
457.837510327461
 21
-1379.843838411893
 31
0.0
  0
LINE
  5
23526
330
18
100
AcDbEntity
  8
コイル
100
AcDbLine
 10
457.837510327461
 20
-1379.843838411893
 30
0.0
 11
457.837510327461
 21
-1360.843838411893
 31
0.0
  0
LINE
  5
23527
330
18
100
AcDbEntity
  8
コイル
100
AcDbLine
 10
457.837510327461
 20
-1360.843838411893
 30
0.0
 11
457.337510327461
 21
-1360.343838411893
 31
0.0
  0
LINE
  5
23528
330
18
100
AcDbEntity
  8
コイル
100
AcDbLine
 10
457.337510327461
 20
-1360.343838411893
 30
0.0
 11
408.3375103274612
 21
-1360.343838411893
 31
0.0
  0
LINE
  5
23529
330
18
100
AcDbEntity
  8
コイル
100
AcDbLine
 10
408.3375103274612
 20
-1360.343838411893
 30
0.0
 11
407.8375103274612
 21
-1360.843838411893
 31
0.0
  0
LINE
  5
2352B
330
18
100
AcDbEntity
  8
コイル
100
AcDbLine
 10
407.8375103274612
 20
-1379.843838411893
 30
0.0
 11
408.3375103274612
 21
-1380.343838411893
 31
0.0
  0
LINE
  5
2352C
330
18
100
AcDbEntity
  8
コイル
100
AcDbLine
 10
407.837510327461
 20
-1311.843834121253
 30
0.0
 11
407.837510327461
 21
-1301.843834121253
 31
0.0
  0
LINE
  5
2352D
330
18
100
AcDbEntity
  8
コイル
100
AcDbLine
 10
407.837510327461
 20
-1379.843838411893
 30
0.0
 11
407.837510327461
 21
-1360.843838411893
 31
0.0
  0
LINE
  5
2352E
330
18
100
AcDbEntity
  8
0
100
AcDbLine
 10
408.8375103274611
 20
-1301.343834121253
 30
0.0
 11
408.8375103274611
 21
-1270.843834121253
 31
0.0
  0
LINE
  5
2352F
330
18
100
AcDbEntity
  8
0
100
AcDbLine
 10
408.8375103274611
 20
-1270.843834121253
 30
0.0
 11
456.837510327461
 21
-1270.843834121253
 31
0.0
  0
LINE
  5
23530
330
18
100
AcDbEntity
  8
0
100
AcDbLine
 10
456.837510327461
 20
-1270.843834121253
 30
0.0
 11
456.837510327461
 21
-1300.343834121252
 31
0.0
  0
LINE
  5
23700
330
18
100
AcDbEntity
  8
0
  6
CENTER
 48
0.3
100
AcDbLine
 10
432.837510327461
 20
-1311.843834121253
 30
0.0
 11
432.837510327461
 21
-1306.843834121252
 31
0.0
  0
CIRCLE
  5
23702
330
18
100
AcDbEntity
  8
0
100
AcDbCircle
 10
432.837510327461
 20
-1309.343834121253
 30
0.0
 40
1.6
  0
CIRCLE
  5
23703
330
18
100
AcDbEntity
  8
0
100
AcDbCircle
 10
452.837510327461
 20
-1309.343834121253
 30
0.0
 40
1.6
  0
CIRCLE
  5
23704
330
18
100
AcDbEntity
  8
0
100
AcDbCircle
 10
412.8375103274611
 20
-1309.343834121253
 30
0.0
 40
1.6
  0
CIRCLE
  5
23718
330
18
100
AcDbEntity
  8
0
100
AcDbCircle
 10
417.8375103274611
 20
-1364.343838411893
 30
0.0
 40
1.6
  0
LINE
  5
23719
330
18
100
AcDbEntity
  8
0
  6
CENTER
 48
0.3
100
AcDbLine
 10
417.8375103274611
 20
-1366.843838411893
 30
0.0
 11
417.8375103274611
 21
-1361.843838411893
 31
0.0
  0
LINE
  5
2371A
330
18
100
AcDbEntity
  8
0
  6
CENTER
 48
0.3
100
AcDbLine
 10
409.7905334384276
 20
-1364.343838411893
 30
0.0
 11
432.6527523718196
 21
-1364.343838411893
 31
0.0
  0
CIRCLE
  5
2371B
330
18
100
AcDbEntity
  8
0
100
AcDbCircle
 10
417.8375103274611
 20
-1364.343838411893
 30
0.0
 40
2.0
  0
CIRCLE
  5
2371C
330
18
100
AcDbEntity
  8
0
100
AcDbCircle
 10
417.8375103274611
 20
-1376.343838411893
 30
0.0
 40
2.0
  0
LINE
  5
2371D
330
18
100
AcDbEntity
  8
0
  6
CENTER
 48
0.3
100
AcDbLine
 10
410.0009179978085
 20
-1376.343838411893
 30
0.0
 11
432.5826241853591
 21
-1376.343838411893
 31
0.0
  0
CIRCLE
  5
2371E
330
18
100
AcDbEntity
  8
0
100
AcDbCircle
 10
417.8375103274611
 20
-1376.343838411893
 30
0.0
 40
1.6
  0
LINE
  5
2371F
330
18
100
AcDbEntity
  8
0
  6
CENTER
 48
0.3
100
AcDbLine
 10
417.8375103274611
 20
-1378.843838411893
 30
0.0
 11
417.8375103274611
 21
-1373.843838411893
 31
0.0
  0
CIRCLE
  5
23720
330
18
100
AcDbEntity
  8
0
100
AcDbCircle
 10
447.8375103274609
 20
-1364.343838411893
 30
0.0
 40
2.0
  0
LINE
  5
23721
330
18
100
AcDbEntity
  8
0
  6
CENTER
 48
0.3
100
AcDbLine
 10
432.6527523718196
 20
-1364.343838411893
 30
0.0
 11
456.707174109506
 21
-1364.343838411893
 31
0.0
  0
CIRCLE
  5
23722
330
18
100
AcDbEntity
  8
0
100
AcDbCircle
 10
447.8375103274609
 20
-1364.343838411893
 30
0.0
 40
1.6
  0
LINE
  5
23723
330
18
100
AcDbEntity
  8
0
  6
CENTER
 48
0.3
100
AcDbLine
 10
447.8375103274609
 20
-1366.843838411893
 30
0.0
 11
447.8375103274609
 21
-1361.843838411893
 31
0.0
  0
CIRCLE
  5
23724
330
18
100
AcDbEntity
  8
0
100
AcDbCircle
 10
447.8375103274609
 20
-1376.343838411893
 30
0.0
 40
1.6
  0
LINE
  5
23725
330
18
100
AcDbEntity
  8
0
  6
CENTER
 48
0.3
100
AcDbLine
 10
432.5826241853591
 20
-1376.343838411893
 30
0.0
 11
456.6370459230456
 21
-1376.343838411893
 31
0.0
  0
CIRCLE
  5
23726
330
18
100
AcDbEntity
  8
0
100
AcDbCircle
 10
447.8375103274609
 20
-1376.343838411893
 30
0.0
 40
2.0
  0
LINE
  5
23727
330
18
100
AcDbEntity
  8
0
  6
CENTER
 48
0.3
100
AcDbLine
 10
447.8375103274609
 20
-1378.843838411893
 30
0.0
 11
447.8375103274609
 21
-1373.843838411893
 31
0.0
  0
LINE
  5
23729
330
18
100
AcDbEntity
  8
0
  6
CENTER
 48
0.3
100
AcDbLine
 10
404.0313104846307
 20
-1370.343836266573
 30
0.0
 11
528.7600805486844
 21
-1370.343836266573
 31
0.0
  0
LINE
  5
2372A
330
18
100
AcDbEntity
  8
0
  6
CENTER
 48
0.3
100
AcDbLine
 10
455.2241586592426
 20
-1304.343838411893
 30
0.0
 11
529.0096605058907
 21
-1304.343838411893
 31
0.0
  0
LWPOLYLINE
  5
2372E
330
18
100
AcDbEntity
  8
コイル
100
AcDbPolyline
 90
        2
 70
     0
 43
0.0
 10
467.8375103274611
 20
-1367.843834121253
 10
517.9625103274611
 20
-1367.843834121253
  0
LWPOLYLINE
  5
2372F
330
18
100
AcDbEntity
  8
コイル
100
AcDbPolyline
 90
        2
 70
     0
 43
0.0
 10
457.837510327461
 20
-1372.843834121252
 10
457.837510327461
 20
-1367.843834121253
  0
LWPOLYLINE
  5
23730
330
18
100
AcDbEntity
  8
コイル
100
AcDbPolyline
 90
        2
 70
     0
 43
0.0
 10
457.837510327461
 20
-1306.843834121252
 10
457.837510327461
 20
-1301.843834121253
  0
LWPOLYLINE
  5
23731
330
18
100
AcDbEntity
  8
コイル
100
AcDbPolyline
 90
        2
 70
     0
 43
0.0
 10
467.8375103274611
 20
-1301.843834121253
 10
517.9625103274611
 20
-1301.843834121253
  0
LINE
  5
2373D
330
18
100
AcDbEntity
  8
隠れ線
100
AcDbLine
 10
592.5902137578932
 20
-1307.343856121253
 30
0.0
 11
593.2169122339975
 21
-1307.843856121253
 31
0.0
  0
LINE
  5
2373E
330
18
100
AcDbEntity
  8
隠れ線
100
AcDbLine
 10
592.5902137578932
 20
-1311.343856121253
 30
0.0
 11
593.2169122339975
 21
-1310.843856121253
 31
0.0
  0
LINE
  5
2373F
330
18
100
AcDbEntity
  8
隠れ線
100
AcDbLine
 10
590.0902328875392
 20
-1303.343856121253
 30
0.0
 11
593.0902328875391
 21
-1303.343856121253
 31
0.0
  0
LINE
  5
23740
330
18
100
AcDbEntity
  8
隠れ線
 48
0.1
100
AcDbLine
 10
591.5902328875391
 20
-1302.343856121253
 30
0.0
 11
593.0902328875391
 21
-1303.343856121253
 31
0.0
  0
LINE
  5
23741
330
18
100
AcDbEntity
  8
隠れ線
 48
0.1
100
AcDbLine
 10
589.5902137578935
 20
-1304.343856121253
 30
0.0
 11
593.5902137578932
 21
-1304.343856121253
 31
0.0
  0
LWPOLYLINE
  5
23743
330
18
100
AcDbEntity
  8
0
  6
PHANTOM
 48
0.1
100
AcDbPolyline
 90
        4
 70
     0
 43
0.0
 10
604.1902490578936
 20
-1262.343856117311
 10
604.1902490578936
 20
-1262.343834391253
 10
590.9902548344412
 20
-1262.343834391253
 10
590.9902548344412
 20
-1262.343856117311
  0
LWPOLYLINE
  5
23744
330
18
100
AcDbEntity
  8
隠れ線
 48
0.3
100
AcDbPolyline
 90
        2
 70
     0
 43
0.0
 10
604.1902424615632
 20
-1269.443834391253
 10
590.9902137534825
 20
-1269.443834391253
  0
LWPOLYLINE
  5
23745
330
18
100
AcDbEntity
  8
隠れ線
 48
0.3
100
AcDbPolyline
 90
        2
 70
     0
 43
0.0
 10
604.1902463636297
 20
-1265.243834391253
 10
590.9902137534825
 20
-1265.243834391253
  0
LWPOLYLINE
  5
23746
330
18
100
AcDbEntity
  8
0
  6
CENTER
 48
0.3
100
AcDbPolyline
 90
        2
 70
     0
 43
0.0
 10
611.2385215170652
 20
-1267.343834391253
 10
582.245605125619
 20
-1267.343834391253
  0
LWPOLYLINE
  5
23747
330
18
100
AcDbEntity
  8
0
  6
PHANTOM
 48
0.1
100
AcDbPolyline
 90
        6
 70
     0
 43
0.0
 10
590.9902548344412
 20
-1272.343817889955
 10
594.5902490578935
 20
-1272.343817889955
 10
594.5902490578935
 20
-1269.843834391253
 10
600.5902490578935
 20
-1269.843834391253
 10
600.5902490578935
 20
-1272.343834391253
 10
604.1902490578936
 20
-1272.343834391253
  0
LINE
  5
23748
330
18
100
AcDbEntity
  8
0
  6
CENTER2
 48
0.3
100
AcDbLine
 10
596.4300943594641
 20
-1309.34387417586
 30
0.0
 11
585.1902137578936
 21
-1309.34387417586
 31
0.0
  0
LINE
  5
23749
330
18
100
AcDbEntity
  8
隠れ線
 48
0.1
100
AcDbLine
 10
594.5901946282475
 20
-1307.843856121253
 30
0.0
 11
587.5902137578932
 21
-1307.843856121253
 31
0.0
  0
LINE
  5
2374A
330
18
100
AcDbEntity
  8
隠れ線
 48
0.1
100
AcDbLine
 10
594.5902137578935
 20
-1310.843856121253
 30
0.0
 11
587.5902137578932
 21
-1310.843856121253
 31
0.0
  0
LWPOLYLINE
  5
2374B
330
18
100
AcDbEntity
  8
コイル
 48
0.1
100
AcDbPolyline
 90
       10
 70
     0
 43
0.0
 10
594.0902137578935
 20
-1301.343856121253
 10
588.0902328875391
 20
-1301.343856121253
 10
587.5902328875391
 20
-1301.843856121253
 10
587.5902137578932
 20
-1311.843856121253
 10
588.0902137578932
 20
-1312.343856121253
 10
607.0902137578935
 20
-1312.343856121253
 10
607.5902137578935
 20
-1311.843856121253
 10
607.5902328875391
 20
-1301.843856121253
 10
607.0902328875392
 20
-1301.343856121253
 10
601.0902137578932
 20
-1301.343856121253
  0
LWPOLYLINE
  5
2374C
330
18
100
AcDbEntity
  8
0
  6
PHANTOM
 48
0.1
100
AcDbPolyline
 90
        4
 70
     1
 43
0.0
 10
591.0902490578934
 20
-1299.843834391253
 10
595.0902490578934
 20
-1299.843834391253
 10
595.0902490578934
 20
-1274.843834391253
 10
591.0902490578934
 20
-1274.843834391253
  0
LWPOLYLINE
  5
2374E
330
18
100
AcDbEntity
  8
0
  6
PHANTOM
 48
0.1
100
AcDbPolyline
 90
        5
 70
     0
 43
0.0
 10
590.9902137534825
 20
-1262.343856117311
 10
590.9902137534825
 20
-1300.343856117311
 10
587.0902137534823
 20
-1300.343856117311
 10
587.0902137534823
 20
-1262.343856117311
 10
590.9902137534825
 20
-1262.343856117311
  0
LINE
  5
2374F
330
18
100
AcDbEntity
  8
隠れ線
 48
0.1
100
AcDbLine
 10
592.5902137578932
 20
-1307.343856121253
 30
0.0
 11
587.5902137578932
 21
-1307.343856121253
 31
0.0
  0
LINE
  5
23750
330
18
100
AcDbEntity
  8
隠れ線
 48
0.1
100
AcDbLine
 10
592.5902137578932
 20
-1311.343856121253
 30
0.0
 11
587.5902137578932
 21
-1311.343856121253
 31
0.0
  0
LINE
  5
23751
330
18
100
AcDbEntity
  8
隠れ線
 48
0.1
100
AcDbLine
 10
592.5901946282476
 20
-1311.343856121253
 30
0.0
 11
592.5901946282476
 21
-1307.343856121253
 31
0.0
  0
LINE
  5
23752
330
18
100
AcDbEntity
  8
0
  6
CENTER2
 48
0.3
100
AcDbLine
 10
591.5902137578934
 20
-1300.760784705719
 30
0.0
 11
591.5902137578934
 21
-1313.343856121253
 31
0.0
  0
LINE
  5
23753
330
18
100
AcDbEntity
  8
隠れ線
100
AcDbLine
 10
589.5902137578935
 20
-1304.343856121253
 30
0.0
 11
590.0902328875392
 21
-1303.636545217975
 31
0.0
  0
LINE
  5
23754
330
18
100
AcDbEntity
  8
隠れ線
 48
0.1
100
AcDbLine
 10
590.0902328875392
 20
-1303.343856121253
 30
0.0
 11
590.0902328875392
 21
-1312.343856121253
 31
0.0
  0
LINE
  5
23755
330
18
100
AcDbEntity
  8
隠れ線
 48
0.1
100
AcDbLine
 10
590.0902328875392
 20
-1303.343856121253
 30
0.0
 11
591.5902328875391
 21
-1302.343856121253
 31
0.0
  0
LINE
  5
23756
330
18
100
AcDbEntity
  8
隠れ線
 48
0.1
100
AcDbLine
 10
589.5902137578935
 20
-1304.343856121253
 30
0.0
 11
589.5902328875392
 21
-1312.343856121253
 31
0.0
  0
LWPOLYLINE
  5
23757
330
18
100
AcDbEntity
  8
隠れ線
 48
0.3
100
AcDbPolyline
 90
        2
 70
     0
 43
0.0
 10
590.9902137534825
 20
-1271.093834391253
 10
587.0902137534823
 20
-1271.093834391253
  0
LWPOLYLINE
  5
23758
330
18
100
AcDbEntity
  8
隠れ線
 48
0.3
100
AcDbPolyline
 90
        2
 70
     0
 43
0.0
 10
590.9902137534825
 20
-1263.593834391253
 10
587.0902137534823
 20
-1263.593834391253
  0
LWPOLYLINE
  5
23759
330
18
100
AcDbEntity
  8
コイル
 48
0.1
100
AcDbPolyline
 90
        4
 70
     0
 43
0.0
 10
595.5902137578934
 20
-1299.843834121253
 10
595.5902137578934
 20
-1270.843834121253
 10
599.5902137578934
 20
-1270.843834121253
 10
599.5902137578934
 20
-1299.843834121253
  0
LWPOLYLINE
  5
2375A
330
18
100
AcDbEntity
  8
0
  6
PHANTOM
 48
0.1
100
AcDbPolyline
 90
        4
 70
     1
 43
0.0
 10
600.0902490578935
 20
-1299.843834391253
 10
604.0902490578935
 20
-1299.843834391253
 10
604.0902490578935
 20
-1274.843834391253
 10
600.0902490578935
 20
-1274.843834391253
  0
LWPOLYLINE
  5
2375B
330
18
100
AcDbEntity
  8
0
  6
PHANTOM
 48
0.1
100
AcDbPolyline
 90
        5
 70
     0
 43
0.0
 10
604.1902490578936
 20
-1262.343856117311
 10
608.0902137534823
 20
-1262.343856117311
 10
608.0902137534823
 20
-1300.343856117311
 10
604.1902137534823
 20
-1300.343856117311
 10
604.1902490578936
 20
-1262.343856117311
  0
LINE
  5
2375C
330
18
100
AcDbEntity
  8
隠れ線
 48
0.1
100
AcDbLine
 10
605.0901946282476
 20
-1303.343856121253
 30
0.0
 11
603.5901946282478
 21
-1302.343856121253
 31
0.0
  0
LINE
  5
2375D
330
18
100
AcDbEntity
  8
隠れ線
100
AcDbLine
 10
605.0901946282476
 20
-1303.343856121253
 30
0.0
 11
602.0901946282475
 21
-1303.343856121253
 31
0.0
  0
LINE
  5
2375E
330
18
100
AcDbEntity
  8
隠れ線
 48
0.1
100
AcDbLine
 10
605.5902137578932
 20
-1304.343856121253
 30
0.0
 11
601.5902137578932
 21
-1304.343856121253
 31
0.0
  0
LINE
  5
2375F
330
18
100
AcDbEntity
  8
0
  6
CENTER2
 48
0.3
100
AcDbLine
 10
598.750333156323
 20
-1309.34387417586
 30
0.0
 11
609.9902137578935
 21
-1309.34387417586
 31
0.0
  0
LINE
  5
23760
330
18
100
AcDbEntity
  8
隠れ線
 48
0.1
100
AcDbLine
 10
600.5902137578932
 20
-1310.843856121253
 30
0.0
 11
607.5902137578935
 21
-1310.843856121253
 31
0.0
  0
LINE
  5
23761
330
18
100
AcDbEntity
  8
隠れ線
 48
0.1
100
AcDbLine
 10
600.5902328875391
 20
-1307.843856121253
 30
0.0
 11
607.5902137578935
 21
-1307.843856121253
 31
0.0
  0
LINE
  5
23762
330
18
100
AcDbEntity
  8
隠れ線
 48
0.1
100
AcDbLine
 10
602.5902137578935
 20
-1311.343856121253
 30
0.0
 11
607.5902137578935
 21
-1311.343856121253
 31
0.0
  0
LINE
  5
23763
330
18
100
AcDbEntity
  8
隠れ線
 48
0.1
100
AcDbLine
 10
602.5902137578935
 20
-1307.343856121253
 30
0.0
 11
607.5902137578935
 21
-1307.343856121253
 31
0.0
  0
LINE
  5
23764
330
18
100
AcDbEntity
  8
0
  6
CENTER2
 48
0.3
100
AcDbLine
 10
603.5902137578935
 20
-1300.760784705719
 30
0.0
 11
603.5902137578935
 21
-1313.343856121253
 31
0.0
  0
LINE
  5
23765
330
18
100
AcDbEntity
  8
隠れ線
 48
0.1
100
AcDbLine
 10
603.5901946282478
 20
-1302.343856121253
 30
0.0
 11
602.0901946282475
 21
-1303.343856121253
 31
0.0
  0
LINE
  5
23766
330
18
100
AcDbEntity
  8
隠れ線
100
AcDbLine
 10
601.5902137578932
 20
-1304.343856121253
 30
0.0
 11
602.0901946282475
 21
-1303.636545217975
 31
0.0
  0
LINE
  5
23767
330
18
100
AcDbEntity
  8
隠れ線
 48
0.1
100
AcDbLine
 10
602.0901946282475
 20
-1312.343856121253
 30
0.0
 11
602.0901946282475
 21
-1303.343856121253
 31
0.0
  0
LINE
  5
23768
330
18
100
AcDbEntity
  8
隠れ線
 48
0.1
100
AcDbLine
 10
601.5901946282475
 20
-1312.343856121253
 30
0.0
 11
601.5902137578932
 21
-1304.343856121253
 31
0.0
  0
LINE
  5
23769
330
18
100
AcDbEntity
  8
隠れ線
 48
0.1
100
AcDbLine
 10
594.5901946282475
 20
-1307.843856121253
 30
0.0
 11
595.5902137578934
 21
-1309.343856121253
 31
0.0
  0
LINE
  5
2376A
330
18
100
AcDbEntity
  8
隠れ線
 48
0.1
100
AcDbLine
 10
594.5902137578935
 20
-1310.843856121253
 30
0.0
 11
595.5902137578934
 21
-1309.343856121253
 31
0.0
  0
LINE
  5
2376B
330
18
100
AcDbEntity
  8
隠れ線
 48
0.1
100
AcDbLine
 10
594.5901946282475
 20
-1307.843856121253
 30
0.0
 11
594.5902137578935
 21
-1310.843856121253
 31
0.0
  0
LINE
  5
2376C
330
18
100
AcDbEntity
  8
隠れ線
 48
0.1
100
AcDbLine
 10
600.5902328875391
 20
-1307.843856121253
 30
0.0
 11
600.5902137578932
 21
-1310.843856121253
 31
0.0
  0
LINE
  5
2376D
330
18
100
AcDbEntity
  8
隠れ線
 48
0.1
100
AcDbLine
 10
600.5902137578932
 20
-1310.843856121253
 30
0.0
 11
599.5902137578934
 21
-1309.343856121253
 31
0.0
  0
LINE
  5
2376E
330
18
100
AcDbEntity
  8
隠れ線
 48
0.1
100
AcDbLine
 10
600.5902328875391
 20
-1307.843856121253
 30
0.0
 11
599.5902137578934
 21
-1309.343856121253
 31
0.0
  0
LINE
  5
2376F
330
18
100
AcDbEntity
  8
隠れ線
100
AcDbLine
 10
602.5902137578935
 20
-1311.343856121253
 30
0.0
 11
601.9635152817897
 21
-1310.843856121253
 31
0.0
  0
LINE
  5
23770
330
18
100
AcDbEntity
  8
隠れ線
100
AcDbLine
 10
602.5902137578935
 20
-1307.343856121253
 30
0.0
 11
601.9635152817897
 21
-1307.843856121253
 31
0.0
  0
LINE
  5
23772
330
18
100
AcDbEntity
  8
隠れ線
 48
0.1
100
AcDbLine
 10
602.5902328875392
 20
-1311.343856121253
 30
0.0
 11
602.5902328875392
 21
-1307.343856121253
 31
0.0
  0
ARC
  5
23773
330
18
100
AcDbEntity
  8
コイル
 48
0.1
100
AcDbCircle
 10
601.0902137578932
 20
-1299.843856121253
 30
0.0
 40
1.5
100
AcDbArc
 50
180.0
 51
270.0
  0
LINE
  5
23774
330
18
100
AcDbEntity
  8
隠れ線
100
AcDbLine
 10
593.5902137578932
 20
-1304.343856121253
 30
0.0
 11
593.0902328875391
 21
-1303.636545217975
 31
0.0
  0
LINE
  5
23775
330
18
100
AcDbEntity
  8
隠れ線
 48
0.1
100
AcDbLine
 10
593.0902328875391
 20
-1312.343856121253
 30
0.0
 11
593.0902328875391
 21
-1303.343856121253
 31
0.0
  0
LINE
  5
23776
330
18
100
AcDbEntity
  8
隠れ線
 48
0.1
100
AcDbLine
 10
593.5902328875392
 20
-1312.343856121253
 30
0.0
 11
593.5902137578932
 21
-1304.343856121253
 31
0.0
  0
ARC
  5
23777
330
18
100
AcDbEntity
  8
コイル
 48
0.1
100
AcDbCircle
 10
594.0902137578935
 20
-1299.843856121253
 30
0.0
 40
1.5
100
AcDbArc
 50
270.0
 51
0.0
  0
LINE
  5
23778
330
18
100
AcDbEntity
  8
隠れ線
100
AcDbLine
 10
605.5902137578932
 20
-1304.343856121253
 30
0.0
 11
605.0901946282476
 21
-1303.636545217975
 31
0.0
  0
LINE
  5
23779
330
18
100
AcDbEntity
  8
隠れ線
 48
0.1
100
AcDbLine
 10
605.5902137578932
 20
-1304.343856121253
 30
0.0
 11
605.5901946282475
 21
-1312.343856121253
 31
0.0
  0
LINE
  5
2377A
330
18
100
AcDbEntity
  8
隠れ線
 48
0.1
100
AcDbLine
 10
605.0901946282476
 20
-1303.343856121253
 30
0.0
 11
605.0901946282476
 21
-1312.343856121253
 31
0.0
  0
LWPOLYLINE
  5
2377C
330
18
100
AcDbEntity
  8
隠れ線
 48
0.3
100
AcDbPolyline
 90
        2
 70
     0
 43
0.0
 10
608.0902137534823
 20
-1271.093834391253
 10
604.1902409286084
 20
-1271.093834391253
  0
LWPOLYLINE
  5
2377D
330
18
100
AcDbEntity
  8
隠れ線
 48
0.3
100
AcDbPolyline
 90
        2
 70
     0
 43
0.0
 10
608.0902137534823
 20
-1263.593834391253
 10
604.1902478965844
 20
-1263.593834391253
  0
LINE
  5
23842
330
18
100
AcDbEntity
  8
0
  6
CENTER
 48
0.3
100
AcDbLine
 10
417.8375103274611
 20
-1314.843834121252
 30
0.0
 11
417.8375103274611
 21
-1300.053346944318
 31
0.0
  0
LINE
  5
23843
330
18
100
AcDbEntity
  8
0
  6
CENTER
 48
0.3
100
AcDbLine
 10
447.8375103274609
 20
-1314.843834121252
 30
0.0
 11
447.8375103274609
 21
-1299.621111946406
 31
0.0
  0
LINE
  5
23844
330
18
100
AcDbEntity
  8
隠れ線
100
AcDbLine
 10
416.3375294571069
 20
-1303.343834121253
 30
0.0
 11
419.3375294571067
 21
-1303.343834121253
 31
0.0
  0
LINE
  5
23845
330
18
100
AcDbEntity
  8
隠れ線
 48
0.1
100
AcDbLine
 10
416.3375294571069
 20
-1303.343834121253
 30
0.0
 11
417.8375294571067
 21
-1302.343834121252
 31
0.0
  0
LINE
  5
23846
330
18
100
AcDbEntity
  8
隠れ線
 48
0.1
100
AcDbLine
 10
417.8375294571067
 20
-1302.343834121252
 30
0.0
 11
419.3375294571067
 21
-1303.343834121253
 31
0.0
  0
LINE
  5
23847
330
18
100
AcDbEntity
  8
隠れ線
 48
0.1
100
AcDbLine
 10
419.3375294571067
 20
-1312.343834121253
 30
0.0
 11
419.3375294571067
 21
-1303.343834121253
 31
0.0
  0
LINE
  5
23848
330
18
100
AcDbEntity
  8
隠れ線
 48
0.1
100
AcDbLine
 10
416.3375294571069
 20
-1303.343834121253
 30
0.0
 11
416.3375294571069
 21
-1312.343834121253
 31
0.0
  0
LINE
  5
23849
330
18
100
AcDbEntity
  8
隠れ線
 48
0.1
100
AcDbLine
 10
415.837510327461
 20
-1304.343834121253
 30
0.0
 11
419.837510327461
 21
-1304.343834121253
 31
0.0
  0
LINE
  5
2384A
330
18
100
AcDbEntity
  8
隠れ線
100
AcDbLine
 10
415.837510327461
 20
-1304.343834121253
 30
0.0
 11
416.3375294571069
 21
-1303.636523217975
 31
0.0
  0
LINE
  5
2384B
330
18
100
AcDbEntity
  8
隠れ線
100
AcDbLine
 10
419.837510327461
 20
-1304.343834121253
 30
0.0
 11
419.3375294571067
 21
-1303.636523217975
 31
0.0
  0
LINE
  5
2384C
330
18
100
AcDbEntity
  8
隠れ線
 48
0.1
100
AcDbLine
 10
419.8375294571069
 20
-1312.343834121253
 30
0.0
 11
419.837510327461
 21
-1304.343834121253
 31
0.0
  0
LINE
  5
2384D
330
18
100
AcDbEntity
  8
隠れ線
 48
0.1
100
AcDbLine
 10
415.837510327461
 20
-1304.343834121253
 30
0.0
 11
415.8375294571069
 21
-1312.343834121253
 31
0.0
  0
LINE
  5
2384E
330
18
100
AcDbEntity
  8
隠れ線
 48
0.1
100
AcDbLine
 10
445.8375103274611
 20
-1304.343834121253
 30
0.0
 11
445.8375294571069
 21
-1312.343834121253
 31
0.0
  0
LINE
  5
2384F
330
18
100
AcDbEntity
  8
隠れ線
 48
0.1
100
AcDbLine
 10
449.8375294571069
 20
-1312.343834121253
 30
0.0
 11
449.837510327461
 21
-1304.343834121253
 31
0.0
  0
LINE
  5
23850
330
18
100
AcDbEntity
  8
隠れ線
100
AcDbLine
 10
449.837510327461
 20
-1304.343834121253
 30
0.0
 11
449.3375294571069
 21
-1303.636523217975
 31
0.0
  0
LINE
  5
23851
330
18
100
AcDbEntity
  8
隠れ線
100
AcDbLine
 10
445.8375103274611
 20
-1304.343834121253
 30
0.0
 11
446.3375294571068
 21
-1303.636523217975
 31
0.0
  0
LINE
  5
23852
330
18
100
AcDbEntity
  8
隠れ線
 48
0.1
100
AcDbLine
 10
445.8375103274611
 20
-1304.343834121253
 30
0.0
 11
449.837510327461
 21
-1304.343834121253
 31
0.0
  0
LINE
  5
23853
330
18
100
AcDbEntity
  8
隠れ線
 48
0.1
100
AcDbLine
 10
446.3375294571068
 20
-1303.343834121253
 30
0.0
 11
446.3375294571068
 21
-1312.343834121253
 31
0.0
  0
LINE
  5
23854
330
18
100
AcDbEntity
  8
隠れ線
 48
0.1
100
AcDbLine
 10
449.3375294571069
 20
-1312.343834121253
 30
0.0
 11
449.3375294571069
 21
-1303.343834121253
 31
0.0
  0
LINE
  5
23855
330
18
100
AcDbEntity
  8
隠れ線
 48
0.1
100
AcDbLine
 10
447.8375294571067
 20
-1302.343834121252
 30
0.0
 11
449.3375294571069
 21
-1303.343834121253
 31
0.0
  0
LINE
  5
23856
330
18
100
AcDbEntity
  8
隠れ線
 48
0.1
100
AcDbLine
 10
446.3375294571068
 20
-1303.343834121253
 30
0.0
 11
447.8375294571067
 21
-1302.343834121252
 31
0.0
  0
LINE
  5
23857
330
18
100
AcDbEntity
  8
隠れ線
100
AcDbLine
 10
446.3375294571068
 20
-1303.343834121253
 30
0.0
 11
449.3375294571069
 21
-1303.343834121253
 31
0.0
  0
LINE
  5
23858
330
18
100
AcDbEntity
  8
0
  6
CENTER
 48
0.3
100
AcDbLine
 10
412.8375103274611
 20
-1382.969183937841
 30
0.0
 11
412.8375103274611
 21
-1357.843838411893
 31
0.0
  0
LINE
  5
23859
330
18
100
AcDbEntity
  8
0
  6
CENTER
 48
0.3
100
AcDbLine
 10
452.837510327461
 20
-1382.652775170097
 30
0.0
 11
452.837510327461
 21
-1357.843838411893
 31
0.0
  0
LINE
  5
2385A
330
18
100
AcDbEntity
  8
0
  6
CENTER
 48
0.3
100
AcDbLine
 10
432.837510327461
 20
-1383.602004686351
 30
0.0
 11
432.837510327461
 21
-1357.843838411893
 31
0.0
  0
LINE
  5
23867
102
{ACAD_REACTORS
330
23871
102
}
330
18
100
AcDbEntity
  8
隠れ線
 48
0.1
100
AcDbLine
 10
414.8375103274609
 20
-1365.343838411893
 30
0.0
 11
414.8375103274609
 21
-1360.343838411893
 31
0.0
  0
LINE
  5
23868
102
{ACAD_REACTORS
330
23871
102
}
330
18
100
AcDbEntity
  8
隠れ線
 48
0.1
100
AcDbLine
 10
414.337510327461
 20
-1367.343819282247
 30
0.0
 11
414.337510327461
 21
-1360.343838411893
 31
0.0
  0
LINE
  5
23869
102
{ACAD_REACTORS
330
23871
102
}
330
18
100
AcDbEntity
  8
隠れ線
 48
0.1
100
AcDbLine
 10
411.337510327461
 20
-1367.343838411893
 30
0.0
 11
411.337510327461
 21
-1360.343838411893
 31
0.0
  0
LINE
  5
2386A
102
{ACAD_REACTORS
330
23871
102
}
330
18
100
AcDbEntity
  8
隠れ線
 48
0.1
100
AcDbLine
 10
410.8375103274609
 20
-1365.343838411893
 30
0.0
 11
410.8375103274609
 21
-1360.343838411893
 31
0.0
  0
LINE
  5
2386B
102
{ACAD_REACTORS
330
23871
102
}
330
18
100
AcDbEntity
  8
隠れ線
100
AcDbLine
 10
410.8375103274609
 20
-1365.343838411893
 30
0.0
 11
411.337510327461
 21
-1365.970536887997
 31
0.0
  0
LINE
  5
2386C
102
{ACAD_REACTORS
330
23871
102
}
330
18
100
AcDbEntity
  8
隠れ線
100
AcDbLine
 10
414.8375103274609
 20
-1365.343838411893
 30
0.0
 11
414.337510327461
 21
-1365.970536887997
 31
0.0
  0
LINE
  5
2386D
102
{ACAD_REACTORS
330
23871
102
}
330
18
100
AcDbEntity
  8
隠れ線
 48
0.1
100
AcDbLine
 10
414.337510327461
 20
-1367.343819282247
 30
0.0
 11
411.337510327461
 21
-1367.343838411893
 31
0.0
  0
LINE
  5
2386E
102
{ACAD_REACTORS
330
23871
102
}
330
18
100
AcDbEntity
  8
隠れ線
 48
0.1
100
AcDbLine
 10
414.337510327461
 20
-1367.343819282247
 30
0.0
 11
412.8375103274611
 21
-1368.343838411893
 31
0.0
  0
LINE
  5
2386F
102
{ACAD_REACTORS
330
23871
102
}
330
18
100
AcDbEntity
  8
隠れ線
 48
0.1
100
AcDbLine
 10
411.337510327461
 20
-1367.343838411893
 30
0.0
 11
412.8375103274611
 21
-1368.343838411893
 31
0.0
  0
LINE
  5
23870
102
{ACAD_REACTORS
330
23871
102
}
330
18
100
AcDbEntity
  8
隠れ線
 48
0.1
100
AcDbLine
 10
410.8375103274609
 20
-1365.343819282247
 30
0.0
 11
414.8375103274609
 21
-1365.343819282247
 31
0.0
  0
LINE
  5
23872
102
{ACAD_REACTORS
330
2387C
102
}
330
18
100
AcDbEntity
  8
隠れ線
 48
0.1
100
AcDbLine
 10
434.3375103274611
 20
-1367.343819282247
 30
0.0
 11
431.3375103274609
 21
-1367.343838411893
 31
0.0
  0
LINE
  5
23873
102
{ACAD_REACTORS
330
2387C
102
}
330
18
100
AcDbEntity
  8
隠れ線
 48
0.1
100
AcDbLine
 10
434.3375103274611
 20
-1367.343819282247
 30
0.0
 11
432.837510327461
 21
-1368.343838411893
 31
0.0
  0
LINE
  5
23874
102
{ACAD_REACTORS
330
2387C
102
}
330
18
100
AcDbEntity
  8
隠れ線
 48
0.1
100
AcDbLine
 10
430.837510327461
 20
-1365.343819282247
 30
0.0
 11
434.837510327461
 21
-1365.343819282247
 31
0.0
  0
LINE
  5
23875
102
{ACAD_REACTORS
330
2387C
102
}
330
18
100
AcDbEntity
  8
隠れ線
 48
0.1
100
AcDbLine
 10
431.3375103274609
 20
-1367.343838411893
 30
0.0
 11
431.3375103274609
 21
-1360.343838411893
 31
0.0
  0
LINE
  5
23876
102
{ACAD_REACTORS
330
2387C
102
}
330
18
100
AcDbEntity
  8
隠れ線
 48
0.1
100
AcDbLine
 10
430.837510327461
 20
-1365.343838411893
 30
0.0
 11
430.837510327461
 21
-1360.343838411893
 31
0.0
  0
LINE
  5
23877
102
{ACAD_REACTORS
330
2387C
102
}
330
18
100
AcDbEntity
  8
隠れ線
 48
0.1
100
AcDbLine
 10
431.3375103274609
 20
-1367.343838411893
 30
0.0
 11
432.837510327461
 21
-1368.343838411893
 31
0.0
  0
LINE
  5
23878
102
{ACAD_REACTORS
330
2387C
102
}
330
18
100
AcDbEntity
  8
隠れ線
 48
0.1
100
AcDbLine
 10
434.837510327461
 20
-1365.343838411893
 30
0.0
 11
434.837510327461
 21
-1360.343838411893
 31
0.0
  0
LINE
  5
23879
102
{ACAD_REACTORS
330
2387C
102
}
330
18
100
AcDbEntity
  8
隠れ線
 48
0.1
100
AcDbLine
 10
434.3375103274611
 20
-1367.343819282247
 30
0.0
 11
434.3375103274611
 21
-1360.343838411893
 31
0.0
  0
LINE
  5
2387A
102
{ACAD_REACTORS
330
2387C
102
}
330
18
100
AcDbEntity
  8
隠れ線
100
AcDbLine
 10
434.837510327461
 20
-1365.343838411893
 30
0.0
 11
434.3375103274611
 21
-1365.970536887997
 31
0.0
  0
LINE
  5
2387B
102
{ACAD_REACTORS
330
2387C
102
}
330
18
100
AcDbEntity
  8
隠れ線
100
AcDbLine
 10
430.837510327461
 20
-1365.343838411893
 30
0.0
 11
431.3375103274609
 21
-1365.970536887997
 31
0.0
  0
LINE
  5
2387D
102
{ACAD_REACTORS
330
23887
102
}
330
18
100
AcDbEntity
  8
隠れ線
100
AcDbLine
 10
450.8375103274611
 20
-1365.343838411893
 30
0.0
 11
451.337510327461
 21
-1365.970536887997
 31
0.0
  0
LINE
  5
2387E
102
{ACAD_REACTORS
330
23887
102
}
330
18
100
AcDbEntity
  8
隠れ線
100
AcDbLine
 10
454.8375103274611
 20
-1365.343838411893
 30
0.0
 11
454.3375103274611
 21
-1365.970536887997
 31
0.0
  0
LINE
  5
2387F
102
{ACAD_REACTORS
330
23887
102
}
330
18
100
AcDbEntity
  8
隠れ線
 48
0.1
100
AcDbLine
 10
454.3375103274611
 20
-1367.343819282247
 30
0.0
 11
454.3375103274611
 21
-1360.343838411893
 31
0.0
  0
LINE
  5
23880
102
{ACAD_REACTORS
330
23887
102
}
330
18
100
AcDbEntity
  8
隠れ線
 48
0.1
100
AcDbLine
 10
454.8375103274611
 20
-1365.343838411893
 30
0.0
 11
454.8375103274611
 21
-1360.343838411893
 31
0.0
  0
LINE
  5
23881
102
{ACAD_REACTORS
330
23887
102
}
330
18
100
AcDbEntity
  8
隠れ線
 48
0.1
100
AcDbLine
 10
451.337510327461
 20
-1367.343838411893
 30
0.0
 11
452.837510327461
 21
-1368.343838411893
 31
0.0
  0
LINE
  5
23882
102
{ACAD_REACTORS
330
23887
102
}
330
18
100
AcDbEntity
  8
隠れ線
 48
0.1
100
AcDbLine
 10
450.8375103274611
 20
-1365.343838411893
 30
0.0
 11
450.8375103274611
 21
-1360.343838411893
 31
0.0
  0
LINE
  5
23883
102
{ACAD_REACTORS
330
23887
102
}
330
18
100
AcDbEntity
  8
隠れ線
 48
0.1
100
AcDbLine
 10
451.337510327461
 20
-1367.343838411893
 30
0.0
 11
451.337510327461
 21
-1360.343838411893
 31
0.0
  0
LINE
  5
23884
102
{ACAD_REACTORS
330
23887
102
}
330
18
100
AcDbEntity
  8
隠れ線
 48
0.1
100
AcDbLine
 10
450.8375103274611
 20
-1365.343819282247
 30
0.0
 11
454.8375103274611
 21
-1365.343819282247
 31
0.0
  0
LINE
  5
23885
102
{ACAD_REACTORS
330
23887
102
}
330
18
100
AcDbEntity
  8
隠れ線
 48
0.1
100
AcDbLine
 10
454.3375103274611
 20
-1367.343819282247
 30
0.0
 11
452.837510327461
 21
-1368.343838411893
 31
0.0
  0
LINE
  5
23886
102
{ACAD_REACTORS
330
23887
102
}
330
18
100
AcDbEntity
  8
隠れ線
 48
0.1
100
AcDbLine
 10
454.3375103274611
 20
-1367.343819282247
 30
0.0
 11
451.337510327461
 21
-1367.343838411893
 31
0.0
  0
LINE
  5
23888
102
{ACAD_REACTORS
330
238A6
102
}
330
18
100
AcDbEntity
  8
隠れ線
 48
0.1
100
AcDbLine
 10
414.351822637264
 20
-1373.336654359044
 30
0.0
 11
411.3518567677497
 21
-1373.350964569223
 31
0.0
  0
LINE
  5
23889
102
{ACAD_REACTORS
330
238A6
102
}
330
18
100
AcDbEntity
  8
隠れ線
 48
0.1
100
AcDbLine
 10
414.351822637264
 20
-1373.336654359044
 30
0.0
 11
412.8470632102853
 21
-1372.343811306706
 31
0.0
  0
LINE
  5
2388A
102
{ACAD_REACTORS
330
238A6
102
}
330
18
100
AcDbEntity
  8
隠れ線
 48
0.1
100
AcDbLine
 10
410.8614154558353
 20
-1375.353349107347
 30
0.0
 11
414.8613698266919
 21
-1375.334243321205
 31
0.0
  0
LINE
  5
2388B
102
{ACAD_REACTORS
330
238A6
102
}
330
18
100
AcDbEntity
  8
隠れ線
 48
0.1
100
AcDbLine
 10
411.3518567677497
 20
-1373.350964569223
 30
0.0
 11
411.3852918934988
 21
-1380.350884718223
 31
0.0
  0
LINE
  5
2388C
102
{ACAD_REACTORS
330
238A6
102
}
330
18
100
AcDbEntity
  8
隠れ線
 48
0.1
100
AcDbLine
 10
410.8614153644636
 20
-1375.35332997792
 30
0.0
 11
410.8852975971417
 21
-1380.35327294149
 31
0.0
  0
LINE
  5
2388D
102
{ACAD_REACTORS
330
238A6
102
}
330
18
100
AcDbEntity
  8
隠れ線
 48
0.1
100
AcDbLine
 10
411.3518567677497
 20
-1373.350964569223
 30
0.0
 11
412.8470632102853
 21
-1372.343811306706
 31
0.0
  0
LINE
  5
2388E
102
{ACAD_REACTORS
330
238A6
102
}
330
18
100
AcDbEntity
  8
隠れ線
 48
0.1
100
AcDbLine
 10
414.8613697353202
 20
-1375.334224191777
 30
0.0
 11
414.8852519679982
 21
-1380.334167155346
 31
0.0
  0
LINE
  5
2388F
102
{ACAD_REACTORS
330
238A6
102
}
330
18
100
AcDbEntity
  8
隠れ線
 48
0.1
100
AcDbLine
 10
414.351822637264
 20
-1373.336654359044
 30
0.0
 11
414.3852576716414
 21
-1380.336555378616
 31
0.0
  0
LINE
  5
23890
102
{ACAD_REACTORS
330
238A6
102
}
330
18
100
AcDbEntity
  8
隠れ線
100
AcDbLine
 10
414.8613697353202
 20
-1375.334224191777
 30
0.0
 11
414.3583820471983
 21
-1374.709921087869
 31
0.0
  0
LINE
  5
23891
102
{ACAD_REACTORS
330
238A6
102
}
330
18
100
AcDbEntity
  8
隠れ線
100
AcDbLine
 10
410.8614153644636
 20
-1375.35332997792
 30
0.0
 11
411.3584162690558
 21
-1374.724250427475
 31
0.0
  0
LINE
  5
23892
102
{ACAD_REACTORS
330
238A7
102
}
330
18
100
AcDbEntity
  8
隠れ線
100
AcDbLine
 10
430.8611872187474
 20
-1375.257801047208
 30
0.0
 11
431.3581881233393
 21
-1374.628721496764
 31
0.0
  0
LINE
  5
23893
102
{ACAD_REACTORS
330
238A7
102
}
330
18
100
AcDbEntity
  8
隠れ線
100
AcDbLine
 10
434.8611415896041
 20
-1375.238695261065
 30
0.0
 11
434.3581539014818
 21
-1374.614392157157
 31
0.0
  0
LINE
  5
23894
102
{ACAD_REACTORS
330
238A7
102
}
330
18
100
AcDbEntity
  8
隠れ線
 48
0.1
100
AcDbLine
 10
434.3515944915476
 20
-1373.241125428332
 30
0.0
 11
434.385029525925
 21
-1380.241026447904
 31
0.0
  0
LINE
  5
23895
102
{ACAD_REACTORS
330
238A7
102
}
330
18
100
AcDbEntity
  8
隠れ線
 48
0.1
100
AcDbLine
 10
434.8611415896041
 20
-1375.238695261065
 30
0.0
 11
434.8850238222821
 21
-1380.238638224636
 31
0.0
  0
LINE
  5
23896
102
{ACAD_REACTORS
330
238A7
102
}
330
18
100
AcDbEntity
  8
隠れ線
 48
0.1
100
AcDbLine
 10
431.3516286220333
 20
-1373.255435638511
 30
0.0
 11
432.846835064569
 21
-1372.248282375994
 31
0.0
  0
LINE
  5
23897
102
{ACAD_REACTORS
330
238A7
102
}
330
18
100
AcDbEntity
  8
隠れ線
 48
0.1
100
AcDbLine
 10
430.8611872187474
 20
-1375.257801047208
 30
0.0
 11
430.8850694514254
 21
-1380.257744010779
 31
0.0
  0
LINE
  5
23898
102
{ACAD_REACTORS
330
238A7
102
}
330
18
100
AcDbEntity
  8
隠れ線
 48
0.1
100
AcDbLine
 10
431.3516286220333
 20
-1373.255435638511
 30
0.0
 11
431.3850637477825
 21
-1380.255355787511
 31
0.0
  0
LINE
  5
23899
102
{ACAD_REACTORS
330
238A7
102
}
330
18
100
AcDbEntity
  8
隠れ線
 48
0.1
100
AcDbLine
 10
430.8611873101191
 20
-1375.257820176635
 30
0.0
 11
434.8611416809758
 21
-1375.238714390492
 31
0.0
  0
LINE
  5
2389A
102
{ACAD_REACTORS
330
238A7
102
}
330
18
100
AcDbEntity
  8
隠れ線
 48
0.1
100
AcDbLine
 10
434.3515944915476
 20
-1373.241125428332
 30
0.0
 11
432.846835064569
 21
-1372.248282375994
 31
0.0
  0
LINE
  5
2389B
102
{ACAD_REACTORS
330
238A7
102
}
330
18
100
AcDbEntity
  8
隠れ線
 48
0.1
100
AcDbLine
 10
434.3515944915476
 20
-1373.241125428332
 30
0.0
 11
431.3516286220333
 21
-1373.255435638511
 31
0.0
  0
LINE
  5
2389C
102
{ACAD_REACTORS
330
238A8
102
}
330
18
100
AcDbEntity
  8
隠れ線
 48
0.1
100
AcDbLine
 10
454.3513663458313
 20
-1373.14559649762
 30
0.0
 11
451.351400476317
 21
-1373.159906707799
 31
0.0
  0
LINE
  5
2389D
102
{ACAD_REACTORS
330
238A8
102
}
330
18
100
AcDbEntity
  8
隠れ線
 48
0.1
100
AcDbLine
 10
454.3513663458313
 20
-1373.14559649762
 30
0.0
 11
452.8466069188524
 21
-1372.152753445282
 31
0.0
  0
LINE
  5
2389E
102
{ACAD_REACTORS
330
238A8
102
}
330
18
100
AcDbEntity
  8
隠れ線
 48
0.1
100
AcDbLine
 10
450.8609591644026
 20
-1375.162291245922
 30
0.0
 11
454.8609135352593
 21
-1375.143185459781
 31
0.0
  0
LINE
  5
2389F
102
{ACAD_REACTORS
330
238A8
102
}
330
18
100
AcDbEntity
  8
隠れ線
 48
0.1
100
AcDbLine
 10
451.351400476317
 20
-1373.159906707799
 30
0.0
 11
451.3848356020662
 21
-1380.159826856799
 31
0.0
  0
LINE
  5
238A0
102
{ACAD_REACTORS
330
238A8
102
}
330
18
100
AcDbEntity
  8
隠れ線
 48
0.1
100
AcDbLine
 10
450.8609590730308
 20
-1375.162272116496
 30
0.0
 11
450.8848413057091
 21
-1380.162215080066
 31
0.0
  0
LINE
  5
238A1
102
{ACAD_REACTORS
330
238A8
102
}
330
18
100
AcDbEntity
  8
隠れ線
 48
0.1
100
AcDbLine
 10
451.351400476317
 20
-1373.159906707799
 30
0.0
 11
452.8466069188524
 21
-1372.152753445282
 31
0.0
  0
LINE
  5
238A2
102
{ACAD_REACTORS
330
238A8
102
}
330
18
100
AcDbEntity
  8
隠れ線
 48
0.1
100
AcDbLine
 10
454.8609134438875
 20
-1375.143166330353
 30
0.0
 11
454.8847956765658
 21
-1380.143109293924
 31
0.0
  0
LINE
  5
238A3
102
{ACAD_REACTORS
330
238A8
102
}
330
18
100
AcDbEntity
  8
隠れ線
 48
0.1
100
AcDbLine
 10
454.3513663458313
 20
-1373.14559649762
 30
0.0
 11
454.3848013802087
 21
-1380.145497517192
 31
0.0
  0
LINE
  5
238A4
102
{ACAD_REACTORS
330
238A8
102
}
330
18
100
AcDbEntity
  8
隠れ線
100
AcDbLine
 10
454.8609134438875
 20
-1375.143166330353
 30
0.0
 11
454.3579257557657
 21
-1374.518863226446
 31
0.0
  0
LINE
  5
238A5
102
{ACAD_REACTORS
330
238A8
102
}
330
18
100
AcDbEntity
  8
隠れ線
100
AcDbLine
 10
450.8609590730308
 20
-1375.162272116496
 30
0.0
 11
451.3579599776231
 21
-1374.533192566051
 31
0.0
  0
LINE
  5
238AD
330
18
100
AcDbEntity
  8
0
  6
CENTER
 48
0.3
100
AcDbLine
 10
597.5902137578932
 20
-1268.373850423769
 30
0.0
 11
597.5902137578932
 21
-1318.156419757122
 31
0.0
  0
CIRCLE
  5
238C4
102
{ACAD_REACTORS
330
238E7
102
}
330
18
100
AcDbEntity
  8
実線
100
AcDbCircle
 10
597.5902137578932
 20
-1304.343860411893
 30
0.0
 40
2.525244926117464
  0
LINE
  5
238CE
102
{ACAD_REACTORS
330
238E7
102
}
330
18
100
AcDbEntity
  8
細線
100
AcDbLine
 10
595.1836849582738
 20
-1305.109027761877
 30
0.0
 11
595.9488523082592
 21
-1304.343860411893
 31
0.0
  0
LINE
  5
238CF
102
{ACAD_REACTORS
330
238E7
102
}
330
18
100
AcDbEntity
  8
細線
100
AcDbLine
 10
597.5902137578932
 20
-1302.702498962259
 30
0.0
 11
598.3553811078785
 21
-1301.937331612273
 31
0.0
  0
LINE
  5
238D0
102
{ACAD_REACTORS
330
238E7
102
}
330
18
100
AcDbEntity
  8
細線
100
AcDbLine
 10
595.4664854451363
 20
-1305.7101107515
 30
0.0
 11
596.8327357847422
 21
-1304.343860411893
 31
0.0
  0
LINE
  5
238D1
102
{ACAD_REACTORS
330
238E7
102
}
330
18
100
AcDbEntity
  8
細線
100
AcDbLine
 10
597.5902137578932
 20
-1303.586382438742
 30
0.0
 11
598.9564640974997
 21
-1302.220132099136
 31
0.0
  0
LINE
  5
238D2
102
{ACAD_REACTORS
330
238E7
102
}
330
18
100
AcDbEntity
  8
細線
100
AcDbLine
 10
595.8689175937228
 20
-1306.191562079396
 30
0.0
 11
597.5902137578932
 21
-1304.470265915225
 31
0.0
  0
LINE
  5
238D3
102
{ACAD_REACTORS
330
238E7
102
}
330
18
100
AcDbEntity
  8
細線
100
AcDbLine
 10
597.7166192612255
 20
-1304.343860411893
 30
0.0
 11
599.4379154253962
 21
-1302.622564247722
 31
0.0
  0
LINE
  5
238D4
102
{ACAD_REACTORS
330
238E7
102
}
330
18
100
AcDbEntity
  8
細線
100
AcDbLine
 10
596.3826819757765
 20
-1306.561681173826
 30
0.0
 11
597.5902137578932
 21
-1305.354149391709
 31
0.0
  0
LINE
  5
238D5
102
{ACAD_REACTORS
330
238E7
102
}
330
18
100
AcDbEntity
  8
細線
100
AcDbLine
 10
598.6005027377089
 20
-1304.343860411893
 30
0.0
 11
599.8080345198261
 21
-1303.136328629776
 31
0.0
  0
LINE
  5
238D6
102
{ACAD_REACTORS
330
238E7
102
}
330
18
100
AcDbEntity
  8
細線
100
AcDbLine
 10
597.0235435178846
 20
-1306.804703108201
 30
0.0
 11
597.5902137578932
 21
-1306.238032868192
 31
0.0
  0
LINE
  5
238D7
102
{ACAD_REACTORS
330
238E7
102
}
330
18
100
AcDbEntity
  8
細線
100
AcDbLine
 10
599.4843862141922
 20
-1304.343860411893
 30
0.0
 11
600.0510564542008
 21
-1303.777190171884
 31
0.0
  0
LINE
  5
238F5
330
18
100
AcDbEntity
  8
0
  6
CENTER2
 48
0.3
100
AcDbLine
 10
594.0258664993117
 20
-1304.343860411893
 30
0.0
 11
600.9792302835851
 21
-1304.343860411893
 31
0.0
  0
VIEWPORT
  5
23
330
15
100
AcDbEntity
 67
     1
  8
0
100
AcDbViewport
 10
197.9658933676416
 20
143.2392862635766
 30
0.0
 40
653.4335773179711
 41
299.0769735663599
 68
     1
 69
     1
1001
ACAD
1000
MVIEW
1002
{
1070
    16
1010
0.0
1020
0.0
1030
0.0
1010
0.0
1020
0.0
1030
1.0
1040
0.0
1040
299.0769735663599
1040
197.9658933676416
1040
143.2392862635766
1040
50.0
1040
0.0
1040
0.0
1070
     0
1070
   100
1070
     1
1070
     0
1070
     0
1070
     0
1070
     0
1070
     0
1040
0.0
1040
0.0
1040
0.0
1040
10.0
1040
10.0
1040
10.0
1040
10.0
1070
     0
1002
{
1002
}
1002
}
  0
VIEWPORT
  5
2E
330
15
100
AcDbEntity
 67
     1
  8
M_VIEW
100
AcDbViewport
 10
200.0
 20
144.0
 30
0.0
 40
400.0
 41
288.0
 68
     2
 69
     2
1001
ACAD
1000
MVIEW
1002
{
1070
    16
1010
0.0
1020
0.0
1030
0.0
1010
0.0
1020
0.0
1030
1.0
1040
0.0
1040
288.0000027584893
1040
500.4645892654388
1040
-1337.64135269375
1040
50.0
1040
0.0
1040
0.0
1070
     0
1070
   100
1070
     1
1070
     0
1070
     1
1070
     0
1070
     0
1070
     0
1040
0.0
1040
0.0
1040
0.0
1040
10.0
1040
10.0
1040
10.0
1040
10.0
1070
     0
1002
{
1002
}
1002
}
  0
INSERT
  5
115F
330
15
100
AcDbEntity
 67
     1
  8
FRAME025
100
AcDbBlockReference
  2
機械A4横_LBP
 10
82.74908858651452
 20
152.030959079227
 30
0.0
  0
TEXT
  5
AA6A
330
15
100
AcDbEntity
 67
     1
  8
文字
  6
BYBLOCK
 62
     0
100
AcDbText
 10
32.81885892396519
 20
73.01882819621747
 30
0.0
 40
3.2
  1

 50
90.0
 41
0.625
  7
MSｺ_ｼｯｸ
100
AcDbText
  0
TEXT
  5
AA6C
330
15
100
AcDbEntity
 67
     1
  8
文字
  6
BYBLOCK
 62
     0
100
AcDbText
 10
37.25020936743055
 20
73.01882819621747
 30
0.0
 40
3.2
  1

 50
90.0
 41
0.625
  7
MSｺ_ｼｯｸ
100
AcDbText
  0
TEXT
  5
FCA5
330
15
100
AcDbEntity
 67
     1
  8
FRAME020
  6
CONTINUOUS
100
AcDbText
 10
126.6213117262079
 20
29.63926951973459
 30
0.0
 40
2.5
  1

 41
0.625
  7
MSｺ_ｼｯｸ
100
AcDbText
  0
TEXT
  5
12229
330
15
100
AcDbEntity
 67
     1
  8
0
100
AcDbText
 10
324.703280378293
 20
10.63168299257869
 30
0.0
 40
6.0
  1
ＳＥ－３７８５１
 41
1.1
100
AcDbText
  0
MTEXT
  5
244E6
330
15
100
AcDbEntity
 67
     1
  8
0
100
AcDbMText
 10
220.0612343021127
 20
27.02452150669239
 30
0.0
 40
6.0
 41
170.0235348060286
 71
     1
 72
     5
  1
τﾘﾆｱﾓｰﾀ ｺｱﾚｽ小推力 NLA-S CLﾕﾆｯﾄ CLS7LB (7N)
  7
ｽﾀｲﾙ3
1001
ACAD
1000
MTEXTBEGIN
1070
    73
1070
     1
1070
    44
1040
1.0
1070
    74
1070
     0
1000
MTEXTEND
  0
ENDSEC
  0
SECTION
  2
OBJECTS
  0
DICTIONARY
  5
C
330
0
100
AcDbDictionary
  3
ACAD_GROUP
350
D
  3
ACAD_LAYOUT
350
DB2
  3
ACAD_MLINESTYLE
350
1B
  3
ACAD_PLOTSETTINGS
350
DB3
  3
ACAD_PLOTSTYLENAME
350
FB5B
  3
ACADDIM
350
22F5B
  3
ACDBHEADERROUNDTRIPXREC
350
244F3
  3
ACDBVARIABLEDICTIONARY
350
106A6
  3
ASE_INDEX_DICTIONARY
350
1A99F
  3
DWGPROPS
350
15EC9
1001
ACAD
1000
TREAT_AS_HARD
1070
     0
  0
DICTIONARY
  5
244AA
330
2
100
AcDbDictionary
280
     1
  3
ACAD_LAYERFILTERS
360
244AB
  3
ACAD_LAYERSTATES
360
244B7
  0
DICTIONARY
  5
EFC6
330
18
100
AcDbDictionary
280
     1
  3
ACAD_LAYOUTSELFREF
360
24515
  0
DICTIONARY
  5
EFC4
330
15
100
AcDbDictionary
280
     1
  3
ACAD_LAYOUTSELFREF
360
24514
  0
DICTIONARY
  5
D
102
{ACAD_REACTORS
330
C
102
}
330
C
100
AcDbDictionary
  3
*A1
350
AC8A
  3
*A10
350
2001F
  3
*A100
350
19256
  3
*A101
350
20CA2
  3
*A102
350
106C7
  3
*A103
350
16058
  3
*A104
350
20013
  3
*A105
350
2387C
  3
*A106
350
232A8
  3
*A107
350
19A51
  3
*A108
350
23FEF
  3
*A109
350
1D710
  3
*A11
350
1D6D4
  3
*A110
350
238A7
  3
*A111
350
1738A
  3
*A112
350
18FA6
  3
*A113
350
1F8F0
  3
*A114
350
232AA
  3
*A115
350
19787
  3
*A116
350
20236
  3
*A117
350
1A695
  3
*A118
350
22986
  3
*A119
350
1EB7C
  3
*A12
350
FC95
  3
*A120
350
238A8
  3
*A121
350
19F87
  3
*A122
350
18F1F
  3
*A123
350
1D6CA
  3
*A124
350
20209
  3
*A125
350
1606A
  3
*A126
350
19881
  3
*A127
350
2002B
  3
*A128
350
23FED
  3
*A129
350
ACBD
  3
*A13
350
18F21
  3
*A130
350
215A2
  3
*A131
350
232A9
  3
*A132
350
1D670
  3
*A133
350
19F55
  3
*A134
350
1AA94
  3
*A135
350
FBFF
  3
*A136
350
19255
  3
*A137
350
1A691
  3
*A138
350
1EB7D
  3
*A139
350
19861
  3
*A14
350
1738B
  3
*A140
350
23871
  3
*A141
350
18FA8
  3
*A142
350
1D6E8
  3
*A143
350
1F8FF
  3
*A144
350
19FAB
  3
*A145
350
1D6DE
  3
*A146
350
1F918
  3
*A147
350
20213
  3
*A148
350
17389
  3
*A149
350
23FF0
  3
*A15
350
20010
  3
*A150
350
106A5
  3
*A151
350
2020E
  3
*A152
350
19A52
  3
*A153
350
1F8FA
  3
*A154
350
18F23
  3
*A155
350
FC91
  3
*A156
350
1B74D
  3
*A157
350
1D6FC
  3
*A158
350
16068
  3
*A159
350
1EB7F
  3
*A16
350
1606B
  3
*A160
350
1B744
  3
*A161
350
20028
  3
*A162
350
17BFF
  3
*A163
350
1D698
  3
*A164
350
2338E
  3
*A165
350
20016
  3
*A166
350
2338F
  3
*A167
350
2339D
  3
*A168
350
2339E
  3
*A169
350
1998A
  3
*A17
350
16059
  3
*A170
350
AC9A
  3
*A171
350
19988
  3
*A172
350
2297E
  3
*A18
350
196C2
  3
*A19
350
22C3E
  3
*A2
350
233AC
  3
*A20
350
1F90E
  3
*A21
350
1F904
  3
*A22
350
FB6B
  3
*A23
350
22BA9
  3
*A24
350
16069
  3
*A25
350
19794
  3
*A26
350
FC9B
  3
*A27
350
20025
  3
*A28
350
1D6F2
  3
*A29
350
FC9A
  3
*A3
350
20CA6
  3
*A30
350
1EB7E
  3
*A31
350
1B756
  3
*A32
350
2021D
  3
*A33
350
20227
  3
*A34
350
FB6C
  3
*A35
350
19A86
  3
*A36
350
233BC
  3
*A37
350
20218
  3
*A38
350
19786
  3
*A39
350
17B11
  3
*A4
350
1D67A
  3
*A40
350
19989
  3
*A41
350
18F22
  3
*A42
350
1D6B6
  3
*A43
350
1F8F5
  3
*A44
350
20222
  3
*A45
350
1B73B
  3
*A46
350
19729
  3
*A47
350
1B729
  3
*A48
350
1F91D
  3
*A49
350
ACAB
  3
*A5
350
1F913
  3
*A50
350
2297A
  3
*A51
350
169DA
  3
*A52
350
238E7
  3
*A53
350
23FEA
  3
*A54
350
23FEB
  3
*A55
350
23FEC
  3
*A56
350
20231
  3
*A57
350
1A692
  3
*A58
350
22BAA
  3
*A59
350
23027
  3
*A6
350
1B732
  3
*A60
350
106B3
  3
*A61
350
20019
  3
*A62
350
1D706
  3
*A63
350
23887
  3
*A64
350
233AD
  3
*A65
350
23FEE
  3
*A66
350
1B720
  3
*A67
350
232A6
  3
*A68
350
22F5A
  3
*A69
350
232A7
  3
*A7
350
19AA4
  3
*A70
350
1D68E
  3
*A71
350
2001C
  3
*A72
350
18FA7
  3
*A73
350
1D6C0
  3
*A74
350
106C6
  3
*A75
350
19A5A
  3
*A76
350
19259
  3
*A77
350
1EB80
  3
*A78
350
198F1
  3
*A79
350
1D6A2
  3
*A8
350
173BF
  3
*A80
350
22BA8
  3
*A81
350
238A6
  3
*A82
350
ACA1
  3
*A83
350
ACB4
  3
*A84
350
ACA2
  3
*A85
350
20022
  3
*A86
350
22BAB
  3
*A87
350
1D6AC
  3
*A88
350
1D684
  3
*A89
350
173BE
  3
*A9
350
18F20
  3
*A90
350
22982
  3
*A91
350
19F67
  3
*A92
350
173BD
  3
*A93
350
1F909
  3
*A94
350
19F99
  3
*A95
350
2022C
  3
*A96
350
233BB
  3
*A97
350
1A09A
  3
*A98
350
FCB8
  3
*A99
350
17901
1001
ACAD
1000
TREAT_AS_HARD
1070
     0
  0
DICTIONARY
  5
DB2
102
{ACAD_REACTORS
330
C
102
}
330
C
100
AcDbDictionary
1001
ACAD
1000
TREAT_AS_HARD
1070
     0
  0
DICTIONARY
  5
1B
102
{ACAD_REACTORS
330
C
102
}
330
C
100
AcDbDictionary
  3
STANDARD
350
1C
1001
ACAD
1000
TREAT_AS_HARD
1070
     0
  0
DICTIONARY
  5
DB3
102
{ACAD_REACTORS
330
C
102
}
330
C
100
AcDbDictionary
1001
ACAD
1000
TREAT_AS_HARD
1070
     0
  0
ACDBDICTIONARYWDFLT
  5
FB5B
102
{ACAD_REACTORS
330
C
102
}
330
C
100
AcDbDictionary
281
     1
  3
Normal
350
FB5C
100
AcDbDictionaryWithDefault
340
FB5C
  0
XRECORD
  5
22F5B
102
{ACAD_REACTORS
330
C
102
}
330
C
100
AcDbXrecord
 90
   990106
  3

 60
     0
 61
     0
 62
     4
 63
     4
 64
     1
 65
     0
 66
     0
 67
     3
 68
     1
 69
     0
 70
     0
 71
     0
 72
     0
 40
0.0
170
     2
340
23C86
  0
DICTIONARY
  5
244F3
102
{ACAD_REACTORS
330
C
102
}
330
C
100
AcDbDictionary
  3
CEPSNTYPE
350
244FD
  3
DIMSTYLEDATA
350
24501
  3
FINGERPRINTGUID
350
244FE
  3
HYPERLINKBASE
350
244F6
  3
INSUNITS
350
244FC
  3
LAYOUTDICT
350
244F8
  3
LWETCUNION
350
244FB
  3
PLOTSETDICT
350
244F9
  3
PLOTSTYLNAMDICT
350
244FA
  3
PSVPSCALE
350
24500
  3
PUCSBASE
350
24504
  3
PUCSORGBACK
350
2450A
  3
PUCSORGBOTTOM
350
24506
  3
PUCSORGFRONT
350
24509
  3
PUCSORGLEFT
350
24507
  3
PUCSORGRIGHT
350
24508
  3
PUCSORGTOP
350
24505
  3
PUCSORTHOREF
350
24502
  3
PUCSORTHOVIEW
350
24503
  3
STYLESHEET
350
244F7
  3
TSTACKALIGN
350
244F4
  3
TSTACKSIZE
350
244F5
  3
UCSBASE
350
2450D
  3
UCSORGBACK
350
24513
  3
UCSORGBOTTOM
350
2450F
  3
UCSORGFRONT
350
24512
  3
UCSORGLEFT
350
24510
  3
UCSORGRIGHT
350
24511
  3
UCSORGTOP
350
2450E
  3
UCSORTHOREF
350
2450B
  3
UCSORTHOVIEW
350
2450C
  3
VERSIONGUID
350
244FF
  0
DICTIONARY
  5
106A6
102
{ACAD_REACTORS
330
C
102
}
330
C
100
AcDbDictionary
  3
SORTENTS
350
106A7
  0
DICTIONARY
  5
1A99F
102
{ACAD_REACTORS
330
C
102
}
330
C
100
AcDbDictionary
  3
ASEBLOCKHIERARCHYINDEXRECORD
350
1A9A1
1001
DCO15
1040
1464612067.17
  0
XRECORD
  5
15EC9
102
{ACAD_REACTORS
330
C
102
}
330
C
100
AcDbXrecord
  1
DWGPROPS COOKIE
  2

  3

  4

  6

  7

  8

  9

300
=
301
=
302
=
303
=
304
=
305
=
306
=
307
=
308
=
309
=
 40
12.65185717592592
 41
2451224.660162384
 42
2452395.660827315
  1

 90
        0
  0
DICTIONARY
  5
244AB
102
{ACAD_REACTORS
330
244AA
102
}
330
244AA
100
AcDbDictionary
280
     1
  3
0
360
244AC
  3
11
360
244AD
  3
150_
360
244AE
  3
160_
360
244AF
  3
170_
360
244B0
  3
171_
360
244B1
  3
350_
360
244B2
  3
4
360
244B3
  3
5
360
244B4
  3
7
360
244B5
  3
KISEKI
360
244B6
  0
DICTIONARY
  5
244B7
102
{ACAD_REACTORS
330
244AA
102
}
330
244AA
100
AcDbDictionary
  0
XRECORD
  5
24515
102
{ACAD_REACTORS
330
EFC6
102
}
330
EFC6
100
AcDbXrecord
340
18
  0
XRECORD
  5
24514
102
{ACAD_REACTORS
330
EFC4
102
}
330
EFC4
100
AcDbXrecord
340
15
  0
GROUP
  5
AC8A
102
{ACAD_REACTORS
330
D
102
}
330
D
100
AcDbGroup
300

 70
     1
 71
     1
  0
GROUP
  5
2001F
102
{ACAD_REACTORS
330
D
102
}
330
D
100
AcDbGroup
300

 70
     1
 71
     1
  0
GROUP
  5
19256
102
{ACAD_REACTORS
330
D
102
}
330
D
100
AcDbGroup
300

 70
     1
 71
     1
  0
GROUP
  5
20CA2
102
{ACAD_REACTORS
330
D
102
}
330
D
100
AcDbGroup
300

 70
     1
 71
     1
  0
GROUP
  5
106C7
102
{ACAD_REACTORS
330
D
102
}
330
D
100
AcDbGroup
300

 70
     1
 71
     1
  0
GROUP
  5
16058
102
{ACAD_REACTORS
330
D
102
}
330
D
100
AcDbGroup
300

 70
     1
 71
     1
  0
GROUP
  5
20013
102
{ACAD_REACTORS
330
D
102
}
330
D
100
AcDbGroup
300

 70
     1
 71
     1
  0
GROUP
  5
2387C
102
{ACAD_REACTORS
330
D
102
}
330
D
100
AcDbGroup
300

 70
     1
 71
     1
340
2387A
340
23879
340
23878
340
23877
340
2387B
340
23876
340
23875
340
23874
340
23873
340
23872
  0
GROUP
  5
232A8
102
{ACAD_REACTORS
330
D
102
}
330
D
100
AcDbGroup
300

 70
     1
 71
     1
  0
GROUP
  5
19A51
102
{ACAD_REACTORS
330
D
102
}
330
D
100
AcDbGroup
300

 70
     1
 71
     1
  0
GROUP
  5
23FEF
102
{ACAD_REACTORS
330
D
102
}
330
D
100
AcDbGroup
300

 70
     1
 71
     1
  0
GROUP
  5
1D710
102
{ACAD_REACTORS
330
D
102
}
330
D
100
AcDbGroup
300

 70
     1
 71
     1
  0
GROUP
  5
1D6D4
102
{ACAD_REACTORS
330
D
102
}
330
D
100
AcDbGroup
300

 70
     1
 71
     1
  0
GROUP
  5
238A7
102
{ACAD_REACTORS
330
D
102
}
330
D
100
AcDbGroup
300

 70
     1
 71
     1
340
23893
340
23894
340
23895
340
23896
340
23892
340
23897
340
23898
340
23899
340
2389A
340
2389B
  0
GROUP
  5
1738A
102
{ACAD_REACTORS
330
D
102
}
330
D
100
AcDbGroup
300

 70
     1
 71
     1
  0
GROUP
  5
18FA6
102
{ACAD_REACTORS
330
D
102
}
330
D
100
AcDbGroup
300

 70
     1
 71
     1
  0
GROUP
  5
1F8F0
102
{ACAD_REACTORS
330
D
102
}
330
D
100
AcDbGroup
300

 70
     1
 71
     1
  0
GROUP
  5
232AA
102
{ACAD_REACTORS
330
D
102
}
330
D
100
AcDbGroup
300

 70
     1
 71
     1
  0
GROUP
  5
19787
102
{ACAD_REACTORS
330
D
102
}
330
D
100
AcDbGroup
300

 70
     1
 71
     1
  0
GROUP
  5
20236
102
{ACAD_REACTORS
330
D
102
}
330
D
100
AcDbGroup
300

 70
     1
 71
     1
  0
GROUP
  5
1A695
102
{ACAD_REACTORS
330
D
102
}
330
D
100
AcDbGroup
300

 70
     1
 71
     1
  0
GROUP
  5
22986
102
{ACAD_REACTORS
330
D
102
}
330
D
100
AcDbGroup
300

 70
     1
 71
     1
  0
GROUP
  5
1EB7C
102
{ACAD_REACTORS
330
D
102
}
330
D
100
AcDbGroup
300

 70
     1
 71
     1
  0
GROUP
  5
FC95
102
{ACAD_REACTORS
330
D
102
}
330
D
100
AcDbGroup
300

 70
     1
 71
     1
  0
GROUP
  5
238A8
102
{ACAD_REACTORS
330
D
102
}
330
D
100
AcDbGroup
300

 70
     1
 71
     1
340
238A4
340
238A3
340
238A2
340
238A1
340
238A5
340
238A0
340
2389F
340
2389E
340
2389D
340
2389C
  0
GROUP
  5
19F87
102
{ACAD_REACTORS
330
D
102
}
330
D
100
AcDbGroup
300

 70
     1
 71
     1
  0
GROUP
  5
18F1F
102
{ACAD_REACTORS
330
D
102
}
330
D
100
AcDbGroup
300

 70
     1
 71
     1
  0
GROUP
  5
1D6CA
102
{ACAD_REACTORS
330
D
102
}
330
D
100
AcDbGroup
300

 70
     1
 71
     1
  0
GROUP
  5
20209
102
{ACAD_REACTORS
330
D
102
}
330
D
100
AcDbGroup
300

 70
     1
 71
     1
  0
GROUP
  5
1606A
102
{ACAD_REACTORS
330
D
102
}
330
D
100
AcDbGroup
300

 70
     1
 71
     1
  0
GROUP
  5
19881
102
{ACAD_REACTORS
330
D
102
}
330
D
100
AcDbGroup
300

 70
     1
 71
     1
  0
GROUP
  5
2002B
102
{ACAD_REACTORS
330
D
102
}
330
D
100
AcDbGroup
300

 70
     1
 71
     1
  0
GROUP
  5
23FED
102
{ACAD_REACTORS
330
D
102
}
330
D
100
AcDbGroup
300

 70
     1
 71
     1
  0
GROUP
  5
ACBD
102
{ACAD_REACTORS
330
D
102
}
330
D
100
AcDbGroup
300

 70
     1
 71
     1
  0
GROUP
  5
18F21
102
{ACAD_REACTORS
330
D
102
}
330
D
100
AcDbGroup
300

 70
     1
 71
     1
  0
GROUP
  5
215A2
102
{ACAD_REACTORS
330
D
102
}
330
D
100
AcDbGroup
300

 70
     1
 71
     1
  0
GROUP
  5
232A9
102
{ACAD_REACTORS
330
D
102
}
330
D
100
AcDbGroup
300

 70
     1
 71
     1
  0
GROUP
  5
1D670
102
{ACAD_REACTORS
330
D
102
}
330
D
100
AcDbGroup
300

 70
     1
 71
     1
  0
GROUP
  5
19F55
102
{ACAD_REACTORS
330
D
102
}
330
D
100
AcDbGroup
300

 70
     1
 71
     1
  0
GROUP
  5
1AA94
102
{ACAD_REACTORS
330
D
102
}
330
D
100
AcDbGroup
300

 70
     1
 71
     1
  0
GROUP
  5
FBFF
102
{ACAD_REACTORS
330
D
102
}
330
D
100
AcDbGroup
300

 70
     1
 71
     1
  0
GROUP
  5
19255
102
{ACAD_REACTORS
330
D
102
}
330
D
100
AcDbGroup
300

 70
     1
 71
     1
  0
GROUP
  5
1A691
102
{ACAD_REACTORS
330
D
102
}
330
D
100
AcDbGroup
300

 70
     1
 71
     1
  0
GROUP
  5
1EB7D
102
{ACAD_REACTORS
330
D
102
}
330
D
100
AcDbGroup
300

 70
     1
 71
     1
  0
GROUP
  5
19861
102
{ACAD_REACTORS
330
D
102
}
330
D
100
AcDbGroup
300

 70
     1
 71
     1
  0
GROUP
  5
1738B
102
{ACAD_REACTORS
330
D
102
}
330
D
100
AcDbGroup
300

 70
     1
 71
     1
  0
GROUP
  5
23871
102
{ACAD_REACTORS
330
D
102
}
330
D
100
AcDbGroup
300

 70
     1
 71
     1
340
2386C
340
23868
340
23867
340
2386F
340
2386B
340
2386A
340
23869
340
23870
340
2386E
340
2386D
  0
GROUP
  5
18FA8
102
{ACAD_REACTORS
330
D
102
}
330
D
100
AcDbGroup
300

 70
     1
 71
     1
  0
GROUP
  5
1D6E8
102
{ACAD_REACTORS
330
D
102
}
330
D
100
AcDbGroup
300

 70
     1
 71
     1
  0
GROUP
  5
1F8FF
102
{ACAD_REACTORS
330
D
102
}
330
D
100
AcDbGroup
300

 70
     1
 71
     1
  0
GROUP
  5
19FAB
102
{ACAD_REACTORS
330
D
102
}
330
D
100
AcDbGroup
300

 70
     1
 71
     1
  0
GROUP
  5
1D6DE
102
{ACAD_REACTORS
330
D
102
}
330
D
100
AcDbGroup
300

 70
     1
 71
     1
  0
GROUP
  5
1F918
102
{ACAD_REACTORS
330
D
102
}
330
D
100
AcDbGroup
300

 70
     1
 71
     1
  0
GROUP
  5
20213
102
{ACAD_REACTORS
330
D
102
}
330
D
100
AcDbGroup
300

 70
     1
 71
     1
  0
GROUP
  5
17389
102
{ACAD_REACTORS
330
D
102
}
330
D
100
AcDbGroup
300

 70
     1
 71
     1
  0
GROUP
  5
23FF0
102
{ACAD_REACTORS
330
D
102
}
330
D
100
AcDbGroup
300

 70
     1
 71
     1
  0
GROUP
  5
20010
102
{ACAD_REACTORS
330
D
102
}
330
D
100
AcDbGroup
300

 70
     1
 71
     1
  0
GROUP
  5
106A5
102
{ACAD_REACTORS
330
D
102
}
330
D
100
AcDbGroup
300

 70
     1
 71
     1
  0
GROUP
  5
2020E
102
{ACAD_REACTORS
330
D
102
}
330
D
100
AcDbGroup
300

 70
     1
 71
     1
  0
GROUP
  5
19A52
102
{ACAD_REACTORS
330
D
102
}
330
D
100
AcDbGroup
300

 70
     1
 71
     1
  0
GROUP
  5
1F8FA
102
{ACAD_REACTORS
330
D
102
}
330
D
100
AcDbGroup
300

 70
     1
 71
     1
  0
GROUP
  5
18F23
102
{ACAD_REACTORS
330
D
102
}
330
D
100
AcDbGroup
300

 70
     1
 71
     1
  0
GROUP
  5
FC91
102
{ACAD_REACTORS
330
D
102
}
330
D
100
AcDbGroup
300

 70
     1
 71
     1
  0
GROUP
  5
1B74D
102
{ACAD_REACTORS
330
D
102
}
330
D
100
AcDbGroup
300

 70
     1
 71
     1
  0
GROUP
  5
1D6FC
102
{ACAD_REACTORS
330
D
102
}
330
D
100
AcDbGroup
300

 70
     1
 71
     1
  0
GROUP
  5
16068
102
{ACAD_REACTORS
330
D
102
}
330
D
100
AcDbGroup
300

 70
     1
 71
     1
  0
GROUP
  5
1EB7F
102
{ACAD_REACTORS
330
D
102
}
330
D
100
AcDbGroup
300

 70
     1
 71
     1
  0
GROUP
  5
1606B
102
{ACAD_REACTORS
330
D
102
}
330
D
100
AcDbGroup
300

 70
     1
 71
     1
  0
GROUP
  5
1B744
102
{ACAD_REACTORS
330
D
102
}
330
D
100
AcDbGroup
300

 70
     1
 71
     1
  0
GROUP
  5
20028
102
{ACAD_REACTORS
330
D
102
}
330
D
100
AcDbGroup
300

 70
     1
 71
     1
  0
GROUP
  5
17BFF
102
{ACAD_REACTORS
330
D
102
}
330
D
100
AcDbGroup
300

 70
     1
 71
     1
  0
GROUP
  5
1D698
102
{ACAD_REACTORS
330
D
102
}
330
D
100
AcDbGroup
300

 70
     1
 71
     1
  0
GROUP
  5
2338E
102
{ACAD_REACTORS
330
D
102
}
330
D
100
AcDbGroup
300

 70
     1
 71
     1
  0
GROUP
  5
20016
102
{ACAD_REACTORS
330
D
102
}
330
D
100
AcDbGroup
300

 70
     1
 71
     1
  0
GROUP
  5
2338F
102
{ACAD_REACTORS
330
D
102
}
330
D
100
AcDbGroup
300

 70
     1
 71
     1
  0
GROUP
  5
2339D
102
{ACAD_REACTORS
330
D
102
}
330
D
100
AcDbGroup
300

 70
     1
 71
     1
  0
GROUP
  5
2339E
102
{ACAD_REACTORS
330
D
102
}
330
D
100
AcDbGroup
300

 70
     1
 71
     1
  0
GROUP
  5
1998A
102
{ACAD_REACTORS
330
D
102
}
330
D
100
AcDbGroup
300

 70
     1
 71
     1
  0
GROUP
  5
16059
102
{ACAD_REACTORS
330
D
102
}
330
D
100
AcDbGroup
300

 70
     1
 71
     1
  0
GROUP
  5
AC9A
102
{ACAD_REACTORS
330
D
102
}
330
D
100
AcDbGroup
300

 70
     1
 71
     1
  0
GROUP
  5
19988
102
{ACAD_REACTORS
330
D
102
}
330
D
100
AcDbGroup
300

 70
     1
 71
     1
  0
GROUP
  5
2297E
102
{ACAD_REACTORS
330
D
102
}
330
D
100
AcDbGroup
300

 70
     1
 71
     1
  0
GROUP
  5
196C2
102
{ACAD_REACTORS
330
D
102
}
330
D
100
AcDbGroup
300

 70
     1
 71
     1
  0
GROUP
  5
22C3E
102
{ACAD_REACTORS
330
D
102
}
330
D
100
AcDbGroup
300

 70
     1
 71
     1
  0
GROUP
  5
233AC
102
{ACAD_REACTORS
330
D
102
}
330
D
100
AcDbGroup
300

 70
     1
 71
     1
  0
GROUP
  5
1F90E
102
{ACAD_REACTORS
330
D
102
}
330
D
100
AcDbGroup
300

 70
     1
 71
     1
  0
GROUP
  5
1F904
102
{ACAD_REACTORS
330
D
102
}
330
D
100
AcDbGroup
300

 70
     1
 71
     1
  0
GROUP
  5
FB6B
102
{ACAD_REACTORS
330
D
102
}
330
D
100
AcDbGroup
300

 70
     1
 71
     1
  0
GROUP
  5
22BA9
102
{ACAD_REACTORS
330
D
102
}
330
D
100
AcDbGroup
300

 70
     1
 71
     1
  0
GROUP
  5
16069
102
{ACAD_REACTORS
330
D
102
}
330
D
100
AcDbGroup
300

 70
     1
 71
     1
  0
GROUP
  5
19794
102
{ACAD_REACTORS
330
D
102
}
330
D
100
AcDbGroup
300

 70
     1
 71
     1
  0
GROUP
  5
FC9B
102
{ACAD_REACTORS
330
D
102
}
330
D
100
AcDbGroup
300

 70
     1
 71
     1
  0
GROUP
  5
20025
102
{ACAD_REACTORS
330
D
102
}
330
D
100
AcDbGroup
300

 70
     1
 71
     1
  0
GROUP
  5
1D6F2
102
{ACAD_REACTORS
330
D
102
}
330
D
100
AcDbGroup
300

 70
     1
 71
     1
  0
GROUP
  5
FC9A
102
{ACAD_REACTORS
330
D
102
}
330
D
100
AcDbGroup
300

 70
     1
 71
     1
  0
GROUP
  5
20CA6
102
{ACAD_REACTORS
330
D
102
}
330
D
100
AcDbGroup
300

 70
     1
 71
     1
  0
GROUP
  5
1EB7E
102
{ACAD_REACTORS
330
D
102
}
330
D
100
AcDbGroup
300

 70
     1
 71
     1
  0
GROUP
  5
1B756
102
{ACAD_REACTORS
330
D
102
}
330
D
100
AcDbGroup
300

 70
     1
 71
     1
  0
GROUP
  5
2021D
102
{ACAD_REACTORS
330
D
102
}
330
D
100
AcDbGroup
300

 70
     1
 71
     1
  0
GROUP
  5
20227
102
{ACAD_REACTORS
330
D
102
}
330
D
100
AcDbGroup
300

 70
     1
 71
     1
  0
GROUP
  5
FB6C
102
{ACAD_REACTORS
330
D
102
}
330
D
100
AcDbGroup
300

 70
     1
 71
     1
  0
GROUP
  5
19A86
102
{ACAD_REACTORS
330
D
102
}
330
D
100
AcDbGroup
300

 70
     1
 71
     1
  0
GROUP
  5
233BC
102
{ACAD_REACTORS
330
D
102
}
330
D
100
AcDbGroup
300

 70
     1
 71
     1
  0
GROUP
  5
20218
102
{ACAD_REACTORS
330
D
102
}
330
D
100
AcDbGroup
300

 70
     1
 71
     1
  0
GROUP
  5
19786
102
{ACAD_REACTORS
330
D
102
}
330
D
100
AcDbGroup
300

 70
     1
 71
     1
  0
GROUP
  5
17B11
102
{ACAD_REACTORS
330
D
102
}
330
D
100
AcDbGroup
300

 70
     1
 71
     1
  0
GROUP
  5
1D67A
102
{ACAD_REACTORS
330
D
102
}
330
D
100
AcDbGroup
300

 70
     1
 71
     1
  0
GROUP
  5
19989
102
{ACAD_REACTORS
330
D
102
}
330
D
100
AcDbGroup
300

 70
     1
 71
     1
  0
GROUP
  5
18F22
102
{ACAD_REACTORS
330
D
102
}
330
D
100
AcDbGroup
300

 70
     1
 71
     1
  0
GROUP
  5
1D6B6
102
{ACAD_REACTORS
330
D
102
}
330
D
100
AcDbGroup
300

 70
     1
 71
     1
  0
GROUP
  5
1F8F5
102
{ACAD_REACTORS
330
D
102
}
330
D
100
AcDbGroup
300

 70
     1
 71
     1
  0
GROUP
  5
20222
102
{ACAD_REACTORS
330
D
102
}
330
D
100
AcDbGroup
300

 70
     1
 71
     1
  0
GROUP
  5
1B73B
102
{ACAD_REACTORS
330
D
102
}
330
D
100
AcDbGroup
300

 70
     1
 71
     1
  0
GROUP
  5
19729
102
{ACAD_REACTORS
330
D
102
}
330
D
100
AcDbGroup
300

 70
     1
 71
     1
  0
GROUP
  5
1B729
102
{ACAD_REACTORS
330
D
102
}
330
D
100
AcDbGroup
300

 70
     1
 71
     1
  0
GROUP
  5
1F91D
102
{ACAD_REACTORS
330
D
102
}
330
D
100
AcDbGroup
300

 70
     1
 71
     1
  0
GROUP
  5
ACAB
102
{ACAD_REACTORS
330
D
102
}
330
D
100
AcDbGroup
300

 70
     1
 71
     1
  0
GROUP
  5
1F913
102
{ACAD_REACTORS
330
D
102
}
330
D
100
AcDbGroup
300

 70
     1
 71
     1
  0
GROUP
  5
2297A
102
{ACAD_REACTORS
330
D
102
}
330
D
100
AcDbGroup
300

 70
     1
 71
     1
  0
GROUP
  5
169DA
102
{ACAD_REACTORS
330
D
102
}
330
D
100
AcDbGroup
300

 70
     1
 71
     1
  0
GROUP
  5
238E7
102
{ACAD_REACTORS
330
D
102
}
330
D
100
AcDbGroup
300

 70
     1
 71
     1
340
238C4
340
238D1
340
238D3
340
238D5
340
238CF
340
238D7
340
238D6
340
238D4
340
238D2
340
238D0
340
238CE
  0
GROUP
  5
23FEA
102
{ACAD_REACTORS
330
D
102
}
330
D
100
AcDbGroup
300

 70
     1
 71
     1
  0
GROUP
  5
23FEB
102
{ACAD_REACTORS
330
D
102
}
330
D
100
AcDbGroup
300

 70
     1
 71
     1
  0
GROUP
  5
23FEC
102
{ACAD_REACTORS
330
D
102
}
330
D
100
AcDbGroup
300

 70
     1
 71
     1
  0
GROUP
  5
20231
102
{ACAD_REACTORS
330
D
102
}
330
D
100
AcDbGroup
300

 70
     1
 71
     1
  0
GROUP
  5
1A692
102
{ACAD_REACTORS
330
D
102
}
330
D
100
AcDbGroup
300

 70
     1
 71
     1
  0
GROUP
  5
22BAA
102
{ACAD_REACTORS
330
D
102
}
330
D
100
AcDbGroup
300

 70
     1
 71
     1
  0
GROUP
  5
23027
102
{ACAD_REACTORS
330
D
102
}
330
D
100
AcDbGroup
300

 70
     1
 71
     1
  0
GROUP
  5
1B732
102
{ACAD_REACTORS
330
D
102
}
330
D
100
AcDbGroup
300

 70
     1
 71
     1
  0
GROUP
  5
106B3
102
{ACAD_REACTORS
330
D
102
}
330
D
100
AcDbGroup
300

 70
     1
 71
     1
  0
GROUP
  5
20019
102
{ACAD_REACTORS
330
D
102
}
330
D
100
AcDbGroup
300

 70
     1
 71
     1
  0
GROUP
  5
1D706
102
{ACAD_REACTORS
330
D
102
}
330
D
100
AcDbGroup
300

 70
     1
 71
     1
  0
GROUP
  5
23887
102
{ACAD_REACTORS
330
D
102
}
330
D
100
AcDbGroup
300

 70
     1
 71
     1
340
2387E
340
2387F
340
23880
340
23881
340
2387D
340
23882
340
23883
340
23884
340
23885
340
23886
  0
GROUP
  5
233AD
102
{ACAD_REACTORS
330
D
102
}
330
D
100
AcDbGroup
300

 70
     1
 71
     1
  0
GROUP
  5
23FEE
102
{ACAD_REACTORS
330
D
102
}
330
D
100
AcDbGroup
300

 70
     1
 71
     1
  0
GROUP
  5
1B720
102
{ACAD_REACTORS
330
D
102
}
330
D
100
AcDbGroup
300

 70
     1
 71
     1
  0
GROUP
  5
232A6
102
{ACAD_REACTORS
330
D
102
}
330
D
100
AcDbGroup
300

 70
     1
 71
     1
  0
GROUP
  5
22F5A
102
{ACAD_REACTORS
330
D
102
}
330
D
100
AcDbGroup
300

 70
     1
 71
     1
  0
GROUP
  5
232A7
102
{ACAD_REACTORS
330
D
102
}
330
D
100
AcDbGroup
300

 70
     1
 71
     1
  0
GROUP
  5
19AA4
102
{ACAD_REACTORS
330
D
102
}
330
D
100
AcDbGroup
300

 70
     1
 71
     1
  0
GROUP
  5
1D68E
102
{ACAD_REACTORS
330
D
102
}
330
D
100
AcDbGroup
300

 70
     1
 71
     1
  0
GROUP
  5
2001C
102
{ACAD_REACTORS
330
D
102
}
330
D
100
AcDbGroup
300

 70
     1
 71
     1
  0
GROUP
  5
18FA7
102
{ACAD_REACTORS
330
D
102
}
330
D
100
AcDbGroup
300

 70
     1
 71
     1
  0
GROUP
  5
1D6C0
102
{ACAD_REACTORS
330
D
102
}
330
D
100
AcDbGroup
300

 70
     1
 71
     1
  0
GROUP
  5
106C6
102
{ACAD_REACTORS
330
D
102
}
330
D
100
AcDbGroup
300

 70
     1
 71
     1
  0
GROUP
  5
19A5A
102
{ACAD_REACTORS
330
D
102
}
330
D
100
AcDbGroup
300

 70
     1
 71
     1
  0
GROUP
  5
19259
102
{ACAD_REACTORS
330
D
102
}
330
D
100
AcDbGroup
300

 70
     1
 71
     1
  0
GROUP
  5
1EB80
102
{ACAD_REACTORS
330
D
102
}
330
D
100
AcDbGroup
300

 70
     1
 71
     1
  0
GROUP
  5
198F1
102
{ACAD_REACTORS
330
D
102
}
330
D
100
AcDbGroup
300

 70
     1
 71
     1
  0
GROUP
  5
1D6A2
102
{ACAD_REACTORS
330
D
102
}
330
D
100
AcDbGroup
300

 70
     1
 71
     1
  0
GROUP
  5
173BF
102
{ACAD_REACTORS
330
D
102
}
330
D
100
AcDbGroup
300

 70
     1
 71
     1
  0
GROUP
  5
22BA8
102
{ACAD_REACTORS
330
D
102
}
330
D
100
AcDbGroup
300

 70
     1
 71
     1
  0
GROUP
  5
238A6
102
{ACAD_REACTORS
330
D
102
}
330
D
100
AcDbGroup
300

 70
     1
 71
     1
340
23890
340
2388F
340
2388E
340
2388D
340
23891
340
2388C
340
2388B
340
2388A
340
23889
340
23888
  0
GROUP
  5
ACA1
102
{ACAD_REACTORS
330
D
102
}
330
D
100
AcDbGroup
300

 70
     1
 71
     1
  0
GROUP
  5
ACB4
102
{ACAD_REACTORS
330
D
102
}
330
D
100
AcDbGroup
300

 70
     1
 71
     1
  0
GROUP
  5
ACA2
102
{ACAD_REACTORS
330
D
102
}
330
D
100
AcDbGroup
300

 70
     1
 71
     1
  0
GROUP
  5
20022
102
{ACAD_REACTORS
330
D
102
}
330
D
100
AcDbGroup
300

 70
     1
 71
     1
  0
GROUP
  5
22BAB
102
{ACAD_REACTORS
330
D
102
}
330
D
100
AcDbGroup
300

 70
     1
 71
     1
  0
GROUP
  5
1D6AC
102
{ACAD_REACTORS
330
D
102
}
330
D
100
AcDbGroup
300

 70
     1
 71
     1
  0
GROUP
  5
1D684
102
{ACAD_REACTORS
330
D
102
}
330
D
100
AcDbGroup
300

 70
     1
 71
     1
  0
GROUP
  5
173BE
102
{ACAD_REACTORS
330
D
102
}
330
D
100
AcDbGroup
300

 70
     1
 71
     1
  0
GROUP
  5
18F20
102
{ACAD_REACTORS
330
D
102
}
330
D
100
AcDbGroup
300

 70
     1
 71
     1
  0
GROUP
  5
22982
102
{ACAD_REACTORS
330
D
102
}
330
D
100
AcDbGroup
300

 70
     1
 71
     1
  0
GROUP
  5
19F67
102
{ACAD_REACTORS
330
D
102
}
330
D
100
AcDbGroup
300

 70
     1
 71
     1
  0
GROUP
  5
173BD
102
{ACAD_REACTORS
330
D
102
}
330
D
100
AcDbGroup
300

 70
     1
 71
     1
  0
GROUP
  5
1F909
102
{ACAD_REACTORS
330
D
102
}
330
D
100
AcDbGroup
300

 70
     1
 71
     1
  0
GROUP
  5
19F99
102
{ACAD_REACTORS
330
D
102
}
330
D
100
AcDbGroup
300

 70
     1
 71
     1
  0
GROUP
  5
2022C
102
{ACAD_REACTORS
330
D
102
}
330
D
100
AcDbGroup
300

 70
     1
 71
     1
  0
GROUP
  5
233BB
102
{ACAD_REACTORS
330
D
102
}
330
D
100
AcDbGroup
300

 70
     1
 71
     1
  0
GROUP
  5
1A09A
102
{ACAD_REACTORS
330
D
102
}
330
D
100
AcDbGroup
300

 70
     1
 71
     1
  0
GROUP
  5
FCB8
102
{ACAD_REACTORS
330
D
102
}
330
D
100
AcDbGroup
300

 70
     1
 71
     1
  0
GROUP
  5
17901
102
{ACAD_REACTORS
330
D
102
}
330
D
100
AcDbGroup
300

 70
     1
 71
     1
  0
MLINESTYLE
  5
1C
102
{ACAD_REACTORS
330
1B
102
}
330
1B
100
AcDbMlineStyle
  2
STANDARD
 70
     0
  3

 62
   256
 51
90.0
 52
90.0
 71
     2
 49
0.5
 62
   256
  6
BYLAYER
 49
-0.5
 62
   256
  6
BYLAYER
  0
ACDBPLACEHOLDER
  5
FB5C
102
{ACAD_REACTORS
330
FB5B
102
}
330
FB5B
100
AcDbPlaceHolder
280
     0
  0
XRECORD
  5
244FD
102
{ACAD_REACTORS
330
244F3
102
}
330
244F3
100
AcDbXrecord
 90
        0
  0
XRECORD
  5
24501
102
{ACAD_REACTORS
330
244F3
102
}
330
244F3
100
AcDbXrecord
1000
DSTYLE
1002
{
1070
   289
 70
     1
1070
   341
340
1215D
1070
   342
340
1215D
1070
   371
 70
    13
1070
   372
 70
    13
1002
}
  0
XRECORD
  5
244FE
102
{ACAD_REACTORS
330
244F3
102
}
330
244F3
100
AcDbXrecord
  1
{D14EE3FF-941A-415A-9907-344E0A80D794}
  0
XRECORD
  5
244F6
102
{ACAD_REACTORS
330
244F3
102
}
330
244F3
100
AcDbXrecord
  1

  0
XRECORD
  5
244FC
102
{ACAD_REACTORS
330
244F3
102
}
330
244F3
100
AcDbXrecord
 90
        0
  0
XRECORD
  5
244F8
102
{ACAD_REACTORS
330
244F3
102
}
330
244F3
100
AcDbXrecord
340
DB2
  0
XRECORD
  5
244FB
102
{ACAD_REACTORS
330
244F3
102
}
330
244F3
100
AcDbXrecord
 90
    10755
  0
XRECORD
  5
244F9
102
{ACAD_REACTORS
330
244F3
102
}
330
244F3
100
AcDbXrecord
340
DB3
  0
XRECORD
  5
244FA
102
{ACAD_REACTORS
330
244F3
102
}
330
244F3
100
AcDbXrecord
340
FB5B
  0
XRECORD
  5
24500
102
{ACAD_REACTORS
330
244F3
102
}
330
244F3
100
AcDbXrecord
 40
0.0
  0
XRECORD
  5
24504
102
{ACAD_REACTORS
330
244F3
102
}
330
244F3
100
AcDbXrecord
340
0
  0
XRECORD
  5
2450A
102
{ACAD_REACTORS
330
244F3
102
}
330
244F3
100
AcDbXrecord
 10
0.0
 20
0.0
 30
0.0
  0
XRECORD
  5
24506
102
{ACAD_REACTORS
330
244F3
102
}
330
244F3
100
AcDbXrecord
 10
0.0
 20
0.0
 30
0.0
  0
XRECORD
  5
24509
102
{ACAD_REACTORS
330
244F3
102
}
330
244F3
100
AcDbXrecord
 10
0.0
 20
0.0
 30
0.0
  0
XRECORD
  5
24507
102
{ACAD_REACTORS
330
244F3
102
}
330
244F3
100
AcDbXrecord
 10
0.0
 20
0.0
 30
0.0
  0
XRECORD
  5
24508
102
{ACAD_REACTORS
330
244F3
102
}
330
244F3
100
AcDbXrecord
 10
0.0
 20
0.0
 30
0.0
  0
XRECORD
  5
24505
102
{ACAD_REACTORS
330
244F3
102
}
330
244F3
100
AcDbXrecord
 10
0.0
 20
0.0
 30
0.0
  0
XRECORD
  5
24502
102
{ACAD_REACTORS
330
244F3
102
}
330
244F3
100
AcDbXrecord
340
0
  0
XRECORD
  5
24503
102
{ACAD_REACTORS
330
244F3
102
}
330
244F3
100
AcDbXrecord
 70
     0
  0
XRECORD
  5
244F7
102
{ACAD_REACTORS
330
244F3
102
}
330
244F3
100
AcDbXrecord
  1
MONOCHROME.CTB
  0
XRECORD
  5
244F4
102
{ACAD_REACTORS
330
244F3
102
}
330
244F3
100
AcDbXrecord
 90
        1
  0
XRECORD
  5
244F5
102
{ACAD_REACTORS
330
244F3
102
}
330
244F3
100
AcDbXrecord
 90
       70
  0
XRECORD
  5
2450D
102
{ACAD_REACTORS
330
244F3
102
}
330
244F3
100
AcDbXrecord
340
0
  0
XRECORD
  5
24513
102
{ACAD_REACTORS
330
244F3
102
}
330
244F3
100
AcDbXrecord
 10
0.0
 20
0.0
 30
0.0
  0
XRECORD
  5
2450F
102
{ACAD_REACTORS
330
244F3
102
}
330
244F3
100
AcDbXrecord
 10
0.0
 20
0.0
 30
0.0
  0
XRECORD
  5
24512
102
{ACAD_REACTORS
330
244F3
102
}
330
244F3
100
AcDbXrecord
 10
0.0
 20
0.0
 30
0.0
  0
XRECORD
  5
24510
102
{ACAD_REACTORS
330
244F3
102
}
330
244F3
100
AcDbXrecord
 10
0.0
 20
0.0
 30
0.0
  0
XRECORD
  5
24511
102
{ACAD_REACTORS
330
244F3
102
}
330
244F3
100
AcDbXrecord
 10
0.0
 20
0.0
 30
0.0
  0
XRECORD
  5
2450E
102
{ACAD_REACTORS
330
244F3
102
}
330
244F3
100
AcDbXrecord
 10
0.0
 20
0.0
 30
0.0
  0
XRECORD
  5
2450B
102
{ACAD_REACTORS
330
244F3
102
}
330
244F3
100
AcDbXrecord
340
0
  0
XRECORD
  5
2450C
102
{ACAD_REACTORS
330
244F3
102
}
330
244F3
100
AcDbXrecord
 70
     0
  0
XRECORD
  5
244FF
102
{ACAD_REACTORS
330
244F3
102
}
330
244F3
100
AcDbXrecord
  1
{07F14A01-E29B-444A-9DD2-D5F7DC30DE64}
  0
DICTIONARYVAR
  5
106A7
102
{ACAD_REACTORS
330
106A6
102
}
330
106A6
100
DictionaryVariables
280
     0
  1
96
  0
XRECORD
  5
1A9A1
102
{ACAD_REACTORS
330
1A99F
102
}
330
1A99F
100
AcDbXrecord
330
187D7
330
0
330
0
330
0
330
0
330
0
330
0
330
0
330
0
330
0
330
0
330
115F
330
0
330
0
330
0
330
0
330
0
330
0
330
0
330
0
330
0
330
0
330
0
330
0
330
0
330
0
330
0
330
0
330
0
330
0
330
0
330
0
330
0
330
0
330
0
330
0
330
0
330
0
330
0
330
0
330
0
330
0
330
0
330
0
  0
XRECORD
  5
244AC
102
{ACAD_REACTORS
330
244AB
102
}
330
244AB
100
AcDbXrecord
  1
0
  1
*0
  1
*
  1
*
 70
     0
  1
*
  1
*
  0
XRECORD
  5
244AD
102
{ACAD_REACTORS
330
244AB
102
}
330
244AB
100
AcDbXrecord
  1
11
  1
*11
  1
*
  1
*
 70
     0
  1
*
  1
*
  0
XRECORD
  5
244AE
102
{ACAD_REACTORS
330
244AB
102
}
330
244AB
100
AcDbXrecord
  1
150_
  1
150_*
  1
*
  1
*
 70
     0
  1
*
  1
*
  0
XRECORD
  5
244AF
102
{ACAD_REACTORS
330
244AB
102
}
330
244AB
100
AcDbXrecord
  1
160_
  1
160_*
  1
*
  1
*
 70
     0
  1
*
  1
*
  0
XRECORD
  5
244B0
102
{ACAD_REACTORS
330
244AB
102
}
330
244AB
100
AcDbXrecord
  1
170_
  1
170_*
  1
*
  1
*
 70
     0
  1
*
  1
*
  0
XRECORD
  5
244B1
102
{ACAD_REACTORS
330
244AB
102
}
330
244AB
100
AcDbXrecord
  1
171_
  1
171_*
  1
*
  1
*
 70
     0
  1
*
  1
*
  0
XRECORD
  5
244B2
102
{ACAD_REACTORS
330
244AB
102
}
330
244AB
100
AcDbXrecord
  1
350_
  1
350_*
  1
*
  1
*
 70
     0
  1
*
  1
*
  0
XRECORD
  5
244B3
102
{ACAD_REACTORS
330
244AB
102
}
330
244AB
100
AcDbXrecord
  1
4
  1
*4
  1
*
  1
*
 70
     0
  1
*
  1
*
  0
XRECORD
  5
244B4
102
{ACAD_REACTORS
330
244AB
102
}
330
244AB
100
AcDbXrecord
  1
5
  1
*5
  1
*
  1
*
 70
     0
  1
*
  1
*
  0
XRECORD
  5
244B5
102
{ACAD_REACTORS
330
244AB
102
}
330
244AB
100
AcDbXrecord
  1
7
  1
*7
  1
*
  1
*
 70
     0
  1
*
  1
*
  0
XRECORD
  5
244B6
102
{ACAD_REACTORS
330
244AB
102
}
330
244AB
100
AcDbXrecord
  1
kiseki
  1
kiseki*
  1
*
  1
*
 70
     0
  1
*
  1
*
  0
ENDSEC
  0
EOF
