  0
SECTION
  2
HEADER
  9
$ACADVER
  1
AC1015
  9
$ACADMAINTVER
 70
    20
  9
$DWGCODEPAGE
  3
ANSI_932
  9
$INSBASE
 10
0.0
 20
0.0
 30
0.0
  9
$EXTMIN
 10
437.8346817744462
 20
-2462.605497446884
 30
0.0
  9
$EXTMAX
 10
951.7676072338945
 20
-2175.691602833293
 30
137.5
  9
$LIMMIN
 10
0.0
 20
0.0
  9
$LIMMAX
 10
420.0
 20
297.0
  9
$ORTHOMODE
 70
     1
  9
$REGENMODE
 70
     1
  9
$FILLMODE
 70
     1
  9
$QTEXTMODE
 70
     0
  9
$MIRRTEXT
 70
     0
  9
$LTSCALE
 40
20.0
  9
$ATTMODE
 70
     2
  9
$TEXTSIZE
 40
10.0
  9
$TRACEWID
 40
1.0
  9
$TEXTSTYLE
  7
\U+FF7D\U+FF80\U+FF72\U+FF993
  9
$CLAYER
  8
FRAME070
  9
$CELTYPE
  6
BYLAYER
  9
$CECOLOR
 62
   256
  9
$CELTSCALE
 40
1.0
  9
$DISPSILH
 70
     0
  9
$DIMSCALE
 40
1.5
  9
$DIMASZ
 40
2.5
  9
$DIMEXO
 40
0.8
  9
$DIMDLI
 40
10.0
  9
$DIMRND
 40
0.0
  9
$DIMDLE
 40
0.0
  9
$DIMEXE
 40
0.18
  9
$DIMTP
 40
0.0
  9
$DIMTM
 40
0.0
  9
$DIMTXT
 40
3.0
  9
$DIMCEN
 40
0.0
  9
$DIMTSZ
 40
0.0
  9
$DIMTOL
 70
     0
  9
$DIMLIM
 70
     0
  9
$DIMTIH
 70
     0
  9
$DIMTOH
 70
     0
  9
$DIMSE1
 70
     0
  9
$DIMSE2
 70
     0
  9
$DIMTAD
 70
     3
  9
$DIMZIN
 70
     8
  9
$DIMBLK
  1
Open30
  9
$DIMASO
 70
     1
  9
$DIMSHO
 70
     1
  9
$DIMPOST
  1

  9
$DIMAPOST
  1

  9
$DIMALT
 70
     0
  9
$DIMALTD
 70
     2
  9
$DIMALTF
 40
25.4
  9
$DIMLFAC
 40
1.0
  9
$DIMTOFL
 70
     0
  9
$DIMTVP
 40
0.0
  9
$DIMTIX
 70
     0
  9
$DIMSOXD
 70
     0
  9
$DIMSAH
 70
     0
  9
$DIMBLK1
  1

  9
$DIMBLK2
  1

  9
$DIMSTYLE
  2
まこ
  9
$DIMCLRD
 70
     4
  9
$DIMCLRE
 70
     4
  9
$DIMCLRT
 70
   256
  9
$DIMTFAC
 40
1.0
  9
$DIMGAP
 40
0.5
  9
$DIMJUST
 70
     0
  9
$DIMSD1
 70
     0
  9
$DIMSD2
 70
     0
  9
$DIMTOLJ
 70
     1
  9
$DIMTZIN
 70
     0
  9
$DIMALTZ
 70
     0
  9
$DIMALTTZ
 70
     0
  9
$DIMUPT
 70
     0
  9
$DIMDEC
 70
     8
  9
$DIMTDEC
 70
     8
  9
$DIMALTU
 70
     2
  9
$DIMALTTD
 70
     2
  9
$DIMTXSTY
  7
まこ
  9
$DIMAUNIT
 70
     0
  9
$DIMADEC
 70
     0
  9
$DIMALTRND
 40
0.0
  9
$DIMAZIN
 70
     0
  9
$DIMDSEP
 70
    46
  9
$DIMATFIT
 70
     1
  9
$DIMFRAC
 70
     0
  9
$DIMLDRBLK
  1
Open30
  9
$DIMLUNIT
 70
     2
  9
$DIMLWD
 70
    13
  9
$DIMLWE
 70
    13
  9
$DIMTMOVE
 70
     0
  9
$LUNITS
 70
     2
  9
$LUPREC
 70
     4
  9
$SKETCHINC
 40
1.0
  9
$FILLETRAD
 40
0.0
  9
$AUNITS
 70
     0
  9
$AUPREC
 70
     0
  9
$MENU
  1
.
  9
$ELEVATION
 40
0.0
  9
$PELEVATION
 40
0.0
  9
$THICKNESS
 40
0.0
  9
$LIMCHECK
 70
     0
  9
$CHAMFERA
 40
0.5
  9
$CHAMFERB
 40
0.5
  9
$CHAMFERC
 40
20.0
  9
$CHAMFERD
 40
0.0
  9
$SKPOLY
 70
     0
  9
$TDCREATE
 40
2451224.660162037
  9
$TDUCREATE
 40
2451224.285162384
  9
$TDUPDATE
 40
2458549.470810186
  9
$TDUUPDATE
 40
2458549.095810185
  9
$TDINDWG
 40
0.0388808565
  9
$TDUSRTIMER
 40
2458228.090081308
  9
$USRTIMER
 70
     1
  9
$ANGBASE
 50
0.0
  9
$ANGDIR
 70
     0
  9
$PDMODE
 70
     0
  9
$PDSIZE
 40
0.0
  9
$PLINEWID
 40
0.0
  9
$SPLFRAME
 70
     0
  9
$SPLINETYPE
 70
     6
  9
$SPLINESEGS
 70
     8
  9
$HANDSEED
  5
2B821
  9
$SURFTAB1
 70
     6
  9
$SURFTAB2
 70
     6
  9
$SURFTYPE
 70
     6
  9
$SURFU
 70
     6
  9
$SURFV
 70
     6
  9
$UCSBASE
  2

  9
$UCSNAME
  2

  9
$UCSORG
 10
0.0
 20
0.0
 30
0.0
  9
$UCSXDIR
 10
1.0
 20
0.0
 30
0.0
  9
$UCSYDIR
 10
0.0
 20
1.0
 30
0.0
  9
$UCSORTHOREF
  2

  9
$UCSORTHOVIEW
 70
     0
  9
$UCSORGTOP
 10
0.0
 20
0.0
 30
0.0
  9
$UCSORGBOTTOM
 10
0.0
 20
0.0
 30
0.0
  9
$UCSORGLEFT
 10
0.0
 20
0.0
 30
0.0
  9
$UCSORGRIGHT
 10
0.0
 20
0.0
 30
0.0
  9
$UCSORGFRONT
 10
0.0
 20
0.0
 30
0.0
  9
$UCSORGBACK
 10
0.0
 20
0.0
 30
0.0
  9
$PUCSBASE
  2

  9
$PUCSNAME
  2

  9
$PUCSORG
 10
0.0
 20
0.0
 30
0.0
  9
$PUCSXDIR
 10
1.0
 20
0.0
 30
0.0
  9
$PUCSYDIR
 10
0.0
 20
1.0
 30
0.0
  9
$PUCSORTHOREF
  2

  9
$PUCSORTHOVIEW
 70
     0
  9
$PUCSORGTOP
 10
0.0
 20
0.0
 30
0.0
  9
$PUCSORGBOTTOM
 10
0.0
 20
0.0
 30
0.0
  9
$PUCSORGLEFT
 10
0.0
 20
0.0
 30
0.0
  9
$PUCSORGRIGHT
 10
0.0
 20
0.0
 30
0.0
  9
$PUCSORGFRONT
 10
0.0
 20
0.0
 30
0.0
  9
$PUCSORGBACK
 10
0.0
 20
0.0
 30
0.0
  9
$USERI1
 70
     0
  9
$USERI2
 70
     0
  9
$USERI3
 70
     0
  9
$USERI4
 70
     0
  9
$USERI5
 70
     0
  9
$USERR1
 40
245.9999999999999
  9
$USERR2
 40
0.0
  9
$USERR3
 40
0.0
  9
$USERR4
 40
0.0
  9
$USERR5
 40
0.0
  9
$WORLDVIEW
 70
     1
  9
$SHADEDGE
 70
     3
  9
$SHADEDIF
 70
    70
  9
$TILEMODE
 70
     0
  9
$MAXACTVP
 70
    48
  9
$PINSBASE
 10
0.0
 20
0.0
 30
0.0
  9
$PLIMCHECK
 70
     0
  9
$PEXTMIN
 10
1.049999999999999
 20
0.6999999999999998
 30
0.0
  9
$PEXTMAX
 10
9.449999999999999
 20
6.3
 30
0.0
  9
$PLIMMIN
 10
0.0
 20
0.0
  9
$PLIMMAX
 10
0.0
 20
0.0
  9
$UNITMODE
 70
     0
  9
$VISRETAIN
 70
     1
  9
$PLINEGEN
 70
     0
  9
$PSLTSCALE
 70
     1
  9
$TREEDEPTH
 70
  3020
  9
$CMLSTYLE
  2
STANDARD
  9
$CMLJUST
 70
     0
  9
$CMLSCALE
 40
20.0
  9
$PROXYGRAPHICS
 70
     1
  9
$MEASUREMENT
 70
     0
  9
$CELWEIGHT
370
    -1
  9
$ENDCAPS
280
     0
  9
$JOINSTYLE
280
     0
  9
$LWDISPLAY
290
     0
  9
$INSUNITS
 70
     0
  9
$HYPERLINKBASE
  1

  9
$STYLESHEET
  1
monochrome.ctb
  9
$XEDIT
290
     1
  9
$CEPSNTYPE
380
     0
  9
$PSTYLEMODE
290
     1
  9
$FINGERPRINTGUID
  2
{D14EE3FF-941A-415A-9907-344E0A80D794}
  9
$VERSIONGUID
  2
{DE1FAACC-4F4D-4A07-B68E-06D5E6FC960D}
  9
$EXTNAMES
290
     1
  9
$PSVPSCALE
 40
0.0
  9
$OLESTARTUP
290
     0
  0
ENDSEC
  0
SECTION
  2
CLASSES
  0
CLASS
  1
ACDBDICTIONARYWDFLT
  2
AcDbDictionaryWithDefault
  3
ObjectDBX Classes
 90
        0
280
     0
281
     0
  0
CLASS
  1
ACDBPLACEHOLDER
  2
AcDbPlaceHolder
  3
ObjectDBX Classes
 90
        0
280
     0
281
     0
  0
CLASS
  1
LAYOUT
  2
AcDbLayout
  3
ObjectDBX Classes
 90
        0
280
     0
281
     0
  0
CLASS
  1
DICTIONARYVAR
  2
AcDbDictionaryVar
  3
ObjectDBX Classes
 90
        0
280
     0
281
     0
  0
CLASS
  1
VISUALSTYLE
  2
AcDbVisualStyle
  3
ObjectDBX Classes
 90
     4095
280
     0
281
     0
  0
CLASS
  1
SCALE
  2
AcDbScale
  3
ObjectDBX Classes
 90
     1153
280
     0
281
     0
  0
CLASS
  1
MATERIAL
  2
AcDbMaterial
  3
ObjectDBX Classes
 90
     1153
280
     0
281
     0
  0
CLASS
  1
TABLESTYLE
  2
AcDbTableStyle
  3
ObjectDBX Classes
 90
     4095
280
     0
281
     0
  0
CLASS
  1
MLEADERSTYLE
  2
AcDbMLeaderStyle
  3
ACDB_MLEADERSTYLE_CLASS
 90
     4095
280
     0
281
     0
  0
CLASS
  1
SUN
  2
AcDbSun
  3
SCENEOE
 90
     1153
280
     0
281
     0
  0
CLASS
  1
RASTERVARIABLES
  2
AcDbRasterVariables
  3
ISM
 90
        0
280
     0
281
     0
  0
CLASS
  1
DIMASSOC
  2
AcDbDimAssoc
  3
"AcDbDimAssoc|Product Desc:     AcDim ARX App For Dimension|Company:          Autodesk, Inc.|WEB Address:      www.autodesk.com"
 90
    32768
280
     0
281
     0
  0
CLASS
  1
SORTENTSTABLE
  2
AcDbSortentsTable
  3
ObjectDBX Classes
 90
        0
280
     0
281
     0
  0
CLASS
  1
ACDBSECTIONVIEWSTYLE
  2
AcDbSectionViewStyle
  3
ObjectDBX Classes
 90
     1025
280
     0
281
     0
  0
CLASS
  1
ACDBDETAILVIEWSTYLE
  2
AcDbDetailViewStyle
  3
ObjectDBX Classes
 90
     1025
280
     0
281
     0
  0
CLASS
  1
CELLSTYLEMAP
  2
AcDbCellStyleMap
  3
ObjectDBX Classes
 90
     1152
280
     0
281
     0
  0
ENDSEC
  0
SECTION
  2
TABLES
  0
TABLE
  2
VPORT
  5
8
102
{ACAD_XDICTIONARY
360
2B77F
102
}
330
0
100
AcDbSymbolTable
 70
     1
  0
VPORT
  5
2839E
330
8
100
AcDbSymbolTableRecord
100
AcDbViewportTableRecord
  2
*Active
 70
     0
 10
0.0
 20
0.0
 11
1.0
 21
1.0
 12
871.0447787130126
 22
-2248.858552873105
 13
0.0
 23
0.0
 14
10.0
 24
10.0
 15
10.0
 25
10.0
 16
0.0
 26
0.0
 36
1.0
 17
0.0
 27
0.0
 37
0.0
 40
688.3892369426891
 41
1.305479452054794
 42
50.0
 43
0.0
 44
0.0
 50
0.0
 51
0.0
 71
    16
 72
   100
 73
     1
 74
     0
 75
     0
 76
     0
 77
     0
 78
     0
281
     0
 65
     1
110
0.0
120
0.0
130
0.0
111
1.0
121
0.0
131
0.0
112
0.0
122
1.0
132
0.0
 79
     0
146
0.0
  0
ENDTAB
  0
TABLE
  2
LTYPE
  5
5
330
0
100
AcDbSymbolTable
 70
     5
  0
LTYPE
  5
12
330
5
100
AcDbSymbolTableRecord
100
AcDbLinetypeTableRecord
  2
BYBLOCK
 70
     0
  3

 72
    65
 73
     0
 40
0.0
  0
LTYPE
  5
13
330
5
100
AcDbSymbolTableRecord
100
AcDbLinetypeTableRecord
  2
BYLAYER
 70
     0
  3

 72
    65
 73
     0
 40
0.0
  0
LTYPE
  5
14
330
5
100
AcDbSymbolTableRecord
100
AcDbLinetypeTableRecord
  2
CONTINUOUS
 70
     0
  3
Solid line
 72
    65
 73
     0
 40
0.0
  0
LTYPE
  5
126C
330
5
100
AcDbSymbolTableRecord
100
AcDbLinetypeTableRecord
  2
CENTER
 70
     0
  3
____ _ ____ _ ____ _ ____ _ ____ _ ____ _ ____
 72
    65
 73
     4
 40
2.0
 49
1.25
 74
     0
 49
-0.25
 74
     0
 49
0.25
 74
     0
 49
-0.25
 74
     0
  0
LTYPE
  5
126E
330
5
100
AcDbSymbolTableRecord
100
AcDbLinetypeTableRecord
  2
DASHDOT
 70
     0
  3
__ . __ . __ . __ . __ . __ . __ . __ . __ . __
 72
    65
 73
     4
 40
1.0
 49
0.5
 74
     0
 49
-0.25
 74
     0
 49
0.0
 74
     0
 49
-0.25
 74
     0
  0
LTYPE
  5
15420
330
5
100
AcDbSymbolTableRecord
100
AcDbLinetypeTableRecord
  2
CENTER2
 70
     0
  3
Center (.5x) ___ _ ___ _ ___ _ ___ _ ___ _ ___
 72
    65
 73
     4
 40
1.125
 49
0.75
 74
     0
 49
-0.125
 74
     0
 49
0.125
 74
     0
 49
-0.125
 74
     0
  0
LTYPE
  5
2A721
330
5
100
AcDbSymbolTableRecord
100
AcDbLinetypeTableRecord
  2
HIDDEN2
 70
     0
  3
Hidden (.5x) _ _ _ _ _ _ _ _ _ _ _ _ _ _ _ _ _
 72
    65
 73
     2
 40
4.762499999999999
 49
3.174999999999999
 74
     0
 49
-1.587499999999999
 74
     0
  0
ENDTAB
  0
TABLE
  2
LAYER
  5
2
102
{ACAD_XDICTIONARY
360
254EC
102
}
330
0
100
AcDbSymbolTable
 70
    10
  0
LAYER
  5
E
330
2
100
AcDbSymbolTableRecord
100
AcDbLayerTableRecord
  2
0
 70
     2
 62
     7
  6
CONTINUOUS
370
    35
390
FB5C
  0
LAYER
  5
30
330
2
100
AcDbSymbolTableRecord
100
AcDbLayerTableRecord
  2
FRAME025
 70
     0
 62
     7
  6
CONTINUOUS
370
    -3
390
FB5C
  0
LAYER
  5
32
330
2
100
AcDbSymbolTableRecord
100
AcDbLayerTableRecord
  2
FRAME070
 70
     0
 62
     7
  6
CONTINUOUS
370
    -3
390
FB5C
  0
LAYER
  5
651
330
2
100
AcDbSymbolTableRecord
100
AcDbLayerTableRecord
  2
FRAME020
 70
     0
 62
     7
  6
CONTINUOUS
370
    -3
390
FB5C
  0
LAYER
  5
1271
330
2
100
AcDbSymbolTableRecord
100
AcDbLayerTableRecord
  2
A
 70
     0
 62
     7
  6
CONTINUOUS
370
    -3
390
FB5C
  0
LAYER
  5
122DE
330
2
100
AcDbSymbolTableRecord
100
AcDbLayerTableRecord
  2
dimension
 70
     0
 62
     7
  6
CONTINUOUS
370
    13
390
FB5C
  0
LAYER
  5
15422
330
2
100
AcDbSymbolTableRecord
100
AcDbLayerTableRecord
  2
細線
 70
     0
 62
     7
  6
CONTINUOUS
370
    13
390
FB5C
  0
LAYER
  5
15425
330
2
100
AcDbSymbolTableRecord
100
AcDbLayerTableRecord
  2
中心線
 70
     0
 62
     7
  6
CENTER2
370
    13
390
FB5C
  0
LAYER
  5
1A846
330
2
100
AcDbSymbolTableRecord
100
AcDbLayerTableRecord
  2
実線
 70
     0
 62
     7
  6
CONTINUOUS
370
    40
390
FB5C
  0
LAYER
  5
2A71E
102
{ACAD_XDICTIONARY
360
2A71F
102
}
330
2
100
AcDbSymbolTableRecord
100
AcDbLayerTableRecord
  2
破線
 70
     0
 62
     7
  6
HIDDEN2
370
    13
390
FB5C
  0
ENDTAB
  0
TABLE
  2
STYLE
  5
3
330
0
100
AcDbSymbolTable
 70
     7
  0
STYLE
  5
F
330
3
100
AcDbSymbolTableRecord
100
AcDbTextStyleTableRecord
  2
STANDARD
 70
     0
 40
0.0
 41
1.0
 50
0.0
 71
     0
 42
2.5
  3
isocp.shx
  4
bigfont.shx
  0
STYLE
  5
34
330
3
100
AcDbSymbolTableRecord
100
AcDbTextStyleTableRecord
  2
TIMESNR
 70
     0
 40
0.0
 41
1.0
 50
0.0
 71
     0
 42
2.0
  3
times.ttf
  4

1001
ACAD
1000
Times New Roman
1071
       18
  0
STYLE
  5
35
330
3
100
AcDbSymbolTableRecord
100
AcDbTextStyleTableRecord
  2
MS\U+FF7A\U+FF9E\U+FF7C\U+FF6F\U+FF78
 70
     0
 40
0.0
 41
1.0
 50
0.0
 71
     0
 42
5.0
  3

  4

1001
ACAD
1000
MS Gothic
1071
    32817
  0
STYLE
  5
1275
330
3
100
AcDbSymbolTableRecord
100
AcDbTextStyleTableRecord
  2
BIGFONT
 70
     0
 40
2.0
 41
1.0
 50
0.0
 71
     0
 42
2.0
  3
txt.shx
  4
bigfont.shx
  0
STYLE
  5
1A849
330
3
100
AcDbSymbolTableRecord
100
AcDbTextStyleTableRecord
  2
まこ
 70
     0
 40
0.0
 41
1.0
 50
0.0
 71
     0
 42
2.5
  3
simplex.shx
  4
bigfont.shx
  0
STYLE
  5
1A84A
330
3
100
AcDbSymbolTableRecord
100
AcDbTextStyleTableRecord
  2
\U+FF7D\U+FF80\U+FF72\U+FF993
 70
     0
 40
10.0
 41
1.0
 50
0.0
 71
     0
 42
10.0
  3
isocp.shx
  4
extfont.shx
  0
STYLE
  5
1F8B3
330
3
100
AcDbSymbolTableRecord
100
AcDbTextStyleTableRecord
  2
MS\U+FF7A\U+FF9E\U+FF7C\U+FF6F\U+FF78N
 70
     0
 40
0.0
 41
1.0
 50
0.0
 71
     0
 42
5.0
  3

  4

1001
ACAD
1000
MS Gothic
1071
    32817
  0
ENDTAB
  0
TABLE
  2
VIEW
  5
6
330
0
100
AcDbSymbolTable
 70
     0
  0
ENDTAB
  0
TABLE
  2
UCS
  5
7
330
0
100
AcDbSymbolTable
 70
     0
  0
ENDTAB
  0
TABLE
  2
APPID
  5
9
330
0
100
AcDbSymbolTable
 70
    12
  0
APPID
  5
10
330
9
100
AcDbSymbolTableRecord
100
AcDbRegAppTableRecord
  2
ACAD
 70
     0
  0
APPID
  5
F013
330
9
100
AcDbSymbolTableRecord
100
AcDbRegAppTableRecord
  2
CONTENTBLOCKDESCRIPTION
 70
     0
  0
APPID
  5
F014
330
9
100
AcDbSymbolTableRecord
100
AcDbRegAppTableRecord
  2
CONTENTBLOCKICON
 70
     0
  0
APPID
  5
1A9A0
330
9
100
AcDbSymbolTableRecord
100
AcDbRegAppTableRecord
  2
DCO15
 70
     0
  0
APPID
  5
28407
330
9
100
AcDbSymbolTableRecord
100
AcDbRegAppTableRecord
  2
PE_CLOUD
 70
     0
  0
APPID
  5
2895F
330
9
100
AcDbSymbolTableRecord
100
AcDbRegAppTableRecord
  2
PLOTTRANSPARENCY
 70
     0
  0
APPID
  5
2A72C
330
9
100
AcDbSymbolTableRecord
100
AcDbRegAppTableRecord
  2
ACAD_DSTYLE_DIMJAG
 70
     0
  0
APPID
  5
2A72D
330
9
100
AcDbSymbolTableRecord
100
AcDbRegAppTableRecord
  2
ACAD_DSTYLE_DIMTALN
 70
     0
  0
APPID
  5
2A72E
330
9
100
AcDbSymbolTableRecord
100
AcDbRegAppTableRecord
  2
ACAD_DSTYLE_DIMRADIAL_EXTENSION
 70
     0
  0
APPID
  5
2B19C
330
9
100
AcDbSymbolTableRecord
100
AcDbRegAppTableRecord
  2
ACAD_DSTYLE_DIMFLIPARROW_SYMBOL
 70
     0
  0
APPID
  5
2B19D
330
9
100
AcDbSymbolTableRecord
100
AcDbRegAppTableRecord
  2
ACAD_DSTYLE_DIMFLIPARROW_WHICH_SYMBOL
 70
     0
  0
APPID
  5
2B7B8
330
9
100
AcDbSymbolTableRecord
100
AcDbRegAppTableRecord
  2
ACAD_MLEADERVER
 70
     0
  0
ENDTAB
  0
TABLE
  2
DIMSTYLE
  5
A
330
0
100
AcDbSymbolTable
 70
     2
100
AcDbDimStyleTable
 71
     0
  0
DIMSTYLE
105
1D
330
A
100
AcDbSymbolTableRecord
100
AcDbDimStyleTableRecord
  2
STANDARD
 70
     0
340
F
  0
DIMSTYLE
105
1A84D
330
A
100
AcDbSymbolTableRecord
100
AcDbDimStyleTableRecord
  2
まこ
 70
     0
 40
1.5
 41
2.5
 42
0.8
 43
10.0
 73
     0
 74
     0
 77
     3
 78
     8
140
3.0
141
0.0
147
0.5
176
     4
177
     4
178
   256
271
     8
272
     8
289
     1
340
1A849
341
1215D
342
1215D
371
    13
372
    13
  0
ENDTAB
  0
TABLE
  2
BLOCK_RECORD
  5
1
330
0
100
AcDbSymbolTable
 70
     2
  0
BLOCK_RECORD
  5
18
102
{ACAD_XDICTIONARY
360
29EA9
102
}
330
1
100
AcDbSymbolTableRecord
100
AcDbBlockTableRecord
  2
*MODEL_SPACE
340
FB5D
  0
BLOCK_RECORD
  5
2B737
330
1
100
AcDbSymbolTableRecord
100
AcDbBlockTableRecord
  2
*Paper_Space
340
2B738
  0
BLOCK_RECORD
  5
115C
330
1
100
AcDbSymbolTableRecord
100
AcDbBlockTableRecord
  2
機械A4横_LBP
340
0
102
{BLKREFS
331
187D7
102
}
  0
BLOCK_RECORD
  5
1215D
330
1
100
AcDbSymbolTableRecord
100
AcDbBlockTableRecord
  2
_Open30
340
0
  0
ENDTAB
  0
ENDSEC
  0
SECTION
  2
BLOCKS
  0
BLOCK
  5
19
330
18
100
AcDbEntity
  8
0
100
AcDbBlockBegin
  2
*MODEL_SPACE
 70
     0
 10
0.0
 20
0.0
 30
0.0
  3
*MODEL_SPACE
  1

  0
ENDBLK
  5
1A
330
18
100
AcDbEntity
  8
0
100
AcDbBlockEnd
  0
BLOCK
  5
2B739
330
2B737
100
AcDbEntity
 67
     1
  8
0
100
AcDbBlockBegin
  2
*Paper_Space
 70
     0
 10
0.0
 20
0.0
 30
0.0
  3
*Paper_Space
  1

  0
ENDBLK
  5
2B73A
330
2B737
100
AcDbEntity
 67
     1
  8
0
100
AcDbBlockEnd
  0
BLOCK
  5
115D
330
115C
100
AcDbEntity
  8
0
100
AcDbBlockBegin
  2
機械A4横_LBP
 70
     0
 10
0.0
 20
0.0
 30
0.0
  3
機械A4横_LBP
  1

  0
ENDBLK
  5
115E
330
115C
100
AcDbEntity
  8
0
100
AcDbBlockEnd
  0
BLOCK
  5
12161
330
1215D
100
AcDbEntity
  8
0
100
AcDbBlockBegin
  2
_Open30
 70
     0
 10
0.0
 20
0.0
 30
0.0
  3
_Open30
  1

  0
LINE
  5
1215E
330
1215D
100
AcDbEntity
  8
0
  6
ByBlock
 62
     0
370
    -2
100
AcDbLine
 10
-1.0
 20
0.26794919
 30
0.0
 11
0.0
 21
0.0
 31
0.0
  0
LINE
  5
1215F
330
1215D
100
AcDbEntity
  8
0
  6
ByBlock
 62
     0
370
    -2
100
AcDbLine
 10
0.0
 20
0.0
 30
0.0
 11
-1.0
 21
-0.26794919
 31
0.0
  0
LINE
  5
12160
330
1215D
100
AcDbEntity
  8
0
  6
ByBlock
 62
     0
370
    -2
100
AcDbLine
 10
0.0
 20
0.0
 30
0.0
 11
-1.0
 21
0.0
 31
0.0
  0
ENDBLK
  5
12162
330
1215D
100
AcDbEntity
  8
0
100
AcDbBlockEnd
  0
ENDSEC
  0
SECTION
  2
ENTITIES
  0
MTEXT
  5
176FC
330
18
100
AcDbEntity
  8
dimension
 62
     2
100
AcDbMText
 10
-100.7823601383244
 20
171.621314412839
 30
0.0
 40
8.0
 41
0.0
 71
     4
 72
     1
  1

 73
     1
 44
1.0
1001
ACAD
1000
MTEXTBEGIN
1070
    73
1070
     1
1070
    44
1040
1.0
1070
    74
1070
     0
1000
MTEXTEND
  0
TEXT
  5
187C8
330
18
100
AcDbEntity
  8
A
100
AcDbText
 10
27.08248755054501
 20
1784.547672862096
 30
0.0
 40
2.5
  1

  7
MS\U+FF7A\U+FF9E\U+FF7C\U+FF6F\U+FF78
100
AcDbText
  0
TEXT
  5
187C9
330
18
100
AcDbEntity
  8
A
100
AcDbText
 10
19.25748755054502
 20
1784.547672862096
 30
0.0
 40
2.5
  1

 41
0.5
  7
MS\U+FF7A\U+FF9E\U+FF7C\U+FF6F\U+FF78
100
AcDbText
  0
MTEXT
  5
187CB
330
18
100
AcDbEntity
  8
0
  6
ByBlock
100
AcDbMText
 10
325.4874764241681
 20
2232.511722574347
 30
0.0
 40
2.0
 41
0.0
 71
     4
 72
     5
  1

 11
-0.0000000000000002
 21
-1.0
 31
0.0
 73
     1
 44
1.0
1001
ACAD
1000
MTEXTBEGIN
1070
    73
1070
     1
1070
    44
1040
1.0
1070
    74
1070
     0
1000
MTEXTEND
  0
MTEXT
  5
187CC
330
18
100
AcDbEntity
  8
0
  6
ByBlock
100
AcDbMText
 10
360.9528647873209
 20
2221.71841421593
 30
0.0
 40
2.0
 41
0.0
 71
     7
 72
     5
  1

 11
0.0000000000000001
 21
1.0
 31
0.0
 73
     1
 44
1.0
1001
ACAD
1000
MTEXTBEGIN
1070
    73
1070
     1
1070
    44
1040
1.0
1070
    74
1070
     0
1000
MTEXTEND
  0
MTEXT
  5
187CD
330
18
100
AcDbEntity
  8
0
100
AcDbMText
 10
325.1733668026533
 20
2146.93890367364
 30
0.0
 40
2.0
 41
10.1453
 71
     1
 72
     5
  1

 11
-0.0000000000000002
 21
-1.0
 31
0.0
 73
     1
 44
1.0
1001
ACAD
1000
MTEXTBEGIN
1070
    73
1070
     1
1070
    44
1040
1.0
1070
    74
1070
     0
1000
MTEXTEND
  0
MTEXT
  5
187CE
330
18
100
AcDbEntity
  8
0
100
AcDbMText
 10
280.7738750495033
 20
2115.30742008065
 30
0.0
 40
2.0
 41
0.0
 71
     1
 72
     5
  1

 73
     1
 44
1.0
1001
ACAD
1000
MTEXTBEGIN
1070
    73
1070
     1
1070
    44
1040
1.0
1070
    74
1070
     0
1000
MTEXTEND
  0
MTEXT
  5
187CF
330
18
100
AcDbEntity
  8
0
  6
CENTER
100
AcDbMText
 10
606.3621522332663
 20
2216.239946825076
 30
0.0
 40
2.0
 41
15.6417
 71
     1
 72
     5
  1

  7
BIGFONT
 73
     1
 44
1.0
1001
ACAD
1000
MTEXTBEGIN
1070
    73
1070
     1
1070
    44
1040
1.0
1070
    74
1070
     0
1000
MTEXTEND
  0
MTEXT
  5
187D0
330
18
100
AcDbEntity
  8
0
  6
DASHDOT
100
AcDbMText
 10
368.6842112890945
 20
2323.029441652852
 30
0.0
 40
1.0
 41
2.0
 71
     1
 72
     5
  1

  7
BIGFONT
 73
     1
 44
1.0
1001
ACAD
1000
MTEXTBEGIN
1070
    73
1070
     1
1070
    44
1040
1.0
1070
    74
1070
     0
1000
MTEXTEND
  0
MTEXT
  5
187D1
330
18
100
AcDbEntity
  8
0
  6
ByBlock
100
AcDbMText
 10
325.4873894192178
 20
2232.511722574347
 30
0.0
 40
2.0
 41
0.0
 71
     4
 72
     5
  1

 11
-0.0000000000000002
 21
-1.0
 31
0.0
 73
     1
 44
1.0
1001
ACAD
1000
MTEXTBEGIN
1070
    73
1070
     1
1070
    44
1040
1.0
1070
    74
1070
     0
1000
MTEXTEND
  0
MTEXT
  5
187D2
330
18
100
AcDbEntity
  8
0
  6
ByBlock
100
AcDbMText
 10
360.9527777823708
 20
2221.71841421593
 30
0.0
 40
2.0
 41
0.0
 71
     7
 72
     5
  1

 11
0.0000000000000001
 21
1.0
 31
0.0
 73
     1
 44
1.0
1001
ACAD
1000
MTEXTBEGIN
1070
    73
1070
     1
1070
    44
1040
1.0
1070
    74
1070
     0
1000
MTEXTEND
  0
MTEXT
  5
187D3
330
18
100
AcDbEntity
  8
0
100
AcDbMText
 10
325.1732797977029
 20
2146.93890367364
 30
0.0
 40
2.0
 41
10.1453
 71
     1
 72
     5
  1

 11
-0.0000000000000002
 21
-1.0
 31
0.0
 73
     1
 44
1.0
1001
ACAD
1000
MTEXTBEGIN
1070
    73
1070
     1
1070
    44
1040
1.0
1070
    74
1070
     0
1000
MTEXTEND
  0
MTEXT
  5
187D4
330
18
100
AcDbEntity
  8
0
100
AcDbMText
 10
280.7737880445531
 20
2115.30742008065
 30
0.0
 40
2.0
 41
0.0
 71
     1
 72
     5
  1

 73
     1
 44
1.0
1001
ACAD
1000
MTEXTBEGIN
1070
    73
1070
     1
1070
    44
1040
1.0
1070
    74
1070
     0
1000
MTEXTEND
  0
MTEXT
  5
187D5
330
18
100
AcDbEntity
  8
0
  6
CENTER
100
AcDbMText
 10
606.3620652283159
 20
2216.239946825076
 30
0.0
 40
2.0
 41
15.6417
 71
     1
 72
     5
  1

  7
BIGFONT
 73
     1
 44
1.0
1001
ACAD
1000
MTEXTBEGIN
1070
    73
1070
     1
1070
    44
1040
1.0
1070
    74
1070
     0
1000
MTEXTEND
  0
MTEXT
  5
187D6
330
18
100
AcDbEntity
  8
0
  6
DASHDOT
100
AcDbMText
 10
368.6841242841443
 20
2323.029441652852
 30
0.0
 40
1.0
 41
2.0
 71
     1
 72
     5
  1

  7
BIGFONT
 73
     1
 44
1.0
1001
ACAD
1000
MTEXTBEGIN
1070
    73
1070
     1
1070
    44
1040
1.0
1070
    74
1070
     0
1000
MTEXTEND
  0
INSERT
  5
187D7
330
18
100
AcDbEntity
  8
FRAME025
100
AcDbBlockReference
  2
機械A4横_LBP
 10
271.0019941658661
 20
2006.888840564871
 30
0.0
  0
TEXT
  5
216E7
330
18
100
AcDbEntity
  8
FRAME020
  6
Continuous
100
AcDbText
 10
1272.84444499335
 20
-2736.187561819854
 30
0.0
 40
3.0
  1

 50
270.0
100
AcDbText
  0
MTEXT
  5
21ACC
330
18
100
AcDbEntity
  8
0
100
AcDbMText
 10
62.91095225984048
 20
-1280.130762802907
 30
0.0
 40
2.5
 41
0.625
 71
     9
 72
     1
  1

 73
     1
 44
1.0
1001
ACAD
1000
MTEXTBEGIN
1070
    73
1070
     1
1070
    44
1040
1.0
1070
    74
1070
     0
1000
MTEXTEND
  0
LINE
  5
27C69
330
18
100
AcDbEntity
  8
中心線
 48
0.5
100
AcDbLine
 10
585.4317019242829
 20
-2183.191602833293
 30
0.0
 11
570.4317019242829
 21
-2183.191602833293
 31
0.0
  0
LINE
  5
27C6A
330
18
100
AcDbEntity
  8
中心線
 48
0.5
100
AcDbLine
 10
570.4317019242829
 20
-2298.191602833294
 30
0.0
 11
585.4317019242829
 21
-2298.191602833294
 31
0.0
  0
LINE
  5
27C6C
330
18
100
AcDbEntity
  8
実線
100
AcDbLine
 10
562.1317019242836
 20
-2305.691602833293
 30
0.0
 11
721.7317019242821
 21
-2305.691602833293
 31
0.0
  0
LINE
  5
27C6D
330
18
100
AcDbEntity
  8
実線
100
AcDbLine
 10
562.1317019242836
 20
-2287.691602833294
 30
0.0
 11
721.7317019242821
 21
-2287.691602833294
 31
0.0
  0
LINE
  5
27C6E
330
18
100
AcDbEntity
  8
実線
100
AcDbLine
 10
721.7317019242821
 20
-2175.691602833293
 30
0.0
 11
562.1317019242836
 21
-2175.691602833293
 31
0.0
  0
LINE
  5
27C6F
330
18
100
AcDbEntity
  8
実線
100
AcDbLine
 10
721.7317019242821
 20
-2193.691602833293
 30
0.0
 11
562.1317019242836
 21
-2193.691602833293
 31
0.0
  0
LINE
  5
27C75
330
18
100
AcDbEntity
  8
実線
100
AcDbLine
 10
473.8346817744463
 20
-2181.691602833294
 30
0.0
 11
461.8346817744463
 21
-2181.691602833294
 31
0.0
  0
LINE
  5
27C76
330
18
100
AcDbEntity
  8
実線
100
AcDbLine
 10
473.8346817744463
 20
-2299.691602833294
 30
0.0
 11
461.8346817744463
 21
-2299.691602833294
 31
0.0
  0
LWPOLYLINE
  5
27C77
330
18
100
AcDbEntity
  8
実線
100
AcDbPolyline
 90
        4
 70
     1
 43
0.0
 10
473.8346817744463
 20
-2290.691602833294
 10
473.8346817744463
 20
-2190.691602833294
 10
447.8346817744462
 20
-2190.691602833294
 10
447.8346817744462
 20
-2290.691602833294
  0
LINE
  5
27C79
330
18
100
AcDbEntity
  8
中心線
 48
0.5
100
AcDbLine
 10
437.8346817744462
 20
-2240.691602833294
 30
0.0
 11
495.8346817744462
 21
-2240.691602833294
 31
0.0
  0
LINE
  5
27C7A
330
18
100
AcDbEntity
  8
実線
100
AcDbLine
 10
487.8346817744462
 20
-2305.691602833295
 30
0.0
 11
461.8346817744471
 21
-2305.691602833295
 31
0.0
  0
LINE
  5
27C7B
330
18
100
AcDbEntity
  8
実線
100
AcDbLine
 10
487.8346817744462
 20
-2175.691602833293
 30
0.0
 11
461.8346817744471
 21
-2175.691602833293
 31
0.0
  0
LINE
  5
27C7D
330
18
100
AcDbEntity
  8
実線
100
AcDbLine
 10
447.8346817744462
 20
-2190.691602833294
 30
0.0
 11
447.8346817744462
 21
-2175.691602833293
 31
0.0
  0
LINE
  5
27C83
330
18
100
AcDbEntity
  8
実線
100
AcDbLine
 10
461.8346817744463
 20
-2305.691602833295
 30
0.0
 11
447.8346817744462
 21
-2305.691602833295
 31
0.0
  0
LINE
  5
27C84
330
18
100
AcDbEntity
  8
実線
100
AcDbLine
 10
447.8346817744462
 20
-2290.691602833294
 30
0.0
 11
447.8346817744462
 21
-2305.691602833295
 31
0.0
  0
LINE
  5
27C8E
330
18
100
AcDbEntity
  8
実線
100
AcDbLine
 10
461.8346817744463
 20
-2305.691602833295
 30
0.0
 11
461.8346817744453
 21
-2299.691602833294
 31
0.0
  0
LINE
  5
27CC9
330
18
100
AcDbEntity
  8
実線
100
AcDbLine
 10
461.8346817744463
 20
-2175.691602833293
 30
0.0
 11
447.8346817744462
 21
-2175.691602833293
 31
0.0
  0
LINE
  5
27CCA
330
18
100
AcDbEntity
  8
実線
100
AcDbLine
 10
461.8346817744463
 20
-2175.691602833293
 30
0.0
 11
461.8346817744453
 21
-2181.691602833294
 31
0.0
  0
LINE
  5
27CCD
330
18
100
AcDbEntity
  8
実線
100
AcDbLine
 10
487.8346817744462
 20
-2175.691602833293
 30
0.0
 11
487.8346817744462
 21
-2193.691602833293
 31
0.0
  0
CIRCLE
  5
27CCE
330
18
100
AcDbEntity
  8
0
  6
Continuous
100
AcDbCircle
 10
480.3346817744461
 20
-2185.691602833294
 30
0.0
 40
3.749999999999991
  0
CIRCLE
  5
27CCF
330
18
100
AcDbEntity
  8
0
  6
Continuous
100
AcDbCircle
 10
480.3346817744461
 20
-2185.691602833294
 30
0.0
 40
4.25
  0
CIRCLE
  5
27CD0
330
18
100
AcDbEntity
  8
実線
100
AcDbCircle
 10
480.3346817744461
 20
-2185.691602833294
 30
0.0
 40
4.75
  0
LWPOLYLINE
  5
27CD1
330
18
100
AcDbEntity
  8
実線
100
AcDbPolyline
 90
        4
 70
     1
 43
0.0
 10
485.8346817744462
 20
-2179.691602833294
 10
473.8346817744463
 20
-2179.691602833294
 10
473.8346817744463
 20
-2301.691602833294
 10
485.8346817744462
 20
-2301.691602833294
  0
CIRCLE
  5
27CD2
330
18
100
AcDbEntity
  8
0
  6
Continuous
100
AcDbCircle
 10
480.3346817744461
 20
-2295.691602833294
 30
0.0
 40
4.25
  0
CIRCLE
  5
27CD3
330
18
100
AcDbEntity
  8
実線
100
AcDbCircle
 10
480.3346817744461
 20
-2295.691602833294
 30
0.0
 40
4.75
  0
LINE
  5
27CD4
330
18
100
AcDbEntity
  8
0
  6
Continuous
100
AcDbLine
 10
480.3346817744461
 20
-2293.382201833294
 30
0.0
 11
482.3346827744537
 21
-2294.536902633293
 31
0.0
  0
LINE
  5
27CD5
330
18
100
AcDbEntity
  8
0
  6
Continuous
100
AcDbLine
 10
480.3346817744461
 20
-2293.382201333293
 30
0.0
 11
478.3346817744461
 21
-2294.536902233294
 31
0.0
  0
LINE
  5
27CD6
330
18
100
AcDbEntity
  8
0
  6
Continuous
100
AcDbLine
 10
480.3346817744461
 20
-2298.001003833295
 30
0.0
 11
482.3346827744537
 21
-2296.846303033293
 31
0.0
  0
LINE
  5
27CD7
330
18
100
AcDbEntity
  8
0
  6
Continuous
100
AcDbLine
 10
478.3346817744461
 20
-2296.846303433294
 30
0.0
 11
480.3346817744461
 21
-2298.001004333295
 31
0.0
  0
LINE
  5
27CD8
330
18
100
AcDbEntity
  8
0
  6
Continuous
100
AcDbLine
 10
478.3346817744461
 20
-2294.536902333293
 30
0.0
 11
478.3346817744461
 21
-2296.846303333293
 31
0.0
  0
LINE
  5
27CD9
330
18
100
AcDbEntity
  8
0
  6
Continuous
100
AcDbLine
 10
482.3346817744461
 20
-2294.536902333293
 30
0.0
 11
482.3346817744461
 21
-2296.846303333293
 31
0.0
  0
CIRCLE
  5
27CDA
330
18
100
AcDbEntity
  8
0
  6
Continuous
100
AcDbCircle
 10
480.3346817744461
 20
-2295.691602833294
 30
0.0
 40
3.749999999999991
  0
LINE
  5
27CDB
330
18
100
AcDbEntity
  8
0
  6
Continuous
100
AcDbLine
 10
480.3346817744461
 20
-2183.382201833294
 30
0.0
 11
482.3346827744537
 21
-2184.536902633293
 31
0.0
  0
LINE
  5
27CDC
330
18
100
AcDbEntity
  8
0
  6
Continuous
100
AcDbLine
 10
480.3346817744461
 20
-2183.382201333293
 30
0.0
 11
478.3346817744461
 21
-2184.536902233294
 31
0.0
  0
LINE
  5
27CDD
330
18
100
AcDbEntity
  8
0
  6
Continuous
100
AcDbLine
 10
478.3346817744461
 20
-2184.536902333293
 30
0.0
 11
478.3346817744461
 21
-2186.846303333293
 31
0.0
  0
LINE
  5
27CDE
330
18
100
AcDbEntity
  8
0
  6
Continuous
100
AcDbLine
 10
482.3346817744461
 20
-2184.536902333293
 30
0.0
 11
482.3346817744461
 21
-2186.846303333293
 31
0.0
  0
LINE
  5
27CDF
330
18
100
AcDbEntity
  8
0
  6
Continuous
100
AcDbLine
 10
480.3346817744461
 20
-2188.001003833294
 30
0.0
 11
482.3346827744537
 21
-2186.846303033293
 31
0.0
  0
LINE
  5
27CE0
330
18
100
AcDbEntity
  8
0
  6
Continuous
100
AcDbLine
 10
478.3346817744461
 20
-2186.846303433294
 30
0.0
 11
480.3346817744461
 21
-2188.001004333294
 31
0.0
  0
LINE
  5
27CE1
330
18
100
AcDbEntity
  8
実線
100
AcDbLine
 10
487.4346817744463
 20
-2193.691602833293
 30
0.0
 11
487.4346817744463
 21
-2287.691602833294
 31
0.0
  0
LINE
  5
27CE2
330
18
100
AcDbEntity
  8
実線
100
AcDbLine
 10
487.8346817744462
 20
-2287.691602833294
 30
0.0
 11
485.8346817744462
 21
-2287.691602833294
 31
0.0
  0
LINE
  5
27CE3
330
18
100
AcDbEntity
  8
実線
100
AcDbLine
 10
487.8346817744462
 20
-2305.691602833295
 30
0.0
 11
487.8346817744462
 21
-2287.691602833294
 31
0.0
  0
LINE
  5
27CE4
330
18
100
AcDbEntity
  8
実線
100
AcDbLine
 10
487.8346817744462
 20
-2193.691602833293
 30
0.0
 11
485.8346817744462
 21
-2193.691602833293
 31
0.0
  0
LINE
  5
27CE7
330
18
100
AcDbEntity
  8
中心線
 48
0.5
100
AcDbLine
 10
577.9317019242829
 20
-2190.691602833294
 30
0.0
 11
577.9317019242829
 21
-2175.691602833293
 31
0.0
  0
CIRCLE
  5
27CE8
330
18
100
AcDbEntity
  8
細線
100
AcDbCircle
 10
577.9317019242829
 20
-2183.191602833293
 30
0.0
 40
2.5
  0
CIRCLE
  5
27CE9
330
18
100
AcDbEntity
  8
実線
100
AcDbCircle
 10
577.9317019242829
 20
-2183.191602833293
 30
0.0
 40
2.066999999999999
  0
LINE
  5
27CEA
330
18
100
AcDbEntity
  8
実線
100
AcDbLine
 10
562.1317019242836
 20
-2193.691602833293
 30
0.0
 11
562.1317019242836
 21
-2175.691602833293
 31
0.0
  0
LINE
  5
27CEB
330
18
100
AcDbEntity
  8
実線
100
AcDbLine
 10
561.9317019242835
 20
-2301.691602833294
 30
0.0
 11
561.9317019242835
 21
-2179.691602833293
 31
0.0
  0
LINE
  5
27CEC
330
18
100
AcDbEntity
  8
実線
100
AcDbLine
 10
547.9317019242834
 20
-2179.691602833293
 30
0.0
 11
547.9317019242834
 21
-2301.691602833294
 31
0.0
  0
LINE
  5
27CF8
330
18
100
AcDbEntity
  8
実線
100
AcDbLine
 10
547.9317019242834
 20
-2301.691602833294
 30
0.0
 11
561.9317019242835
 21
-2301.691602833294
 31
0.0
  0
LINE
  5
27CF9
330
18
100
AcDbEntity
  8
実線
100
AcDbLine
 10
562.1317019242836
 20
-2287.691602833294
 30
0.0
 11
562.1317019242836
 21
-2305.691602833293
 31
0.0
  0
LINE
  5
27CFA
330
18
100
AcDbEntity
  8
中心線
 48
0.5
100
AcDbLine
 10
577.9317019242829
 20
-2290.691602833294
 30
0.0
 11
577.9317019242829
 21
-2305.691602833293
 31
0.0
  0
CIRCLE
  5
27CFB
330
18
100
AcDbEntity
  8
実線
100
AcDbCircle
 10
577.9317019242829
 20
-2298.191602833294
 30
0.0
 40
2.066999999999999
  0
CIRCLE
  5
27CFC
330
18
100
AcDbEntity
  8
細線
100
AcDbCircle
 10
577.9317019242829
 20
-2298.191602833294
 30
0.0
 40
2.5
  0
LINE
  5
27CFD
330
18
100
AcDbEntity
  8
実線
100
AcDbLine
 10
561.9317019242835
 20
-2179.691602833293
 30
0.0
 11
547.9317019242834
 21
-2179.691602833293
 31
0.0
  0
LINE
  5
27D02
330
18
100
AcDbEntity
  8
中心線
 48
0.5
100
AcDbLine
 10
951.7676072338945
 20
-2240.691602833294
 30
0.0
 11
893.7676072338945
 21
-2240.691602833294
 31
0.0
  0
LWPOLYLINE
  5
27D03
330
18
100
AcDbEntity
  8
実線
100
AcDbPolyline
 90
        4
 70
     1
 43
0.0
 10
915.7676072338945
 20
-2290.691602833294
 10
915.7676072338945
 20
-2190.691602833294
 10
941.7676072338945
 20
-2190.691602833294
 10
941.7676072338945
 20
-2290.691602833294
  0
LINE
  5
27D04
330
18
100
AcDbEntity
  8
実線
100
AcDbLine
 10
915.7676072338945
 20
-2299.691602833294
 30
0.0
 11
927.7676072338945
 21
-2299.691602833294
 31
0.0
  0
LINE
  5
27D05
330
18
100
AcDbEntity
  8
実線
100
AcDbLine
 10
901.7676072338945
 20
-2305.691602833295
 30
0.0
 11
927.7676072338936
 21
-2305.691602833295
 31
0.0
  0
LINE
  5
27D06
330
18
100
AcDbEntity
  8
実線
100
AcDbLine
 10
901.7676072338945
 20
-2175.691602833293
 30
0.0
 11
927.7676072338936
 21
-2175.691602833293
 31
0.0
  0
LINE
  5
27D07
330
18
100
AcDbEntity
  8
実線
100
AcDbLine
 10
915.7676072338945
 20
-2181.691602833294
 30
0.0
 11
927.7676072338945
 21
-2181.691602833294
 31
0.0
  0
LINE
  5
27D08
102
{ACAD_REACTORS
330
27D0A
102
}
330
18
100
AcDbEntity
  8
中心線
 48
0.5
100
AcDbLine
 10
939.2676072338945
 20
-2299.691602833294
 30
0.0
 11
925.2676072338944
 21
-2299.691602833294
 31
0.0
  0
CIRCLE
  5
27D09
102
{ACAD_REACTORS
330
27D0A
102
}
330
18
100
AcDbEntity
  8
実線
 48
0.2
100
AcDbCircle
 10
932.2676072338945
 20
-2299.691602833294
 30
0.0
 40
4.0
  0
HATCH
  5
27D0A
330
18
100
AcDbEntity
  8
0
100
AcDbHatch
 10
0.0
 20
0.0
 30
0.0
210
0.0
220
0.0
230
1.0
  2
ANSI31
 70
     0
 71
     1
 91
        2
 92
        7
 72
     1
 73
     1
 93
        3
 10
936.2676072338945
 20
-2299.691602833294
 42
0.4142135623731065
 10
932.2676072338945
 20
-2295.691602833294
 42
0.0
 10
932.2676072338945
 20
-2299.691602833294
 42
0.0
 97
        3
330
27D09
330
27E04
330
27D08
 92
        7
 72
     1
 73
     1
 93
        3
 10
932.2676072338945
 20
-2303.691602833294
 42
0.0
 10
932.2676072338945
 20
-2299.691602833294
 42
0.0
 10
928.2676072338945
 20
-2299.691602833294
 42
0.4142135623731065
 97
        3
330
27E04
330
27D08
330
27D09
 75
     0
 76
     1
 52
0.0
 41
5.0
 77
     0
 78
     1
 53
45.0
 43
49.34548077519878
 44
-5.24174566782176
 45
-0.4419417382415922
 46
0.4419417382415923
 79
     0
 47
0.0648433176565354
 98
        2
 10
935.1495581801419
 20
-2298.220571519687
 10
930.9328183757545
 20
-2301.397894195675
  0
LWPOLYLINE
  5
27D0D
330
18
100
AcDbEntity
  8
実線
100
AcDbPolyline
 90
        4
 70
     1
 43
0.0
 10
735.9317019242821
 20
-2179.691602833293
 10
721.9317019242821
 20
-2179.691602833293
 10
721.9317019242821
 20
-2301.691602833294
 10
735.9317019242821
 20
-2301.691602833294
  0
LINE
  5
27D13
330
18
100
AcDbEntity
  8
中心線
 48
0.5
100
AcDbLine
 10
740.9317019242821
 20
-2264.691602833294
 30
0.0
 11
716.9317019242821
 21
-2264.691602833294
 31
0.0
  0
LINE
  5
27D14
330
18
100
AcDbEntity
  8
中心線
 48
0.5
100
AcDbLine
 10
740.9317019242821
 20
-2288.691602833293
 30
0.0
 11
716.9317019242821
 21
-2288.691602833293
 31
0.0
  0
CIRCLE
  5
27D1A
330
18
100
AcDbEntity
  8
細線
100
AcDbCircle
 10
641.9317019242829
 20
-2183.191602833293
 30
0.0
 40
2.5
  0
LINE
  5
27D1B
330
18
100
AcDbEntity
  8
中心線
 48
0.5
100
AcDbLine
 10
641.9317019242827
 20
-2190.691602833294
 30
0.0
 11
641.9317019242829
 21
-2175.691602833293
 31
0.0
  0
CIRCLE
  5
27D1C
330
18
100
AcDbEntity
  8
実線
100
AcDbCircle
 10
641.9317019242829
 20
-2183.191602833293
 30
0.0
 40
2.066999999999999
  0
LINE
  5
27D34
330
18
100
AcDbEntity
  8
中心線
 48
0.5
100
AcDbLine
 10
649.4317019242829
 20
-2183.191602833293
 30
0.0
 11
634.4317019242829
 21
-2183.191602833293
 31
0.0
  0
LINE
  5
27D35
330
18
100
AcDbEntity
  8
中心線
 48
0.5
100
AcDbLine
 10
634.4317019242829
 20
-2298.191602833294
 30
0.0
 11
649.4317019242829
 21
-2298.191602833294
 31
0.0
  0
CIRCLE
  5
27D37
330
18
100
AcDbEntity
  8
実線
100
AcDbCircle
 10
641.9317019242829
 20
-2298.191602833294
 30
0.0
 40
2.066999999999999
  0
CIRCLE
  5
27D38
330
18
100
AcDbEntity
  8
細線
100
AcDbCircle
 10
641.9317019242829
 20
-2298.191602833294
 30
0.0
 40
2.5
  0
LINE
  5
27D39
330
18
100
AcDbEntity
  8
中心線
 48
0.5
100
AcDbLine
 10
641.9317019242829
 20
-2290.691602833294
 30
0.0
 11
641.9317019242829
 21
-2305.691602833293
 31
0.0
  0
LINE
  5
27D3A
330
18
100
AcDbEntity
  8
中心線
 48
0.5
100
AcDbLine
 10
705.9317019242829
 20
-2190.691602833294
 30
0.0
 11
705.9317019242829
 21
-2175.691602833293
 31
0.0
  0
CIRCLE
  5
27D3B
330
18
100
AcDbEntity
  8
実線
100
AcDbCircle
 10
705.9317019242829
 20
-2183.191602833293
 30
0.0
 40
2.066999999999999
  0
CIRCLE
  5
27D3C
330
18
100
AcDbEntity
  8
細線
100
AcDbCircle
 10
705.9317019242829
 20
-2183.191602833293
 30
0.0
 40
2.5
  0
LINE
  5
27D3D
330
18
100
AcDbEntity
  8
実線
100
AcDbLine
 10
721.7317019242821
 20
-2193.691602833293
 30
0.0
 11
721.7317019242821
 21
-2175.691602833293
 31
0.0
  0
LINE
  5
27D55
330
18
100
AcDbEntity
  8
中心線
 48
0.5
100
AcDbLine
 10
713.4317019242829
 20
-2183.191602833293
 30
0.0
 11
698.4317019242829
 21
-2183.191602833293
 31
0.0
  0
LINE
  5
27D56
330
18
100
AcDbEntity
  8
中心線
 48
0.5
100
AcDbLine
 10
698.4317019242829
 20
-2298.191602833294
 30
0.0
 11
713.4317019242829
 21
-2298.191602833294
 31
0.0
  0
CIRCLE
  5
27D57
330
18
100
AcDbEntity
  8
実線
100
AcDbCircle
 10
705.9317019242829
 20
-2298.191602833294
 30
0.0
 40
2.066999999999999
  0
CIRCLE
  5
27D58
330
18
100
AcDbEntity
  8
細線
100
AcDbCircle
 10
705.9317019242829
 20
-2298.191602833294
 30
0.0
 40
2.5
  0
LINE
  5
27D59
330
18
100
AcDbEntity
  8
中心線
 48
0.5
100
AcDbLine
 10
705.9317019242829
 20
-2290.691602833294
 30
0.0
 11
705.9317019242829
 21
-2305.691602833293
 31
0.0
  0
LINE
  5
27D5A
330
18
100
AcDbEntity
  8
実線
100
AcDbLine
 10
721.7317019242821
 20
-2287.691602833294
 30
0.0
 11
721.7317019242821
 21
-2305.691602833293
 31
0.0
  0
CIRCLE
  5
27D9B
330
18
100
AcDbEntity
  8
実線
100
AcDbCircle
 10
909.2676072338946
 20
-2185.691602833294
 30
0.0
 40
4.75
  0
CIRCLE
  5
27D9C
330
18
100
AcDbEntity
  8
0
  6
Continuous
100
AcDbCircle
 10
909.2676072338946
 20
-2185.691602833294
 30
0.0
 40
4.25
  0
CIRCLE
  5
27D9D
330
18
100
AcDbEntity
  8
0
  6
Continuous
100
AcDbCircle
 10
909.2676072338946
 20
-2185.691602833294
 30
0.0
 40
3.749999999999991
  0
LWPOLYLINE
  5
27D9E
330
18
100
AcDbEntity
  8
実線
100
AcDbPolyline
 90
        4
 70
     1
 43
0.0
 10
903.7676072338944
 20
-2179.691602833294
 10
915.7676072338945
 20
-2179.691602833294
 10
915.7676072338945
 20
-2301.691602833294
 10
903.7676072338944
 20
-2301.691602833294
  0
LINE
  5
27D9F
330
18
100
AcDbEntity
  8
実線
100
AcDbLine
 10
901.7676072338945
 20
-2175.691602833293
 30
0.0
 11
901.7676072338945
 21
-2193.691602833293
 31
0.0
  0
LINE
  5
27DE3
330
18
100
AcDbEntity
  8
中心線
 48
0.5
100
AcDbLine
 10
896.7676072338944
 20
-2183.191602833293
 30
0.0
 11
911.7676072338944
 21
-2183.191602833293
 31
0.0
  0
LINE
  5
27DE4
330
18
100
AcDbEntity
  8
中心線
 48
0.5
100
AcDbLine
 10
896.7676072338944
 20
-2298.191602833294
 30
0.0
 11
911.7676072338944
 21
-2298.191602833294
 31
0.0
  0
LINE
  5
27DE7
330
18
100
AcDbEntity
  8
中心線
 48
0.5
100
AcDbLine
 10
909.7676072338945
 20
-2292.457602233294
 30
0.0
 11
909.7676072338945
 21
-2260.925603433293
 31
0.0
  0
LINE
  5
27DE8
330
18
100
AcDbEntity
  8
実線
100
AcDbLine
 10
902.1676072338944
 20
-2193.691602833293
 30
0.0
 11
902.1676072338944
 21
-2287.691602833294
 31
0.0
  0
CIRCLE
  5
27DE9
330
18
100
AcDbEntity
  8
細線
 48
2.0
100
AcDbCircle
 10
909.7676072338947
 20
-2288.691602833294
 30
0.0
 40
2.0
  0
CIRCLE
  5
27DEA
330
18
100
AcDbEntity
  8
実線
100
AcDbCircle
 10
909.7676072338947
 20
-2288.691602833294
 30
0.0
 40
1.75
  0
LINE
  5
27DEB
330
18
100
AcDbEntity
  8
0
  6
Continuous
100
AcDbLine
 10
909.2676072338946
 20
-2293.382201333293
 30
0.0
 11
911.2676072338945
 21
-2294.536902233294
 31
0.0
  0
LINE
  5
27DEC
330
18
100
AcDbEntity
  8
0
  6
Continuous
100
AcDbLine
 10
911.2676072338945
 20
-2296.846303433294
 30
0.0
 11
909.2676072338946
 21
-2298.001004333295
 31
0.0
  0
CIRCLE
  5
27DED
330
18
100
AcDbEntity
  8
実線
100
AcDbCircle
 10
909.2676072338946
 20
-2295.691602833294
 30
0.0
 40
4.75
  0
LINE
  5
27DEE
330
18
100
AcDbEntity
  8
中心線
 48
0.2
100
AcDbLine
 10
906.001607233895
 20
-2288.691602833294
 30
0.0
 11
913.533606633895
 21
-2288.691602833294
 31
0.0
  0
CIRCLE
  5
27DEF
330
18
100
AcDbEntity
  8
0
  6
Continuous
100
AcDbCircle
 10
909.2676072338946
 20
-2295.691602833294
 30
0.0
 40
4.25
  0
CIRCLE
  5
27DF0
330
18
100
AcDbEntity
  8
0
  6
Continuous
100
AcDbCircle
 10
909.2676072338946
 20
-2295.691602833294
 30
0.0
 40
3.749999999999991
  0
LINE
  5
27DF1
330
18
100
AcDbEntity
  8
0
  6
Continuous
100
AcDbLine
 10
909.2676072338946
 20
-2293.382201833294
 30
0.0
 11
907.2676062338869
 21
-2294.536902633293
 31
0.0
  0
LINE
  5
27DF2
330
18
100
AcDbEntity
  8
0
  6
Continuous
100
AcDbLine
 10
909.2676072338946
 20
-2298.001003833295
 30
0.0
 11
907.2676062338869
 21
-2296.846303033293
 31
0.0
  0
LINE
  5
27DF3
330
18
100
AcDbEntity
  8
0
  6
Continuous
100
AcDbLine
 10
907.2676072338946
 20
-2294.536902333293
 30
0.0
 11
907.2676072338946
 21
-2296.846303333293
 31
0.0
  0
LINE
  5
27DF4
330
18
100
AcDbEntity
  8
実線
100
AcDbLine
 10
901.7676072338945
 20
-2287.691602833294
 30
0.0
 11
903.7676072338944
 21
-2287.691602833294
 31
0.0
  0
LINE
  5
27DF5
330
18
100
AcDbEntity
  8
実線
100
AcDbLine
 10
901.7676072338945
 20
-2305.691602833295
 30
0.0
 11
901.7676072338945
 21
-2287.691602833294
 31
0.0
  0
LINE
  5
27DF6
330
18
100
AcDbEntity
  8
0
  6
Continuous
100
AcDbLine
 10
911.2676072338945
 20
-2294.536902333293
 30
0.0
 11
911.2676072338945
 21
-2296.846303333293
 31
0.0
  0
LINE
  5
27DF7
330
18
100
AcDbEntity
  8
0
  6
Continuous
100
AcDbLine
 10
911.2676072338945
 20
-2186.846303433294
 30
0.0
 11
909.2676072338946
 21
-2188.001004333294
 31
0.0
  0
LINE
  5
27DF8
330
18
100
AcDbEntity
  8
0
  6
Continuous
100
AcDbLine
 10
909.2676072338946
 20
-2183.382201333293
 30
0.0
 11
911.2676072338945
 21
-2184.536902233294
 31
0.0
  0
CIRCLE
  5
27DF9
330
18
100
AcDbEntity
  8
実線
100
AcDbCircle
 10
909.7676072338947
 20
-2264.691602833294
 30
0.0
 40
1.75
  0
CIRCLE
  5
27DFA
330
18
100
AcDbEntity
  8
細線
 48
2.0
100
AcDbCircle
 10
909.7676072338947
 20
-2264.691602833294
 30
0.0
 40
2.0
  0
LINE
  5
27DFB
330
18
100
AcDbEntity
  8
中心線
 48
0.2
100
AcDbLine
 10
906.001607233895
 20
-2264.691602833294
 30
0.0
 11
913.533606633895
 21
-2264.691602833294
 31
0.0
  0
LINE
  5
27DFC
330
18
100
AcDbEntity
  8
0
  6
Continuous
100
AcDbLine
 10
909.2676072338946
 20
-2183.382201833294
 30
0.0
 11
907.2676062338869
 21
-2184.536902633293
 31
0.0
  0
LINE
  5
27DFD
330
18
100
AcDbEntity
  8
0
  6
Continuous
100
AcDbLine
 10
909.2676072338946
 20
-2188.001003833294
 30
0.0
 11
907.2676062338869
 21
-2186.846303033293
 31
0.0
  0
LINE
  5
27DFE
330
18
100
AcDbEntity
  8
0
  6
Continuous
100
AcDbLine
 10
907.2676072338946
 20
-2184.536902333293
 30
0.0
 11
907.2676072338946
 21
-2186.846303333293
 31
0.0
  0
LINE
  5
27DFF
330
18
100
AcDbEntity
  8
実線
100
AcDbLine
 10
901.7676072338945
 20
-2193.691602833293
 30
0.0
 11
903.7676072338944
 21
-2193.691602833293
 31
0.0
  0
LINE
  5
27E00
330
18
100
AcDbEntity
  8
0
  6
Continuous
100
AcDbLine
 10
911.2676072338945
 20
-2184.536902333293
 30
0.0
 11
911.2676072338945
 21
-2186.846303333293
 31
0.0
  0
LINE
  5
27E02
330
18
100
AcDbEntity
  8
実線
100
AcDbLine
 10
941.7676072338945
 20
-2190.691602833294
 30
0.0
 11
941.7676072338945
 21
-2175.691602833293
 31
0.0
  0
LINE
  5
27E03
330
18
100
AcDbEntity
  8
実線
100
AcDbLine
 10
927.7676072338945
 20
-2305.691602833295
 30
0.0
 11
941.7676072338945
 21
-2305.691602833295
 31
0.0
  0
LINE
  5
27E04
102
{ACAD_REACTORS
330
27D0A
102
}
330
18
100
AcDbEntity
  8
中心線
 48
0.5
100
AcDbLine
 10
932.2676072338945
 20
-2292.691602833294
 30
0.0
 11
932.2676072338945
 21
-2306.691602833295
 31
0.0
  0
LINE
  5
27E05
330
18
100
AcDbEntity
  8
実線
100
AcDbLine
 10
927.7676072338945
 20
-2305.691602833295
 30
0.0
 11
927.7676072338953
 21
-2299.691602833294
 31
0.0
  0
LINE
  5
27E06
330
18
100
AcDbEntity
  8
実線
100
AcDbLine
 10
941.7676072338945
 20
-2290.691602833294
 30
0.0
 11
941.7676072338945
 21
-2305.691602833295
 31
0.0
  0
LINE
  5
27E07
330
18
100
AcDbEntity
  8
実線
100
AcDbLine
 10
927.7676072338945
 20
-2175.691602833293
 30
0.0
 11
941.7676072338945
 21
-2175.691602833293
 31
0.0
  0
LINE
  5
27E08
330
18
100
AcDbEntity
  8
実線
100
AcDbLine
 10
927.7676072338945
 20
-2175.691602833293
 30
0.0
 11
927.7676072338953
 21
-2181.691602833294
 31
0.0
  0
TEXT
  5
2A1A0
330
18
100
AcDbEntity
  8
0
100
AcDbText
 10
458.3934220901907
 20
-2224.988446291348
 30
0.0
 40
2.0
  1
SER No.******
 50
270.0
 41
1.199999999999999
  7
MS\U+FF7A\U+FF9E\U+FF7C\U+FF6F\U+FF78N
 11
458.0280783401907
 21
-2224.988446291348
 31
0.0
100
AcDbText
 73
     1
  0
TEXT
  5
2A1A1
330
18
100
AcDbEntity
  8
0
100
AcDbText
 10
461.2174138935713
 20
-2225.01557286416
 30
0.0
 40
2.6
  1
MODEL:CLNA500MA
 50
270.0
 41
1.199999999999999
  7
MS\U+FF7A\U+FF9E\U+FF7C\U+FF6F\U+FF78N
 11
460.7424670185713
 21
-2225.01557286416
 31
0.0
100
AcDbText
 73
     1
  0
HATCH
  5
2A1A2
330
18
100
AcDbEntity
  8
0
100
AcDbHatch
 10
0.0
 20
0.0
 30
0.0
210
0.0
220
0.0
230
1.0
  2
SOLID
 70
     1
 71
     1
 91
        2
 92
       17
 93
        1
 72
     2
 10
455.0899551924479
 20
-2228.140649334372
 40
0.6007500000000002
 50
0.0
 51
360.0
 73
     1
 97
        1
330
2A1A9
 92
        1
 93
        8
 72
     2
 10
455.0918179831454
 20
-2228.141580729721
 40
1.00311322310025
 50
23.58977727260604
 51
179.9468005913668
 73
     1
 72
     2
 10
454.889705192448
 20
-2228.140649334372
 40
0.8009999999999999
 50
180.0
 51
360.0
 73
     1
 72
     1
 10
455.6907051924484
 20
-2228.140649334372
 11
455.6907051924484
 21
-2230.383449334372
 72
     1
 10
455.6907051924484
 20
-2230.383449334372
 11
453.688205192448
 21
-2230.143149334372
 72
     1
 10
453.688205192448
 20
-2230.143149334372
 11
453.688205192448
 21
-2225.737649334372
 72
     1
 10
453.688205192448
 20
-2225.737649334372
 11
456.8922051924476
 21
-2226.138149334372
 72
     1
 10
456.8922051924476
 20
-2226.138149334372
 11
456.8922051924476
 21
-2230.543649334372
 72
     1
 10
456.8922051924476
 20
-2230.543649334372
 11
456.011105192448
 21
-2227.740149334373
 97
        8
330
2A1AF
330
2A1AA
330
2A1AE
330
2A1AC
330
2A1A4
330
2A1B4
330
2A1A3
330
2A1AD
 75
     0
 76
     1
 98
        1
 10
457.5694300082081
 20
-2026.662939240137
  0
LINE
  5
2A1A3
102
{ACAD_REACTORS
330
2A1A2
102
}
330
18
100
AcDbEntity
  8
0
100
AcDbLine
 10
456.8922051924476
 20
-2226.138149334372
 30
0.0
 11
456.8922051924476
 21
-2230.543649334372
 31
0.0
  0
LINE
  5
2A1A4
102
{ACAD_REACTORS
330
2A1A2
102
}
330
18
100
AcDbEntity
  8
0
100
AcDbLine
 10
453.688205192448
 20
-2225.737649334372
 30
0.0
 11
453.688205192448
 21
-2230.143149334372
 31
0.0
  0
LINE
  5
2A1A5
330
18
100
AcDbEntity
  8
0
100
AcDbLine
 10
464.8346817744462
 20
-2257.691602833293
 30
0.0
 11
464.8346817744462
 21
-2223.691602833294
 31
0.0
  0
LINE
  5
2A1A6
330
18
100
AcDbEntity
  8
0
100
AcDbLine
 10
457.8346817744463
 20
-2223.191602833294
 30
0.0
 11
457.8346817744463
 21
-2258.191602833294
 31
0.0
  0
LINE
  5
2A1A7
330
18
100
AcDbEntity
  8
0
100
AcDbLine
 10
452.8346817744462
 20
-2223.691602833294
 30
0.0
 11
452.8346817744462
 21
-2257.691602833293
 31
0.0
  0
TEXT
  5
2A1A8
330
18
100
AcDbEntity
  8
0
100
AcDbText
 10
453.7359393310319
 20
-2231.359748558759
 30
0.0
 40
1.44
  1
DENSO
 50
270.0
 41
1.3
  7
TIMESNR
100
AcDbText
  0
CIRCLE
  5
2A1A9
102
{ACAD_REACTORS
330
2A1A2
102
}
330
18
100
AcDbEntity
  8
0
100
AcDbCircle
 10
455.0899551924479
 20
-2228.140649334372
 30
0.0
 40
0.6007500000000002
  0
ARC
  5
2A1AA
102
{ACAD_REACTORS
330
2A1A2
102
}
330
18
100
AcDbEntity
  8
0
100
AcDbCircle
 10
454.889705192448
 20
-2228.140649334372
 30
0.0
 40
0.8009999999999999
100
AcDbArc
 50
180.0
 51
0.0
  0
TEXT
  5
2A1AB
330
18
100
AcDbEntity
  8
0
100
AcDbText
 10
455.4327017400177
 20
-2231.4811616689
 30
0.0
 40
1.44
  1
NIKKI
 50
270.0
 41
1.25
  7
TIMESNR
100
AcDbText
  0
LINE
  5
2A1AC
102
{ACAD_REACTORS
330
2A1A2
102
}
330
18
100
AcDbEntity
  8
0
100
AcDbLine
 10
453.688205192448
 20
-2230.143149334372
 30
0.0
 11
455.6907051924484
 21
-2230.383449334372
 31
0.0
  0
LINE
  5
2A1AD
102
{ACAD_REACTORS
330
2A1A2
102
}
330
18
100
AcDbEntity
  8
0
100
AcDbLine
 10
456.8922051924476
 20
-2230.543649334372
 30
0.0
 11
456.011105192448
 21
-2227.740149334373
 31
0.0
  0
LINE
  5
2A1AE
102
{ACAD_REACTORS
330
2A1A2
102
}
330
18
100
AcDbEntity
  8
0
100
AcDbLine
 10
455.6907051924484
 20
-2228.140649334372
 30
0.0
 11
455.6907051924484
 21
-2230.383449334372
 31
0.0
  0
ARC
  5
2A1AF
102
{ACAD_REACTORS
330
2A1A2
102
}
330
18
100
AcDbEntity
  8
0
100
AcDbCircle
 10
455.0918179831454
 20
-2228.141580729721
 30
0.0
 40
1.00311322310025
100
AcDbArc
 50
23.58977727260604
 51
179.9468005913668
  0
LINE
  5
2A1B0
330
18
100
AcDbEntity
  8
0
100
AcDbLine
 10
453.3346817744463
 20
-2258.191602833294
 30
0.0
 11
464.3346817744462
 21
-2258.191602833294
 31
0.0
  0
ARC
  5
2A1B1
330
18
100
AcDbEntity
  8
0
100
AcDbCircle
 10
464.3346817744462
 20
-2257.691602833293
 30
0.0
 40
0.5
100
AcDbArc
 50
270.0
 51
0.0
  0
ARC
  5
2A1B2
330
18
100
AcDbEntity
  8
0
100
AcDbCircle
 10
453.3346817744463
 20
-2257.691602833293
 30
0.0
 40
0.5
100
AcDbArc
 50
180.0
 51
270.0
  0
LINE
  5
2A1B3
330
18
100
AcDbEntity
  8
0
100
AcDbLine
 10
464.3346817744462
 20
-2223.191602833294
 30
0.0
 11
453.3346817744463
 21
-2223.191602833294
 31
0.0
  0
LINE
  5
2A1B4
102
{ACAD_REACTORS
330
2A1A2
102
}
330
18
100
AcDbEntity
  8
0
100
AcDbLine
 10
453.688205192448
 20
-2225.737649334372
 30
0.0
 11
456.8922051924476
 21
-2226.138149334372
 31
0.0
  0
ARC
  5
2A1B5
330
18
100
AcDbEntity
  8
0
100
AcDbCircle
 10
464.3346817744462
 20
-2223.691602833294
 30
0.0
 40
0.5
100
AcDbArc
 50
0.0
 51
90.0
  0
ARC
  5
2A1B6
330
18
100
AcDbEntity
  8
0
100
AcDbCircle
 10
453.3346817744463
 20
-2223.691602833294
 30
0.0
 40
0.5
100
AcDbArc
 50
90.0
 51
180.0
  0
TEXT
  5
2A1B7
330
18
100
AcDbEntity
  8
0
100
AcDbText
 10
455.339173188257
 20
-2242.813263227846
 30
137.5
 40
1.5
  1
SN-16140
 50
270.0
  7
MS\U+FF7A\U+FF9E\U+FF7C\U+FF6F\U+FF78N
 11
455.0651653757571
 21
-2242.813263227846
 31
137.5
100
AcDbText
 73
     1
  0
TEXT
  5
2A1B8
330
18
100
AcDbEntity
  8
0
100
AcDbText
 10
453.4693871378709
 20
-2242.813263227846
 30
137.5
 40
1.5
  1
MADE IN JAPAN
 50
270.0
  7
MS\U+FF7A\U+FF9E\U+FF7C\U+FF6F\U+FF78N
 11
453.1953793253709
 21
-2242.813263227846
 31
137.5
100
AcDbText
 73
     1
  0
HATCH
  5
2A1BF
330
18
100
AcDbEntity
  8
細線
100
AcDbHatch
 10
0.0
 20
0.0
 30
0.0
210
0.0
220
0.0
230
1.0
  2
ANSI31
 70
     0
 71
     0
 91
        2
 92
        7
 72
     1
 73
     1
 93
        8
 10
462.0238394763941
 20
-2220.162445131347
 42
0.8256926312273156
 10
460.8346817744463
 20
-2213.991602833294
 42
0.0
 10
460.8346817744463
 20
-2213.458269499961
 42
0.0
 10
459.7680151077796
 20
-2214.524936166627
 42
0.0
 10
460.8346817744463
 20
-2215.591602833294
 42
0.0
 10
460.8346817744463
 20
-2215.05826949996
 42
-0.8235057969380607
 10
461.6377552913313
 20
-2219.168009683512
 42
0.0
 10
462.3280151077801
 20
-2219.85826949996
 42
0.0
 97
        0
 92
        7
 72
     1
 73
     1
 93
        8
 10
459.6455240724994
 20
-2214.220760535241
 42
0.8256926312273465
 10
460.8346817744463
 20
-2220.391602833294
 42
0.0
 10
460.8346817744463
 20
-2220.924936166627
 42
0.0
 10
461.9013484411129
 20
-2219.85826949996
 42
0.0
 10
460.8346817744463
 20
-2218.791602833294
 42
0.0
 10
460.8346817744463
 20
-2219.324936166628
 42
-0.8235057969380607
 10
460.0316082575613
 20
-2215.215195983075
 42
0.0
 10
459.3413484411134
 20
-2214.524936166627
 42
0.0
 97
        0
 75
     0
 76
     1
 52
270.0
 41
0.0106666666666667
 77
     0
 78
     1
 53
314.9999999999999
 43
350.3155587133956
 44
-1835.053043621028
 45
0.0239473496561844
 46
0.0239473496561844
 79
     0
 47
0.0
 98
        2
 10
463.1134549251086
 20
-2218.524496796897
 10
460.152005338426
 20
-2219.834368729468
1001
ACAD
1010
0.0
1020
0.0
1030
0.0
  0
LINE
  5
2A1C0
102
{ACAD_REACTORS
330
2A1BF
102
}
330
18
100
AcDbEntity
  8
細線
100
AcDbLine
 10
460.8346817744463
 20
-2218.791602833294
 30
0.0
 11
460.8346817744463
 21
-2219.324936166628
 31
0.0
  0
LINE
  5
2A1C1
102
{ACAD_REACTORS
330
2A1BF
102
}
330
18
100
AcDbEntity
  8
細線
100
AcDbLine
 10
461.9013484411129
 20
-2219.85826949996
 30
0.0
 11
460.8346817744463
 21
-2218.791602833294
 31
0.0
  0
LINE
  5
2A1C2
102
{ACAD_REACTORS
330
2A1BF
102
}
330
18
100
AcDbEntity
  8
細線
100
AcDbLine
 10
461.9013484411129
 20
-2219.85826949996
 30
0.0
 11
460.8346817744463
 21
-2220.924936166627
 31
0.0
  0
LINE
  5
2A1C3
102
{ACAD_REACTORS
330
2A1BF
102
}
330
18
100
AcDbEntity
  8
細線
100
AcDbLine
 10
460.8346817744463
 20
-2215.591602833294
 30
0.0
 11
460.8346817744463
 21
-2215.05826949996
 31
0.0
  0
LINE
  5
2A1C4
102
{ACAD_REACTORS
330
2A1BF
102
}
330
18
100
AcDbEntity
  8
細線
100
AcDbLine
 10
459.7680151077796
 20
-2214.524936166627
 30
0.0
 11
460.8346817744463
 21
-2215.591602833294
 31
0.0
  0
LINE
  5
2A1C5
102
{ACAD_REACTORS
330
2A1BF
102
}
330
18
100
AcDbEntity
  8
細線
100
AcDbLine
 10
459.7680151077796
 20
-2214.524936166627
 30
0.0
 11
460.8346817744463
 21
-2213.458269499961
 31
0.0
  0
MTEXT
  5
2A1C6
330
18
100
AcDbEntity
  8
細線
100
AcDbMText
 10
462.288627798171
 20
-2215.449195088238
 30
0.0
 40
2.933333333333333
 41
4.005499725684842
 71
     1
 72
     5
  1
{\fImpact|b0|i0|c128|p49;15}
  7
MS\U+FF7A\U+FF9E\U+FF7C\U+FF6F\U+FF78
 11
-0.0000000000000002
 21
-1.0
 31
0.0
 73
     1
 44
1.0
1001
ACAD
1000
MTEXTBEGIN
1070
    73
1070
     1
1070
    44
1040
1.0
1070
    74
1070
     0
1000
MTEXTEND
1000
ACAD_MTEXT_DEFINED_HEIGHT_BEGIN
1070
    46
1040
224.1841841841842
1000
ACAD_MTEXT_DEFINED_HEIGHT_END
  0
ARC
  5
2A1C7
102
{ACAD_REACTORS
330
2A1BF
102
}
330
18
100
AcDbEntity
  8
細線
100
AcDbCircle
 10
460.8346817744463
 20
-2217.191602833294
 30
0.0
 40
2.133333333333333
100
AcDbArc
 50
112.1133855977474
 51
270.0
  0
ARC
  5
2A1C8
102
{ACAD_REACTORS
330
2A1BF
102
}
330
18
100
AcDbEntity
  8
細線
100
AcDbCircle
 10
460.8346817744463
 20
-2217.191602833294
 30
0.0
 40
3.2
100
AcDbArc
 50
111.8150544339211
 51
270.0
  0
LINE
  5
2A1C9
102
{ACAD_REACTORS
330
2A1BF
102
}
330
18
100
AcDbEntity
  8
細線
100
AcDbLine
 10
459.3413484411134
 20
-2214.524936166627
 30
0.0
 11
460.0316082575613
 21
-2215.215195983075
 31
0.0
  0
LINE
  5
2A1CA
102
{ACAD_REACTORS
330
2A1BF
102
}
330
18
100
AcDbEntity
  8
細線
100
AcDbLine
 10
459.3413484411134
 20
-2214.524936166627
 30
0.0
 11
459.6455240724994
 21
-2214.220760535241
 31
0.0
  0
LINE
  5
2A1CB
102
{ACAD_REACTORS
330
2A1BF
102
}
330
18
100
AcDbEntity
  8
細線
100
AcDbLine
 10
462.3280151077801
 20
-2219.85826949996
 30
0.0
 11
461.6377552913313
 21
-2219.168009683512
 31
0.0
  0
LINE
  5
2A1CC
102
{ACAD_REACTORS
330
2A1BF
102
}
330
18
100
AcDbEntity
  8
細線
100
AcDbLine
 10
462.3280151077801
 20
-2219.85826949996
 30
0.0
 11
462.0238394763941
 21
-2220.162445131347
 31
0.0
  0
ARC
  5
2A1CD
102
{ACAD_REACTORS
330
2A1BF
102
}
330
18
100
AcDbEntity
  8
細線
100
AcDbCircle
 10
460.8346817744463
 20
-2217.191602833294
 30
0.0
 40
2.133333333333333
100
AcDbArc
 50
292.1133855977474
 51
90.0
  0
ARC
  5
2A1CE
102
{ACAD_REACTORS
330
2A1BF
102
}
330
18
100
AcDbEntity
  8
細線
100
AcDbCircle
 10
460.8346817744463
 20
-2217.191602833294
 30
0.0
 40
3.2
100
AcDbArc
 50
291.8150544339212
 51
90.0
  0
LINE
  5
2A1CF
102
{ACAD_REACTORS
330
2A1BF
102
}
330
18
100
AcDbEntity
  8
細線
100
AcDbLine
 10
460.8346817744463
 20
-2213.991602833294
 30
0.0
 11
460.8346817744463
 21
-2213.458269499961
 31
0.0
  0
LINE
  5
2A1D0
102
{ACAD_REACTORS
330
2A1BF
102
}
330
18
100
AcDbEntity
  8
細線
100
AcDbLine
 10
460.8346817744463
 20
-2220.391602833294
 30
0.0
 11
460.8346817744463
 21
-2220.924936166627
 31
0.0
  0
CIRCLE
  5
2A1D1
330
18
100
AcDbEntity
  8
細線
100
AcDbCircle
 10
460.8346817744463
 20
-2217.191602833294
 30
0.0
 40
4.0
  0
LINE
  5
2A1D3
102
{ACAD_REACTORS
330
2A1EA
102
}
330
18
100
AcDbEntity
  8
細線
100
AcDbLine
 10
456.8346817744463
 20
-2260.691602833293
 30
0.0
 11
456.8346817744463
 21
-2272.691602833293
 31
0.0
  0
LINE
  5
2A1D4
102
{ACAD_REACTORS
330
2A1EA
102
}
330
18
100
AcDbEntity
  8
細線
100
AcDbLine
 10
461.3346817744463
 20
-2260.191602833293
 30
0.0
 11
461.3346817744463
 21
-2273.191602833294
 31
0.0
  0
LINE
  5
2A1D5
330
18
100
AcDbEntity
  8
細線
100
AcDbLine
 10
464.8346817744463
 20
-2272.691602833293
 30
0.0
 11
464.8346817744463
 21
-2260.691602833293
 31
0.0
  0
LINE
  5
2A1D6
102
{ACAD_REACTORS
330
2A1EA
102
}
330
18
100
AcDbEntity
  8
細線
100
AcDbLine
 10
464.3346817744463
 20
-2260.191602833293
 30
0.0
 11
457.3346817744463
 21
-2260.191602833293
 31
0.0
  0
LINE
  5
2A1D7
102
{ACAD_REACTORS
330
2A1EA
102
}
330
18
100
AcDbEntity
  8
細線
100
AcDbLine
 10
457.3346817744463
 20
-2273.191602833294
 30
0.0
 11
464.3346817744463
 21
-2273.191602833294
 31
0.0
  0
TEXT
  5
2A1D8
102
{ACAD_REACTORS
330
2A1EA
102
}
330
18
100
AcDbEntity
  8
細線
100
AcDbText
 10
459.6091419548279
 20
-2265.291539938429
 30
0.0
 40
1.08
  1
NIKKI
 50
270.0
 41
1.354166666666666
  7
TIMESNR
100
AcDbText
  0
LINE
  5
2A1D9
102
{ACAD_REACTORS
330
2A1EA
102
}
330
18
100
AcDbEntity
  8
細線
100
AcDbLine
 10
460.7037695441507
 20
-2264.529811166626
 30
0.0
 11
460.0429445441508
 21
-2262.251967416626
 31
0.0
  0
LINE
  5
2A1DA
102
{ACAD_REACTORS
330
2A1EA
102
}
330
18
100
AcDbEntity
  8
細線
100
AcDbLine
 10
458.3007695441505
 20
-2260.624936166626
 30
0.0
 11
460.7037695441507
 21
-2260.950342416627
 31
0.0
  0
TEXT
  5
2A1DB
102
{ACAD_REACTORS
330
2A1EA
102
}
330
18
100
AcDbEntity
  8
細線
100
AcDbText
 10
458.3365701480883
 20
-2265.192891786442
 30
0.0
 40
1.08
  1
DENSO
 50
270.0
 41
1.408333333333333
  7
TIMESNR
100
AcDbText
  0
LINE
  5
2A1DC
102
{ACAD_REACTORS
330
2A1EA
102
}
330
18
100
AcDbEntity
  8
細線
100
AcDbLine
 10
459.8026445441504
 20
-2262.577373666626
 30
0.0
 11
459.8026445441504
 21
-2264.399648666627
 31
0.0
  0
LINE
  5
2A1DD
102
{ACAD_REACTORS
330
2A1EA
102
}
330
18
100
AcDbEntity
  8
細線
100
AcDbLine
 10
458.3007695441505
 20
-2260.624936166626
 30
0.0
 11
458.3007695441505
 21
-2264.204404916626
 31
0.0
  0
ELLIPSE
  5
2A1DE
102
{ACAD_REACTORS
330
2A1EA
102
}
330
18
100
AcDbEntity
  8
細線
100
AcDbEllipse
 10
459.3520820441503
 20
-2262.577373666626
 30
0.0
 11
-0.0000000000000001
 21
-0.488109375
 31
0.0
210
0.0
220
0.0
230
1.0
 40
0.9230769230769231
 41
0.0
 42
6.283185307179586
  0
ELLIPSE
  5
2A1DF
102
{ACAD_REACTORS
330
2A1EA
102
}
330
18
100
AcDbEntity
  8
細線
100
AcDbEllipse
 10
459.3534791371734
 20
-2262.578130425348
 30
0.0
 11
-0.0000000000000001
 21
-0.8150294937689535
 31
0.0
210
0.0
220
0.0
230
1.0
 40
0.9230769230769231
 41
1.982515610014399
 42
4.711460475544681
  0
ELLIPSE
  5
2A1E0
102
{ACAD_REACTORS
330
2A1EA
102
}
330
18
100
AcDbEntity
  8
細線
100
AcDbEllipse
 10
459.2018945441508
 20
-2262.577373666626
 30
0.0
 11
-0.0000000000000001
 21
-0.6508125000000002
 31
0.0
210
0.0
220
0.0
230
1.0
 40
0.9230769230769231
 41
4.712388980384689
 42
7.853981633974482
  0
LINE
  5
2A1E1
102
{ACAD_REACTORS
330
2A1EA
102
}
330
18
100
AcDbEntity
  8
細線
100
AcDbLine
 10
458.3007695441505
 20
-2264.204404916626
 30
0.0
 11
459.8026445441504
 21
-2264.399648666627
 31
0.0
  0
LINE
  5
2A1E2
102
{ACAD_REACTORS
330
2A1EA
102
}
330
18
100
AcDbEntity
  8
細線
100
AcDbLine
 10
460.7037695441507
 20
-2260.950342416627
 30
0.0
 11
460.7037695441507
 21
-2264.529811166626
 31
0.0
  0
TEXT
  5
2A1E3
330
18
100
AcDbEntity
  8
細線
100
AcDbText
 10
462.1002718727171
 20
-2261.088180396942
 30
0.0
 40
2.0
  1
Certificate
 50
270.0
 41
0.8
  7
MS\U+FF7A\U+FF9E\U+FF7C\U+FF6F\U+FF78
100
AcDbText
  0
TEXT
  5
2A1E4
102
{ACAD_REACTORS
330
2A1EA
102
}
330
18
100
AcDbEntity
  8
細線
100
AcDbText
 10
457.2583235100869
 20
-2267.526422248384
 30
0.0
 40
0.8
  1
S20-0010A
 50
270.0
100
AcDbText
  0
LINE
  5
2A1E5
102
{ACAD_REACTORS
330
2A1EA
102
}
330
18
100
AcDbEntity
  8
細線
100
AcDbLine
 10
459.8440514851522
 20
-2261.960206171242
 30
0.0
 11
459.9238707563494
 21
-2262.046677048371
 31
0.0
  0
ARC
  5
2A1E6
102
{ACAD_REACTORS
330
2A1EA
102
}
330
18
100
AcDbEntity
  8
細線
100
AcDbCircle
 10
457.3346817744463
 20
-2260.691602833293
 30
0.0
 40
0.5
100
AcDbArc
 50
90.0
 51
180.0
  0
ARC
  5
2A1E7
102
{ACAD_REACTORS
330
2A1EA
102
}
330
18
100
AcDbEntity
  8
細線
100
AcDbCircle
 10
457.3346817744463
 20
-2272.691602833293
 30
0.0
 40
0.5
100
AcDbArc
 50
180.0
 51
270.0
  0
ARC
  5
2A1E8
330
18
100
AcDbEntity
  8
細線
100
AcDbCircle
 10
464.3346817744463
 20
-2272.691602833293
 30
0.0
 40
0.4999999999999999
100
AcDbArc
 50
270.0
 51
0.0
  0
ARC
  5
2A1E9
330
18
100
AcDbEntity
  8
細線
100
AcDbCircle
 10
464.3346817744463
 20
-2260.691602833293
 30
0.0
 40
0.5
100
AcDbArc
 50
0.0
 51
90.0
  0
HATCH
  5
2A1EA
330
18
100
AcDbEntity
  8
細線
100
AcDbHatch
 10
0.0
 20
0.0
 30
0.0
210
0.0
220
0.0
230
1.0
  2
ANSI31
 70
     0
 71
     1
 91
        5
 92
        1
 93
        6
 72
     1
 10
457.3346817744463
 20
-2273.191602833294
 11
464.3346817744463
 21
-2273.191602833294
 72
     1
 10
461.3346817744463
 20
-2260.191602833293
 11
461.3346817744463
 21
-2273.191602833294
 72
     1
 10
464.3346817744463
 20
-2260.191602833293
 11
457.3346817744463
 21
-2260.191602833293
 72
     2
 10
457.3346817744463
 20
-2260.691602833293
 40
0.5
 50
90.0
 51
180.0
 73
     1
 72
     1
 10
456.8346817744463
 20
-2260.691602833293
 11
456.8346817744463
 21
-2272.691602833293
 72
     2
 10
457.3346817744463
 20
-2272.691602833293
 40
0.5
 50
180.0
 51
270.0
 73
     1
 97
        6
330
2A1D7
330
2A1D4
330
2A1D6
330
2A1E6
330
2A1D3
330
2A1E7
 92
        9
 93
        4
 72
     1
 10
457.0333235100868
 20
-2267.376422248384
 11
458.2833235100868
 21
-2267.376422248384
 72
     1
 10
458.2833235100868
 20
-2267.376422248384
 11
458.2833235100868
 21
-2272.79308891505
 72
     1
 10
458.2833235100868
 20
-2272.793088915051
 11
457.0333235100867
 21
-2272.793088915051
 72
     1
 10
457.0333235100868
 20
-2272.793088915051
 11
457.0333235100868
 21
-2267.376422248384
 97
        1
330
2A1E4
 92
       16
 93
       10
 72
     1
 10
458.3007695441505
 20
-2260.624936166626
 11
460.7037695441507
 21
-2260.950342416627
 72
     1
 10
460.7037695441507
 20
-2260.950342416627
 11
460.7037695441507
 21
-2264.529811166626
 72
     1
 10
460.7037695441507
 20
-2264.529811166626
 11
460.0429445441508
 21
-2262.251967416626
 72
     3
 10
459.3534791371734
 20
-2262.578130425348
 11
-0.0000000000000001
 21
-0.8150294937689535
 40
0.9230769230769231
 50
115.3172642090603
 51
269.9423673102363
 73
     1
 72
     1
 10
459.8440514851522
 20
-2261.960206171242
 11
459.9238707563494
 21
-2262.046677048371
 72
     3
 10
459.2018945441508
 20
-2262.577373666626
 11
-0.0000000000000001
 21
-0.6508125000000002
 40
0.9230769230769231
 50
270.0
 51
450.0
 73
     1
 72
     3
 10
459.3520820441503
 20
-2262.577373666626
 11
-0.0000000000000001
 21
-0.488109375
 40
0.9230769230769231
 50
0.0
 51
360.0
 73
     1
 72
     1
 10
459.8026445441504
 20
-2262.577373666626
 11
459.8026445441504
 21
-2264.399648666627
 72
     1
 10
458.3007695441505
 20
-2264.204404916626
 11
459.8026445441504
 21
-2264.399648666627
 72
     1
 10
458.3007695441505
 20
-2260.624936166626
 11
458.3007695441505
 21
-2264.204404916626
 97
       10
330
2A1DA
330
2A1E2
330
2A1D9
330
2A1DF
330
2A1E5
330
2A1E0
330
2A1DE
330
2A1DC
330
2A1E1
330
2A1DD
 92
       24
 93
        4
 72
     1
 10
459.2318446575306
 20
-2264.903724623114
 11
461.0253581710443
 21
-2264.903724623114
 72
     1
 10
461.0253581710443
 20
-2264.903724623114
 11
461.0253581710443
 21
-2271.719670569059
 72
     1
 10
461.0253581710443
 20
-2271.71967056906
 11
459.2318446575306
 21
-2271.71967056906
 72
     1
 10
459.2318446575306
 20
-2271.71967056906
 11
459.2318446575306
 21
-2264.903724623114
 97
        1
330
2A1D8
 92
       24
 93
        4
 72
     1
 10
457.9527863643043
 20
-2264.872477372027
 11
459.7765701480883
 21
-2264.872477372027
 72
     1
 10
459.7765701480883
 20
-2264.872477372027
 11
459.7765701480883
 21
-2272.958441335991
 72
     1
 10
459.7765701480883
 20
-2272.958441335991
 11
457.9527863643043
 21
-2272.958441335991
 72
     1
 10
457.9527863643043
 20
-2272.958441335991
 11
457.9527863643043
 21
-2264.872477372028
 97
        1
330
2A1DB
 75
     0
 76
     1
 52
270.0
 41
5.0
 77
     0
 78
     1
 53
314.9999999999999
 43
285.5160723578915
 44
-2351.226121865318
 45
0.4419417382415923
 46
0.4419417382415922
 79
     0
 98
        2
 10
460.8799604870923
 20
-2263.739779994735
 10
460.8799604870923
 20
-2263.739779994735
1001
ACAD
1010
0.0
1020
0.0
1030
0.0
  0
LINE
  5
2A2FD
330
18
100
AcDbEntity
  8
実線
100
AcDbLine
 10
721.7317019242821
 20
-2303.691602833294
 30
0.0
 11
734.9317019242824
 21
-2303.691602833294
 31
0.0
  0
LINE
  5
2A2FE
330
18
100
AcDbEntity
  8
実線
100
AcDbLine
 10
734.9317019242824
 20
-2303.691602833294
 30
0.0
 11
734.9317019242824
 21
-2301.691602833294
 31
0.0
  0
LINE
  5
2AD73
330
18
100
AcDbEntity
  8
実線
100
AcDbLine
 10
793.2220874716017
 20
-2395.157401794416
 30
0.0
 11
802.9317019242821
 21
-2395.157401794416
 31
0.0
  0
LINE
  5
2AD75
330
18
100
AcDbEntity
  8
実線
100
AcDbLine
 10
562.1317019242826
 20
-2408.157401794416
 30
0.0
 11
721.7317019242812
 21
-2408.157401794416
 31
0.0
  0
LINE
  5
2AD76
330
18
100
AcDbEntity
  8
実線
100
AcDbLine
 10
562.1317019242826
 20
-2434.157401794416
 30
0.0
 11
721.7317019242812
 21
-2434.157401794416
 31
0.0
  0
LINE
  5
2AD77
330
18
100
AcDbEntity
  8
実線
100
AcDbLine
 10
561.9317019242826
 20
-2448.157401794415
 30
0.0
 11
721.9317019242812
 21
-2448.157401794416
 31
0.0
  0
LINE
  5
2AD78
330
18
100
AcDbEntity
  8
実線
100
AcDbLine
 10
547.9317019242825
 20
-2422.157401794415
 30
0.0
 11
561.9317019242826
 21
-2422.157401794415
 31
0.0
  0
LINE
  5
2AD79
330
18
100
AcDbEntity
  8
実線
100
AcDbLine
 10
561.9317019242826
 20
-2448.157401794415
 30
0.0
 11
547.9317019242825
 21
-2448.157401794415
 31
0.0
  0
LINE
  5
2AD7A
330
18
100
AcDbEntity
  8
実線
100
AcDbLine
 10
547.9317019242825
 20
-2410.157401794415
 30
0.0
 11
561.9317019242826
 21
-2410.157401794415
 31
0.0
  0
LINE
  5
2AD7B
330
18
100
AcDbEntity
  8
実線
100
AcDbLine
 10
547.9317019242825
 20
-2448.157401794415
 30
0.0
 11
547.9317019242825
 21
-2410.157401794415
 31
0.0
  0
LINE
  5
2AD7C
330
18
100
AcDbEntity
  8
実線
100
AcDbLine
 10
561.9317019242826
 20
-2410.157401794416
 30
0.0
 11
561.9317019242826
 21
-2448.157401794415
 31
0.0
  0
LINE
  5
2AD7D
330
18
100
AcDbEntity
  8
実線
100
AcDbLine
 10
562.1317019242826
 20
-2408.157401794415
 30
0.0
 11
562.1317019242826
 21
-2434.157401794415
 31
0.0
  0
LINE
  5
2AD7E
330
18
100
AcDbEntity
  8
実線
100
AcDbLine
 10
721.9317019242812
 20
-2410.157401794416
 30
0.0
 11
735.9317019242827
 21
-2410.157401794416
 31
0.0
  0
LINE
  5
2AD7F
330
18
100
AcDbEntity
  8
実線
100
AcDbLine
 10
735.9317019242812
 20
-2448.157401794416
 30
0.0
 11
721.9317019242812
 21
-2448.157401794416
 31
0.0
  0
LINE
  5
2AD80
330
18
100
AcDbEntity
  8
実線
100
AcDbLine
 10
721.9317019242812
 20
-2422.157401794416
 30
0.0
 11
735.9317019242812
 21
-2422.157401794416
 31
0.0
  0
LINE
  5
2AD81
330
18
100
AcDbEntity
  8
実線
100
AcDbLine
 10
734.9317019242817
 20
-2434.657401794416
 30
0.0
 11
721.9317019242812
 21
-2434.657401794416
 31
0.0
  0
LINE
  5
2AD82
330
18
100
AcDbEntity
  8
実線
100
AcDbLine
 10
734.9317019242812
 20
-2442.657401794416
 30
0.0
 11
721.9317019242817
 21
-2442.657401794416
 31
0.0
  0
LINE
  5
2ADAE
330
18
100
AcDbEntity
  8
実線
100
AcDbLine
 10
721.7317019242812
 20
-2408.157401794416
 30
0.0
 11
721.7317019242812
 21
-2434.157401794416
 31
0.0
  0
LINE
  5
2ADAF
330
18
100
AcDbEntity
  8
実線
100
AcDbLine
 10
721.9317019242812
 20
-2448.157401794416
 30
0.0
 11
721.9317019242812
 21
-2410.157401794416
 31
0.0
  0
LINE
  5
2ADB0
330
18
100
AcDbEntity
  8
実線
100
AcDbLine
 10
735.9317019242827
 20
-2410.157401794416
 30
0.0
 11
735.9317019242817
 21
-2435.157401794416
 31
0.0
  0
LINE
  5
2ADB1
330
18
100
AcDbEntity
  8
実線
 48
10.0
100
AcDbLine
 10
734.9317019242817
 20
-2434.657401794416
 30
0.0
 11
734.9317019242812
 21
-2442.657401794416
 31
0.0
  0
LINE
  5
2ADB2
330
18
100
AcDbEntity
  8
実線
100
AcDbLine
 10
735.9317019242815
 20
-2442.157401794416
 30
0.0
 11
735.9317019242812
 21
-2448.157401794416
 31
0.0
  0
LINE
  5
2ADB3
330
18
100
AcDbEntity
  8
破線
 48
0.03
100
AcDbLine
 10
735.9317019242828
 20
-2414.407401794416
 30
0.0
 11
723.9317019242828
 21
-2414.407401794416
 31
0.0
  0
LINE
  5
2ADB4
330
18
100
AcDbEntity
  8
破線
 48
0.03
100
AcDbLine
 10
735.9317019242828
 20
-2414.157401794416
 30
0.0
 11
725.9317019242828
 21
-2414.157401794416
 31
0.0
  0
LINE
  5
2ADB5
330
18
100
AcDbEntity
  8
破線
 48
0.03
100
AcDbLine
 10
722.9213389531962
 20
-2416.157401794416
 30
0.0
 11
723.9317019242828
 21
-2414.407401794416
 31
0.0
  0
LINE
  5
2ADB6
330
18
100
AcDbEntity
  8
破線
 48
0.03
100
AcDbLine
 10
723.9317019242828
 20
-2417.907401794416
 30
0.0
 11
723.9317019242828
 21
-2414.407401794416
 31
0.0
  0
LINE
  5
2ADB7
330
18
100
AcDbEntity
  8
破線
 48
0.03
100
AcDbLine
 10
725.9317019242828
 20
-2414.157401794416
 30
0.0
 11
725.4986892223844
 21
-2414.407401794416
 31
0.0
  0
LINE
  5
2ADB8
330
18
100
AcDbEntity
  8
破線
 48
0.03
100
AcDbLine
 10
725.9317019242828
 20
-2418.157401794416
 30
0.0
 11
725.9317019242828
 21
-2414.157401794416
 31
0.0
  0
LINE
  5
2ADB9
330
18
100
AcDbEntity
  8
破線
 48
0.03
100
AcDbLine
 10
722.9213389531962
 20
-2416.157401794416
 30
0.0
 11
723.9317019242828
 21
-2417.907401794416
 31
0.0
  0
LINE
  5
2ADBA
330
18
100
AcDbEntity
  8
破線
 48
0.03
100
AcDbLine
 10
735.9317019242828
 20
-2418.157401794416
 30
0.0
 11
725.9317019242828
 21
-2418.157401794416
 31
0.0
  0
LINE
  5
2ADBB
330
18
100
AcDbEntity
  8
破線
 48
0.03
100
AcDbLine
 10
735.9317019242828
 20
-2417.907401794416
 30
0.0
 11
723.9317019242828
 21
-2417.907401794416
 31
0.0
  0
LINE
  5
2ADBC
330
18
100
AcDbEntity
  8
破線
 48
0.03
100
AcDbLine
 10
725.9317019242828
 20
-2418.157401794416
 30
0.0
 11
725.4986892223844
 21
-2417.907401794416
 31
0.0
  0
LINE
  5
2ADBD
330
18
100
AcDbEntity
  8
中心線
 48
0.5
100
AcDbLine
 10
740.9317019242828
 20
-2416.157401794416
 30
0.0
 11
716.9317019242828
 21
-2416.157401794416
 31
0.0
  0
LINE
  5
2ADBE
330
18
100
AcDbEntity
  8
中心線
100
AcDbLine
 10
755.9317019242821
 20
-2438.657401794416
 30
0.0
 11
713.1156428010991
 21
-2438.657401794416
 31
0.0
  0
LINE
  5
2ADC4
330
18
100
AcDbEntity
  8
中心線
 48
0.5
100
AcDbLine
 10
790.4680971106649
 20
-2399.433493620563
 30
0.0
 11
793.2103666974975
 21
-2383.881309968269
 31
0.0
  0
LINE
  5
2ADC5
330
18
100
AcDbEntity
  8
中心線
 48
0.5
100
AcDbLine
 10
792.4680971106648
 20
-2399.433493620563
 30
0.0
 11
795.2103666974975
 21
-2383.881309968269
 31
0.0
  0
LINE
  5
2ADF8
330
18
100
AcDbEntity
  8
中心線
100
AcDbLine
 10
799.4317019242822
 20
-2391.657401794416
 30
0.0
 11
827.7317019242829
 21
-2391.657401794416
 31
0.0
  0
LINE
  5
2ADF9
330
18
100
AcDbEntity
  8
実線
100
AcDbLine
 10
755.9317019242821
 20
-2435.157401794416
 30
0.0
 11
734.9317019242817
 21
-2435.157401794416
 31
0.0
  0
LINE
  5
2ADFA
330
18
100
AcDbEntity
  8
実線
100
AcDbLine
 10
755.9317019242821
 20
-2442.157401794416
 30
0.0
 11
734.9317019242812
 21
-2442.157401794416
 31
0.0
  0
ARC
  5
2ADFB
330
18
100
AcDbEntity
  8
実線
100
AcDbCircle
 10
755.9317019242821
 20
-2425.157401794416
 30
0.0
 40
10.0
100
AcDbArc
 50
270.0
 51
0.0
  0
LINE
  5
2ADFC
330
18
100
AcDbEntity
  8
実線
100
AcDbLine
 10
765.9317019242821
 20
-2405.157401794416
 30
0.0
 11
765.9317019242821
 21
-2425.157401794416
 31
0.0
  0
LINE
  5
2ADFD
330
18
100
AcDbEntity
  8
中心線
100
AcDbLine
 10
769.4317019242821
 20
-2405.157401794416
 30
0.0
 11
769.4317019242821
 21
-2425.157401794416
 31
0.0
  0
LINE
  5
2ADFE
330
18
100
AcDbEntity
  8
実線
100
AcDbLine
 10
772.9317019242821
 20
-2405.157401794416
 30
0.0
 11
772.9317019242821
 21
-2425.157401794416
 31
0.0
  0
ARC
  5
2ADFF
330
18
100
AcDbEntity
  8
実線
100
AcDbCircle
 10
782.9317019242822
 20
-2405.157401794416
 30
0.0
 40
10.0
100
AcDbArc
 50
90.0
 51
180.0
  0
ARC
  5
2AE00
330
18
100
AcDbEntity
  8
実線
100
AcDbCircle
 10
782.9317019242822
 20
-2405.157401794416
 30
0.0
 40
17.0
100
AcDbArc
 50
90.0
 51
180.0
  0
LINE
  5
2AE01
330
18
100
AcDbEntity
  8
中心線
100
AcDbLine
 10
831.6596658939449
 20
-2391.657401794416
 30
0.0
 11
782.9317019242822
 21
-2391.657401794416
 31
0.0
  0
LINE
  5
2AE02
330
18
100
AcDbEntity
  8
実線
100
AcDbLine
 10
782.9317019242822
 20
-2388.157401794416
 30
0.0
 11
792.4563763365608
 21
-2388.157401794416
 31
0.0
  0
LINE
  5
2AE03
330
18
100
AcDbEntity
  8
実線
100
AcDbLine
 10
799.2881983251778
 20
-2388.157401794416
 30
0.0
 11
799.2881983251778
 21
-2388.157401794416
 31
0.0
  0
LINE
  5
2AE04
330
18
100
AcDbEntity
  8
実線
100
AcDbLine
 10
782.9317019242822
 20
-2395.157401794416
 30
0.0
 11
791.2220874716016
 21
-2395.157401794416
 31
0.0
  0
ARC
  5
2AE05
330
18
100
AcDbEntity
  8
実線
100
AcDbCircle
 10
755.9317019242821
 20
-2425.157401794416
 30
0.0
 40
17.0
100
AcDbArc
 50
270.0
 51
0.0
  0
ARC
  5
2AE06
330
18
100
AcDbEntity
  8
中心線
100
AcDbCircle
 10
755.9317019242821
 20
-2425.157401794416
 30
0.0
 40
13.5
100
AcDbArc
 50
270.0
 51
0.0
  0
ARC
  5
2AE07
330
18
100
AcDbEntity
  8
中心線
100
AcDbCircle
 10
782.9317019242822
 20
-2405.157401794416
 30
0.0
 40
13.5
100
AcDbArc
 50
90.0
 51
180.0
  0
LINE
  5
2AE0A
330
18
100
AcDbEntity
  8
実線
100
AcDbLine
 10
794.4563763365608
 20
-2388.157401794416
 30
0.0
 11
802.9317019242821
 21
-2388.157401794416
 31
0.0
  0
LINE
  5
2AE0B
330
18
100
AcDbEntity
  8
破線
 48
0.03
100
AcDbLine
 10
575.8317019242817
 20
-2421.157401794416
 30
0.0
 11
580.0317019242823
 21
-2421.157401794416
 31
0.0
  0
LINE
  5
2AE0C
330
18
100
AcDbEntity
  8
破線
 48
0.03
100
AcDbLine
 10
580.4317019242802
 20
-2418.157401794416
 30
0.0
 11
575.431701924282
 21
-2418.157401794416
 31
0.0
  0
LINE
  5
2AE0D
330
18
100
AcDbEntity
  8
破線
 48
0.03
100
AcDbLine
 10
580.431701924282
 20
-2418.157401794416
 30
0.0
 11
580.0317019242823
 21
-2418.850222117451
 31
0.0
  0
LINE
  5
2AE0E
330
18
100
AcDbEntity
  8
破線
 48
0.03
100
AcDbLine
 10
580.0317019242823
 20
-2408.157401794416
 30
0.0
 11
580.0317019242823
 21
-2421.157401794416
 31
0.0
  0
LINE
  5
2AE0F
330
18
100
AcDbEntity
  8
破線
 48
0.03
100
AcDbLine
 10
580.431701924282
 20
-2408.157401794416
 30
0.0
 11
580.431701924282
 21
-2418.157401794416
 31
0.0
  0
LINE
  5
2AE10
330
18
100
AcDbEntity
  8
破線
 48
0.03
100
AcDbLine
 10
575.431701924282
 20
-2418.157401794416
 30
0.0
 11
575.8317019242817
 21
-2418.850222117451
 31
0.0
  0
LINE
  5
2AE11
330
18
100
AcDbEntity
  8
破線
 48
0.03
100
AcDbLine
 10
575.8317019242817
 20
-2408.157401794416
 30
0.0
 11
575.8317019242817
 21
-2421.157401794416
 31
0.0
  0
LINE
  5
2AE12
330
18
100
AcDbEntity
  8
中心線
 48
0.5
100
AcDbLine
 10
577.931701924282
 20
-2406.133662174049
 30
0.0
 11
577.931701924282
 21
-2423.955285595193
 31
0.0
  0
LINE
  5
2AE13
330
18
100
AcDbEntity
  8
破線
 48
0.03
100
AcDbLine
 10
575.431701924282
 20
-2408.157401794416
 30
0.0
 11
575.431701924282
 21
-2418.157401794416
 31
0.0
  0
LINE
  5
2AE14
330
18
100
AcDbEntity
  8
破線
 48
0.03
100
AcDbLine
 10
580.431701924282
 20
-2408.157401794416
 30
0.0
 11
575.431701924282
 21
-2408.157401794416
 31
0.0
  0
LINE
  5
2AE15
330
18
100
AcDbEntity
  8
破線
 48
0.03
100
AcDbLine
 10
577.931701924282
 20
-2422.369837359723
 30
0.0
 11
580.0317019242823
 21
-2421.157401794416
 31
0.0
  0
LINE
  5
2AE16
330
18
100
AcDbEntity
  8
破線
 48
0.03
100
AcDbLine
 10
577.931701924282
 20
-2422.369837359723
 30
0.0
 11
575.8317019242817
 21
-2421.157401794416
 31
0.0
  0
LINE
  5
2AE17
330
18
100
AcDbEntity
  8
破線
 48
0.03
100
AcDbLine
 10
639.8317019242816
 20
-2421.157401794416
 30
0.0
 11
644.0317019242824
 21
-2421.157401794416
 31
0.0
  0
LINE
  5
2AE18
330
18
100
AcDbEntity
  8
破線
 48
0.03
100
AcDbLine
 10
644.4317019242802
 20
-2418.157401794416
 30
0.0
 11
639.431701924282
 21
-2418.157401794416
 31
0.0
  0
LINE
  5
2AE19
330
18
100
AcDbEntity
  8
破線
 48
0.03
100
AcDbLine
 10
644.431701924282
 20
-2418.157401794416
 30
0.0
 11
644.0317019242824
 21
-2418.850222117451
 31
0.0
  0
LINE
  5
2AE1A
330
18
100
AcDbEntity
  8
破線
 48
0.03
100
AcDbLine
 10
644.0317019242824
 20
-2408.157401794416
 30
0.0
 11
644.0317019242824
 21
-2421.157401794416
 31
0.0
  0
LINE
  5
2AE1B
330
18
100
AcDbEntity
  8
破線
 48
0.03
100
AcDbLine
 10
644.431701924282
 20
-2408.157401794416
 30
0.0
 11
644.431701924282
 21
-2418.157401794416
 31
0.0
  0
LINE
  5
2AE1C
330
18
100
AcDbEntity
  8
破線
 48
0.03
100
AcDbLine
 10
639.431701924282
 20
-2418.157401794416
 30
0.0
 11
639.8317019242816
 21
-2418.850222117451
 31
0.0
  0
LINE
  5
2AE1D
330
18
100
AcDbEntity
  8
破線
 48
0.03
100
AcDbLine
 10
639.8317019242816
 20
-2408.157401794416
 30
0.0
 11
639.8317019242816
 21
-2421.157401794416
 31
0.0
  0
LINE
  5
2AE1E
330
18
100
AcDbEntity
  8
中心線
 48
0.5
100
AcDbLine
 10
641.931701924282
 20
-2406.133662174049
 30
0.0
 11
641.931701924282
 21
-2423.955285595193
 31
0.0
  0
LINE
  5
2AE1F
330
18
100
AcDbEntity
  8
破線
 48
0.03
100
AcDbLine
 10
639.431701924282
 20
-2408.157401794416
 30
0.0
 11
639.431701924282
 21
-2418.157401794416
 31
0.0
  0
LINE
  5
2AE20
330
18
100
AcDbEntity
  8
破線
 48
0.03
100
AcDbLine
 10
644.431701924282
 20
-2408.157401794416
 30
0.0
 11
639.431701924282
 21
-2408.157401794416
 31
0.0
  0
LINE
  5
2AE21
330
18
100
AcDbEntity
  8
破線
 48
0.03
100
AcDbLine
 10
641.931701924282
 20
-2422.369837359723
 30
0.0
 11
644.0317019242824
 21
-2421.157401794416
 31
0.0
  0
LINE
  5
2AE22
330
18
100
AcDbEntity
  8
破線
 48
0.03
100
AcDbLine
 10
641.931701924282
 20
-2422.369837359723
 30
0.0
 11
639.8317019242816
 21
-2421.157401794416
 31
0.0
  0
LINE
  5
2AE23
330
18
100
AcDbEntity
  8
破線
 48
0.03
100
AcDbLine
 10
703.8317019242817
 20
-2421.157401794416
 30
0.0
 11
708.0317019242824
 21
-2421.157401794416
 31
0.0
  0
LINE
  5
2AE24
330
18
100
AcDbEntity
  8
破線
 48
0.03
100
AcDbLine
 10
708.4317019242802
 20
-2418.157401794416
 30
0.0
 11
703.431701924282
 21
-2418.157401794416
 31
0.0
  0
LINE
  5
2AE25
330
18
100
AcDbEntity
  8
破線
 48
0.03
100
AcDbLine
 10
708.431701924282
 20
-2418.157401794416
 30
0.0
 11
708.0317019242824
 21
-2418.850222117451
 31
0.0
  0
LINE
  5
2AE26
330
18
100
AcDbEntity
  8
破線
 48
0.03
100
AcDbLine
 10
708.0317019242824
 20
-2408.157401794416
 30
0.0
 11
708.0317019242824
 21
-2421.157401794416
 31
0.0
  0
LINE
  5
2AE27
330
18
100
AcDbEntity
  8
破線
 48
0.03
100
AcDbLine
 10
708.431701924282
 20
-2408.157401794416
 30
0.0
 11
708.431701924282
 21
-2418.157401794416
 31
0.0
  0
LINE
  5
2AE28
330
18
100
AcDbEntity
  8
破線
 48
0.03
100
AcDbLine
 10
703.431701924282
 20
-2418.157401794416
 30
0.0
 11
703.8317019242817
 21
-2418.850222117451
 31
0.0
  0
LINE
  5
2AE29
330
18
100
AcDbEntity
  8
破線
 48
0.03
100
AcDbLine
 10
703.8317019242817
 20
-2408.157401794416
 30
0.0
 11
703.8317019242817
 21
-2421.157401794416
 31
0.0
  0
LINE
  5
2AE2A
330
18
100
AcDbEntity
  8
中心線
 48
0.5
100
AcDbLine
 10
705.931701924282
 20
-2406.133662174049
 30
0.0
 11
705.931701924282
 21
-2423.955285595193
 31
0.0
  0
LINE
  5
2AE2B
330
18
100
AcDbEntity
  8
破線
 48
0.03
100
AcDbLine
 10
703.431701924282
 20
-2408.157401794416
 30
0.0
 11
703.431701924282
 21
-2418.157401794416
 31
0.0
  0
LINE
  5
2AE2C
330
18
100
AcDbEntity
  8
破線
 48
0.03
100
AcDbLine
 10
708.431701924282
 20
-2408.157401794416
 30
0.0
 11
703.431701924282
 21
-2408.157401794416
 31
0.0
  0
LINE
  5
2AE2D
330
18
100
AcDbEntity
  8
破線
 48
0.03
100
AcDbLine
 10
705.931701924282
 20
-2422.369837359723
 30
0.0
 11
708.0317019242824
 21
-2421.157401794416
 31
0.0
  0
LINE
  5
2AE2E
330
18
100
AcDbEntity
  8
破線
 48
0.03
100
AcDbLine
 10
705.931701924282
 20
-2422.369837359723
 30
0.0
 11
703.8317019242817
 21
-2421.157401794416
 31
0.0
  0
LINE
  5
2AE88
330
18
100
AcDbEntity
  8
中心線
 48
0.5
100
AcDbLine
 10
740.9317019242821
 20
-2264.691602833293
 30
0.0
 11
716.9317019242821
 21
-2264.691602833293
 31
0.0
  0
LINE
  5
2AE89
330
18
100
AcDbEntity
  8
破線
 48
0.03
100
AcDbLine
 10
735.9317019242824
 20
-2262.941602833294
 30
0.0
 11
723.9317019242824
 21
-2262.941602833294
 31
0.0
  0
LINE
  5
2AE8A
330
18
100
AcDbEntity
  8
破線
 48
0.03
100
AcDbLine
 10
735.9317019242824
 20
-2262.691602833294
 30
0.0
 11
725.9317019242825
 21
-2262.691602833294
 31
0.0
  0
LINE
  5
2AE8B
330
18
100
AcDbEntity
  8
破線
 48
0.03
100
AcDbLine
 10
722.9213389531959
 20
-2264.691602833293
 30
0.0
 11
723.9317019242824
 21
-2262.941602833294
 31
0.0
  0
LINE
  5
2AE8C
330
18
100
AcDbEntity
  8
破線
 48
0.03
100
AcDbLine
 10
723.9317019242824
 20
-2266.441602833293
 30
0.0
 11
723.9317019242824
 21
-2262.941602833294
 31
0.0
  0
LINE
  5
2AE8D
330
18
100
AcDbEntity
  8
破線
 48
0.03
100
AcDbLine
 10
725.9317019242825
 20
-2262.691602833294
 30
0.0
 11
725.4986892223841
 21
-2262.941602833294
 31
0.0
  0
LINE
  5
2AE8E
330
18
100
AcDbEntity
  8
破線
 48
0.03
100
AcDbLine
 10
725.9317019242825
 20
-2266.691602833294
 30
0.0
 11
725.9317019242825
 21
-2262.691602833294
 31
0.0
  0
LINE
  5
2AE8F
330
18
100
AcDbEntity
  8
破線
 48
0.03
100
AcDbLine
 10
722.9213389531959
 20
-2264.691602833293
 30
0.0
 11
723.9317019242824
 21
-2266.441602833293
 31
0.0
  0
LINE
  5
2AE90
330
18
100
AcDbEntity
  8
破線
 48
0.03
100
AcDbLine
 10
735.9317019242824
 20
-2266.691602833294
 30
0.0
 11
725.9317019242825
 21
-2266.691602833294
 31
0.0
  0
LINE
  5
2AE91
330
18
100
AcDbEntity
  8
破線
 48
0.03
100
AcDbLine
 10
735.9317019242824
 20
-2266.441602833293
 30
0.0
 11
723.9317019242824
 21
-2266.441602833293
 31
0.0
  0
LINE
  5
2AE92
330
18
100
AcDbEntity
  8
破線
 48
0.03
100
AcDbLine
 10
725.9317019242825
 20
-2266.691602833294
 30
0.0
 11
725.4986892223841
 21
-2266.441602833293
 31
0.0
  0
LINE
  5
2AE93
330
18
100
AcDbEntity
  8
中心線
 48
0.5
100
AcDbLine
 10
740.9317019242821
 20
-2288.691602833293
 30
0.0
 11
716.9317019242821
 21
-2288.691602833293
 31
0.0
  0
LINE
  5
2AE94
330
18
100
AcDbEntity
  8
破線
 48
0.03
100
AcDbLine
 10
735.9317019242824
 20
-2286.941602833294
 30
0.0
 11
723.9317019242824
 21
-2286.941602833294
 31
0.0
  0
LINE
  5
2AE95
330
18
100
AcDbEntity
  8
破線
 48
0.03
100
AcDbLine
 10
735.9317019242824
 20
-2286.691602833293
 30
0.0
 11
725.9317019242825
 21
-2286.691602833293
 31
0.0
  0
LINE
  5
2AE96
330
18
100
AcDbEntity
  8
破線
 48
0.03
100
AcDbLine
 10
722.9213389531959
 20
-2288.691602833293
 30
0.0
 11
723.9317019242824
 21
-2286.941602833294
 31
0.0
  0
LINE
  5
2AE97
330
18
100
AcDbEntity
  8
破線
 48
0.03
100
AcDbLine
 10
723.9317019242824
 20
-2290.441602833293
 30
0.0
 11
723.9317019242824
 21
-2286.941602833294
 31
0.0
  0
LINE
  5
2AE98
330
18
100
AcDbEntity
  8
破線
 48
0.03
100
AcDbLine
 10
725.9317019242825
 20
-2286.691602833293
 30
0.0
 11
725.4986892223841
 21
-2286.941602833294
 31
0.0
  0
LINE
  5
2AE99
330
18
100
AcDbEntity
  8
破線
 48
0.03
100
AcDbLine
 10
725.9317019242825
 20
-2290.691602833294
 30
0.0
 11
725.9317019242825
 21
-2286.691602833293
 31
0.0
  0
LINE
  5
2AE9A
330
18
100
AcDbEntity
  8
破線
 48
0.03
100
AcDbLine
 10
722.9213389531959
 20
-2288.691602833293
 30
0.0
 11
723.9317019242824
 21
-2290.441602833293
 31
0.0
  0
LINE
  5
2AE9B
330
18
100
AcDbEntity
  8
破線
 48
0.03
100
AcDbLine
 10
735.9317019242824
 20
-2290.691602833294
 30
0.0
 11
725.9317019242825
 21
-2290.691602833294
 31
0.0
  0
LINE
  5
2AE9C
330
18
100
AcDbEntity
  8
破線
 48
0.03
100
AcDbLine
 10
735.9317019242824
 20
-2290.441602833293
 30
0.0
 11
723.9317019242824
 21
-2290.441602833293
 31
0.0
  0
LINE
  5
2AE9D
330
18
100
AcDbEntity
  8
破線
 48
0.03
100
AcDbLine
 10
725.9317019242825
 20
-2290.691602833294
 30
0.0
 11
725.4986892223841
 21
-2290.441602833293
 31
0.0
  0
LINE
  5
2AED1
330
18
100
AcDbEntity
  8
実線
100
AcDbLine
 10
721.7317019242821
 20
-2303.691602833294
 30
0.0
 11
734.9317019242824
 21
-2303.691602833294
 31
0.0
  0
LINE
  5
2AED2
330
18
100
AcDbEntity
  8
実線
100
AcDbLine
 10
734.9317019242824
 20
-2303.691602833294
 30
0.0
 11
734.9317019242824
 21
-2301.691602833294
 31
0.0
  0
LINE
  5
2AED3
330
18
100
AcDbEntity
  8
実線
100
AcDbLine
 10
791.2838019148503
 20
-2303.191602833294
 30
0.0
 11
734.9317019242824
 21
-2303.191602833294
 31
0.0
  0
LINE
  5
2AED4
330
18
100
AcDbEntity
  8
中心線
 48
0.5
100
AcDbLine
 10
790.4680971106658
 20
-2307.817694659442
 30
0.0
 11
793.2103666974984
 21
-2292.265511007148
 31
0.0
  0
LINE
  5
2AED5
330
18
100
AcDbEntity
  8
実線
100
AcDbLine
 10
735.9317019242821
 20
-2296.191602833294
 30
0.0
 11
792.5180907798098
 21
-2296.191602833294
 31
0.0
  0
LINE
  5
2AED6
330
18
100
AcDbEntity
  8
実線
100
AcDbLine
 10
802.9317019242821
 20
-2303.191602833294
 30
0.0
 11
793.2838019148504
 21
-2303.191602833294
 31
0.0
  0
LINE
  5
2AED7
330
18
100
AcDbEntity
  8
中心線
 48
0.5
100
AcDbLine
 10
792.4680971106657
 20
-2307.817694659442
 30
0.0
 11
795.2103666974984
 21
-2292.265511007148
 31
0.0
  0
LINE
  5
2AED8
330
18
100
AcDbEntity
  8
実線
 48
0.5
100
AcDbLine
 10
804.9317019242817
 20
-2297.041602833294
 30
0.0
 11
802.9317019242817
 21
-2297.041602833294
 31
0.0
  0
LINE
  5
2AED9
330
18
100
AcDbEntity
  8
実線
 48
0.5
100
AcDbLine
 10
804.9317019242817
 20
-2298.341602833295
 30
0.0
 11
802.9317019242817
 21
-2298.341602833295
 31
0.0
  0
LINE
  5
2AEDA
330
18
100
AcDbEntity
  8
実線
 48
0.5
100
AcDbLine
 10
804.9317019242817
 20
-2299.641602833295
 30
0.0
 11
802.9317019242817
 21
-2299.641602833295
 31
0.0
  0
LINE
  5
2AEDB
330
18
100
AcDbEntity
  8
実線
 48
0.5
100
AcDbLine
 10
804.9317019242817
 20
-2301.041602833295
 30
0.0
 11
802.9317019242817
 21
-2301.041602833295
 31
0.0
  0
LINE
  5
2AEDC
330
18
100
AcDbEntity
  8
実線
 48
0.5
100
AcDbLine
 10
802.9317019242817
 20
-2302.341602833295
 30
0.0
 11
804.9317019242817
 21
-2302.341602833295
 31
0.0
  0
LINE
  5
2AEDD
330
18
100
AcDbEntity
  8
実線
100
AcDbLine
 10
802.9317019242816
 20
-2296.191602833294
 30
0.0
 11
802.9317019242821
 21
-2303.191602833294
 31
0.0
  0
LINE
  5
2AEDE
330
18
100
AcDbEntity
  8
実線
100
AcDbLine
 10
804.9317019242817
 20
-2293.741602833295
 30
0.0
 11
805.4317019242818
 21
-2293.741602833295
 31
0.0
  0
ARC
  5
2AEDF
330
18
100
AcDbEntity
  8
実線
100
AcDbCircle
 10
805.4317019242818
 20
-2294.241602833295
 30
0.0
 40
0.5
100
AcDbArc
 50
0.0
 51
90.0
  0
LINE
  5
2AEE0
330
18
100
AcDbEntity
  8
実線
100
AcDbLine
 10
805.4317019242818
 20
-2305.541602833295
 30
0.0
 11
804.9317019242817
 21
-2305.541602833295
 31
0.0
  0
ARC
  5
2AEE1
330
18
100
AcDbEntity
  8
実線
100
AcDbCircle
 10
805.4317019242818
 20
-2305.041602833295
 30
0.0
 40
0.5
100
AcDbArc
 50
270.0
 51
0.0
  0
LINE
  5
2AEE2
330
18
100
AcDbEntity
  8
実線
100
AcDbLine
 10
804.9317019242817
 20
-2293.741602833295
 30
0.0
 11
804.9317019242817
 21
-2305.541602833295
 31
0.0
  0
LINE
  5
2AEE3
330
18
100
AcDbEntity
  8
実線
100
AcDbLine
 10
794.5180907798097
 20
-2296.191602833294
 30
0.0
 11
802.9317019242816
 21
-2296.191602833294
 31
0.0
  0
LINE
  5
2AEE4
330
18
100
AcDbEntity
  8
実線
100
AcDbLine
 10
805.9317019242818
 20
-2294.741602833294
 30
0.0
 11
818.131701924282
 21
-2294.741602833294
 31
0.0
  0
LINE
  5
2AEE5
330
18
100
AcDbEntity
  8
実線
100
AcDbLine
 10
817.131701924282
 20
-2298.241602833296
 30
0.0
 11
811.4317019242818
 21
-2298.241602833296
 31
0.0
  0
LINE
  5
2AEE6
330
18
100
AcDbEntity
  8
実線
100
AcDbLine
 10
818.131701924282
 20
-2304.541602833295
 30
0.0
 11
805.9317019242818
 21
-2304.541602833295
 31
0.0
  0
LINE
  5
2AEE7
330
18
100
AcDbEntity
  8
実線
100
AcDbLine
 10
817.131701924282
 20
-2301.041602833295
 30
0.0
 11
811.4317019242818
 21
-2301.041602833295
 31
0.0
  0
LINE
  5
2AEE8
330
18
100
AcDbEntity
  8
実線
100
AcDbLine
 10
805.9317019242818
 20
-2294.241602833295
 30
0.0
 11
805.9317019242818
 21
-2294.741602833294
 31
0.0
  0
LINE
  5
2AEE9
330
18
100
AcDbEntity
  8
実線
100
AcDbLine
 10
811.4317019242818
 20
-2298.241602833296
 30
0.0
 11
811.4317019242818
 21
-2297.641602833295
 31
0.0
  0
LINE
  5
2AEEA
330
18
100
AcDbEntity
  8
実線
100
AcDbLine
 10
810.6317019242821
 20
-2299.641602833295
 30
0.0
 11
810.6317019242821
 21
-2297.641602833295
 31
0.0
  0
LINE
  5
2AEEB
330
18
100
AcDbEntity
  8
実線
100
AcDbLine
 10
811.4317019242818
 20
-2297.641602833295
 30
0.0
 11
810.6317019242821
 21
-2297.641602833295
 31
0.0
  0
LINE
  5
2AEEC
330
18
100
AcDbEntity
  8
実線
100
AcDbLine
 10
805.9317019242818
 20
-2304.541602833295
 30
0.0
 11
805.9317019242818
 21
-2305.041602833295
 31
0.0
  0
LINE
  5
2AEED
330
18
100
AcDbEntity
  8
実線
100
AcDbLine
 10
811.4317019242818
 20
-2301.041602833295
 30
0.0
 11
811.4317019242818
 21
-2301.641602833295
 31
0.0
  0
LINE
  5
2AEEE
330
18
100
AcDbEntity
  8
実線
100
AcDbLine
 10
811.4317019242818
 20
-2301.641602833295
 30
0.0
 11
810.6317019242821
 21
-2301.641602833295
 31
0.0
  0
LINE
  5
2AEEF
330
18
100
AcDbEntity
  8
実線
100
AcDbLine
 10
810.6317019242821
 20
-2299.641602833295
 30
0.0
 11
810.6317019242821
 21
-2301.641602833295
 31
0.0
  0
LINE
  5
2AEF0
330
18
100
AcDbEntity
  8
実線
100
AcDbLine
 10
818.131701924282
 20
-2295.641602833295
 30
0.0
 11
828.6317019242821
 21
-2295.641602833295
 31
0.0
  0
LINE
  5
2AEF1
330
18
100
AcDbEntity
  8
実線
100
AcDbLine
 10
828.6317019242821
 20
-2303.641602833295
 30
0.0
 11
818.131701924282
 21
-2303.641602833295
 31
0.0
  0
LINE
  5
2AEF2
330
18
100
AcDbEntity
  8
実線
100
AcDbLine
 10
822.631701924282
 20
-2299.241602833296
 30
0.0
 11
821.631701924282
 21
-2298.241602833296
 31
0.0
  0
LINE
  5
2AEF3
330
18
100
AcDbEntity
  8
実線
100
AcDbLine
 10
821.631701924282
 20
-2301.041602833295
 30
0.0
 11
822.631701924282
 21
-2300.041602833295
 31
0.0
  0
LINE
  5
2AEF4
330
18
100
AcDbEntity
  8
実線
100
AcDbLine
 10
822.631701924282
 20
-2300.041602833295
 30
0.0
 11
821.631701924282
 21
-2301.041602833295
 31
0.0
  0
LINE
  5
2AEF5
330
18
100
AcDbEntity
  8
実線
100
AcDbLine
 10
820.2317019242819
 20
-2298.241602833296
 30
0.0
 11
817.131701924282
 21
-2298.241602833296
 31
0.0
  0
LINE
  5
2AEF6
330
18
100
AcDbEntity
  8
実線
100
AcDbLine
 10
818.131701924282
 20
-2294.741602833294
 30
0.0
 11
818.131701924282
 21
-2298.241602833296
 31
0.0
  0
LINE
  5
2AEF7
330
18
100
AcDbEntity
  8
実線
100
AcDbLine
 10
818.5384897155897
 20
-2300.041602833295
 30
0.0
 11
818.5384897155897
 21
-2299.241602833296
 31
0.0
  0
LINE
  5
2AEF8
330
18
100
AcDbEntity
  8
実線
100
AcDbLine
 10
818.5384897155897
 20
-2300.041602833295
 30
0.0
 11
817.131701924282
 21
-2300.041602833295
 31
0.0
  0
LINE
  5
2AEF9
330
18
100
AcDbEntity
  8
実線
100
AcDbLine
 10
817.131701924282
 20
-2299.241602833296
 30
0.0
 11
817.131701924282
 21
-2298.241602833296
 31
0.0
  0
LINE
  5
2AEFA
330
18
100
AcDbEntity
  8
実線
100
AcDbLine
 10
817.131701924282
 20
-2299.241602833296
 30
0.0
 11
818.5384897155897
 21
-2299.241602833296
 31
0.0
  0
LINE
  5
2AEFB
330
18
100
AcDbEntity
  8
実線
100
AcDbLine
 10
817.131701924282
 20
-2300.041602833295
 30
0.0
 11
818.5384897155897
 21
-2300.041602833295
 31
0.0
  0
LINE
  5
2AEFC
330
18
100
AcDbEntity
  8
実線
100
AcDbLine
 10
820.2317019242819
 20
-2301.041602833295
 30
0.0
 11
817.131701924282
 21
-2301.041602833295
 31
0.0
  0
LINE
  5
2AEFD
330
18
100
AcDbEntity
  8
実線
100
AcDbLine
 10
818.131701924282
 20
-2301.041602833295
 30
0.0
 11
818.131701924282
 21
-2304.541602833295
 31
0.0
  0
LINE
  5
2AEFE
330
18
100
AcDbEntity
  8
実線
100
AcDbLine
 10
817.131701924282
 20
-2301.041602833295
 30
0.0
 11
817.131701924282
 21
-2299.241602833296
 31
0.0
  0
LINE
  5
2AEFF
330
18
100
AcDbEntity
  8
実線
100
AcDbLine
 10
820.631701924282
 20
-2300.041602833295
 30
0.0
 11
818.5384897155897
 21
-2300.041602833295
 31
0.0
  0
LINE
  5
2AF00
330
18
100
AcDbEntity
  8
実線
100
AcDbLine
 10
818.5384897155897
 20
-2299.241602833296
 30
0.0
 11
820.631701924282
 21
-2299.241602833296
 31
0.0
  0
LINE
  5
2AF01
330
18
100
AcDbEntity
  8
実線
100
AcDbLine
 10
818.5384897155897
 20
-2300.041602833295
 30
0.0
 11
820.631701924282
 21
-2300.041602833295
 31
0.0
  0
LINE
  5
2AF02
330
18
100
AcDbEntity
  8
実線
100
AcDbLine
 10
820.631701924282
 20
-2301.041602833295
 30
0.0
 11
820.2317019242819
 21
-2301.041602833295
 31
0.0
  0
LINE
  5
2AF03
330
18
100
AcDbEntity
  8
実線
100
AcDbLine
 10
820.631701924282
 20
-2298.241602833296
 30
0.0
 11
820.2317019242819
 21
-2298.241602833296
 31
0.0
  0
LINE
  5
2AF04
330
18
100
AcDbEntity
  8
実線
100
AcDbLine
 10
820.631701924282
 20
-2299.241602833296
 30
0.0
 11
820.631701924282
 21
-2298.241602833296
 31
0.0
  0
LINE
  5
2AF05
330
18
100
AcDbEntity
  8
実線
100
AcDbLine
 10
821.631701924282
 20
-2298.241602833296
 30
0.0
 11
820.631701924282
 21
-2298.241602833296
 31
0.0
  0
LINE
  5
2AF06
330
18
100
AcDbEntity
  8
実線
100
AcDbLine
 10
820.631701924282
 20
-2301.041602833295
 30
0.0
 11
821.631701924282
 21
-2301.041602833295
 31
0.0
  0
LINE
  5
2AF07
330
18
100
AcDbEntity
  8
実線
100
AcDbLine
 10
821.631701924282
 20
-2301.041602833295
 30
0.0
 11
820.631701924282
 21
-2301.041602833295
 31
0.0
  0
LINE
  5
2AF08
330
18
100
AcDbEntity
  8
実線
100
AcDbLine
 10
820.631701924282
 20
-2300.041602833295
 30
0.0
 11
820.631701924282
 21
-2301.041602833295
 31
0.0
  0
LINE
  5
2AF09
330
18
100
AcDbEntity
  8
実線
100
AcDbLine
 10
820.631701924282
 20
-2300.041602833295
 30
0.0
 11
820.631701924282
 21
-2301.041602833295
 31
0.0
  0
LINE
  5
2AF0A
330
18
100
AcDbEntity
  8
実線
100
AcDbLine
 10
828.6317019242821
 20
-2295.641602833295
 30
0.0
 11
828.6317019242821
 21
-2299.081602833295
 31
0.0
  0
LINE
  5
2AF0B
330
18
100
AcDbEntity
  8
実線
100
AcDbLine
 10
822.631701924282
 20
-2300.041602833295
 30
0.0
 11
822.631701924282
 21
-2299.241602833296
 31
0.0
  0
LINE
  5
2AF0C
330
18
100
AcDbEntity
  8
実線
100
AcDbLine
 10
822.4717019242822
 20
-2300.201602833295
 30
0.0
 11
828.6317019242821
 21
-2300.201602833295
 31
0.0
  0
LINE
  5
2AF0D
330
18
100
AcDbEntity
  8
実線
100
AcDbLine
 10
828.6317019242821
 20
-2299.081602833295
 30
0.0
 11
822.4717019242813
 21
-2299.081602833295
 31
0.0
  0
LINE
  5
2AF0E
330
18
100
AcDbEntity
  8
実線
100
AcDbLine
 10
828.6317019242821
 20
-2300.201602833295
 30
0.0
 11
828.6317019242821
 21
-2303.641602833295
 31
0.0
  0
LINE
  5
2AF1C
330
18
100
AcDbEntity
  8
中心線
100
AcDbLine
 10
749.4518383037712
 20
-2240.691602833294
 30
0.0
 11
536.907780056837
 21
-2240.691602833294
 31
0.0
  0
LINE
  5
2B5E9
330
18
100
AcDbEntity
  8
実線
100
AcDbLine
 10
819.6317019242819
 20
-2382.848726464849
 30
0.0
 11
811.431701924282
 21
-2382.848726464849
 31
0.0
  0
LINE
  5
2B5EA
330
18
100
AcDbEntity
  8
実線
100
AcDbLine
 10
805.931701924282
 20
-2396.548726464849
 30
0.0
 11
818.1317019242818
 21
-2396.548726464849
 31
0.0
  0
LINE
  5
2B5EB
330
18
100
AcDbEntity
  8
実線
100
AcDbLine
 10
815.1826809360544
 20
-2385.666365559166
 30
0.0
 11
810.6317019242819
 21
-2384.848726464849
 31
0.0
  0
LINE
  5
2B5EC
330
18
100
AcDbEntity
  8
実線
100
AcDbLine
 10
815.0862234368863
 20
-2386.748726464849
 30
0.0
 11
805.931701924282
 21
-2386.748726464849
 31
0.0
  0
LINE
  5
2B5ED
330
18
100
AcDbEntity
  8
実線
100
AcDbLine
 10
817.1317019242819
 20
-2383.448726464849
 30
0.0
 11
811.431701924282
 21
-2383.448726464849
 31
0.0
  0
LINE
  5
2B5F0
330
18
100
AcDbEntity
  8
実線
100
AcDbLine
 10
804.9317019242824
 20
-2391.657401794416
 30
0.0
 11
802.9317019242824
 21
-2391.657401794416
 31
0.0
  0
LINE
  5
2B5F1
330
18
100
AcDbEntity
  8
実線
100
AcDbLine
 10
804.9317019242824
 20
-2394.257401794416
 30
0.0
 11
802.9317019242824
 21
-2394.257401794416
 31
0.0
  0
LINE
  5
2B5F2
330
18
100
AcDbEntity
  8
実線
100
AcDbLine
 10
804.9317019242824
 20
-2392.957401794416
 30
0.0
 11
802.9317019242824
 21
-2392.957401794416
 31
0.0
  0
LINE
  5
2B5F3
330
18
100
AcDbEntity
  8
実線
100
AcDbLine
 10
804.9317019242824
 20
-2390.257401794416
 30
0.0
 11
802.9317019242824
 21
-2390.257401794416
 31
0.0
  0
LINE
  5
2B5F4
330
18
100
AcDbEntity
  8
実線
100
AcDbLine
 10
802.9317019242824
 20
-2388.957401794416
 30
0.0
 11
804.9317019242824
 21
-2388.957401794416
 31
0.0
  0
LINE
  5
2B5F5
330
18
100
AcDbEntity
  8
実線
100
AcDbLine
 10
802.9317019242821
 20
-2388.157401794416
 30
0.0
 11
802.9317019242828
 21
-2395.157401794416
 31
0.0
  0
LINE
  5
2B5F6
330
18
100
AcDbEntity
  8
実線
100
AcDbLine
 10
804.9317019242824
 20
-2389.007401794416
 30
0.0
 11
804.9317019242824
 21
-2394.307401794416
 31
0.0
  0
LINE
  5
2B5F7
330
18
100
AcDbEntity
  8
実線
100
AcDbLine
 10
804.931701924282
 20
-2391.648726464849
 30
0.0
 11
804.931701924282
 21
-2385.748726464849
 31
0.0
  0
LINE
  5
2B5F8
330
18
100
AcDbEntity
  8
実線
100
AcDbLine
 10
805.931701924282
 20
-2397.048726464849
 30
0.0
 11
805.931701924282
 21
-2396.548726464849
 31
0.0
  0
LINE
  5
2B5F9
330
18
100
AcDbEntity
  8
実線
100
AcDbLine
 10
804.931701924282
 20
-2397.548726464849
 30
0.0
 11
804.931701924282
 21
-2391.648726464849
 31
0.0
  0
LINE
  5
2B5FA
330
18
100
AcDbEntity
  8
実線
100
AcDbLine
 10
804.931701924282
 20
-2397.548726464849
 30
0.0
 11
805.4317019242819
 21
-2397.548726464849
 31
0.0
  0
ARC
  5
2B5FB
330
18
100
AcDbEntity
  8
実線
100
AcDbCircle
 10
805.4317019242819
 20
-2397.048726464849
 30
0.0
 40
0.5
100
AcDbArc
 50
270.0
 51
0.0
  0
LINE
  5
2B5FC
330
18
100
AcDbEntity
  8
実線
100
AcDbLine
 10
811.431701924282
 20
-2383.448726464849
 30
0.0
 11
811.431701924282
 21
-2382.848726464849
 31
0.0
  0
LINE
  5
2B5FD
330
18
100
AcDbEntity
  8
実線
100
AcDbLine
 10
805.931701924282
 20
-2386.748726464849
 30
0.0
 11
805.931701924282
 21
-2386.248726464849
 31
0.0
  0
LINE
  5
2B5FE
330
18
100
AcDbEntity
  8
実線
100
AcDbLine
 10
810.6317019242819
 20
-2384.848726464849
 30
0.0
 11
810.6317019242819
 21
-2382.848726464849
 31
0.0
  0
LINE
  5
2B5FF
330
18
100
AcDbEntity
  8
実線
100
AcDbLine
 10
811.431701924282
 20
-2382.848726464849
 30
0.0
 11
810.6317019242819
 21
-2382.848726464849
 31
0.0
  0
LINE
  5
2B600
330
18
100
AcDbEntity
  8
実線
100
AcDbLine
 10
805.4317019242819
 20
-2385.748726464849
 30
0.0
 11
804.931701924282
 21
-2385.748726464849
 31
0.0
  0
ARC
  5
2B601
330
18
100
AcDbEntity
  8
実線
100
AcDbCircle
 10
805.4317019242819
 20
-2386.248726464849
 30
0.0
 40
0.5
100
AcDbArc
 50
0.0
 51
90.0
  0
LINE
  5
2B602
330
18
100
AcDbEntity
  8
実線
100
AcDbLine
 10
822.6317019242818
 20
-2384.448726464849
 30
0.0
 11
821.6317019242818
 21
-2383.448726464849
 31
0.0
  0
LINE
  5
2B603
330
18
100
AcDbEntity
  8
実線
100
AcDbLine
 10
821.6317019242818
 20
-2386.248726464849
 30
0.0
 11
822.6317019242818
 21
-2385.248726464849
 31
0.0
  0
LINE
  5
2B604
330
18
100
AcDbEntity
  8
実線
100
AcDbLine
 10
818.1317019242818
 20
-2391.088726464849
 30
0.0
 11
828.6317019242819
 21
-2391.088726464849
 31
0.0
  0
LINE
  5
2B605
330
18
100
AcDbEntity
  8
実線
100
AcDbLine
 10
828.6317019242819
 20
-2387.648726464849
 30
0.0
 11
818.1317019242818
 21
-2387.648726464849
 31
0.0
  0
LINE
  5
2B606
330
18
100
AcDbEntity
  8
実線
100
AcDbLine
 10
818.1317019242818
 20
-2395.648726464849
 30
0.0
 11
828.6317019242819
 21
-2395.648726464849
 31
0.0
  0
LINE
  5
2B607
330
18
100
AcDbEntity
  8
実線
100
AcDbLine
 10
828.6317019242819
 20
-2392.208726464849
 30
0.0
 11
818.1317019242818
 21
-2392.208726464849
 31
0.0
  0
LINE
  5
2B608
330
18
100
AcDbEntity
  8
実線
100
AcDbLine
 10
820.6317019242819
 20
-2384.448726464849
 30
0.0
 11
820.6317019242819
 21
-2383.448726464849
 31
0.0
  0
LINE
  5
2B609
330
18
100
AcDbEntity
  8
実線
100
AcDbLine
 10
820.6317019242819
 20
-2385.248726464849
 30
0.0
 11
820.6317019242819
 21
-2386.248726464849
 31
0.0
  0
LINE
  5
2B60A
330
18
100
AcDbEntity
  8
実線
100
AcDbLine
 10
821.6317019242818
 20
-2383.448726464849
 30
0.0
 11
820.6317019242819
 21
-2383.448726464849
 31
0.0
  0
LINE
  5
2B60B
330
18
100
AcDbEntity
  8
実線
100
AcDbLine
 10
820.6317019242819
 20
-2386.248726464849
 30
0.0
 11
821.6317019242818
 21
-2386.248726464849
 31
0.0
  0
LINE
  5
2B60C
330
18
100
AcDbEntity
  8
実線
100
AcDbLine
 10
820.2317019242823
 20
-2383.448726464849
 30
0.0
 11
817.1317019242819
 21
-2383.448726464849
 31
0.0
  0
LINE
  5
2B60D
330
18
100
AcDbEntity
  8
実線
100
AcDbLine
 10
818.1317019242818
 20
-2391.648726464849
 30
0.0
 11
818.1317019242818
 21
-2386.748726464849
 31
0.0
  0
LINE
  5
2B60E
330
18
100
AcDbEntity
  8
実線
100
AcDbLine
 10
818.1317019242818
 20
-2396.548726464849
 30
0.0
 11
818.1317019242818
 21
-2391.648726464849
 31
0.0
  0
LINE
  5
2B60F
330
18
100
AcDbEntity
  8
実線
100
AcDbLine
 10
817.1317019242819
 20
-2384.448726464849
 30
0.0
 11
818.5384897155895
 21
-2384.448726464849
 31
0.0
  0
LINE
  5
2B610
330
18
100
AcDbEntity
  8
実線
100
AcDbLine
 10
817.1317019242819
 20
-2384.448726464849
 30
0.0
 11
817.1317019242819
 21
-2383.448726464849
 31
0.0
  0
ARC
  5
2B611
330
18
100
AcDbEntity
  8
実線
100
AcDbCircle
 10
817.4218341144037
 20
-2385.651689833946
 30
0.0
 40
0.2901321901215654
100
AcDbArc
 50
180.0
 51
225.734786044511
  0
LINE
  5
2B612
330
18
100
AcDbEntity
  8
実線
100
AcDbLine
 10
818.1317019242818
 20
-2386.748726464849
 30
0.0
 11
817.2193274633876
 21
-2385.859458320582
 31
0.0
  0
LINE
  5
2B613
330
18
100
AcDbEntity
  8
実線
100
AcDbLine
 10
817.1317019242819
 20
-2385.651689833946
 30
0.0
 11
817.1317019242819
 21
-2385.248726464849
 31
0.0
  0
LINE
  5
2B614
330
18
100
AcDbEntity
  8
実線
100
AcDbLine
 10
818.5384897155895
 20
-2385.248726464849
 30
0.0
 11
817.1317019242819
 21
-2385.248726464849
 31
0.0
  0
LINE
  5
2B615
330
18
100
AcDbEntity
  8
実線
100
AcDbLine
 10
818.5384897155895
 20
-2385.248726464849
 30
0.0
 11
818.5384897155895
 21
-2384.448726464849
 31
0.0
  0
LINE
  5
2B616
330
18
100
AcDbEntity
  8
実線
100
AcDbLine
 10
817.1317019242819
 20
-2385.248726464849
 30
0.0
 11
817.1317019242819
 21
-2384.448726464849
 31
0.0
  0
ARC
  5
2B617
330
18
100
AcDbEntity
  8
実線
100
AcDbCircle
 10
815.0862234368863
 20
-2386.203247977453
 30
0.0
 40
0.545478487396098
100
AcDbArc
 50
270.0
 51
79.81477213708737
  0
LINE
  5
2B618
330
18
100
AcDbEntity
  8
実線
100
AcDbLine
 10
820.2317019242823
 20
-2383.448726464849
 30
0.0
 11
819.6317019242819
 21
-2382.848726464849
 31
0.0
  0
LINE
  5
2B619
330
18
100
AcDbEntity
  8
実線
100
AcDbLine
 10
818.5384897155895
 20
-2384.448726464849
 30
0.0
 11
820.6317019242819
 21
-2384.448726464849
 31
0.0
  0
LINE
  5
2B61A
330
18
100
AcDbEntity
  8
実線
100
AcDbLine
 10
820.6317019242819
 20
-2385.248726464849
 30
0.0
 11
818.5384897155895
 21
-2385.248726464849
 31
0.0
  0
LINE
  5
2B61B
330
18
100
AcDbEntity
  8
実線
100
AcDbLine
 10
820.6317019242819
 20
-2383.448726464849
 30
0.0
 11
820.2317019242823
 21
-2383.448726464849
 31
0.0
  0
LINE
  5
2B61C
330
18
100
AcDbEntity
  8
実線
100
AcDbLine
 10
828.6317019242819
 20
-2395.648726464849
 30
0.0
 11
828.6317019242819
 21
-2392.208726464849
 31
0.0
  0
LINE
  5
2B61D
330
18
100
AcDbEntity
  8
実線
100
AcDbLine
 10
828.6317019242819
 20
-2391.088726464849
 30
0.0
 11
828.6317019242819
 21
-2387.648726464849
 31
0.0
  0
LINE
  5
2B61E
330
18
100
AcDbEntity
  8
実線
100
AcDbLine
 10
822.6317019242818
 20
-2385.248726464849
 30
0.0
 11
822.6317019242818
 21
-2384.448726464849
 31
0.0
  0
LINE
  5
2B621
330
18
100
AcDbEntity
  8
実線
100
AcDbLine
 10
802.9317019242828
 20
-2395.157401794416
 30
0.0
 11
802.9317019242828
 21
-2388.157401794416
 31
0.0
  0
TEXT
  5
2B734
330
18
100
AcDbEntity
  8
細線
  6
Continuous
100
AcDbText
 10
882.4082400294711
 20
-2440.710610930098
 30
0.0
 40
3.2
  1
CLNA500MA
100
AcDbText
  0
TEXT
  5
2B735
330
18
100
AcDbEntity
  8
細線
100
AcDbText
 10
877.7696213775316
 20
-2451.259849933213
 30
0.0
 40
5.0
  1
外形図_コイルユニット単体
 41
0.9
100
AcDbText
  0
TEXT
  5
2B736
330
18
100
AcDbEntity
  8
細線
100
AcDbText
 10
877.8831815957088
 20
-2463.005497446883
 30
0.0
 40
6.0
  1
ＳＥ－８７３２０
 41
1.1
100
AcDbText
  0
VIEWPORT
  5
2B73B
102
{ACAD_XDICTIONARY
360
2B818
102
}
330
2B737
100
AcDbEntity
 67
     1
  8
0
100
AcDbViewport
 10
8.420300975294018
 20
3.5
 30
0.0
 40
12.8035190474548
 41
8.207384004778715
 68
     1
 69
     1
 12
8.420300975294018
 22
3.5
 13
0.0
 23
0.0
 14
0.5
 24
0.5
 15
0.0
 25
0.0
 16
0.0
 26
0.0
 36
1.0
 17
0.0
 27
0.0
 37
0.0
 42
50.0
 43
0.0
 44
0.0
 45
8.207384004778715
 50
0.0
 51
0.0
 72
   100
 90
   557152
  1

281
     0
 71
     1
 74
     0
110
0.0
120
0.0
130
0.0
111
1.0
121
0.0
131
0.0
112
0.0
122
1.0
132
0.0
 79
     0
146
0.0
  0
VIEWPORT
  5
2B73C
102
{ACAD_XDICTIONARY
360
2B73D
102
}
330
2B737
100
AcDbEntity
 67
     1
  8
0
100
AcDbViewport
 10
5.25
 20
3.5
 30
0.0
 40
8.4
 41
5.6
 68
     2
 69
     2
 12
694.8011445041704
 22
-2311.924502313855
 13
0.0
 23
0.0
 14
0.5
 24
0.5
 15
0.0
 25
0.0
 16
0.0
 26
0.0
 36
1.0
 17
0.0
 27
0.0
 37
0.0
 42
50.0
 43
0.0
 44
0.0
 45
349.4743893124248
 50
0.0
 51
0.0
 72
   100
341
E
 90
   557152
  1

281
     0
 71
     1
 74
     0
110
0.0
120
0.0
130
0.0
111
1.0
121
0.0
131
0.0
112
0.0
122
1.0
132
0.0
 79
     0
146
0.0
  0
ENDSEC
  0
SECTION
  2
OBJECTS
  0
DICTIONARY
  5
C
330
0
100
AcDbDictionary
281
     1
  3
ACAD_2007HEADERVARS_RT
350
2B7DD
  3
ACAD_CIP_PREVIOUS_PRODUCT_INFO
350
2B76F
  3
ACAD_COLOR
350
2B75F
  3
ACAD_DETAILVIEWSTYLE
350
28920
  3
ACAD_GROUP
350
D
  3
ACAD_IMAGE_VARS
350
283ED
  3
ACAD_LAYOUT
350
DB2
  3
ACAD_MATERIAL
350
2B6A9
  3
ACAD_MLEADERSTYLE
350
2B6AF
  3
ACAD_MLINESTYLE
350
1B
  3
ACAD_PLOTSETTINGS
350
DB3
  3
ACAD_PLOTSTYLENAME
350
FB5B
  3
ACAD_SCALELIST
350
283C1
  3
ACAD_SECTIONVIEWSTYLE
350
28921
  3
ACAD_TABLESTYLE
350
2B6AD
  3
ACAD_VISUALSTYLE
350
2B690
  3
AcadDim
350
264CA
  3
ACDB_RECOMPOSE_DATA
350
2B7DB
  3
AcDbVariableDictionary
350
106A6
  3
APPDATA
350
283EB
  3
ASE_INDEX_DICTIONARY
350
1A99F
  3
DWGPROPS
350
2B7DC
  3
FX_DICT_DIMENSION_PALETTE
350
28918
  3
FX_DICT_DIMENSION_PALETTE_RECENTLIST
350
28919
  0
DICTIONARY
  5
2B77F
330
8
100
AcDbDictionary
280
     1
281
     1
  0
DICTIONARY
  5
254EC
330
2
100
AcDbDictionary
280
     1
281
     1
  3
ACAD_LAYERSTATES
360
254F9
  3
ACLYDICTIONARY
360
2B74D
  0
DICTIONARY
  5
2A71F
330
2A71E
100
AcDbDictionary
280
     1
281
     1
  3
ADSK_XREC_LAYER_RECONCILED
360
2A720
  0
DICTIONARY
  5
29EA9
330
18
100
AcDbDictionary
280
     1
281
     1
  3
ACAD_SORTENTS
360
29EAA
  0
DICTIONARY
  5
2B818
330
2B73B
100
AcDbDictionary
280
     1
281
     1
  3
ACAD_XREC_ROUNDTRIP
360
2B819
  0
DICTIONARY
  5
2B73D
330
2B73C
100
AcDbDictionary
280
     1
281
     1
  3
ACAD_XREC_ROUNDTRIP
360
2B81A
  3
ASDK_XREC_ANNOTATION_SCALE_INFO
360
2B73E
  0
DICTIONARY
  5
2B7DD
102
{ACAD_REACTORS
330
C
102
}
330
C
100
AcDbDictionary
281
     1
  3
INTERFERECOLOR
350
2B7DE
  0
XRECORD
  5
2B76F
102
{ACAD_REACTORS
330
C
102
}
330
C
100
AcDbXrecord
280
     1
300
ACDLT
300
2019
300
87085ACDLT_2019_0F
  0
DICTIONARY
  5
2B75F
102
{ACAD_REACTORS
330
C
102
}
330
C
100
AcDbDictionary
281
     1
  0
DICTIONARY
  5
28920
102
{ACAD_REACTORS
330
C
102
}
330
C
100
AcDbDictionary
281
     1
  3
Imperial24
350
2B761
  0
DICTIONARY
  5
D
102
{ACAD_REACTORS
330
C
102
}
330
C
100
AcDbDictionary
281
     1
  0
RASTERVARIABLES
  5
283ED
102
{ACAD_REACTORS
330
C
102
}
330
C
100
AcDbRasterVariables
 90
        0
 70
     1
 71
     1
 72
     0
  0
DICTIONARY
  5
DB2
102
{ACAD_REACTORS
330
C
102
}
330
C
100
AcDbDictionary
281
     1
  3
Model
350
FB5D
  3
Sheet1
350
2B738
  0
DICTIONARY
  5
2B6A9
102
{ACAD_REACTORS
330
C
102
}
330
C
100
AcDbDictionary
281
     1
  3
ByBlock
350
2B759
  3
ByLayer
350
2B6AA
  3
Global
350
2B6AC
  0
DICTIONARY
  5
2B6AF
102
{ACAD_REACTORS
330
C
102
}
330
C
100
AcDbDictionary
281
     1
  3
Standard
350
2B6B0
  0
DICTIONARY
  5
1B
102
{ACAD_REACTORS
330
C
102
}
330
C
100
AcDbDictionary
281
     1
  3
STANDARD
350
1C
  0
DICTIONARY
  5
DB3
102
{ACAD_REACTORS
330
C
102
}
330
C
100
AcDbDictionary
281
     1
  0
ACDBDICTIONARYWDFLT
  5
FB5B
102
{ACAD_REACTORS
330
C
102
}
330
C
100
AcDbDictionary
281
     1
  3
Normal
350
FB5C
100
AcDbDictionaryWithDefault
340
FB5C
  0
DICTIONARY
  5
283C1
102
{ACAD_REACTORS
330
C
102
}
330
C
100
AcDbDictionary
281
     1
  3
A0
350
283C2
  3
A1
350
283C3
  3
A2
350
283C4
  3
A3
350
283C5
  3
A4
350
283C6
  3
A5
350
283C7
  3
A6
350
283C8
  3
A7
350
283C9
  3
A8
350
283CA
  3
A9
350
283CB
  3
B0
350
283CC
  3
B1
350
283CD
  3
B2
350
283CE
  3
B3
350
283CF
  3
B4
350
283D0
  3
B5
350
283D1
  3
B6
350
283D2
  3
B7
350
283D3
  3
B8
350
283D4
  3
B9
350
283D5
  3
C0
350
283D6
  3
C1
350
283D7
  3
C2
350
283D8
  3
C3
350
283D9
  3
C4
350
283DA
  3
C5
350
283DB
  3
C6
350
283DC
  3
C7
350
283DD
  3
C8
350
283DE
  3
C9
350
283DF
  3
D0
350
283E0
  3
D1
350
283E1
  3
D2
350
283E2
  0
DICTIONARY
  5
28921
102
{ACAD_REACTORS
330
C
102
}
330
C
100
AcDbDictionary
281
     1
  3
Imperial24
350
2B760
  0
DICTIONARY
  5
2B6AD
102
{ACAD_REACTORS
330
C
102
}
330
C
100
AcDbDictionary
281
     1
  3
Standard
350
2B6AE
  0
DICTIONARY
  5
2B690
102
{ACAD_REACTORS
330
C
102
}
330
C
100
AcDbDictionary
281
     1
  3
2dWireframe
350
2B695
  3
Basic
350
2B698
  3
Brighten
350
2B69C
  3
ColorChange
350
2B6A0
  3
Conceptual
350
2B69A
  3
Dim
350
2B69B
  3
EdgeColorOff
350
2B6A3
  3
Facepattern
350
2B69F
  3
Flat
350
2B691
  3
FlatWithEdges
350
2B692
  3
Gouraud
350
2B693
  3
GouraudWithEdges
350
2B694
  3
Hidden
350
2B697
  3
JitterOff
350
2B6A1
  3
Linepattern
350
2B69E
  3
OverhangOff
350
2B6A2
  3
Realistic
350
2B699
  3
Shaded
350
2B6A8
  3
Shaded with edges
350
2B6A7
  3
Shades of Gray
350
2B6A4
  3
Sketchy
350
2B6A5
  3
Thicken
350
2B69D
  3
Wireframe
350
2B696
  3
X-Ray
350
2B6A6
  0
XRECORD
  5
264CA
102
{ACAD_REACTORS
330
C
102
}
330
C
100
AcDbXrecord
280
     1
 90
   990106
  3

 60
     0
 61
     0
 62
     4
 63
     4
 64
     1
 65
     0
 66
     0
 67
     3
 68
     1
 69
     0
 70
     0
 71
     0
 72
     0
 40
0.0
170
     2
340
0
  0
XRECORD
  5
2B7DB
102
{ACAD_REACTORS
330
C
102
}
330
C
100
AcDbXrecord
280
     1
 90
        1
330
2B6AE
  0
DICTIONARY
  5
106A6
102
{ACAD_REACTORS
330
C
102
}
330
C
100
AcDbDictionary
281
     1
  3
CANNOSCALE
350
2B75A
  3
CMLEADERSTYLE
350
2B75C
  3
CTABLESTYLE
350
2B75B
  3
CVIEWDETAILSTYLE
350
2B7C4
  3
CVIEWSECTIONSTYLE
350
2B7C5
  3
DGNFRAME
350
2B7CC
  3
DIMASSOC
350
2B7CB
  3
HIDETEXT
350
2B7CA
  3
INDEXCTL
350
2B7C9
  3
LAYEREVAL
350
2B7C7
  3
LAYERNOTIFY
350
2B7C8
  3
LIGHTINGUNITS
350
2B7C6
  3
MSLTSCALE
350
2B75D
  3
SORTENTS
350
106A7
  3
XCLIPFRAME
350
2B7D9
  0
DICTIONARY
  5
283EB
102
{ACAD_REACTORS
330
C
102
}
330
C
100
AcDbDictionary
281
     1
  0
DICTIONARY
  5
1A99F
102
{ACAD_REACTORS
330
C
102
}
330
C
100
AcDbDictionary
281
     1
  3
ASEBlockHierarchyIndexRecord
350
1A9A1
1001
DCO15
1040
1464612067.17
  0
XRECORD
  5
2B7DC
102
{ACAD_REACTORS
330
C
102
}
330
C
100
AcDbXrecord
280
     1
  1
DWGPROPS COOKIE
  2

  3

  4

  6

  7

  8
NI0949
  9

300
=
301
=
302
=
303
=
304
=
305
=
306
=
307
=
308
=
309
=
 40
0.0388808564814815
 41
2451224.660162037
 42
2458549.470810186
  1

 90
        0
  0
DICTIONARY
  5
28918
102
{ACAD_REACTORS
330
C
102
}
330
C
100
AcDbDictionary
281
     1
  0
DICTIONARY
  5
28919
102
{ACAD_REACTORS
330
C
102
}
330
C
100
AcDbDictionary
281
     1
  3
10
350
2AF39
  3
11
350
2B2BA
  3
2
350
28922
  3
3
350
28946
  3
4
350
28947
  3
5
350
28948
  3
6
350
28949
  3
7
350
2894A
  3
8
350
2AEBF
  3
9
350
2AEC0
  0
DICTIONARY
  5
254F9
102
{ACAD_REACTORS
330
254EC
102
}
330
254EC
100
AcDbDictionary
281
     1
  0
DICTIONARY
  5
2B74D
102
{ACAD_REACTORS
330
254EC
102
}
330
254EC
100
AcDbDictionary
281
     1
  3
*A1
350
2B74E
  3
*A10
350
2B755
  3
*A11
350
2B756
  3
*A2
350
2B757
  3
*A3
350
2B758
  3
*A4
350
2B74F
  3
*A5
350
2B750
  3
*A6
350
2B751
  3
*A7
350
2B752
  3
*A8
350
2B753
  3
*A9
350
2B754
1001
ACAD
1000
<All
  0
XRECORD
  5
2A720
102
{ACAD_REACTORS
330
2A71F
102
}
330
2A71F
100
AcDbXrecord
280
     1
290
     1
  0
SORTENTSTABLE
  5
29EAA
102
{ACAD_REACTORS
330
29EA9
102
}
330
29EA9
100
AcDbSortentsTable
330
18
331
176FC
  5
187CC
331
187C8
  5
187CD
331
187C9
  5
187CE
331
187CB
  5
187CF
331
187CC
  5
187D0
331
187CD
  5
187D1
331
187CE
  5
187D2
331
187CF
  5
187D3
331
187D0
  5
187D4
331
187D1
  5
187D5
331
187D2
  5
187D6
331
187D3
  5
187D7
331
187D4
  5
216E7
331
187D5
  5
21ACC
331
187D6
  5
27C69
331
187D7
  5
27C6A
331
216E7
  5
27C6B
331
21ACC
  5
27C6C
331
27C69
  5
27C6D
331
27C6A
  5
27C6E
331
27C6C
  5
27C70
331
27C6D
  5
27C71
331
27C6E
  5
27C72
331
27C6F
  5
27C73
331
27C75
  5
27C7A
331
27C76
  5
27C7B
331
27C77
  5
27C7D
331
27C79
  5
27C7E
331
27C7A
  5
27C7F
331
27C7B
  5
27C80
331
27C7D
  5
27C81
331
27C83
  5
27CCA
331
27C84
  5
27CCC
331
27C8E
  5
27CCD
331
27CC9
  5
27CCE
331
27CCA
  5
27CCF
331
27CCD
  5
27CD1
331
27CCE
  5
27CD2
331
27CCF
  5
27CD3
331
27CD0
  5
27CD4
331
27CD1
  5
27CD5
331
27CD2
  5
27CD6
331
27CD3
  5
27CD7
331
27CD4
  5
27CD8
331
27CD5
  5
27CD9
331
27CD6
  5
27CDA
331
27CD7
  5
27CDB
331
27CD8
  5
27CDC
331
27CD9
  5
27CDD
331
27CDA
  5
27CDE
331
27CDB
  5
27CDF
331
27CDC
  5
27CE0
331
27CDD
  5
27CE1
331
27CDE
  5
27CE2
331
27CDF
  5
27CE3
331
27CE0
  5
27CE4
331
27CE1
  5
27CE7
331
27CE2
  5
27CE8
331
27CE3
  5
27CE9
331
27CE4
  5
27CEA
331
27CE7
  5
27CEB
331
27CE8
  5
27CEC
331
27CE9
  5
27CED
331
27CEA
  5
27CEE
331
27CEB
  5
27CEF
331
27CEC
  5
27CF0
331
27CF8
  5
27CFC
331
27CF9
  5
27CFD
331
27CFA
  5
27D02
331
27CFB
  5
27D03
331
27CFC
  5
27D04
331
27CFD
  5
27D05
331
27D02
  5
27D06
331
27D03
  5
27D07
331
27D04
  5
27D08
331
27D05
  5
27D09
331
27D06
  5
27D0A
331
27D07
  5
27D0B
331
27D08
  5
27D0C
331
27D09
  5
27D0D
331
27D0A
  5
27D0E
331
27D0D
  5
27D11
331
27D13
  5
27D18
331
27D14
  5
27D19
331
27D1A
  5
27D1F
331
27D1B
  5
27D20
331
27D1C
  5
27D21
331
27D34
  5
27D39
331
27D35
  5
27D3A
331
27D37
  5
27D3B
331
27D38
  5
27D3C
331
27D39
  5
27D3D
331
27D3A
  5
27D3E
331
27D3B
  5
27D3F
331
27D3C
  5
27D40
331
27D3D
  5
27D41
331
27D55
  5
27D59
331
27D56
  5
27D5A
331
27D57
  5
27D5B
331
27D58
  5
27D5C
331
27D59
  5
27D61
331
27D5A
  5
27D62
331
27D9B
  5
27D9F
331
27D9C
  5
27DA0
331
27D9D
  5
27DA1
331
27D9E
  5
27DA2
331
27D9F
  5
27DA3
331
27DE3
  5
27DE7
331
27DE4
  5
27DE8
331
27DE7
  5
27DEB
331
27DE8
  5
27DEC
331
27DE9
  5
27DED
331
27DEA
  5
27DEE
331
27DEB
  5
27DEF
331
27DEC
  5
27DF0
331
27DED
  5
27DF1
331
27DEE
  5
27DF2
331
27DEF
  5
27DF3
331
27DF0
  5
27DF4
331
27DF1
  5
27DF5
331
27DF2
  5
27DF6
331
27DF3
  5
27DF7
331
27DF4
  5
27DF8
331
27DF5
  5
27DF9
331
27DF6
  5
27DFA
331
27DF7
  5
27DFB
331
27DF8
  5
27DFC
331
27DF9
  5
27DFD
331
27DFA
  5
27DFE
331
27DFB
  5
27DFF
331
27DFC
  5
27E00
331
27DFD
  5
27E02
331
27DFE
  5
27E03
331
27DFF
  5
27E04
331
27E00
  5
27E05
331
27E02
  5
27E06
331
27E03
  5
27E07
331
27E04
  5
27E08
331
27E05
  5
27FE0
331
27E06
  5
27FE1
331
27E07
  5
28C33
331
27E08
  5
28C34
331
2A1A0
  5
2A1A2
331
2A1A1
  5
2A1A3
331
2A1A2
  5
2A1A4
331
2A1A3
  5
2A1A5
331
2A1A4
  5
2A1A6
331
2A1A5
  5
2A1A7
331
2A1A6
  5
2A1A8
331
2A1A7
  5
2A1A9
331
2A1A8
  5
2A1AA
331
2A1A9
  5
2A1AB
331
2A1AA
  5
2A1AC
331
2A1AB
  5
2A1AD
331
2A1AC
  5
2A1AE
331
2A1AD
  5
2A1AF
331
2A1AE
  5
2A1B0
331
2A1AF
  5
2A1B1
331
2A1B0
  5
2A1B2
331
2A1B1
  5
2A1B3
331
2A1B2
  5
2A1B4
331
2A1B3
  5
2A1B5
331
2A1B4
  5
2A1B6
331
2A1B5
  5
2A1B7
331
2A1B6
  5
2A1B8
331
2A1B7
  5
2A1BF
331
2A1B8
  5
2A1C0
331
2A1BF
  5
2A1C1
331
2A1C0
  5
2A1C2
331
2A1C1
  5
2A1C3
331
2A1C2
  5
2A1C4
331
2A1C3
  5
2A1C5
331
2A1C4
  5
2A1C6
331
2A1C5
  5
2A1C7
331
2A1C6
  5
2A1C8
331
2A1C7
  5
2A1C9
331
2A1C8
  5
2A1CA
331
2A1C9
  5
2A1CB
331
2A1CA
  5
2A1CC
331
2A1CB
  5
2A1CD
331
2A1CC
  5
2A1CE
331
2A1CD
  5
2A1CF
331
2A1CE
  5
2A1D0
331
2A1CF
  5
2A1D1
331
2A1D0
  5
2A1D3
331
2A1D1
  5
2A1D4
331
2A1D3
  5
2A1D5
331
2A1D4
  5
2A1D6
331
2A1D5
  5
2A1D7
331
2A1D6
  5
2A1D8
331
2A1D7
  5
2A1D9
331
2A1D8
  5
2A1DA
331
2A1D9
  5
2A1DB
331
2A1DA
  5
2A1DC
331
2A1DB
  5
2A1DD
331
2A1DC
  5
2A1DE
331
2A1DD
  5
2A1DF
331
2A1DE
  5
2A1E0
331
2A1DF
  5
2A1E1
331
2A1E0
  5
2A1E2
331
2A1E1
  5
2A1E3
331
2A1E2
  5
2A1E4
331
2A1E3
  5
2A1E5
331
2A1E4
  5
2A1E6
331
2A1E5
  5
2A1E7
331
2A1E6
  5
2A1E8
331
2A1E7
  5
2A1E9
331
2A1E8
  5
2A1EA
331
2A1E9
  5
2A1EB
331
2A1EA
  5
2A1EC
331
2A2FD
  5
2A2FF
331
2A2FE
  5
2A300
  0
XRECORD
  5
2B819
102
{ACAD_REACTORS
330
2B818
102
}
330
2B818
100
AcDbXrecord
280
     1
102
SHADEPLOT
 70
     0
  0
XRECORD
  5
2B81A
102
{ACAD_REACTORS
330
2B73D
102
}
330
2B73D
100
AcDbXrecord
280
     1
102
SHADEPLOT
 70
     0
  0
XRECORD
  5
2B73E
102
{ACAD_REACTORS
330
2B73D
102
}
330
2B73D
100
AcDbXrecord
280
     1
 90
        1
340
283C2
  0
XRECORD
  5
2B7DE
102
{ACAD_REACTORS
330
2B7DD
102
}
330
2B7DD
100
AcDbXrecord
280
     1
1004
1800000001000000000000C0000000000000000000000000
  0
ACDBDETAILVIEWSTYLE
  5
2B761
102
{ACAD_XDICTIONARY
360
2B81F
102
}
102
{ACAD_REACTORS
330
28920
102
}
330
28920
100
AcDbModelDocViewStyle
 70
     0
  3
Imperial24
290
     0
100
AcDbDetailViewStyle
 70
     0
 71
     0
 90
        3
 71
     1
340
F
 40
0.24
340
0
 40
0.24
300

 40
0.36
280
     3
 71
     2
340
14
 90
       25
 71
     3
340
F
 40
0.24
 90
        1
 40
0.75
 90
        1
300
%<\AcVar ViewType \f "%tc1">% %<\AcVar ViewDetailId>%\PSCALE %<\AcVar ViewScale \f "%sn">%
 71
     4
340
14
 90
       25
340
14
 90
       25
280
     0
  0
LAYOUT
  5
FB5D
102
{ACAD_XDICTIONARY
360
2B7DF
102
}
102
{ACAD_REACTORS
330
DB2
102
}
330
DB2
100
AcDbPlotSettings
  1

  2
\\HONAMI\LBP-910
  4
A3
  6

 40
5.873749732971191
 41
5.873747825622558
 42
5.873748779296875
 43
5.873748779296875
 44
296.9259948730469
 45
419.9466552734374
 46
0.0
 47
0.0
 48
-134.0496161171158
 49
-116.2294073187233
140
1105.745250909008
141
633.2284101676227
142
1.0
143
2.866823569012708
 70
 11952
 72
     1
 73
     1
 74
     1
  7
monochrome.ctb
 75
     0
147
0.3488181173089717
148
98.7130430422485
149
74.96499340265336
100
AcDbLayout
  1
Model
 70
     1
 71
     0
 10
0.0
 20
0.0
 11
12.0
 21
9.0
 12
0.0
 22
0.0
 32
0.0
 14
437.8346817744462
 24
-2462.205497446883
 34
0.0
 15
951.7676072338945
 25
-2175.691602833293
 35
137.5
146
0.0
 13
0.0
 23
0.0
 33
0.0
 16
1.0
 26
0.0
 36
0.0
 17
0.0
 27
1.0
 37
0.0
 76
     0
330
18
  0
LAYOUT
  5
2B738
102
{ACAD_XDICTIONARY
360
2B816
102
}
102
{ACAD_REACTORS
330
DB2
102
}
330
DB2
100
AcDbPlotSettings
  1

  2
none_device
  4
ANSI_A_(11.00_x_8.50_Inches)
  6

 40
6.349999999999999
 41
19.05
 42
6.349999999999999
 43
19.05
 44
279.4
 45
215.9
 46
0.0
 47
0.0
 48
0.0
 49
0.0
140
0.0
141
0.0
142
1.0
143
1.0
 70
   688
 72
     0
 73
     0
 74
     5
  7

 75
    16
147
1.0
148
0.0
149
0.0
100
AcDbLayout
  1
Sheet1
 70
     1
 71
     1
 10
0.0
 20
0.0
 11
0.0
 21
0.0
 12
0.0
 22
0.0
 32
0.0
 14
1.049999999999999
 24
0.6999999999999998
 34
0.0
 15
9.449999999999999
 25
6.3
 35
0.0
146
0.0
 13
0.0
 23
0.0
 33
0.0
 16
1.0
 26
0.0
 36
0.0
 17
0.0
 27
1.0
 37
0.0
 76
     0
330
2B737
331
2B73B
  0
MATERIAL
  5
2B759
102
{ACAD_XDICTIONARY
360
2B81B
102
}
102
{ACAD_REACTORS
330
2B6A9
102
}
330
2B6A9
100
AcDbMaterial
  1
ByBlock
 73
     1
 78
     1
172
     1
176
     1
270
     1
274
     1
  0
MATERIAL
  5
2B6AA
102
{ACAD_XDICTIONARY
360
2B811
102
}
102
{ACAD_REACTORS
330
2B6A9
102
}
330
2B6A9
100
AcDbMaterial
  1
ByLayer
 73
     1
 78
     1
172
     1
176
     1
270
     1
274
     1
  0
MATERIAL
  5
2B6AC
102
{ACAD_XDICTIONARY
360
2B813
102
}
102
{ACAD_REACTORS
330
2B6A9
102
}
330
2B6A9
100
AcDbMaterial
  1
Global
 73
     1
 78
     1
172
     1
176
     1
270
     1
274
     1
  0
MLEADERSTYLE
  5
2B6B0
102
{ACAD_REACTORS
330
2B6AF
102
}
330
2B6AF
100
AcDbMLeaderStyle
170
     2
171
     1
172
     0
 90
        2
 40
0.0
 41
0.0
173
     1
 91
-1056964608
340
12
 92
       -2
290
     1
 42
0.09
291
     1
 43
0.36
  3
Standard
 44
0.18
300

342
F
174
     1
178
     6
175
     1
176
     0
 93
-1056964608
 45
0.18
292
     0
297
     0
 46
0.18
 94
-1056964608
 47
1.0
 49
1.0
140
1.0
293
     1
141
0.0
294
     1
177
     0
142
1.0
295
     0
296
     0
143
0.125
1001
ACAD_MLEADERVER
1070
     2
  0
MLINESTYLE
  5
1C
102
{ACAD_REACTORS
330
1B
102
}
330
1B
100
AcDbMlineStyle
  2
STANDARD
 70
     0
  3

 62
   256
 51
90.0
 52
90.0
 71
     2
 49
0.5
 62
   256
  6
BYLAYER
 49
-0.5
 62
   256
  6
BYLAYER
  0
ACDBPLACEHOLDER
  5
FB5C
102
{ACAD_REACTORS
330
FB5B
102
}
330
FB5B
  0
SCALE
  5
283C2
102
{ACAD_REACTORS
330
283C1
102
}
330
283C1
100
AcDbScale
 70
     0
300
1:1
140
1.0
141
1.0
290
     1
  0
SCALE
  5
283C3
102
{ACAD_REACTORS
330
283C1
102
}
330
283C1
100
AcDbScale
 70
     0
300
1:2
140
1.0
141
2.0
290
     0
  0
SCALE
  5
283C4
102
{ACAD_REACTORS
330
283C1
102
}
330
283C1
100
AcDbScale
 70
     0
300
1:4
140
1.0
141
4.0
290
     0
  0
SCALE
  5
283C5
102
{ACAD_REACTORS
330
283C1
102
}
330
283C1
100
AcDbScale
 70
     0
300
1:5
140
1.0
141
5.0
290
     0
  0
SCALE
  5
283C6
102
{ACAD_REACTORS
330
283C1
102
}
330
283C1
100
AcDbScale
 70
     0
300
1:8
140
1.0
141
8.0
290
     0
  0
SCALE
  5
283C7
102
{ACAD_REACTORS
330
283C1
102
}
330
283C1
100
AcDbScale
 70
     0
300
1:10
140
1.0
141
10.0
290
     0
  0
SCALE
  5
283C8
102
{ACAD_REACTORS
330
283C1
102
}
330
283C1
100
AcDbScale
 70
     0
300
1:16
140
1.0
141
16.0
290
     0
  0
SCALE
  5
283C9
102
{ACAD_REACTORS
330
283C1
102
}
330
283C1
100
AcDbScale
 70
     0
300
1:20
140
1.0
141
20.0
290
     0
  0
SCALE
  5
283CA
102
{ACAD_REACTORS
330
283C1
102
}
330
283C1
100
AcDbScale
 70
     0
300
1:30
140
1.0
141
30.0
290
     0
  0
SCALE
  5
283CB
102
{ACAD_REACTORS
330
283C1
102
}
330
283C1
100
AcDbScale
 70
     0
300
1:40
140
1.0
141
40.0
290
     0
  0
SCALE
  5
283CC
102
{ACAD_REACTORS
330
283C1
102
}
330
283C1
100
AcDbScale
 70
     0
300
1:50
140
1.0
141
50.0
290
     0
  0
SCALE
  5
283CD
102
{ACAD_REACTORS
330
283C1
102
}
330
283C1
100
AcDbScale
 70
     0
300
1:100
140
1.0
141
100.0
290
     0
  0
SCALE
  5
283CE
102
{ACAD_REACTORS
330
283C1
102
}
330
283C1
100
AcDbScale
 70
     0
300
2:1
140
2.0
141
1.0
290
     0
  0
SCALE
  5
283CF
102
{ACAD_REACTORS
330
283C1
102
}
330
283C1
100
AcDbScale
 70
     0
300
4:1
140
4.0
141
1.0
290
     0
  0
SCALE
  5
283D0
102
{ACAD_REACTORS
330
283C1
102
}
330
283C1
100
AcDbScale
 70
     0
300
8:1
140
8.0
141
1.0
290
     0
  0
SCALE
  5
283D1
102
{ACAD_REACTORS
330
283C1
102
}
330
283C1
100
AcDbScale
 70
     0
300
10:1
140
10.0
141
1.0
290
     0
  0
SCALE
  5
283D2
102
{ACAD_REACTORS
330
283C1
102
}
330
283C1
100
AcDbScale
 70
     0
300
100:1
140
100.0
141
1.0
290
     0
  0
SCALE
  5
283D3
102
{ACAD_REACTORS
330
283C1
102
}
330
283C1
100
AcDbScale
 70
     0
300
1/128" = 1'-0"
140
0.0078125
141
12.0
290
     0
  0
SCALE
  5
283D4
102
{ACAD_REACTORS
330
283C1
102
}
330
283C1
100
AcDbScale
 70
     0
300
1/64" = 1'-0"
140
0.015625
141
12.0
290
     0
  0
SCALE
  5
283D5
102
{ACAD_REACTORS
330
283C1
102
}
330
283C1
100
AcDbScale
 70
     0
300
1/32" = 1'-0"
140
0.03125
141
12.0
290
     0
  0
SCALE
  5
283D6
102
{ACAD_REACTORS
330
283C1
102
}
330
283C1
100
AcDbScale
 70
     0
300
1/16" = 1'-0"
140
0.0625
141
12.0
290
     0
  0
SCALE
  5
283D7
102
{ACAD_REACTORS
330
283C1
102
}
330
283C1
100
AcDbScale
 70
     0
300
3/32" = 1'-0"
140
0.09375
141
12.0
290
     0
  0
SCALE
  5
283D8
102
{ACAD_REACTORS
330
283C1
102
}
330
283C1
100
AcDbScale
 70
     0
300
1/8" = 1'-0"
140
0.125
141
12.0
290
     0
  0
SCALE
  5
283D9
102
{ACAD_REACTORS
330
283C1
102
}
330
283C1
100
AcDbScale
 70
     0
300
3/16" = 1'-0"
140
0.1875
141
12.0
290
     0
  0
SCALE
  5
283DA
102
{ACAD_REACTORS
330
283C1
102
}
330
283C1
100
AcDbScale
 70
     0
300
1/4" = 1'-0"
140
0.25
141
12.0
290
     0
  0
SCALE
  5
283DB
102
{ACAD_REACTORS
330
283C1
102
}
330
283C1
100
AcDbScale
 70
     0
300
3/8" = 1'-0"
140
0.375
141
12.0
290
     0
  0
SCALE
  5
283DC
102
{ACAD_REACTORS
330
283C1
102
}
330
283C1
100
AcDbScale
 70
     0
300
1/2" = 1'-0"
140
0.5
141
12.0
290
     0
  0
SCALE
  5
283DD
102
{ACAD_REACTORS
330
283C1
102
}
330
283C1
100
AcDbScale
 70
     0
300
3/4" = 1'-0"
140
0.75
141
12.0
290
     0
  0
SCALE
  5
283DE
102
{ACAD_REACTORS
330
283C1
102
}
330
283C1
100
AcDbScale
 70
     0
300
1" = 1'-0"
140
1.0
141
12.0
290
     0
  0
SCALE
  5
283DF
102
{ACAD_REACTORS
330
283C1
102
}
330
283C1
100
AcDbScale
 70
     0
300
1-1/2" = 1'-0"
140
1.5
141
12.0
290
     0
  0
SCALE
  5
283E0
102
{ACAD_REACTORS
330
283C1
102
}
330
283C1
100
AcDbScale
 70
     0
300
3" = 1'-0"
140
3.0
141
12.0
290
     0
  0
SCALE
  5
283E1
102
{ACAD_REACTORS
330
283C1
102
}
330
283C1
100
AcDbScale
 70
     0
300
6" = 1'-0"
140
6.0
141
12.0
290
     0
  0
SCALE
  5
283E2
102
{ACAD_REACTORS
330
283C1
102
}
330
283C1
100
AcDbScale
 70
     0
300
1'-0" = 1'-0"
140
12.0
141
12.0
290
     0
  0
ACDBSECTIONVIEWSTYLE
  5
2B760
102
{ACAD_XDICTIONARY
360
2B81D
102
}
102
{ACAD_REACTORS
330
28921
102
}
330
28921
100
AcDbModelDocViewStyle
 70
     0
  3
Imperial24
290
     0
100
AcDbSectionViewStyle
 70
     0
 71
     0
 90
       78
 71
     1
340
F
 40
0.24
340
0
340
0
 40
0.24
300
I, O, Q, S, X, Z
 40
0.48
 90
        3
 40
0.18
 90
        1
 71
     2
340
14
 90
       25
340
14
 90
       50
 40
0.24
 40
0.0
 40
0.24
 71
     3
340
F
 40
0.24
 90
        1
 40
0.75
 90
        1
300
%<\AcVar ViewType \f "%tc1">% %<\AcVar ViewSectionStartId>%-%<\AcVar ViewSectionEndId>%\PSCALE %<\AcVar ViewScale \f "%sn">%
 71
     4
300
ANSI31
 40
1.0
 90
        0
290
     0
290
     0
 90
        6
 40
0.0
 40
1.570796326794896
 40
0.2617993877991494
 40
1.308996938995747
 40
-0.2617993877991494
 40
1.832595714594046
  0
TABLESTYLE
  5
2B6AE
102
{ACAD_XDICTIONARY
360
2B770
102
}
102
{ACAD_REACTORS
330
2B6AD
102
}
330
2B6AD
100
AcDbTableStyle
  3
Standard
 70
     0
 71
     0
 40
0.06
 41
0.06
280
     0
281
     0
  7
STANDARD
140
0.18
170
     2
 62
     0
 63
     7
283
     0
274
    -2
284
     1
 64
     0
275
    -2
285
     1
 65
     0
276
    -2
286
     1
 66
     0
277
    -2
287
     1
 67
     0
278
    -2
288
     1
 68
     0
279
    -2
289
     1
 69
     0
  7
STANDARD
140
0.25
170
     5
 62
     0
 63
     7
283
     0
274
    -2
284
     1
 64
     0
275
    -2
285
     1
 65
     0
276
    -2
286
     1
 66
     0
277
    -2
287
     1
 67
     0
278
    -2
288
     1
 68
     0
279
    -2
289
     1
 69
     0
  7
STANDARD
140
0.18
170
     5
 62
     0
 63
     7
283
     0
274
    -2
284
     1
 64
     0
275
    -2
285
     1
 65
     0
276
    -2
286
     1
 66
     0
277
    -2
287
     1
 67
     0
278
    -2
288
     1
 68
     0
279
    -2
289
     1
 69
     0
  0
VISUALSTYLE
  5
2B695
102
{ACAD_XDICTIONARY
360
2B7E9
102
}
102
{ACAD_REACTORS
330
2B690
102
}
330
2B690
100
AcDbVisualStyle
  2
2dWireframe
 70
     4
 71
     0
 72
     2
 73
     0
 90
        0
 40
-0.6
 41
-30.0
 62
     5
 63
     7
 74
     1
 91
        4
 64
     7
 65
   257
 75
     1
175
     1
 42
1.0
 92
        0
 66
   257
 43
1.0
 76
     1
 77
     6
 78
     2
 67
     7
 79
     5
170
     0
171
     0
290
     0
174
     0
 93
        1
 44
0.0
173
     0
291
     0
 45
0.0
1001
ACAD
1000
AcDbSavedByObjectVersion
1070
     0
  0
VISUALSTYLE
  5
2B698
102
{ACAD_XDICTIONARY
360
2B7EF
102
}
102
{ACAD_REACTORS
330
2B690
102
}
330
2B690
100
AcDbVisualStyle
  2
Basic
 70
     7
 71
     1
 72
     0
 73
     1
 90
        0
 40
-0.6
 41
-30.0
 62
     5
 63
     7
 74
     0
 91
        4
 64
     7
 65
   257
 75
     1
175
     1
 42
1.0
 92
        8
 66
     7
 43
1.0
 76
     1
 77
     6
 78
     2
 67
     7
 79
     5
170
     0
171
     0
290
     0
174
     0
 93
        1
 44
0.0
173
     0
291
     1
 45
0.0
1001
ACAD
1000
AcDbSavedByObjectVersion
1070
     0
  0
VISUALSTYLE
  5
2B69C
102
{ACAD_XDICTIONARY
360
2B7F7
102
}
102
{ACAD_REACTORS
330
2B690
102
}
330
2B690
100
AcDbVisualStyle
  2
Brighten
 70
    12
 71
     2
 72
     2
 73
     0
 90
        0
 40
-0.6
 41
-30.0
 62
     5
 63
     7
 74
     1
 91
        4
 64
     7
 65
   257
 75
     1
175
     1
 42
1.0
 92
        8
 66
     7
 43
1.0
 76
     1
 77
     6
 78
     2
 67
     7
 79
     5
170
     0
171
     0
290
     0
174
     0
 93
        1
 44
50.0
173
     0
291
     1
 45
0.0
1001
ACAD
1000
AcDbSavedByObjectVersion
1070
     0
  0
VISUALSTYLE
  5
2B6A0
102
{ACAD_XDICTIONARY
360
2B7FF
102
}
102
{ACAD_REACTORS
330
2B690
102
}
330
2B690
100
AcDbVisualStyle
  2
ColorChange
 70
    16
 71
     2
 72
     2
 73
     3
 90
        0
 40
-0.6
 41
-30.0
 62
     5
 63
     8
 74
     1
 91
        4
 64
     7
 65
   257
 75
     1
175
     1
 42
1.0
 92
        8
 66
     8
 43
1.0
 76
     1
 77
     6
 78
     2
 67
     7
 79
     5
170
     0
171
     0
290
     0
174
     0
 93
        1
 44
0.0
173
     0
291
     1
 45
0.0
1001
ACAD
1000
AcDbSavedByObjectVersion
1070
     0
  0
VISUALSTYLE
  5
2B69A
102
{ACAD_XDICTIONARY
360
2B7F3
102
}
102
{ACAD_REACTORS
330
2B690
102
}
330
2B690
100
AcDbVisualStyle
  2
Conceptual
 70
     9
 71
     3
 72
     2
 73
     0
 90
        0
 40
-0.6
 41
-30.0
 62
     5
 63
     7
 74
     2
 91
        2
 64
     7
 65
   257
 75
     1
175
     1
 42
179.0
 92
        8
 66
     7
 43
1.0
 76
     1
 77
     6
 78
     2
 67
     7
 79
     3
170
     0
171
     0
290
     0
174
     0
 93
        1
 44
0.0
173
     0
291
     0
 45
0.0
1001
ACAD
1000
AcDbSavedByObjectVersion
1070
     0
  0
VISUALSTYLE
  5
2B69B
102
{ACAD_XDICTIONARY
360
2B7F5
102
}
102
{ACAD_REACTORS
330
2B690
102
}
330
2B690
100
AcDbVisualStyle
  2
Dim
 70
    11
 71
     2
 72
     2
 73
     0
 90
        0
 40
-0.6
 41
-30.0
 62
     5
 63
     7
 74
     1
 91
        4
 64
     7
 65
   257
 75
     1
175
     1
 42
1.0
 92
        8
 66
     7
 43
1.0
 76
     1
 77
     6
 78
     2
 67
     7
 79
     5
170
     0
171
     0
290
     0
174
     0
 93
        1
 44
-50.0
173
     0
291
     1
 45
0.0
1001
ACAD
1000
AcDbSavedByObjectVersion
1070
     0
  0
VISUALSTYLE
  5
2B6A3
102
{ACAD_XDICTIONARY
360
2B805
102
}
102
{ACAD_REACTORS
330
2B690
102
}
330
2B690
100
AcDbVisualStyle
  2
EdgeColorOff
 70
    22
 71
     2
 72
     2
 73
     0
 90
        0
 40
-0.6
 41
-30.0
 62
     5
 63
     7
 74
     1
 91
        4
 64
     7
 65
   257
 75
     1
175
     1
 42
1.0
 92
        8
 66
     7
 43
1.0
 76
     1
 77
     6
 78
     2
 67
     7
 79
     5
170
     0
171
     0
290
     0
174
     0
 93
        1
 44
0.0
173
     0
291
     1
 45
0.0
1001
ACAD
1000
AcDbSavedByObjectVersion
1070
     0
  0
VISUALSTYLE
  5
2B69F
102
{ACAD_XDICTIONARY
360
2B7FD
102
}
102
{ACAD_REACTORS
330
2B690
102
}
330
2B690
100
AcDbVisualStyle
  2
Facepattern
 70
    15
 71
     2
 72
     2
 73
     0
 90
        0
 40
-0.6
 41
-30.0
 62
     5
 63
     7
 74
     1
 91
        4
 64
     7
 65
   257
 75
     1
175
     1
 42
1.0
 92
        8
 66
     7
 43
1.0
 76
     1
 77
     6
 78
     2
 67
     7
 79
     5
170
     0
171
     0
290
     0
174
     0
 93
        1
 44
0.0
173
     0
291
     1
 45
0.0
1001
ACAD
1000
AcDbSavedByObjectVersion
1070
     0
  0
VISUALSTYLE
  5
2B691
102
{ACAD_XDICTIONARY
360
2B7E1
102
}
102
{ACAD_REACTORS
330
2B690
102
}
330
2B690
100
AcDbVisualStyle
  2
Flat
 70
     0
 71
     2
 72
     1
 73
     1
 90
        2
 40
-0.6
 41
30.0
 62
     5
 63
     7
 74
     0
 91
        0
 64
     7
 65
   257
 75
     1
175
     1
 42
1.0
 92
        8
 66
     7
 43
1.0
 76
     1
 77
     6
 78
     2
 67
     7
 79
     5
170
     0
171
     0
290
     0
174
     0
 93
       13
 44
0.0
173
     0
291
     1
 45
0.0
1001
ACAD
1000
AcDbSavedByObjectVersion
1070
     0
  0
VISUALSTYLE
  5
2B692
102
{ACAD_XDICTIONARY
360
2B7E3
102
}
102
{ACAD_REACTORS
330
2B690
102
}
330
2B690
100
AcDbVisualStyle
  2
FlatWithEdges
 70
     1
 71
     2
 72
     1
 73
     1
 90
        2
 40
-0.6
 41
30.0
 62
     5
 63
     7
 74
     1
 91
        0
 64
     7
 65
   257
 75
     1
175
     1
 42
1.0
 92
        0
 66
   257
 43
1.0
 76
     1
 77
     6
 78
     2
 67
     7
 79
     5
170
     0
171
     0
290
     0
174
     0
 93
       13
 44
0.0
173
     0
291
     1
 45
0.0
1001
ACAD
1000
AcDbSavedByObjectVersion
1070
     0
  0
VISUALSTYLE
  5
2B693
102
{ACAD_XDICTIONARY
360
2B7E5
102
}
102
{ACAD_REACTORS
330
2B690
102
}
330
2B690
100
AcDbVisualStyle
  2
Gouraud
 70
     2
 71
     2
 72
     2
 73
     1
 90
        2
 40
-0.6
 41
30.0
 62
     5
 63
     7
 74
     0
 91
        0
 64
     7
 65
   257
 75
     1
175
     1
 42
1.0
 92
        0
 66
     7
 43
1.0
 76
     1
 77
     6
 78
     2
 67
     7
 79
     5
170
     0
171
     0
290
     0
174
     0
 93
       13
 44
0.0
173
     0
291
     1
 45
0.0
1001
ACAD
1000
AcDbSavedByObjectVersion
1070
     0
  0
VISUALSTYLE
  5
2B694
102
{ACAD_XDICTIONARY
360
2B7E7
102
}
102
{ACAD_REACTORS
330
2B690
102
}
330
2B690
100
AcDbVisualStyle
  2
GouraudWithEdges
 70
     3
 71
     2
 72
     2
 73
     1
 90
        2
 40
-0.6
 41
30.0
 62
     5
 63
     7
 74
     1
 91
        0
 64
     7
 65
   257
 75
     1
175
     1
 42
1.0
 92
        0
 66
   257
 43
1.0
 76
     1
 77
     6
 78
     2
 67
     7
 79
     5
170
     0
171
     0
290
     0
174
     0
 93
       13
 44
0.0
173
     0
291
     1
 45
0.0
1001
ACAD
1000
AcDbSavedByObjectVersion
1070
     0
  0
VISUALSTYLE
  5
2B697
102
{ACAD_XDICTIONARY
360
2B7ED
102
}
102
{ACAD_REACTORS
330
2B690
102
}
330
2B690
100
AcDbVisualStyle
  2
Hidden
 70
     6
 71
     1
 72
     2
 73
     2
 90
        0
 40
-0.6
 41
-30.0
 62
     5
 63
     7
 74
     2
 91
        2
 64
     7
 65
   257
 75
     2
175
     1
 42
40.0
 92
        0
 66
   257
 43
1.0
 76
     1
 77
     6
 78
     2
 67
     7
 79
     3
170
     0
171
     0
290
     0
174
     0
 93
        1
 44
0.0
173
     0
291
     0
 45
0.0
1001
ACAD
1000
AcDbSavedByObjectVersion
1070
     0
  0
VISUALSTYLE
  5
2B6A1
102
{ACAD_XDICTIONARY
360
2B801
102
}
102
{ACAD_REACTORS
330
2B690
102
}
330
2B690
100
AcDbVisualStyle
  2
JitterOff
 70
    20
 71
     2
 72
     2
 73
     0
 90
        0
 40
-0.6
 41
-30.0
 62
     5
 63
     7
 74
     1
 91
        4
 64
     7
 65
   257
 75
     1
175
     1
 42
1.0
 92
       10
 66
     7
 43
1.0
 76
     1
 77
     6
 78
     2
 67
     7
 79
     5
170
     0
171
     0
290
     0
174
     0
 93
        1
 44
0.0
173
     0
291
     1
 45
0.0
1001
ACAD
1000
AcDbSavedByObjectVersion
1070
     0
  0
VISUALSTYLE
  5
2B69E
102
{ACAD_XDICTIONARY
360
2B7FB
102
}
102
{ACAD_REACTORS
330
2B690
102
}
330
2B690
100
AcDbVisualStyle
  2
Linepattern
 70
    14
 71
     2
 72
     2
 73
     0
 90
        0
 40
-0.6
 41
-30.0
 62
     5
 63
     7
 74
     1
 91
        4
 64
     7
 65
   257
 75
     7
175
     7
 42
1.0
 92
        8
 66
     7
 43
1.0
 76
     1
 77
     6
 78
     2
 67
     7
 79
     5
170
     0
171
     0
290
     0
174
     0
 93
        1
 44
0.0
173
     0
291
     1
 45
0.0
1001
ACAD
1000
AcDbSavedByObjectVersion
1070
     0
  0
VISUALSTYLE
  5
2B6A2
102
{ACAD_XDICTIONARY
360
2B803
102
}
102
{ACAD_REACTORS
330
2B690
102
}
330
2B690
100
AcDbVisualStyle
  2
OverhangOff
 70
    21
 71
     2
 72
     2
 73
     0
 90
        0
 40
-0.6
 41
-30.0
 62
     5
 63
     7
 74
     1
 91
        4
 64
     7
 65
   257
 75
     1
175
     1
 42
1.0
 92
        9
 66
     7
 43
1.0
 76
     1
 77
     6
 78
     2
 67
     7
 79
     5
170
     0
171
     0
290
     0
174
     0
 93
        1
 44
0.0
173
     0
291
     1
 45
0.0
1001
ACAD
1000
AcDbSavedByObjectVersion
1070
     0
  0
VISUALSTYLE
  5
2B699
102
{ACAD_XDICTIONARY
360
2B7F1
102
}
102
{ACAD_REACTORS
330
2B690
102
}
330
2B690
100
AcDbVisualStyle
  2
Realistic
 70
     8
 71
     2
 72
     2
 73
     0
 90
        2
 40
-0.6
 41
30.0
 62
     5
 63
     7
 74
     0
 91
        0
 64
     7
 65
   257
 75
     1
175
     1
 42
1.0
 92
        8
 66
   257
 43
1.0
 76
     1
 77
     6
 78
     2
 67
     7
 79
     3
170
     0
171
     0
290
     0
174
     0
 93
       13
 44
0.0
173
     0
291
     0
 45
0.0
1001
ACAD
1000
AcDbSavedByObjectVersion
1070
     0
  0
VISUALSTYLE
  5
2B6A8
102
{ACAD_XDICTIONARY
360
2B80F
102
}
102
{ACAD_REACTORS
330
2B690
102
}
330
2B690
100
AcDbVisualStyle
  2
Shaded
 70
    27
 71
     2
 72
     2
 73
     1
 90
        2
 40
-0.6
 41
30.0
 62
     5
 63
     7
 74
     0
 91
        4
 64
     7
 65
   257
 75
     1
175
     1
 42
1.0
 92
        8
 66
   257
 43
1.0
 76
     1
 77
     6
 78
     2
 67
     8
 79
     3
170
     0
171
     0
290
     0
174
     0
 93
        5
 44
0.0
173
     0
291
     0
 45
0.0
1001
ACAD
1000
AcDbSavedByObjectVersion
1070
     0
  0
VISUALSTYLE
  5
2B6A7
102
{ACAD_XDICTIONARY
360
2B80D
102
}
102
{ACAD_REACTORS
330
2B690
102
}
330
2B690
100
AcDbVisualStyle
  2
Shaded with edges
 70
    26
 71
     2
 72
     2
 73
     1
 90
        2
 40
-0.6
 41
30.0
 62
     5
 63
     7
 74
     1
 91
        2
 64
     7
 65
   257
 75
     2
175
     1
 42
1.0
 92
        8
 66
   257
 43
1.0
 76
     1
 77
     6
 78
     2
 67
     7
 79
     3
170
     0
171
     0
290
     0
174
     0
 93
        5
 44
0.0
173
     0
291
     0
 45
0.0
1001
ACAD
1000
AcDbSavedByObjectVersion
1070
     0
  0
VISUALSTYLE
  5
2B6A4
102
{ACAD_XDICTIONARY
360
2B807
102
}
102
{ACAD_REACTORS
330
2B690
102
}
330
2B690
100
AcDbVisualStyle
  2
Shades of Gray
 70
    23
 71
     2
 72
     2
 73
     3
 90
        0
 40
-0.6
 41
-30.0
 62
     5
 63
     7
 74
     2
 91
        2
 64
     7
 65
     7
 75
     1
175
     1
 42
40.0
 92
        8
 66
     7
 43
1.0
 76
     1
 77
     6
 78
     2
 67
     7
 79
     3
170
     0
171
     0
290
     0
174
     0
 93
        1
 44
0.0
173
     0
291
     0
 45
0.0
1001
ACAD
1000
AcDbSavedByObjectVersion
1070
     0
  0
VISUALSTYLE
  5
2B6A5
102
{ACAD_XDICTIONARY
360
2B809
102
}
102
{ACAD_REACTORS
330
2B690
102
}
330
2B690
100
AcDbVisualStyle
  2
Sketchy
 70
    24
 71
     1
 72
     2
 73
     2
 90
        0
 40
-0.6
 41
-30.0
 62
     5
 63
     7
 74
     2
 91
        2
 64
     7
 65
     7
 75
     1
175
     1
 42
40.0
 92
       11
 66
     7
 43
1.0
 76
     1
 77
     6
 78
     2
 67
     7
 79
     6
170
     0
171
     0
290
     0
174
     0
 93
        1
 44
0.0
173
     0
291
     0
 45
0.0
1001
ACAD
1000
AcDbSavedByObjectVersion
1070
     0
  0
VISUALSTYLE
  5
2B69D
102
{ACAD_XDICTIONARY
360
2B7F9
102
}
102
{ACAD_REACTORS
330
2B690
102
}
330
2B690
100
AcDbVisualStyle
  2
Thicken
 70
    13
 71
     2
 72
     2
 73
     0
 90
        0
 40
-0.6
 41
-30.0
 62
     5
 63
     7
 74
     1
 91
        4
 64
     7
 65
   257
 75
     1
175
     1
 42
1.0
 92
       12
 66
     7
 43
1.0
 76
     1
 77
     6
 78
     2
 67
     7
 79
     5
170
     0
171
     0
290
     0
174
     0
 93
        1
 44
0.0
173
     0
291
     1
 45
0.0
1001
ACAD
1000
AcDbSavedByObjectVersion
1070
     0
  0
VISUALSTYLE
  5
2B696
102
{ACAD_XDICTIONARY
360
2B7EB
102
}
102
{ACAD_REACTORS
330
2B690
102
}
330
2B690
100
AcDbVisualStyle
  2
Wireframe
 70
     5
 71
     0
 72
     2
 73
     0
 90
        0
 40
-0.6
 41
-30.0
 62
     5
 63
     7
 74
     1
 91
        4
 64
     7
 65
   257
 75
     1
175
     1
 42
1.0
 92
        0
 66
   257
 43
1.0
 76
     1
 77
     6
 78
     2
 67
     7
 79
     3
170
     0
171
     0
290
     0
174
     0
 93
        1
 44
0.0
173
     0
291
     0
 45
0.0
1001
ACAD
1000
AcDbSavedByObjectVersion
1070
     0
  0
VISUALSTYLE
  5
2B6A6
102
{ACAD_XDICTIONARY
360
2B80B
102
}
102
{ACAD_REACTORS
330
2B690
102
}
330
2B690
100
AcDbVisualStyle
  2
X-Ray
 70
    25
 71
     2
 72
     2
 73
     1
 90
        1
 40
0.5
 41
-30.0
 62
     5
 63
     7
 74
     1
 91
        0
 64
     7
 65
   257
 75
     1
175
     1
 42
1.0
 92
        8
 66
     7
 43
1.0
 76
     1
 77
     6
 78
     2
 67
     7
 79
     3
170
     0
171
     0
290
     0
174
     0
 93
       13
 44
0.0
173
     0
291
     0
 45
0.0
1001
ACAD
1000
AcDbSavedByObjectVersion
1070
     0
  0
DICTIONARYVAR
  5
2B75A
102
{ACAD_REACTORS
330
106A6
102
}
330
106A6
100
DictionaryVariables
280
     0
  1
1:1
  0
DICTIONARYVAR
  5
2B75C
102
{ACAD_REACTORS
330
106A6
102
}
330
106A6
100
DictionaryVariables
280
     0
  1
STANDARD
  0
DICTIONARYVAR
  5
2B75B
102
{ACAD_REACTORS
330
106A6
102
}
330
106A6
100
DictionaryVariables
280
     0
  1
STANDARD
  0
DICTIONARYVAR
  5
2B7C4
102
{ACAD_REACTORS
330
106A6
102
}
330
106A6
100
DictionaryVariables
280
     0
  1
Imperial24
  0
DICTIONARYVAR
  5
2B7C5
102
{ACAD_REACTORS
330
106A6
102
}
330
106A6
100
DictionaryVariables
280
     0
  1
Imperial24
  0
DICTIONARYVAR
  5
2B7CC
102
{ACAD_REACTORS
330
106A6
102
}
330
106A6
100
DictionaryVariables
280
     0
  1
2
  0
DICTIONARYVAR
  5
2B7CB
102
{ACAD_REACTORS
330
106A6
102
}
330
106A6
100
DictionaryVariables
280
     0
  1
2
  0
DICTIONARYVAR
  5
2B7CA
102
{ACAD_REACTORS
330
106A6
102
}
330
106A6
100
DictionaryVariables
280
     0
  1
1
  0
DICTIONARYVAR
  5
2B7C9
102
{ACAD_REACTORS
330
106A6
102
}
330
106A6
100
DictionaryVariables
280
     0
  1
0
  0
DICTIONARYVAR
  5
2B7C7
102
{ACAD_REACTORS
330
106A6
102
}
330
106A6
100
DictionaryVariables
280
     0
  1
0
  0
DICTIONARYVAR
  5
2B7C8
102
{ACAD_REACTORS
330
106A6
102
}
330
106A6
100
DictionaryVariables
280
     0
  1
0
  0
DICTIONARYVAR
  5
2B7C6
102
{ACAD_REACTORS
330
106A6
102
}
330
106A6
100
DictionaryVariables
280
     0
  1
2
  0
DICTIONARYVAR
  5
2B75D
102
{ACAD_REACTORS
330
106A6
102
}
330
106A6
100
DictionaryVariables
280
     0
  1
0
  0
DICTIONARYVAR
  5
106A7
102
{ACAD_REACTORS
330
106A6
102
}
330
106A6
100
DictionaryVariables
280
     0
  1
96
  0
DICTIONARYVAR
  5
2B7D9
102
{ACAD_REACTORS
330
106A6
102
}
330
106A6
100
DictionaryVariables
280
     0
  1
2
  0
XRECORD
  5
1A9A1
102
{ACAD_REACTORS
330
1A99F
102
}
330
1A99F
100
AcDbXrecord
280
     1
330
187D7
330
0
330
0
330
0
330
0
330
0
330
0
330
0
330
0
330
0
330
0
330
0
330
0
330
0
330
0
330
0
330
0
330
0
330
0
330
0
330
0
330
0
330
0
330
0
330
0
330
0
330
0
330
0
330
0
330
0
330
0
330
0
330
0
330
0
330
0
330
0
330
0
330
0
330
0
330
0
330
0
330
0
330
0
330
0
  0
XRECORD
  5
2AF39
102
{ACAD_REACTORS
330
28919
102
}
330
28919
100
AcDbXrecord
280
     1
290
     1
290
     1
  0
XRECORD
  5
2B2BA
102
{ACAD_REACTORS
330
28919
102
}
330
28919
100
AcDbXrecord
280
     1
290
     0
290
     0
  0
XRECORD
  5
28922
102
{ACAD_REACTORS
330
28919
102
}
330
28919
100
AcDbXrecord
280
     1
290
     1
290
     0
  0
XRECORD
  5
28946
102
{ACAD_REACTORS
330
28919
102
}
330
28919
100
AcDbXrecord
280
     1
290
     0
290
     0
  0
XRECORD
  5
28947
102
{ACAD_REACTORS
330
28919
102
}
330
28919
100
AcDbXrecord
280
     1
290
     0
290
     1
  0
XRECORD
  5
28948
102
{ACAD_REACTORS
330
28919
102
}
330
28919
100
AcDbXrecord
280
     1
290
     0
290
     1
  0
XRECORD
  5
28949
102
{ACAD_REACTORS
330
28919
102
}
330
28919
100
AcDbXrecord
280
     1
290
     1
290
     0
  0
XRECORD
  5
2894A
102
{ACAD_REACTORS
330
28919
102
}
330
28919
100
AcDbXrecord
280
     1
290
     1
290
     1
  0
XRECORD
  5
2AEBF
102
{ACAD_REACTORS
330
28919
102
}
330
28919
100
AcDbXrecord
280
     1
290
     1
290
     1
  0
XRECORD
  5
2AEC0
102
{ACAD_REACTORS
330
28919
102
}
330
28919
100
AcDbXrecord
280
     1
290
     1
290
     0
  0
XRECORD
  5
2B74E
102
{ACAD_REACTORS
330
2B74D
102
}
330
2B74D
100
AcDbXrecord
280
     1
  1
AcLyLayerFilter
 90
        1
300
0
301
NAME=="*0"
  0
XRECORD
  5
2B755
102
{ACAD_REACTORS
330
2B74D
102
}
330
2B74D
100
AcDbXrecord
280
     1
  1
AcLyLayerFilter
 90
        1
300
4
301
NAME=="*4"
  0
XRECORD
  5
2B756
102
{ACAD_REACTORS
330
2B74D
102
}
330
2B74D
100
AcDbXrecord
280
     1
  1
AcLyLayerFilter
 90
        1
300
5
301
NAME=="*5"
  0
XRECORD
  5
2B757
102
{ACAD_REACTORS
330
2B74D
102
}
330
2B74D
100
AcDbXrecord
280
     1
  1
AcLyLayerFilter
 90
        1
300
7
301
NAME=="*7"
  0
XRECORD
  5
2B758
102
{ACAD_REACTORS
330
2B74D
102
}
330
2B74D
100
AcDbXrecord
280
     1
  1
AcLyLayerFilter
 90
        1
300
kiseki
301
NAME=="kiseki*"
  0
XRECORD
  5
2B74F
102
{ACAD_REACTORS
330
2B74D
102
}
330
2B74D
100
AcDbXrecord
280
     1
  1
AcLyLayerFilter
 90
        1
300
11
301
NAME=="*11"
  0
XRECORD
  5
2B750
102
{ACAD_REACTORS
330
2B74D
102
}
330
2B74D
100
AcDbXrecord
280
     1
  1
AcLyLayerFilter
 90
        1
300
150_
301
NAME=="150_*"
  0
XRECORD
  5
2B751
102
{ACAD_REACTORS
330
2B74D
102
}
330
2B74D
100
AcDbXrecord
280
     1
  1
AcLyLayerFilter
 90
        1
300
160_
301
NAME=="160_*"
  0
XRECORD
  5
2B752
102
{ACAD_REACTORS
330
2B74D
102
}
330
2B74D
100
AcDbXrecord
280
     1
  1
AcLyLayerFilter
 90
        1
300
170_
301
NAME=="170_*"
  0
XRECORD
  5
2B753
102
{ACAD_REACTORS
330
2B74D
102
}
330
2B74D
100
AcDbXrecord
280
     1
  1
AcLyLayerFilter
 90
        1
300
171_
301
NAME=="171_*"
  0
XRECORD
  5
2B754
102
{ACAD_REACTORS
330
2B74D
102
}
330
2B74D
100
AcDbXrecord
280
     1
  1
AcLyLayerFilter
 90
        1
300
350_
301
NAME=="350_*"
  0
DICTIONARY
  5
2B81F
330
2B761
100
AcDbDictionary
280
     1
281
     1
  3
ACAD_XREC_ROUNDTRIP
360
2B820
  0
DICTIONARY
  5
2B7DF
330
FB5D
100
AcDbDictionary
280
     1
281
     1
  3
ACAD_XREC_ROUNDTRIP
360
2B7E0
  0
DICTIONARY
  5
2B816
330
2B738
100
AcDbDictionary
280
     1
281
     1
  3
ACAD_XREC_ROUNDTRIP
360
2B817
  0
DICTIONARY
  5
2B81B
330
2B759
100
AcDbDictionary
280
     1
281
     1
  3
ACAD_XREC_ROUNDTRIP
360
2B81C
  0
DICTIONARY
  5
2B811
330
2B6AA
100
AcDbDictionary
280
     1
281
     1
  3
ACAD_XREC_ROUNDTRIP
360
2B812
  0
DICTIONARY
  5
2B813
330
2B6AC
100
AcDbDictionary
280
     1
281
     1
  3
ACAD_XREC_ROUNDTRIP
360
2B814
  0
DICTIONARY
  5
2B81D
330
2B760
100
AcDbDictionary
280
     1
281
     1
  3
ACAD_XREC_ROUNDTRIP
360
2B81E
  0
DICTIONARY
  5
2B770
330
2B6AE
100
AcDbDictionary
280
     1
281
     1
  3
ACAD_ROUNDTRIP_2008_TABLESTYLE_CELLSTYLEMAP
360
2B7DA
  3
ACAD_XREC_ROUNDTRIP
360
2B815
  0
DICTIONARY
  5
2B7E9
330
2B695
100
AcDbDictionary
280
     1
281
     1
  3
ACAD_XREC_ROUNDTRIP
360
2B7EA
  0
DICTIONARY
  5
2B7EF
330
2B698
100
AcDbDictionary
280
     1
281
     1
  3
ACAD_XREC_ROUNDTRIP
360
2B7F0
  0
DICTIONARY
  5
2B7F7
330
2B69C
100
AcDbDictionary
280
     1
281
     1
  3
ACAD_XREC_ROUNDTRIP
360
2B7F8
  0
DICTIONARY
  5
2B7FF
330
2B6A0
100
AcDbDictionary
280
     1
281
     1
  3
ACAD_XREC_ROUNDTRIP
360
2B800
  0
DICTIONARY
  5
2B7F3
330
2B69A
100
AcDbDictionary
280
     1
281
     1
  3
ACAD_XREC_ROUNDTRIP
360
2B7F4
  0
DICTIONARY
  5
2B7F5
330
2B69B
100
AcDbDictionary
280
     1
281
     1
  3
ACAD_XREC_ROUNDTRIP
360
2B7F6
  0
DICTIONARY
  5
2B805
330
2B6A3
100
AcDbDictionary
280
     1
281
     1
  3
ACAD_XREC_ROUNDTRIP
360
2B806
  0
DICTIONARY
  5
2B7FD
330
2B69F
100
AcDbDictionary
280
     1
281
     1
  3
ACAD_XREC_ROUNDTRIP
360
2B7FE
  0
DICTIONARY
  5
2B7E1
330
2B691
100
AcDbDictionary
280
     1
281
     1
  3
ACAD_XREC_ROUNDTRIP
360
2B7E2
  0
DICTIONARY
  5
2B7E3
330
2B692
100
AcDbDictionary
280
     1
281
     1
  3
ACAD_XREC_ROUNDTRIP
360
2B7E4
  0
DICTIONARY
  5
2B7E5
330
2B693
100
AcDbDictionary
280
     1
281
     1
  3
ACAD_XREC_ROUNDTRIP
360
2B7E6
  0
DICTIONARY
  5
2B7E7
330
2B694
100
AcDbDictionary
280
     1
281
     1
  3
ACAD_XREC_ROUNDTRIP
360
2B7E8
  0
DICTIONARY
  5
2B7ED
330
2B697
100
AcDbDictionary
280
     1
281
     1
  3
ACAD_XREC_ROUNDTRIP
360
2B7EE
  0
DICTIONARY
  5
2B801
330
2B6A1
100
AcDbDictionary
280
     1
281
     1
  3
ACAD_XREC_ROUNDTRIP
360
2B802
  0
DICTIONARY
  5
2B7FB
330
2B69E
100
AcDbDictionary
280
     1
281
     1
  3
ACAD_XREC_ROUNDTRIP
360
2B7FC
  0
DICTIONARY
  5
2B803
330
2B6A2
100
AcDbDictionary
280
     1
281
     1
  3
ACAD_XREC_ROUNDTRIP
360
2B804
  0
DICTIONARY
  5
2B7F1
330
2B699
100
AcDbDictionary
280
     1
281
     1
  3
ACAD_XREC_ROUNDTRIP
360
2B7F2
  0
DICTIONARY
  5
2B80F
330
2B6A8
100
AcDbDictionary
280
     1
281
     1
  3
ACAD_XREC_ROUNDTRIP
360
2B810
  0
DICTIONARY
  5
2B80D
330
2B6A7
100
AcDbDictionary
280
     1
281
     1
  3
ACAD_XREC_ROUNDTRIP
360
2B80E
  0
DICTIONARY
  5
2B807
330
2B6A4
100
AcDbDictionary
280
     1
281
     1
  3
ACAD_XREC_ROUNDTRIP
360
2B808
  0
DICTIONARY
  5
2B809
330
2B6A5
100
AcDbDictionary
280
     1
281
     1
  3
ACAD_XREC_ROUNDTRIP
360
2B80A
  0
DICTIONARY
  5
2B7F9
330
2B69D
100
AcDbDictionary
280
     1
281
     1
  3
ACAD_XREC_ROUNDTRIP
360
2B7FA
  0
DICTIONARY
  5
2B7EB
330
2B696
100
AcDbDictionary
280
     1
281
     1
  3
ACAD_XREC_ROUNDTRIP
360
2B7EC
  0
DICTIONARY
  5
2B80B
330
2B6A6
100
AcDbDictionary
280
     1
281
     1
  3
ACAD_XREC_ROUNDTRIP
360
2B80C
  0
XRECORD
  5
2B820
102
{ACAD_REACTORS
330
2B81F
102
}
330
2B81F
100
AcDbXrecord
280
     1
102
DISPLAYNAME
  1
Imperial24
102
FLAGS
 90
        0
  0
XRECORD
  5
2B7E0
102
{ACAD_REACTORS
330
2B7DF
102
}
330
2B7DF
100
AcDbXrecord
280
     1
102
SHADEPLOT
 70
     0
102
SHADEPLOTRESLEVEL
 70
     2
102
SHADEPLOTCUSTOMDPI
 70
   300
  0
XRECORD
  5
2B817
102
{ACAD_REACTORS
330
2B816
102
}
330
2B816
100
AcDbXrecord
280
     1
102
SHADEPLOT
 70
     0
102
SHADEPLOTRESLEVEL
 70
     2
102
SHADEPLOTCUSTOMDPI
 70
   300
  0
XRECORD
  5
2B81C
102
{ACAD_REACTORS
330
2B81B
102
}
330
2B81B
100
AcDbXrecord
280
     1
102
MATERIAL
148
0.0
149
0.0
149
0.0
 93
        0
 94
      127
282
     0
 72
     1
 77
     1
171
     1
175
     1
179
     1
273
     0
  0
XRECORD
  5
2B812
102
{ACAD_REACTORS
330
2B811
102
}
330
2B811
100
AcDbXrecord
280
     1
102
MATERIAL
148
0.0
149
0.0
149
0.0
 93
        0
 94
      127
282
     0
 72
     1
 77
     1
171
     1
175
     1
179
     1
273
     0
  0
XRECORD
  5
2B814
102
{ACAD_REACTORS
330
2B813
102
}
330
2B813
100
AcDbXrecord
280
     1
102
MATERIAL
148
0.0
149
0.0
149
0.0
 93
        0
 94
      127
282
     0
 72
     1
 77
     1
171
     1
175
     1
179
     1
273
     0
  0
XRECORD
  5
2B81E
102
{ACAD_REACTORS
330
2B81D
102
}
330
2B81D
100
AcDbXrecord
280
     1
102
DISPLAYNAME
  1
Imperial24
102
FLAGS
 90
        0
  0
CELLSTYLEMAP
  5
2B7DA
102
{ACAD_REACTORS
330
2B770
102
}
330
2B770
100
AcDbCellStyleMap
 90
        3
300
CELLSTYLE
  1
TABLEFORMAT_BEGIN
 90
        5
170
     1
 91
        0
 92
    32768
 62
   257
 93
        1
300
CONTENTFORMAT
  1
CONTENTFORMAT_BEGIN
 90
        0
 91
        0
 92
        4
 93
        0
300

 40
0.0
140
1.0
 94
        5
 62
     0
340
F
144
0.25
309
CONTENTFORMAT_END
171
     1
301
MARGIN
  1
CELLMARGIN_BEGIN
 40
0.06
 40
0.06
 40
0.06
 40
0.06
 40
0.06
 40
0.06
309
CELLMARGIN_END
 94
        6
 95
        1
302
GRIDFORMAT
  1
GRIDFORMAT_BEGIN
 90
        0
 91
        1
 62
     0
 92
       -2
340
12
 93
        0
 40
0.045
309
GRIDFORMAT_END
 95
        2
302
GRIDFORMAT
  1
GRIDFORMAT_BEGIN
 90
        0
 91
        1
 62
     0
 92
       -2
340
12
 93
        0
 40
0.045
309
GRIDFORMAT_END
 95
        4
302
GRIDFORMAT
  1
GRIDFORMAT_BEGIN
 90
        0
 91
        1
 62
     0
 92
       -2
340
12
 93
        0
 40
0.045
309
GRIDFORMAT_END
 95
        8
302
GRIDFORMAT
  1
GRIDFORMAT_BEGIN
 90
        0
 91
        1
 62
     0
 92
       -2
340
12
 93
        0
 40
0.045
309
GRIDFORMAT_END
 95
       16
302
GRIDFORMAT
  1
GRIDFORMAT_BEGIN
 90
        0
 91
        1
 62
     0
 92
       -2
340
12
 93
        0
 40
0.045
309
GRIDFORMAT_END
 95
       32
302
GRIDFORMAT
  1
GRIDFORMAT_BEGIN
 90
        0
 91
        1
 62
     0
 92
       -2
340
12
 93
        0
 40
0.045
309
GRIDFORMAT_END
309
TABLEFORMAT_END
  1
CELLSTYLE_BEGIN
 90
        1
 91
        1
300
_TITLE
309
CELLSTYLE_END
300
CELLSTYLE
  1
TABLEFORMAT_BEGIN
 90
        5
170
     1
 91
        0
 92
        0
 62
   257
 93
        1
300
CONTENTFORMAT
  1
CONTENTFORMAT_BEGIN
 90
        0
 91
        0
 92
        4
 93
        0
300

 40
0.0
140
1.0
 94
        5
 62
     0
340
F
144
0.18
309
CONTENTFORMAT_END
171
     1
301
MARGIN
  1
CELLMARGIN_BEGIN
 40
0.06
 40
0.06
 40
0.06
 40
0.06
 40
0.06
 40
0.06
309
CELLMARGIN_END
 94
        6
 95
        1
302
GRIDFORMAT
  1
GRIDFORMAT_BEGIN
 90
        0
 91
        1
 62
     0
 92
       -2
340
12
 93
        0
 40
0.045
309
GRIDFORMAT_END
 95
        2
302
GRIDFORMAT
  1
GRIDFORMAT_BEGIN
 90
        0
 91
        1
 62
     0
 92
       -2
340
12
 93
        0
 40
0.045
309
GRIDFORMAT_END
 95
        4
302
GRIDFORMAT
  1
GRIDFORMAT_BEGIN
 90
        0
 91
        1
 62
     0
 92
       -2
340
12
 93
        0
 40
0.045
309
GRIDFORMAT_END
 95
        8
302
GRIDFORMAT
  1
GRIDFORMAT_BEGIN
 90
        0
 91
        1
 62
     0
 92
       -2
340
12
 93
        0
 40
0.045
309
GRIDFORMAT_END
 95
       16
302
GRIDFORMAT
  1
GRIDFORMAT_BEGIN
 90
        0
 91
        1
 62
     0
 92
       -2
340
12
 93
        0
 40
0.045
309
GRIDFORMAT_END
 95
       32
302
GRIDFORMAT
  1
GRIDFORMAT_BEGIN
 90
        0
 91
        1
 62
     0
 92
       -2
340
12
 93
        0
 40
0.045
309
GRIDFORMAT_END
309
TABLEFORMAT_END
  1
CELLSTYLE_BEGIN
 90
        2
 91
        1
300
_HEADER
309
CELLSTYLE_END
300
CELLSTYLE
  1
TABLEFORMAT_BEGIN
 90
        5
170
     1
 91
        0
 92
        0
 62
   257
 93
        1
300
CONTENTFORMAT
  1
CONTENTFORMAT_BEGIN
 90
        0
 91
        0
 92
        4
 93
        0
300

 40
0.0
140
1.0
 94
        2
 62
     0
340
F
144
0.18
309
CONTENTFORMAT_END
171
     1
301
MARGIN
  1
CELLMARGIN_BEGIN
 40
0.06
 40
0.06
 40
0.06
 40
0.06
 40
0.06
 40
0.06
309
CELLMARGIN_END
 94
        6
 95
        1
302
GRIDFORMAT
  1
GRIDFORMAT_BEGIN
 90
        0
 91
        1
 62
     0
 92
       -2
340
12
 93
        0
 40
0.045
309
GRIDFORMAT_END
 95
        2
302
GRIDFORMAT
  1
GRIDFORMAT_BEGIN
 90
        0
 91
        1
 62
     0
 92
       -2
340
12
 93
        0
 40
0.045
309
GRIDFORMAT_END
 95
        4
302
GRIDFORMAT
  1
GRIDFORMAT_BEGIN
 90
        0
 91
        1
 62
     0
 92
       -2
340
12
 93
        0
 40
0.045
309
GRIDFORMAT_END
 95
        8
302
GRIDFORMAT
  1
GRIDFORMAT_BEGIN
 90
        0
 91
        1
 62
     0
 92
       -2
340
12
 93
        0
 40
0.045
309
GRIDFORMAT_END
 95
       16
302
GRIDFORMAT
  1
GRIDFORMAT_BEGIN
 90
        0
 91
        1
 62
     0
 92
       -2
340
12
 93
        0
 40
0.045
309
GRIDFORMAT_END
 95
       32
302
GRIDFORMAT
  1
GRIDFORMAT_BEGIN
 90
        0
 91
        1
 62
     0
 92
       -2
340
12
 93
        0
 40
0.045
309
GRIDFORMAT_END
309
TABLEFORMAT_END
  1
CELLSTYLE_BEGIN
 90
        3
 91
        2
300
_DATA
309
CELLSTYLE_END
  0
XRECORD
  5
2B815
102
{ACAD_REACTORS
330
2B770
102
}
330
2B770
100
AcDbXrecord
280
     1
102
ACAD_ROUNDTRIP_PRE2007_TABLESTYLE
 90
        4
 91
        0
  1

 92
        4
 93
        0
  2

 94
        4
 95
        0
  3

  0
XRECORD
  5
2B7EA
102
{ACAD_REACTORS
330
2B7E9
102
}
330
2B7E9
100
AcDbXrecord
280
     1
102
RTVSPost2010Prop28
280
     1
102
RTVSPost2010PropOp28
 70
     1
102
RTVSPost2010Prop29
280
     1
102
RTVSPost2010PropOp29
 70
     1
102
RTVSPost2010Prop30
280
     0
102
RTVSPost2010PropOp30
 70
     1
102
RTVSPost2010Prop31
280
     0
102
RTVSPost2010PropOp31
 70
     1
102
RTVSPost2010Prop32
280
     0
102
RTVSPost2010PropOp32
 70
     1
102
RTVSPost2010Prop33
280
     0
102
RTVSPost2010PropOp33
 70
     1
102
RTVSPost2010Prop34
280
     0
102
RTVSPost2010PropOp34
 70
     1
102
RTVSPost2010Prop35
280
     0
102
RTVSPost2010PropOp35
 70
     1
102
RTVSPost2010Prop36
280
     0
102
RTVSPost2010PropOp36
 70
     1
102
RTVSPost2010Prop37
 90
       50
102
RTVSPost2010PropOp37
 70
     1
102
RTVSPost2010Prop38
140
0.0
102
RTVSPost2010PropOp38
 70
     1
102
RTVSPost2010Prop39
140
1.0
102
RTVSPost2010PropOp39
 70
     1
102
RTVSPost2010Prop40
 90
        0
102
RTVSPost2010PropOp40
 70
     1
102
RTVSPost2010Prop41ColorIndex
 90
       18
102
RTVSPost2010Prop41ColorRGB
 90
        0
102
RTVSPost2010PropOp41
 70
     1
102
RTVSPost2010Prop42
 90
       50
102
RTVSPost2010PropOp42
 70
     1
102
RTVSPost2010Prop43
 90
        3
102
RTVSPost2010PropOp43
 70
     1
102
RTVSPost2010Prop44ColorIndex
 90
        5
102
RTVSPost2010Prop44ColorRGB
 90
      255
102
RTVSPost2010PropOp44
 70
     1
102
RTVSPost2010Prop45
280
     0
102
RTVSPost2010PropOp45
 70
     1
102
RTVSPost2010Prop46
 90
       50
102
RTVSPost2010PropOp46
 70
     1
102
RTVSPost2010Prop47
 90
       50
102
RTVSPost2010PropOp47
 70
     1
102
RTVSPost2010Prop48
 90
       50
102
RTVSPost2010PropOp48
 70
     1
102
RTVSPost2010Prop49
280
     0
102
RTVSPost2010PropOp49
 70
     1
102
RTVSPost2010Prop50
 90
       50
102
RTVSPost2010PropOp50
 70
     1
102
RTVSPost2010Prop51ColorIndex
 90
      256
102
RTVSPost2010Prop51ColorRGB
 90
-16777216
102
RTVSPost2010PropOp51
 70
     0
102
RTVSPost2010Prop52
140
1.0
102
RTVSPost2010PropOp52
 70
     0
102
RTVSPost2010Prop53
 90
        2
102
RTVSPost2010PropOp53
 70
     1
102
RTVSPost2010Prop54
  1
strokes_ogs.tif
102
RTVSPost2010PropOp54
 70
     1
102
RTVSPost2010Prop55
280
     0
102
RTVSPost2010PropOp55
 70
     1
102
RTVSPost2010Prop56
140
1.0
102
RTVSPost2010PropOp56
 70
     1
102
RTVSPost2010Prop57
140
1.0
102
RTVSPost2010PropOp57
 70
     1
102
RTVSPropertyOp0
 70
     1
102
RTVSPropertyOp1
 70
     1
102
RTVSPropertyOp2
 70
     1
102
RTVSPropertyOp3
 70
     1
102
RTVSPropertyOp4
 70
     1
102
RTVSPropertyOp5
 70
     1
102
RTVSPropertyOp6
 70
     1
102
RTVSPropertyOp7
 70
     1
102
RTVSPropertyOp8
 70
     1
102
RTVSPropertyOp9
 70
     1
102
RTVSPropertyOp10
 70
     1
102
RTVSPropertyOp11
 70
     1
102
RTVSPropertyOp12
 70
     1
102
RTVSPropertyOp13
 70
     1
102
RTVSPropertyOp14
 70
     1
102
RTVSPropertyOp15
 70
     1
102
RTVSPropertyOp16
 70
     1
102
RTVSPropertyOp17
 70
     1
102
RTVSPropertyOp18
 70
     1
102
RTVSPropertyOp19
 70
     1
102
RTVSPropertyOp20
 70
     1
102
RTVSPropertyOp21
 70
     1
102
RTVSPropertyOp22
 70
     1
102
RTVSPropertyOp23
 70
     1
102
RTVSPropertyOp24
 70
     1
102
RTVSPropertyOp25
 70
     1
102
RTVSPropertyOp26
 70
     1
102
RTVSPropertyOp27
 70
     1
102
RTVSPropertyOp28
 70
     1
102
RTVSPropertyOp29
 70
     1
102
RTVSPropertyOp30
 70
     1
102
RTVSPropertyOp31
 70
     1
102
RTVSPropertyOp32
 70
     1
102
RTVSPropertyOp33
 70
     1
102
RTVSPropertyOp34
 70
     1
102
RTVSPropertyOp35
 70
     1
102
RTVSPropertyOp36
 70
     1
102
RTVSPropertyOp37
 70
     1
102
RTVSPropertyOp38
 70
     1
102
RTVSPropertyOp39
 70
     1
102
RTVSPropertyOp40
 70
     1
102
RTVSPropertyOp41
 70
     1
102
RTVSPropertyOp42
 70
     1
102
RTVSPropertyOp43
 70
     1
102
RTVSPropertyOp44
 70
     1
102
RTVSPropertyOp45
 70
     1
102
RTVSPropertyOp46
 70
     1
102
RTVSPropertyOp47
 70
     1
102
RTVSPropertyOp48
 70
     1
102
RTVSPropertyOp49
 70
     1
102
RTVSPropertyOp50
 70
     1
102
RTVSPropertyOp51
 70
     0
102
RTVSPropertyOp52
 70
     0
102
RTVSPropertyOp53
 70
     1
102
RTVSPropertyOp54
 70
     1
102
RTVSPropertyOp55
 70
     1
102
RTVSPropertyOp56
 70
     1
102
RTVSPropertyOp57
 70
     1
102
RTVSPropertyOp58
 70
     1
102
RTVSPropertyOp59
 70
     1
102
RTVSPropertyOp60
 70
     1
102
RTVSPropertyOp61
 70
     1
102
RTVSPropertyOp62
 70
     1
  0
XRECORD
  5
2B7F0
102
{ACAD_REACTORS
330
2B7EF
102
}
330
2B7EF
100
AcDbXrecord
280
     1
102
RTVSPost2010Prop28
280
     0
102
RTVSPost2010PropOp28
 70
     1
102
RTVSPost2010Prop29
280
     1
102
RTVSPost2010PropOp29
 70
     1
102
RTVSPost2010Prop30
280
     1
102
RTVSPost2010PropOp30
 70
     1
102
RTVSPost2010Prop31
280
     0
102
RTVSPost2010PropOp31
 70
     1
102
RTVSPost2010Prop32
280
     0
102
RTVSPost2010PropOp32
 70
     1
102
RTVSPost2010Prop33
280
     0
102
RTVSPost2010PropOp33
 70
     1
102
RTVSPost2010Prop34
280
     0
102
RTVSPost2010PropOp34
 70
     1
102
RTVSPost2010Prop35
280
     0
102
RTVSPost2010PropOp35
 70
     1
102
RTVSPost2010Prop36
280
     0
102
RTVSPost2010PropOp36
 70
     1
102
RTVSPost2010Prop37
 90
       50
102
RTVSPost2010PropOp37
 70
     1
102
RTVSPost2010Prop38
140
0.0
102
RTVSPost2010PropOp38
 70
     1
102
RTVSPost2010Prop39
140
1.0
102
RTVSPost2010PropOp39
 70
     1
102
RTVSPost2010Prop40
 90
        0
102
RTVSPost2010PropOp40
 70
     1
102
RTVSPost2010Prop41ColorIndex
 90
       18
102
RTVSPost2010Prop41ColorRGB
 90
        0
102
RTVSPost2010PropOp41
 70
     1
102
RTVSPost2010Prop42
 90
       50
102
RTVSPost2010PropOp42
 70
     1
102
RTVSPost2010Prop43
 90
        3
102
RTVSPost2010PropOp43
 70
     1
102
RTVSPost2010Prop44ColorIndex
 90
        5
102
RTVSPost2010Prop44ColorRGB
 90
      255
102
RTVSPost2010PropOp44
 70
     1
102
RTVSPost2010Prop45
280
     0
102
RTVSPost2010PropOp45
 70
     1
102
RTVSPost2010Prop46
 90
       50
102
RTVSPost2010PropOp46
 70
     1
102
RTVSPost2010Prop47
 90
       50
102
RTVSPost2010PropOp47
 70
     1
102
RTVSPost2010Prop48
 90
       50
102
RTVSPost2010PropOp48
 70
     1
102
RTVSPost2010Prop49
280
     0
102
RTVSPost2010PropOp49
 70
     1
102
RTVSPost2010Prop50
 90
       50
102
RTVSPost2010PropOp50
 70
     1
102
RTVSPost2010Prop51ColorIndex
 90
      256
102
RTVSPost2010Prop51ColorRGB
 90
-16777216
102
RTVSPost2010PropOp51
 70
     0
102
RTVSPost2010Prop52
140
1.0
102
RTVSPost2010PropOp52
 70
     0
102
RTVSPost2010Prop53
 90
        2
102
RTVSPost2010PropOp53
 70
     1
102
RTVSPost2010Prop54
  1
strokes_ogs.tif
102
RTVSPost2010PropOp54
 70
     1
102
RTVSPost2010Prop55
280
     0
102
RTVSPost2010PropOp55
 70
     1
102
RTVSPost2010Prop56
140
1.0
102
RTVSPost2010PropOp56
 70
     1
102
RTVSPost2010Prop57
140
1.0
102
RTVSPost2010PropOp57
 70
     1
102
RTVSPropertyOp0
 70
     1
102
RTVSPropertyOp1
 70
     1
102
RTVSPropertyOp2
 70
     1
102
RTVSPropertyOp3
 70
     1
102
RTVSPropertyOp4
 70
     1
102
RTVSPropertyOp5
 70
     1
102
RTVSPropertyOp6
 70
     1
102
RTVSPropertyOp7
 70
     1
102
RTVSPropertyOp8
 70
     1
102
RTVSPropertyOp9
 70
     1
102
RTVSPropertyOp10
 70
     1
102
RTVSPropertyOp11
 70
     1
102
RTVSPropertyOp12
 70
     1
102
RTVSPropertyOp13
 70
     1
102
RTVSPropertyOp14
 70
     1
102
RTVSPropertyOp15
 70
     1
102
RTVSPropertyOp16
 70
     1
102
RTVSPropertyOp17
 70
     1
102
RTVSPropertyOp18
 70
     1
102
RTVSPropertyOp19
 70
     1
102
RTVSPropertyOp20
 70
     1
102
RTVSPropertyOp21
 70
     1
102
RTVSPropertyOp22
 70
     1
102
RTVSPropertyOp23
 70
     1
102
RTVSPropertyOp24
 70
     1
102
RTVSPropertyOp25
 70
     1
102
RTVSPropertyOp26
 70
     1
102
RTVSPropertyOp27
 70
     1
102
RTVSPropertyOp28
 70
     1
102
RTVSPropertyOp29
 70
     1
102
RTVSPropertyOp30
 70
     1
102
RTVSPropertyOp31
 70
     1
102
RTVSPropertyOp32
 70
     1
102
RTVSPropertyOp33
 70
     1
102
RTVSPropertyOp34
 70
     1
102
RTVSPropertyOp35
 70
     1
102
RTVSPropertyOp36
 70
     1
102
RTVSPropertyOp37
 70
     1
102
RTVSPropertyOp38
 70
     1
102
RTVSPropertyOp39
 70
     1
102
RTVSPropertyOp40
 70
     1
102
RTVSPropertyOp41
 70
     1
102
RTVSPropertyOp42
 70
     1
102
RTVSPropertyOp43
 70
     1
102
RTVSPropertyOp44
 70
     1
102
RTVSPropertyOp45
 70
     1
102
RTVSPropertyOp46
 70
     1
102
RTVSPropertyOp47
 70
     1
102
RTVSPropertyOp48
 70
     1
102
RTVSPropertyOp49
 70
     1
102
RTVSPropertyOp50
 70
     1
102
RTVSPropertyOp51
 70
     0
102
RTVSPropertyOp52
 70
     0
102
RTVSPropertyOp53
 70
     1
102
RTVSPropertyOp54
 70
     1
102
RTVSPropertyOp55
 70
     1
102
RTVSPropertyOp56
 70
     1
102
RTVSPropertyOp57
 70
     1
102
RTVSPropertyOp58
 70
     1
102
RTVSPropertyOp59
 70
     1
102
RTVSPropertyOp60
 70
     1
102
RTVSPropertyOp61
 70
     1
102
RTVSPropertyOp62
 70
     1
  0
XRECORD
  5
2B7F8
102
{ACAD_REACTORS
330
2B7F7
102
}
330
2B7F7
100
AcDbXrecord
280
     1
102
RTVSPost2010Prop28
280
     0
102
RTVSPost2010PropOp28
 70
     1
102
RTVSPost2010Prop29
280
     1
102
RTVSPost2010PropOp29
 70
     1
102
RTVSPost2010Prop30
280
     1
102
RTVSPost2010PropOp30
 70
     1
102
RTVSPost2010Prop31
280
     0
102
RTVSPost2010PropOp31
 70
     1
102
RTVSPost2010Prop32
280
     0
102
RTVSPost2010PropOp32
 70
     1
102
RTVSPost2010Prop33
280
     0
102
RTVSPost2010PropOp33
 70
     1
102
RTVSPost2010Prop34
280
     0
102
RTVSPost2010PropOp34
 70
     1
102
RTVSPost2010Prop35
280
     0
102
RTVSPost2010PropOp35
 70
     1
102
RTVSPost2010Prop36
280
     0
102
RTVSPost2010PropOp36
 70
     1
102
RTVSPost2010Prop37
 90
       50
102
RTVSPost2010PropOp37
 70
     1
102
RTVSPost2010Prop38
140
0.0
102
RTVSPost2010PropOp38
 70
     1
102
RTVSPost2010Prop39
140
1.0
102
RTVSPost2010PropOp39
 70
     1
102
RTVSPost2010Prop40
 90
        0
102
RTVSPost2010PropOp40
 70
     1
102
RTVSPost2010Prop41ColorIndex
 90
       18
102
RTVSPost2010Prop41ColorRGB
 90
        0
102
RTVSPost2010PropOp41
 70
     1
102
RTVSPost2010Prop42
 90
       50
102
RTVSPost2010PropOp42
 70
     1
102
RTVSPost2010Prop43
 90
        3
102
RTVSPost2010PropOp43
 70
     1
102
RTVSPost2010Prop44ColorIndex
 90
        5
102
RTVSPost2010Prop44ColorRGB
 90
      255
102
RTVSPost2010PropOp44
 70
     1
102
RTVSPost2010Prop45
280
     0
102
RTVSPost2010PropOp45
 70
     1
102
RTVSPost2010Prop46
 90
       50
102
RTVSPost2010PropOp46
 70
     1
102
RTVSPost2010Prop47
 90
       50
102
RTVSPost2010PropOp47
 70
     1
102
RTVSPost2010Prop48
 90
       50
102
RTVSPost2010PropOp48
 70
     1
102
RTVSPost2010Prop49
280
     0
102
RTVSPost2010PropOp49
 70
     1
102
RTVSPost2010Prop50
 90
       50
102
RTVSPost2010PropOp50
 70
     1
102
RTVSPost2010Prop51ColorIndex
 90
      256
102
RTVSPost2010Prop51ColorRGB
 90
-16777216
102
RTVSPost2010PropOp51
 70
     0
102
RTVSPost2010Prop52
140
1.0
102
RTVSPost2010PropOp52
 70
     0
102
RTVSPost2010Prop53
 90
        2
102
RTVSPost2010PropOp53
 70
     1
102
RTVSPost2010Prop54
  1
strokes_ogs.tif
102
RTVSPost2010PropOp54
 70
     1
102
RTVSPost2010Prop55
280
     0
102
RTVSPost2010PropOp55
 70
     1
102
RTVSPost2010Prop56
140
1.0
102
RTVSPost2010PropOp56
 70
     1
102
RTVSPost2010Prop57
140
1.0
102
RTVSPost2010PropOp57
 70
     1
102
RTVSPropertyOp0
 70
     1
102
RTVSPropertyOp1
 70
     1
102
RTVSPropertyOp2
 70
     1
102
RTVSPropertyOp3
 70
     1
102
RTVSPropertyOp4
 70
     1
102
RTVSPropertyOp5
 70
     1
102
RTVSPropertyOp6
 70
     1
102
RTVSPropertyOp7
 70
     1
102
RTVSPropertyOp8
 70
     1
102
RTVSPropertyOp9
 70
     1
102
RTVSPropertyOp10
 70
     1
102
RTVSPropertyOp11
 70
     1
102
RTVSPropertyOp12
 70
     1
102
RTVSPropertyOp13
 70
     1
102
RTVSPropertyOp14
 70
     1
102
RTVSPropertyOp15
 70
     1
102
RTVSPropertyOp16
 70
     1
102
RTVSPropertyOp17
 70
     1
102
RTVSPropertyOp18
 70
     1
102
RTVSPropertyOp19
 70
     1
102
RTVSPropertyOp20
 70
     1
102
RTVSPropertyOp21
 70
     1
102
RTVSPropertyOp22
 70
     1
102
RTVSPropertyOp23
 70
     1
102
RTVSPropertyOp24
 70
     1
102
RTVSPropertyOp25
 70
     1
102
RTVSPropertyOp26
 70
     1
102
RTVSPropertyOp27
 70
     1
102
RTVSPropertyOp28
 70
     1
102
RTVSPropertyOp29
 70
     1
102
RTVSPropertyOp30
 70
     1
102
RTVSPropertyOp31
 70
     1
102
RTVSPropertyOp32
 70
     1
102
RTVSPropertyOp33
 70
     1
102
RTVSPropertyOp34
 70
     1
102
RTVSPropertyOp35
 70
     1
102
RTVSPropertyOp36
 70
     1
102
RTVSPropertyOp37
 70
     1
102
RTVSPropertyOp38
 70
     1
102
RTVSPropertyOp39
 70
     1
102
RTVSPropertyOp40
 70
     1
102
RTVSPropertyOp41
 70
     1
102
RTVSPropertyOp42
 70
     1
102
RTVSPropertyOp43
 70
     1
102
RTVSPropertyOp44
 70
     1
102
RTVSPropertyOp45
 70
     1
102
RTVSPropertyOp46
 70
     1
102
RTVSPropertyOp47
 70
     1
102
RTVSPropertyOp48
 70
     1
102
RTVSPropertyOp49
 70
     1
102
RTVSPropertyOp50
 70
     1
102
RTVSPropertyOp51
 70
     0
102
RTVSPropertyOp52
 70
     0
102
RTVSPropertyOp53
 70
     1
102
RTVSPropertyOp54
 70
     1
102
RTVSPropertyOp55
 70
     1
102
RTVSPropertyOp56
 70
     1
102
RTVSPropertyOp57
 70
     1
102
RTVSPropertyOp58
 70
     1
102
RTVSPropertyOp59
 70
     1
102
RTVSPropertyOp60
 70
     1
102
RTVSPropertyOp61
 70
     1
102
RTVSPropertyOp62
 70
     1
  0
XRECORD
  5
2B800
102
{ACAD_REACTORS
330
2B7FF
102
}
330
2B7FF
100
AcDbXrecord
280
     1
102
RTVSPost2010Prop28
280
     0
102
RTVSPost2010PropOp28
 70
     1
102
RTVSPost2010Prop29
280
     1
102
RTVSPost2010PropOp29
 70
     1
102
RTVSPost2010Prop30
280
     1
102
RTVSPost2010PropOp30
 70
     1
102
RTVSPost2010Prop31
280
     0
102
RTVSPost2010PropOp31
 70
     1
102
RTVSPost2010Prop32
280
     0
102
RTVSPost2010PropOp32
 70
     1
102
RTVSPost2010Prop33
280
     0
102
RTVSPost2010PropOp33
 70
     1
102
RTVSPost2010Prop34
280
     0
102
RTVSPost2010PropOp34
 70
     1
102
RTVSPost2010Prop35
280
     0
102
RTVSPost2010PropOp35
 70
     1
102
RTVSPost2010Prop36
280
     0
102
RTVSPost2010PropOp36
 70
     1
102
RTVSPost2010Prop37
 90
       50
102
RTVSPost2010PropOp37
 70
     1
102
RTVSPost2010Prop38
140
0.0
102
RTVSPost2010PropOp38
 70
     1
102
RTVSPost2010Prop39
140
1.0
102
RTVSPost2010PropOp39
 70
     1
102
RTVSPost2010Prop40
 90
        0
102
RTVSPost2010PropOp40
 70
     1
102
RTVSPost2010Prop41ColorIndex
 90
       18
102
RTVSPost2010Prop41ColorRGB
 90
        0
102
RTVSPost2010PropOp41
 70
     1
102
RTVSPost2010Prop42
 90
       50
102
RTVSPost2010PropOp42
 70
     1
102
RTVSPost2010Prop43
 90
        3
102
RTVSPost2010PropOp43
 70
     1
102
RTVSPost2010Prop44ColorIndex
 90
        5
102
RTVSPost2010Prop44ColorRGB
 90
      255
102
RTVSPost2010PropOp44
 70
     1
102
RTVSPost2010Prop45
280
     0
102
RTVSPost2010PropOp45
 70
     1
102
RTVSPost2010Prop46
 90
       50
102
RTVSPost2010PropOp46
 70
     1
102
RTVSPost2010Prop47
 90
       50
102
RTVSPost2010PropOp47
 70
     1
102
RTVSPost2010Prop48
 90
       50
102
RTVSPost2010PropOp48
 70
     1
102
RTVSPost2010Prop49
280
     0
102
RTVSPost2010PropOp49
 70
     1
102
RTVSPost2010Prop50
 90
       50
102
RTVSPost2010PropOp50
 70
     1
102
RTVSPost2010Prop51ColorIndex
 90
      256
102
RTVSPost2010Prop51ColorRGB
 90
-16777216
102
RTVSPost2010PropOp51
 70
     0
102
RTVSPost2010Prop52
140
1.0
102
RTVSPost2010PropOp52
 70
     0
102
RTVSPost2010Prop53
 90
        2
102
RTVSPost2010PropOp53
 70
     1
102
RTVSPost2010Prop54
  1
strokes_ogs.tif
102
RTVSPost2010PropOp54
 70
     1
102
RTVSPost2010Prop55
280
     0
102
RTVSPost2010PropOp55
 70
     1
102
RTVSPost2010Prop56
140
1.0
102
RTVSPost2010PropOp56
 70
     1
102
RTVSPost2010Prop57
140
1.0
102
RTVSPost2010PropOp57
 70
     1
102
RTVSPropertyOp0
 70
     1
102
RTVSPropertyOp1
 70
     1
102
RTVSPropertyOp2
 70
     1
102
RTVSPropertyOp3
 70
     1
102
RTVSPropertyOp4
 70
     1
102
RTVSPropertyOp5
 70
     1
102
RTVSPropertyOp6
 70
     1
102
RTVSPropertyOp7
 70
     1
102
RTVSPropertyOp8
 70
     1
102
RTVSPropertyOp9
 70
     1
102
RTVSPropertyOp10
 70
     1
102
RTVSPropertyOp11
 70
     1
102
RTVSPropertyOp12
 70
     1
102
RTVSPropertyOp13
 70
     1
102
RTVSPropertyOp14
 70
     1
102
RTVSPropertyOp15
 70
     1
102
RTVSPropertyOp16
 70
     1
102
RTVSPropertyOp17
 70
     1
102
RTVSPropertyOp18
 70
     1
102
RTVSPropertyOp19
 70
     1
102
RTVSPropertyOp20
 70
     1
102
RTVSPropertyOp21
 70
     1
102
RTVSPropertyOp22
 70
     1
102
RTVSPropertyOp23
 70
     1
102
RTVSPropertyOp24
 70
     1
102
RTVSPropertyOp25
 70
     1
102
RTVSPropertyOp26
 70
     1
102
RTVSPropertyOp27
 70
     1
102
RTVSPropertyOp28
 70
     1
102
RTVSPropertyOp29
 70
     1
102
RTVSPropertyOp30
 70
     1
102
RTVSPropertyOp31
 70
     1
102
RTVSPropertyOp32
 70
     1
102
RTVSPropertyOp33
 70
     1
102
RTVSPropertyOp34
 70
     1
102
RTVSPropertyOp35
 70
     1
102
RTVSPropertyOp36
 70
     1
102
RTVSPropertyOp37
 70
     1
102
RTVSPropertyOp38
 70
     1
102
RTVSPropertyOp39
 70
     1
102
RTVSPropertyOp40
 70
     1
102
RTVSPropertyOp41
 70
     1
102
RTVSPropertyOp42
 70
     1
102
RTVSPropertyOp43
 70
     1
102
RTVSPropertyOp44
 70
     1
102
RTVSPropertyOp45
 70
     1
102
RTVSPropertyOp46
 70
     1
102
RTVSPropertyOp47
 70
     1
102
RTVSPropertyOp48
 70
     1
102
RTVSPropertyOp49
 70
     1
102
RTVSPropertyOp50
 70
     1
102
RTVSPropertyOp51
 70
     0
102
RTVSPropertyOp52
 70
     0
102
RTVSPropertyOp53
 70
     1
102
RTVSPropertyOp54
 70
     1
102
RTVSPropertyOp55
 70
     1
102
RTVSPropertyOp56
 70
     1
102
RTVSPropertyOp57
 70
     1
102
RTVSPropertyOp58
 70
     1
102
RTVSPropertyOp59
 70
     1
102
RTVSPropertyOp60
 70
     1
102
RTVSPropertyOp61
 70
     1
102
RTVSPropertyOp62
 70
     1
  0
XRECORD
  5
2B7F4
102
{ACAD_REACTORS
330
2B7F3
102
}
330
2B7F3
100
AcDbXrecord
280
     1
102
RTVSPost2010Prop28
280
     0
102
RTVSPost2010PropOp28
 70
     1
102
RTVSPost2010Prop29
280
     1
102
RTVSPost2010PropOp29
 70
     1
102
RTVSPost2010Prop30
280
     1
102
RTVSPost2010PropOp30
 70
     1
102
RTVSPost2010Prop31
280
     0
102
RTVSPost2010PropOp31
 70
     1
102
RTVSPost2010Prop32
280
     0
102
RTVSPost2010PropOp32
 70
     1
102
RTVSPost2010Prop33
280
     0
102
RTVSPost2010PropOp33
 70
     1
102
RTVSPost2010Prop34
280
     0
102
RTVSPost2010PropOp34
 70
     1
102
RTVSPost2010Prop35
280
     0
102
RTVSPost2010PropOp35
 70
     1
102
RTVSPost2010Prop36
280
     0
102
RTVSPost2010PropOp36
 70
     1
102
RTVSPost2010Prop37
 90
       50
102
RTVSPost2010PropOp37
 70
     1
102
RTVSPost2010Prop38
140
0.0
102
RTVSPost2010PropOp38
 70
     1
102
RTVSPost2010Prop39
140
1.0
102
RTVSPost2010PropOp39
 70
     1
102
RTVSPost2010Prop40
 90
        0
102
RTVSPost2010PropOp40
 70
     1
102
RTVSPost2010Prop41ColorIndex
 90
       18
102
RTVSPost2010Prop41ColorRGB
 90
        0
102
RTVSPost2010PropOp41
 70
     1
102
RTVSPost2010Prop42
 90
       50
102
RTVSPost2010PropOp42
 70
     1
102
RTVSPost2010Prop43
 90
        3
102
RTVSPost2010PropOp43
 70
     1
102
RTVSPost2010Prop44ColorIndex
 90
        5
102
RTVSPost2010Prop44ColorRGB
 90
      255
102
RTVSPost2010PropOp44
 70
     1
102
RTVSPost2010Prop45
280
     0
102
RTVSPost2010PropOp45
 70
     1
102
RTVSPost2010Prop46
 90
       50
102
RTVSPost2010PropOp46
 70
     1
102
RTVSPost2010Prop47
 90
       50
102
RTVSPost2010PropOp47
 70
     1
102
RTVSPost2010Prop48
 90
       50
102
RTVSPost2010PropOp48
 70
     1
102
RTVSPost2010Prop49
280
     0
102
RTVSPost2010PropOp49
 70
     1
102
RTVSPost2010Prop50
 90
       50
102
RTVSPost2010PropOp50
 70
     1
102
RTVSPost2010Prop51ColorIndex
 90
      256
102
RTVSPost2010Prop51ColorRGB
 90
-16777216
102
RTVSPost2010PropOp51
 70
     0
102
RTVSPost2010Prop52
140
1.0
102
RTVSPost2010PropOp52
 70
     0
102
RTVSPost2010Prop53
 90
        2
102
RTVSPost2010PropOp53
 70
     1
102
RTVSPost2010Prop54
  1
strokes_ogs.tif
102
RTVSPost2010PropOp54
 70
     1
102
RTVSPost2010Prop55
280
     0
102
RTVSPost2010PropOp55
 70
     1
102
RTVSPost2010Prop56
140
1.0
102
RTVSPost2010PropOp56
 70
     1
102
RTVSPost2010Prop57
140
1.0
102
RTVSPost2010PropOp57
 70
     1
102
RTVSPropertyOp0
 70
     1
102
RTVSPropertyOp1
 70
     1
102
RTVSPropertyOp2
 70
     1
102
RTVSPropertyOp3
 70
     1
102
RTVSPropertyOp4
 70
     1
102
RTVSPropertyOp5
 70
     1
102
RTVSPropertyOp6
 70
     1
102
RTVSPropertyOp7
 70
     1
102
RTVSPropertyOp8
 70
     1
102
RTVSPropertyOp9
 70
     1
102
RTVSPropertyOp10
 70
     1
102
RTVSPropertyOp11
 70
     1
102
RTVSPropertyOp12
 70
     1
102
RTVSPropertyOp13
 70
     1
102
RTVSPropertyOp14
 70
     1
102
RTVSPropertyOp15
 70
     1
102
RTVSPropertyOp16
 70
     1
102
RTVSPropertyOp17
 70
     1
102
RTVSPropertyOp18
 70
     1
102
RTVSPropertyOp19
 70
     1
102
RTVSPropertyOp20
 70
     1
102
RTVSPropertyOp21
 70
     1
102
RTVSPropertyOp22
 70
     1
102
RTVSPropertyOp23
 70
     1
102
RTVSPropertyOp24
 70
     1
102
RTVSPropertyOp25
 70
     1
102
RTVSPropertyOp26
 70
     1
102
RTVSPropertyOp27
 70
     1
102
RTVSPropertyOp28
 70
     1
102
RTVSPropertyOp29
 70
     1
102
RTVSPropertyOp30
 70
     1
102
RTVSPropertyOp31
 70
     1
102
RTVSPropertyOp32
 70
     1
102
RTVSPropertyOp33
 70
     1
102
RTVSPropertyOp34
 70
     1
102
RTVSPropertyOp35
 70
     1
102
RTVSPropertyOp36
 70
     1
102
RTVSPropertyOp37
 70
     1
102
RTVSPropertyOp38
 70
     1
102
RTVSPropertyOp39
 70
     1
102
RTVSPropertyOp40
 70
     1
102
RTVSPropertyOp41
 70
     1
102
RTVSPropertyOp42
 70
     1
102
RTVSPropertyOp43
 70
     1
102
RTVSPropertyOp44
 70
     1
102
RTVSPropertyOp45
 70
     1
102
RTVSPropertyOp46
 70
     1
102
RTVSPropertyOp47
 70
     1
102
RTVSPropertyOp48
 70
     1
102
RTVSPropertyOp49
 70
     1
102
RTVSPropertyOp50
 70
     1
102
RTVSPropertyOp51
 70
     0
102
RTVSPropertyOp52
 70
     0
102
RTVSPropertyOp53
 70
     1
102
RTVSPropertyOp54
 70
     1
102
RTVSPropertyOp55
 70
     1
102
RTVSPropertyOp56
 70
     1
102
RTVSPropertyOp57
 70
     1
102
RTVSPropertyOp58
 70
     1
102
RTVSPropertyOp59
 70
     1
102
RTVSPropertyOp60
 70
     1
102
RTVSPropertyOp61
 70
     1
102
RTVSPropertyOp62
 70
     1
  0
XRECORD
  5
2B7F6
102
{ACAD_REACTORS
330
2B7F5
102
}
330
2B7F5
100
AcDbXrecord
280
     1
102
RTVSPost2010Prop28
280
     0
102
RTVSPost2010PropOp28
 70
     1
102
RTVSPost2010Prop29
280
     1
102
RTVSPost2010PropOp29
 70
     1
102
RTVSPost2010Prop30
280
     1
102
RTVSPost2010PropOp30
 70
     1
102
RTVSPost2010Prop31
280
     0
102
RTVSPost2010PropOp31
 70
     1
102
RTVSPost2010Prop32
280
     0
102
RTVSPost2010PropOp32
 70
     1
102
RTVSPost2010Prop33
280
     0
102
RTVSPost2010PropOp33
 70
     1
102
RTVSPost2010Prop34
280
     0
102
RTVSPost2010PropOp34
 70
     1
102
RTVSPost2010Prop35
280
     0
102
RTVSPost2010PropOp35
 70
     1
102
RTVSPost2010Prop36
280
     0
102
RTVSPost2010PropOp36
 70
     1
102
RTVSPost2010Prop37
 90
       50
102
RTVSPost2010PropOp37
 70
     1
102
RTVSPost2010Prop38
140
0.0
102
RTVSPost2010PropOp38
 70
     1
102
RTVSPost2010Prop39
140
1.0
102
RTVSPost2010PropOp39
 70
     1
102
RTVSPost2010Prop40
 90
        0
102
RTVSPost2010PropOp40
 70
     1
102
RTVSPost2010Prop41ColorIndex
 90
       18
102
RTVSPost2010Prop41ColorRGB
 90
        0
102
RTVSPost2010PropOp41
 70
     1
102
RTVSPost2010Prop42
 90
       50
102
RTVSPost2010PropOp42
 70
     1
102
RTVSPost2010Prop43
 90
        3
102
RTVSPost2010PropOp43
 70
     1
102
RTVSPost2010Prop44ColorIndex
 90
        5
102
RTVSPost2010Prop44ColorRGB
 90
      255
102
RTVSPost2010PropOp44
 70
     1
102
RTVSPost2010Prop45
280
     0
102
RTVSPost2010PropOp45
 70
     1
102
RTVSPost2010Prop46
 90
       50
102
RTVSPost2010PropOp46
 70
     1
102
RTVSPost2010Prop47
 90
       50
102
RTVSPost2010PropOp47
 70
     1
102
RTVSPost2010Prop48
 90
       50
102
RTVSPost2010PropOp48
 70
     1
102
RTVSPost2010Prop49
280
     0
102
RTVSPost2010PropOp49
 70
     1
102
RTVSPost2010Prop50
 90
       50
102
RTVSPost2010PropOp50
 70
     1
102
RTVSPost2010Prop51ColorIndex
 90
      256
102
RTVSPost2010Prop51ColorRGB
 90
-16777216
102
RTVSPost2010PropOp51
 70
     0
102
RTVSPost2010Prop52
140
1.0
102
RTVSPost2010PropOp52
 70
     0
102
RTVSPost2010Prop53
 90
        2
102
RTVSPost2010PropOp53
 70
     1
102
RTVSPost2010Prop54
  1
strokes_ogs.tif
102
RTVSPost2010PropOp54
 70
     1
102
RTVSPost2010Prop55
280
     0
102
RTVSPost2010PropOp55
 70
     1
102
RTVSPost2010Prop56
140
1.0
102
RTVSPost2010PropOp56
 70
     1
102
RTVSPost2010Prop57
140
1.0
102
RTVSPost2010PropOp57
 70
     1
102
RTVSPropertyOp0
 70
     1
102
RTVSPropertyOp1
 70
     1
102
RTVSPropertyOp2
 70
     1
102
RTVSPropertyOp3
 70
     1
102
RTVSPropertyOp4
 70
     1
102
RTVSPropertyOp5
 70
     1
102
RTVSPropertyOp6
 70
     1
102
RTVSPropertyOp7
 70
     1
102
RTVSPropertyOp8
 70
     1
102
RTVSPropertyOp9
 70
     1
102
RTVSPropertyOp10
 70
     1
102
RTVSPropertyOp11
 70
     1
102
RTVSPropertyOp12
 70
     1
102
RTVSPropertyOp13
 70
     1
102
RTVSPropertyOp14
 70
     1
102
RTVSPropertyOp15
 70
     1
102
RTVSPropertyOp16
 70
     1
102
RTVSPropertyOp17
 70
     1
102
RTVSPropertyOp18
 70
     1
102
RTVSPropertyOp19
 70
     1
102
RTVSPropertyOp20
 70
     1
102
RTVSPropertyOp21
 70
     1
102
RTVSPropertyOp22
 70
     1
102
RTVSPropertyOp23
 70
     1
102
RTVSPropertyOp24
 70
     1
102
RTVSPropertyOp25
 70
     1
102
RTVSPropertyOp26
 70
     1
102
RTVSPropertyOp27
 70
     1
102
RTVSPropertyOp28
 70
     1
102
RTVSPropertyOp29
 70
     1
102
RTVSPropertyOp30
 70
     1
102
RTVSPropertyOp31
 70
     1
102
RTVSPropertyOp32
 70
     1
102
RTVSPropertyOp33
 70
     1
102
RTVSPropertyOp34
 70
     1
102
RTVSPropertyOp35
 70
     1
102
RTVSPropertyOp36
 70
     1
102
RTVSPropertyOp37
 70
     1
102
RTVSPropertyOp38
 70
     1
102
RTVSPropertyOp39
 70
     1
102
RTVSPropertyOp40
 70
     1
102
RTVSPropertyOp41
 70
     1
102
RTVSPropertyOp42
 70
     1
102
RTVSPropertyOp43
 70
     1
102
RTVSPropertyOp44
 70
     1
102
RTVSPropertyOp45
 70
     1
102
RTVSPropertyOp46
 70
     1
102
RTVSPropertyOp47
 70
     1
102
RTVSPropertyOp48
 70
     1
102
RTVSPropertyOp49
 70
     1
102
RTVSPropertyOp50
 70
     1
102
RTVSPropertyOp51
 70
     0
102
RTVSPropertyOp52
 70
     0
102
RTVSPropertyOp53
 70
     1
102
RTVSPropertyOp54
 70
     1
102
RTVSPropertyOp55
 70
     1
102
RTVSPropertyOp56
 70
     1
102
RTVSPropertyOp57
 70
     1
102
RTVSPropertyOp58
 70
     1
102
RTVSPropertyOp59
 70
     1
102
RTVSPropertyOp60
 70
     1
102
RTVSPropertyOp61
 70
     1
102
RTVSPropertyOp62
 70
     1
  0
XRECORD
  5
2B806
102
{ACAD_REACTORS
330
2B805
102
}
330
2B805
100
AcDbXrecord
280
     1
102
RTVSPost2010Prop28
280
     0
102
RTVSPost2010PropOp28
 70
     0
102
RTVSPost2010Prop29
280
     1
102
RTVSPost2010PropOp29
 70
     0
102
RTVSPost2010Prop30
280
     1
102
RTVSPost2010PropOp30
 70
     0
102
RTVSPost2010Prop31
280
     0
102
RTVSPost2010PropOp31
 70
     0
102
RTVSPost2010Prop32
280
     0
102
RTVSPost2010PropOp32
 70
     0
102
RTVSPost2010Prop33
280
     0
102
RTVSPost2010PropOp33
 70
     0
102
RTVSPost2010Prop34
280
     0
102
RTVSPost2010PropOp34
 70
     0
102
RTVSPost2010Prop35
280
     0
102
RTVSPost2010PropOp35
 70
     0
102
RTVSPost2010Prop36
280
     0
102
RTVSPost2010PropOp36
 70
     0
102
RTVSPost2010Prop37
 90
       50
102
RTVSPost2010PropOp37
 70
     0
102
RTVSPost2010Prop38
140
0.0
102
RTVSPost2010PropOp38
 70
     0
102
RTVSPost2010Prop39
140
1.0
102
RTVSPost2010PropOp39
 70
     0
102
RTVSPost2010Prop40
 90
        0
102
RTVSPost2010PropOp40
 70
     0
102
RTVSPost2010Prop41ColorIndex
 90
       18
102
RTVSPost2010Prop41ColorRGB
 90
        0
102
RTVSPost2010PropOp41
 70
     0
102
RTVSPost2010Prop42
 90
       50
102
RTVSPost2010PropOp42
 70
     0
102
RTVSPost2010Prop43
 90
        3
102
RTVSPost2010PropOp43
 70
     0
102
RTVSPost2010Prop44ColorIndex
 90
        5
102
RTVSPost2010Prop44ColorRGB
 90
      255
102
RTVSPost2010PropOp44
 70
     0
102
RTVSPost2010Prop45
280
     0
102
RTVSPost2010PropOp45
 70
     0
102
RTVSPost2010Prop46
 90
       50
102
RTVSPost2010PropOp46
 70
     0
102
RTVSPost2010Prop47
 90
       50
102
RTVSPost2010PropOp47
 70
     0
102
RTVSPost2010Prop48
 90
       50
102
RTVSPost2010PropOp48
 70
     0
102
RTVSPost2010Prop49
280
     0
102
RTVSPost2010PropOp49
 70
     0
102
RTVSPost2010Prop50
 90
       50
102
RTVSPost2010PropOp50
 70
     0
102
RTVSPost2010Prop51ColorIndex
 90
      256
102
RTVSPost2010Prop51ColorRGB
 90
-16777216
102
RTVSPost2010PropOp51
 70
     0
102
RTVSPost2010Prop52
140
1.0
102
RTVSPost2010PropOp52
 70
     0
102
RTVSPost2010Prop53
 90
        2
102
RTVSPost2010PropOp53
 70
     0
102
RTVSPost2010Prop54
  1
strokes_ogs.tif
102
RTVSPost2010PropOp54
 70
     0
102
RTVSPost2010Prop55
280
     0
102
RTVSPost2010PropOp55
 70
     0
102
RTVSPost2010Prop56
140
1.0
102
RTVSPost2010PropOp56
 70
     0
102
RTVSPost2010Prop57
140
1.0
102
RTVSPost2010PropOp57
 70
     0
102
RTVSPropertyOp0
 70
     0
102
RTVSPropertyOp1
 70
     0
102
RTVSPropertyOp2
 70
     0
102
RTVSPropertyOp3
 70
     0
102
RTVSPropertyOp4
 70
     0
102
RTVSPropertyOp5
 70
     0
102
RTVSPropertyOp6
 70
     0
102
RTVSPropertyOp7
 70
     0
102
RTVSPropertyOp8
 70
     0
102
RTVSPropertyOp9
 70
     0
102
RTVSPropertyOp10
 70
     0
102
RTVSPropertyOp11
 70
     0
102
RTVSPropertyOp12
 70
     0
102
RTVSPropertyOp13
 70
     0
102
RTVSPropertyOp14
 70
     2
102
RTVSPropertyOp15
 70
     0
102
RTVSPropertyOp16
 70
     0
102
RTVSPropertyOp17
 70
     0
102
RTVSPropertyOp18
 70
     0
102
RTVSPropertyOp19
 70
     0
102
RTVSPropertyOp20
 70
     0
102
RTVSPropertyOp21
 70
     0
102
RTVSPropertyOp22
 70
     0
102
RTVSPropertyOp23
 70
     0
102
RTVSPropertyOp24
 70
     0
102
RTVSPropertyOp25
 70
     0
102
RTVSPropertyOp26
 70
     0
102
RTVSPropertyOp27
 70
     0
102
RTVSPropertyOp28
 70
     0
102
RTVSPropertyOp29
 70
     0
102
RTVSPropertyOp30
 70
     0
102
RTVSPropertyOp31
 70
     0
102
RTVSPropertyOp32
 70
     0
102
RTVSPropertyOp33
 70
     0
102
RTVSPropertyOp34
 70
     0
102
RTVSPropertyOp35
 70
     0
102
RTVSPropertyOp36
 70
     0
102
RTVSPropertyOp37
 70
     0
102
RTVSPropertyOp38
 70
     0
102
RTVSPropertyOp39
 70
     0
102
RTVSPropertyOp40
 70
     0
102
RTVSPropertyOp41
 70
     0
102
RTVSPropertyOp42
 70
     0
102
RTVSPropertyOp43
 70
     0
102
RTVSPropertyOp44
 70
     0
102
RTVSPropertyOp45
 70
     0
102
RTVSPropertyOp46
 70
     0
102
RTVSPropertyOp47
 70
     0
102
RTVSPropertyOp48
 70
     0
102
RTVSPropertyOp49
 70
     0
102
RTVSPropertyOp50
 70
     0
102
RTVSPropertyOp51
 70
     0
102
RTVSPropertyOp52
 70
     0
102
RTVSPropertyOp53
 70
     0
102
RTVSPropertyOp54
 70
     0
102
RTVSPropertyOp55
 70
     0
102
RTVSPropertyOp56
 70
     0
102
RTVSPropertyOp57
 70
     0
102
RTVSPropertyOp58
 70
     1
102
RTVSPropertyOp59
 70
     1
102
RTVSPropertyOp60
 70
     1
102
RTVSPropertyOp61
 70
     1
102
RTVSPropertyOp62
 70
     1
  0
XRECORD
  5
2B7FE
102
{ACAD_REACTORS
330
2B7FD
102
}
330
2B7FD
100
AcDbXrecord
280
     1
102
RTVSPost2010Prop28
280
     0
102
RTVSPost2010PropOp28
 70
     1
102
RTVSPost2010Prop29
280
     1
102
RTVSPost2010PropOp29
 70
     1
102
RTVSPost2010Prop30
280
     1
102
RTVSPost2010PropOp30
 70
     1
102
RTVSPost2010Prop31
280
     0
102
RTVSPost2010PropOp31
 70
     1
102
RTVSPost2010Prop32
280
     0
102
RTVSPost2010PropOp32
 70
     1
102
RTVSPost2010Prop33
280
     0
102
RTVSPost2010PropOp33
 70
     1
102
RTVSPost2010Prop34
280
     0
102
RTVSPost2010PropOp34
 70
     1
102
RTVSPost2010Prop35
280
     0
102
RTVSPost2010PropOp35
 70
     1
102
RTVSPost2010Prop36
280
     0
102
RTVSPost2010PropOp36
 70
     1
102
RTVSPost2010Prop37
 90
       50
102
RTVSPost2010PropOp37
 70
     1
102
RTVSPost2010Prop38
140
0.0
102
RTVSPost2010PropOp38
 70
     1
102
RTVSPost2010Prop39
140
1.0
102
RTVSPost2010PropOp39
 70
     1
102
RTVSPost2010Prop40
 90
        0
102
RTVSPost2010PropOp40
 70
     1
102
RTVSPost2010Prop41ColorIndex
 90
       18
102
RTVSPost2010Prop41ColorRGB
 90
        0
102
RTVSPost2010PropOp41
 70
     1
102
RTVSPost2010Prop42
 90
       50
102
RTVSPost2010PropOp42
 70
     1
102
RTVSPost2010Prop43
 90
        3
102
RTVSPost2010PropOp43
 70
     1
102
RTVSPost2010Prop44ColorIndex
 90
        5
102
RTVSPost2010Prop44ColorRGB
 90
      255
102
RTVSPost2010PropOp44
 70
     1
102
RTVSPost2010Prop45
280
     0
102
RTVSPost2010PropOp45
 70
     1
102
RTVSPost2010Prop46
 90
       50
102
RTVSPost2010PropOp46
 70
     1
102
RTVSPost2010Prop47
 90
       50
102
RTVSPost2010PropOp47
 70
     1
102
RTVSPost2010Prop48
 90
       50
102
RTVSPost2010PropOp48
 70
     1
102
RTVSPost2010Prop49
280
     0
102
RTVSPost2010PropOp49
 70
     1
102
RTVSPost2010Prop50
 90
       50
102
RTVSPost2010PropOp50
 70
     1
102
RTVSPost2010Prop51ColorIndex
 90
      256
102
RTVSPost2010Prop51ColorRGB
 90
-16777216
102
RTVSPost2010PropOp51
 70
     0
102
RTVSPost2010Prop52
140
1.0
102
RTVSPost2010PropOp52
 70
     0
102
RTVSPost2010Prop53
 90
        2
102
RTVSPost2010PropOp53
 70
     1
102
RTVSPost2010Prop54
  1
strokes_ogs.tif
102
RTVSPost2010PropOp54
 70
     1
102
RTVSPost2010Prop55
280
     0
102
RTVSPost2010PropOp55
 70
     1
102
RTVSPost2010Prop56
140
1.0
102
RTVSPost2010PropOp56
 70
     1
102
RTVSPost2010Prop57
140
1.0
102
RTVSPost2010PropOp57
 70
     1
102
RTVSPropertyOp0
 70
     1
102
RTVSPropertyOp1
 70
     1
102
RTVSPropertyOp2
 70
     1
102
RTVSPropertyOp3
 70
     1
102
RTVSPropertyOp4
 70
     1
102
RTVSPropertyOp5
 70
     1
102
RTVSPropertyOp6
 70
     1
102
RTVSPropertyOp7
 70
     1
102
RTVSPropertyOp8
 70
     1
102
RTVSPropertyOp9
 70
     1
102
RTVSPropertyOp10
 70
     1
102
RTVSPropertyOp11
 70
     1
102
RTVSPropertyOp12
 70
     1
102
RTVSPropertyOp13
 70
     1
102
RTVSPropertyOp14
 70
     1
102
RTVSPropertyOp15
 70
     1
102
RTVSPropertyOp16
 70
     1
102
RTVSPropertyOp17
 70
     1
102
RTVSPropertyOp18
 70
     1
102
RTVSPropertyOp19
 70
     1
102
RTVSPropertyOp20
 70
     1
102
RTVSPropertyOp21
 70
     1
102
RTVSPropertyOp22
 70
     1
102
RTVSPropertyOp23
 70
     1
102
RTVSPropertyOp24
 70
     1
102
RTVSPropertyOp25
 70
     1
102
RTVSPropertyOp26
 70
     1
102
RTVSPropertyOp27
 70
     1
102
RTVSPropertyOp28
 70
     1
102
RTVSPropertyOp29
 70
     1
102
RTVSPropertyOp30
 70
     1
102
RTVSPropertyOp31
 70
     1
102
RTVSPropertyOp32
 70
     1
102
RTVSPropertyOp33
 70
     1
102
RTVSPropertyOp34
 70
     1
102
RTVSPropertyOp35
 70
     1
102
RTVSPropertyOp36
 70
     1
102
RTVSPropertyOp37
 70
     1
102
RTVSPropertyOp38
 70
     1
102
RTVSPropertyOp39
 70
     1
102
RTVSPropertyOp40
 70
     1
102
RTVSPropertyOp41
 70
     1
102
RTVSPropertyOp42
 70
     1
102
RTVSPropertyOp43
 70
     1
102
RTVSPropertyOp44
 70
     1
102
RTVSPropertyOp45
 70
     1
102
RTVSPropertyOp46
 70
     1
102
RTVSPropertyOp47
 70
     1
102
RTVSPropertyOp48
 70
     1
102
RTVSPropertyOp49
 70
     1
102
RTVSPropertyOp50
 70
     1
102
RTVSPropertyOp51
 70
     0
102
RTVSPropertyOp52
 70
     0
102
RTVSPropertyOp53
 70
     1
102
RTVSPropertyOp54
 70
     1
102
RTVSPropertyOp55
 70
     1
102
RTVSPropertyOp56
 70
     1
102
RTVSPropertyOp57
 70
     1
102
RTVSPropertyOp58
 70
     1
102
RTVSPropertyOp59
 70
     1
102
RTVSPropertyOp60
 70
     1
102
RTVSPropertyOp61
 70
     1
102
RTVSPropertyOp62
 70
     1
  0
XRECORD
  5
2B7E2
102
{ACAD_REACTORS
330
2B7E1
102
}
330
2B7E1
100
AcDbXrecord
280
     1
102
RTVSPost2010Prop28
280
     0
102
RTVSPost2010PropOp28
 70
     1
102
RTVSPost2010Prop29
280
     1
102
RTVSPost2010PropOp29
 70
     1
102
RTVSPost2010Prop30
280
     1
102
RTVSPost2010PropOp30
 70
     1
102
RTVSPost2010Prop31
280
     0
102
RTVSPost2010PropOp31
 70
     1
102
RTVSPost2010Prop32
280
     0
102
RTVSPost2010PropOp32
 70
     1
102
RTVSPost2010Prop33
280
     0
102
RTVSPost2010PropOp33
 70
     1
102
RTVSPost2010Prop34
280
     0
102
RTVSPost2010PropOp34
 70
     1
102
RTVSPost2010Prop35
280
     0
102
RTVSPost2010PropOp35
 70
     1
102
RTVSPost2010Prop36
280
     0
102
RTVSPost2010PropOp36
 70
     1
102
RTVSPost2010Prop37
 90
       50
102
RTVSPost2010PropOp37
 70
     1
102
RTVSPost2010Prop38
140
0.0
102
RTVSPost2010PropOp38
 70
     1
102
RTVSPost2010Prop39
140
1.0
102
RTVSPost2010PropOp39
 70
     1
102
RTVSPost2010Prop40
 90
        0
102
RTVSPost2010PropOp40
 70
     1
102
RTVSPost2010Prop41ColorIndex
 90
       18
102
RTVSPost2010Prop41ColorRGB
 90
        0
102
RTVSPost2010PropOp41
 70
     1
102
RTVSPost2010Prop42
 90
       50
102
RTVSPost2010PropOp42
 70
     1
102
RTVSPost2010Prop43
 90
        3
102
RTVSPost2010PropOp43
 70
     1
102
RTVSPost2010Prop44ColorIndex
 90
        5
102
RTVSPost2010Prop44ColorRGB
 90
      255
102
RTVSPost2010PropOp44
 70
     1
102
RTVSPost2010Prop45
280
     0
102
RTVSPost2010PropOp45
 70
     1
102
RTVSPost2010Prop46
 90
       50
102
RTVSPost2010PropOp46
 70
     1
102
RTVSPost2010Prop47
 90
       50
102
RTVSPost2010PropOp47
 70
     1
102
RTVSPost2010Prop48
 90
       50
102
RTVSPost2010PropOp48
 70
     1
102
RTVSPost2010Prop49
280
     0
102
RTVSPost2010PropOp49
 70
     1
102
RTVSPost2010Prop50
 90
       50
102
RTVSPost2010PropOp50
 70
     1
102
RTVSPost2010Prop51ColorIndex
 90
      256
102
RTVSPost2010Prop51ColorRGB
 90
-16777216
102
RTVSPost2010PropOp51
 70
     0
102
RTVSPost2010Prop52
140
1.0
102
RTVSPost2010PropOp52
 70
     0
102
RTVSPost2010Prop53
 90
        2
102
RTVSPost2010PropOp53
 70
     1
102
RTVSPost2010Prop54
  1
strokes_ogs.tif
102
RTVSPost2010PropOp54
 70
     1
102
RTVSPost2010Prop55
280
     0
102
RTVSPost2010PropOp55
 70
     1
102
RTVSPost2010Prop56
140
1.0
102
RTVSPost2010PropOp56
 70
     1
102
RTVSPost2010Prop57
140
1.0
102
RTVSPost2010PropOp57
 70
     1
102
RTVSPropertyOp0
 70
     1
102
RTVSPropertyOp1
 70
     1
102
RTVSPropertyOp2
 70
     1
102
RTVSPropertyOp3
 70
     1
102
RTVSPropertyOp4
 70
     1
102
RTVSPropertyOp5
 70
     1
102
RTVSPropertyOp6
 70
     1
102
RTVSPropertyOp7
 70
     1
102
RTVSPropertyOp8
 70
     1
102
RTVSPropertyOp9
 70
     1
102
RTVSPropertyOp10
 70
     1
102
RTVSPropertyOp11
 70
     1
102
RTVSPropertyOp12
 70
     1
102
RTVSPropertyOp13
 70
     1
102
RTVSPropertyOp14
 70
     1
102
RTVSPropertyOp15
 70
     1
102
RTVSPropertyOp16
 70
     1
102
RTVSPropertyOp17
 70
     1
102
RTVSPropertyOp18
 70
     1
102
RTVSPropertyOp19
 70
     1
102
RTVSPropertyOp20
 70
     1
102
RTVSPropertyOp21
 70
     1
102
RTVSPropertyOp22
 70
     1
102
RTVSPropertyOp23
 70
     1
102
RTVSPropertyOp24
 70
     1
102
RTVSPropertyOp25
 70
     1
102
RTVSPropertyOp26
 70
     1
102
RTVSPropertyOp27
 70
     1
102
RTVSPropertyOp28
 70
     1
102
RTVSPropertyOp29
 70
     1
102
RTVSPropertyOp30
 70
     1
102
RTVSPropertyOp31
 70
     1
102
RTVSPropertyOp32
 70
     1
102
RTVSPropertyOp33
 70
     1
102
RTVSPropertyOp34
 70
     1
102
RTVSPropertyOp35
 70
     1
102
RTVSPropertyOp36
 70
     1
102
RTVSPropertyOp37
 70
     1
102
RTVSPropertyOp38
 70
     1
102
RTVSPropertyOp39
 70
     1
102
RTVSPropertyOp40
 70
     1
102
RTVSPropertyOp41
 70
     1
102
RTVSPropertyOp42
 70
     1
102
RTVSPropertyOp43
 70
     1
102
RTVSPropertyOp44
 70
     1
102
RTVSPropertyOp45
 70
     1
102
RTVSPropertyOp46
 70
     1
102
RTVSPropertyOp47
 70
     1
102
RTVSPropertyOp48
 70
     1
102
RTVSPropertyOp49
 70
     1
102
RTVSPropertyOp50
 70
     1
102
RTVSPropertyOp51
 70
     0
102
RTVSPropertyOp52
 70
     0
102
RTVSPropertyOp53
 70
     1
102
RTVSPropertyOp54
 70
     1
102
RTVSPropertyOp55
 70
     1
102
RTVSPropertyOp56
 70
     1
102
RTVSPropertyOp57
 70
     1
102
RTVSPropertyOp58
 70
     1
102
RTVSPropertyOp59
 70
     1
102
RTVSPropertyOp60
 70
     1
102
RTVSPropertyOp61
 70
     1
102
RTVSPropertyOp62
 70
     1
  0
XRECORD
  5
2B7E4
102
{ACAD_REACTORS
330
2B7E3
102
}
330
2B7E3
100
AcDbXrecord
280
     1
102
RTVSPost2010Prop28
280
     0
102
RTVSPost2010PropOp28
 70
     1
102
RTVSPost2010Prop29
280
     1
102
RTVSPost2010PropOp29
 70
     1
102
RTVSPost2010Prop30
280
     1
102
RTVSPost2010PropOp30
 70
     1
102
RTVSPost2010Prop31
280
     0
102
RTVSPost2010PropOp31
 70
     1
102
RTVSPost2010Prop32
280
     0
102
RTVSPost2010PropOp32
 70
     1
102
RTVSPost2010Prop33
280
     0
102
RTVSPost2010PropOp33
 70
     1
102
RTVSPost2010Prop34
280
     0
102
RTVSPost2010PropOp34
 70
     1
102
RTVSPost2010Prop35
280
     0
102
RTVSPost2010PropOp35
 70
     1
102
RTVSPost2010Prop36
280
     0
102
RTVSPost2010PropOp36
 70
     1
102
RTVSPost2010Prop37
 90
       50
102
RTVSPost2010PropOp37
 70
     1
102
RTVSPost2010Prop38
140
0.0
102
RTVSPost2010PropOp38
 70
     1
102
RTVSPost2010Prop39
140
1.0
102
RTVSPost2010PropOp39
 70
     1
102
RTVSPost2010Prop40
 90
        0
102
RTVSPost2010PropOp40
 70
     1
102
RTVSPost2010Prop41ColorIndex
 90
       18
102
RTVSPost2010Prop41ColorRGB
 90
        0
102
RTVSPost2010PropOp41
 70
     1
102
RTVSPost2010Prop42
 90
       50
102
RTVSPost2010PropOp42
 70
     1
102
RTVSPost2010Prop43
 90
        3
102
RTVSPost2010PropOp43
 70
     1
102
RTVSPost2010Prop44ColorIndex
 90
        5
102
RTVSPost2010Prop44ColorRGB
 90
      255
102
RTVSPost2010PropOp44
 70
     1
102
RTVSPost2010Prop45
280
     0
102
RTVSPost2010PropOp45
 70
     1
102
RTVSPost2010Prop46
 90
       50
102
RTVSPost2010PropOp46
 70
     1
102
RTVSPost2010Prop47
 90
       50
102
RTVSPost2010PropOp47
 70
     1
102
RTVSPost2010Prop48
 90
       50
102
RTVSPost2010PropOp48
 70
     1
102
RTVSPost2010Prop49
280
     0
102
RTVSPost2010PropOp49
 70
     1
102
RTVSPost2010Prop50
 90
       50
102
RTVSPost2010PropOp50
 70
     1
102
RTVSPost2010Prop51ColorIndex
 90
      256
102
RTVSPost2010Prop51ColorRGB
 90
-16777216
102
RTVSPost2010PropOp51
 70
     0
102
RTVSPost2010Prop52
140
1.0
102
RTVSPost2010PropOp52
 70
     0
102
RTVSPost2010Prop53
 90
        2
102
RTVSPost2010PropOp53
 70
     1
102
RTVSPost2010Prop54
  1
strokes_ogs.tif
102
RTVSPost2010PropOp54
 70
     1
102
RTVSPost2010Prop55
280
     0
102
RTVSPost2010PropOp55
 70
     1
102
RTVSPost2010Prop56
140
1.0
102
RTVSPost2010PropOp56
 70
     1
102
RTVSPost2010Prop57
140
1.0
102
RTVSPost2010PropOp57
 70
     1
102
RTVSPropertyOp0
 70
     1
102
RTVSPropertyOp1
 70
     1
102
RTVSPropertyOp2
 70
     1
102
RTVSPropertyOp3
 70
     1
102
RTVSPropertyOp4
 70
     1
102
RTVSPropertyOp5
 70
     1
102
RTVSPropertyOp6
 70
     1
102
RTVSPropertyOp7
 70
     1
102
RTVSPropertyOp8
 70
     1
102
RTVSPropertyOp9
 70
     1
102
RTVSPropertyOp10
 70
     1
102
RTVSPropertyOp11
 70
     1
102
RTVSPropertyOp12
 70
     1
102
RTVSPropertyOp13
 70
     1
102
RTVSPropertyOp14
 70
     1
102
RTVSPropertyOp15
 70
     1
102
RTVSPropertyOp16
 70
     1
102
RTVSPropertyOp17
 70
     1
102
RTVSPropertyOp18
 70
     1
102
RTVSPropertyOp19
 70
     1
102
RTVSPropertyOp20
 70
     1
102
RTVSPropertyOp21
 70
     1
102
RTVSPropertyOp22
 70
     1
102
RTVSPropertyOp23
 70
     1
102
RTVSPropertyOp24
 70
     1
102
RTVSPropertyOp25
 70
     1
102
RTVSPropertyOp26
 70
     1
102
RTVSPropertyOp27
 70
     1
102
RTVSPropertyOp28
 70
     1
102
RTVSPropertyOp29
 70
     1
102
RTVSPropertyOp30
 70
     1
102
RTVSPropertyOp31
 70
     1
102
RTVSPropertyOp32
 70
     1
102
RTVSPropertyOp33
 70
     1
102
RTVSPropertyOp34
 70
     1
102
RTVSPropertyOp35
 70
     1
102
RTVSPropertyOp36
 70
     1
102
RTVSPropertyOp37
 70
     1
102
RTVSPropertyOp38
 70
     1
102
RTVSPropertyOp39
 70
     1
102
RTVSPropertyOp40
 70
     1
102
RTVSPropertyOp41
 70
     1
102
RTVSPropertyOp42
 70
     1
102
RTVSPropertyOp43
 70
     1
102
RTVSPropertyOp44
 70
     1
102
RTVSPropertyOp45
 70
     1
102
RTVSPropertyOp46
 70
     1
102
RTVSPropertyOp47
 70
     1
102
RTVSPropertyOp48
 70
     1
102
RTVSPropertyOp49
 70
     1
102
RTVSPropertyOp50
 70
     1
102
RTVSPropertyOp51
 70
     0
102
RTVSPropertyOp52
 70
     0
102
RTVSPropertyOp53
 70
     1
102
RTVSPropertyOp54
 70
     1
102
RTVSPropertyOp55
 70
     1
102
RTVSPropertyOp56
 70
     1
102
RTVSPropertyOp57
 70
     1
102
RTVSPropertyOp58
 70
     1
102
RTVSPropertyOp59
 70
     1
102
RTVSPropertyOp60
 70
     1
102
RTVSPropertyOp61
 70
     1
102
RTVSPropertyOp62
 70
     1
  0
XRECORD
  5
2B7E6
102
{ACAD_REACTORS
330
2B7E5
102
}
330
2B7E5
100
AcDbXrecord
280
     1
102
RTVSPost2010Prop28
280
     0
102
RTVSPost2010PropOp28
 70
     1
102
RTVSPost2010Prop29
280
     1
102
RTVSPost2010PropOp29
 70
     1
102
RTVSPost2010Prop30
280
     1
102
RTVSPost2010PropOp30
 70
     1
102
RTVSPost2010Prop31
280
     0
102
RTVSPost2010PropOp31
 70
     1
102
RTVSPost2010Prop32
280
     0
102
RTVSPost2010PropOp32
 70
     1
102
RTVSPost2010Prop33
280
     0
102
RTVSPost2010PropOp33
 70
     1
102
RTVSPost2010Prop34
280
     0
102
RTVSPost2010PropOp34
 70
     1
102
RTVSPost2010Prop35
280
     0
102
RTVSPost2010PropOp35
 70
     1
102
RTVSPost2010Prop36
280
     0
102
RTVSPost2010PropOp36
 70
     1
102
RTVSPost2010Prop37
 90
       50
102
RTVSPost2010PropOp37
 70
     1
102
RTVSPost2010Prop38
140
0.0
102
RTVSPost2010PropOp38
 70
     1
102
RTVSPost2010Prop39
140
1.0
102
RTVSPost2010PropOp39
 70
     1
102
RTVSPost2010Prop40
 90
        0
102
RTVSPost2010PropOp40
 70
     1
102
RTVSPost2010Prop41ColorIndex
 90
       18
102
RTVSPost2010Prop41ColorRGB
 90
        0
102
RTVSPost2010PropOp41
 70
     1
102
RTVSPost2010Prop42
 90
       50
102
RTVSPost2010PropOp42
 70
     1
102
RTVSPost2010Prop43
 90
        3
102
RTVSPost2010PropOp43
 70
     1
102
RTVSPost2010Prop44ColorIndex
 90
        5
102
RTVSPost2010Prop44ColorRGB
 90
      255
102
RTVSPost2010PropOp44
 70
     1
102
RTVSPost2010Prop45
280
     0
102
RTVSPost2010PropOp45
 70
     1
102
RTVSPost2010Prop46
 90
       50
102
RTVSPost2010PropOp46
 70
     1
102
RTVSPost2010Prop47
 90
       50
102
RTVSPost2010PropOp47
 70
     1
102
RTVSPost2010Prop48
 90
       50
102
RTVSPost2010PropOp48
 70
     1
102
RTVSPost2010Prop49
280
     0
102
RTVSPost2010PropOp49
 70
     1
102
RTVSPost2010Prop50
 90
       50
102
RTVSPost2010PropOp50
 70
     1
102
RTVSPost2010Prop51ColorIndex
 90
      256
102
RTVSPost2010Prop51ColorRGB
 90
-16777216
102
RTVSPost2010PropOp51
 70
     0
102
RTVSPost2010Prop52
140
1.0
102
RTVSPost2010PropOp52
 70
     0
102
RTVSPost2010Prop53
 90
        2
102
RTVSPost2010PropOp53
 70
     1
102
RTVSPost2010Prop54
  1
strokes_ogs.tif
102
RTVSPost2010PropOp54
 70
     1
102
RTVSPost2010Prop55
280
     0
102
RTVSPost2010PropOp55
 70
     1
102
RTVSPost2010Prop56
140
1.0
102
RTVSPost2010PropOp56
 70
     1
102
RTVSPost2010Prop57
140
1.0
102
RTVSPost2010PropOp57
 70
     1
102
RTVSPropertyOp0
 70
     1
102
RTVSPropertyOp1
 70
     1
102
RTVSPropertyOp2
 70
     1
102
RTVSPropertyOp3
 70
     1
102
RTVSPropertyOp4
 70
     1
102
RTVSPropertyOp5
 70
     1
102
RTVSPropertyOp6
 70
     1
102
RTVSPropertyOp7
 70
     1
102
RTVSPropertyOp8
 70
     1
102
RTVSPropertyOp9
 70
     1
102
RTVSPropertyOp10
 70
     1
102
RTVSPropertyOp11
 70
     1
102
RTVSPropertyOp12
 70
     1
102
RTVSPropertyOp13
 70
     1
102
RTVSPropertyOp14
 70
     1
102
RTVSPropertyOp15
 70
     1
102
RTVSPropertyOp16
 70
     1
102
RTVSPropertyOp17
 70
     1
102
RTVSPropertyOp18
 70
     1
102
RTVSPropertyOp19
 70
     1
102
RTVSPropertyOp20
 70
     1
102
RTVSPropertyOp21
 70
     1
102
RTVSPropertyOp22
 70
     1
102
RTVSPropertyOp23
 70
     1
102
RTVSPropertyOp24
 70
     1
102
RTVSPropertyOp25
 70
     1
102
RTVSPropertyOp26
 70
     1
102
RTVSPropertyOp27
 70
     1
102
RTVSPropertyOp28
 70
     1
102
RTVSPropertyOp29
 70
     1
102
RTVSPropertyOp30
 70
     1
102
RTVSPropertyOp31
 70
     1
102
RTVSPropertyOp32
 70
     1
102
RTVSPropertyOp33
 70
     1
102
RTVSPropertyOp34
 70
     1
102
RTVSPropertyOp35
 70
     1
102
RTVSPropertyOp36
 70
     1
102
RTVSPropertyOp37
 70
     1
102
RTVSPropertyOp38
 70
     1
102
RTVSPropertyOp39
 70
     1
102
RTVSPropertyOp40
 70
     1
102
RTVSPropertyOp41
 70
     1
102
RTVSPropertyOp42
 70
     1
102
RTVSPropertyOp43
 70
     1
102
RTVSPropertyOp44
 70
     1
102
RTVSPropertyOp45
 70
     1
102
RTVSPropertyOp46
 70
     1
102
RTVSPropertyOp47
 70
     1
102
RTVSPropertyOp48
 70
     1
102
RTVSPropertyOp49
 70
     1
102
RTVSPropertyOp50
 70
     1
102
RTVSPropertyOp51
 70
     0
102
RTVSPropertyOp52
 70
     0
102
RTVSPropertyOp53
 70
     1
102
RTVSPropertyOp54
 70
     1
102
RTVSPropertyOp55
 70
     1
102
RTVSPropertyOp56
 70
     1
102
RTVSPropertyOp57
 70
     1
102
RTVSPropertyOp58
 70
     1
102
RTVSPropertyOp59
 70
     1
102
RTVSPropertyOp60
 70
     1
102
RTVSPropertyOp61
 70
     1
102
RTVSPropertyOp62
 70
     1
  0
XRECORD
  5
2B7E8
102
{ACAD_REACTORS
330
2B7E7
102
}
330
2B7E7
100
AcDbXrecord
280
     1
102
RTVSPost2010Prop28
280
     0
102
RTVSPost2010PropOp28
 70
     1
102
RTVSPost2010Prop29
280
     1
102
RTVSPost2010PropOp29
 70
     1
102
RTVSPost2010Prop30
280
     1
102
RTVSPost2010PropOp30
 70
     1
102
RTVSPost2010Prop31
280
     0
102
RTVSPost2010PropOp31
 70
     1
102
RTVSPost2010Prop32
280
     0
102
RTVSPost2010PropOp32
 70
     1
102
RTVSPost2010Prop33
280
     0
102
RTVSPost2010PropOp33
 70
     1
102
RTVSPost2010Prop34
280
     0
102
RTVSPost2010PropOp34
 70
     1
102
RTVSPost2010Prop35
280
     0
102
RTVSPost2010PropOp35
 70
     1
102
RTVSPost2010Prop36
280
     0
102
RTVSPost2010PropOp36
 70
     1
102
RTVSPost2010Prop37
 90
       50
102
RTVSPost2010PropOp37
 70
     1
102
RTVSPost2010Prop38
140
0.0
102
RTVSPost2010PropOp38
 70
     1
102
RTVSPost2010Prop39
140
1.0
102
RTVSPost2010PropOp39
 70
     1
102
RTVSPost2010Prop40
 90
        0
102
RTVSPost2010PropOp40
 70
     1
102
RTVSPost2010Prop41ColorIndex
 90
       18
102
RTVSPost2010Prop41ColorRGB
 90
        0
102
RTVSPost2010PropOp41
 70
     1
102
RTVSPost2010Prop42
 90
       50
102
RTVSPost2010PropOp42
 70
     1
102
RTVSPost2010Prop43
 90
        3
102
RTVSPost2010PropOp43
 70
     1
102
RTVSPost2010Prop44ColorIndex
 90
        5
102
RTVSPost2010Prop44ColorRGB
 90
      255
102
RTVSPost2010PropOp44
 70
     1
102
RTVSPost2010Prop45
280
     0
102
RTVSPost2010PropOp45
 70
     1
102
RTVSPost2010Prop46
 90
       50
102
RTVSPost2010PropOp46
 70
     1
102
RTVSPost2010Prop47
 90
       50
102
RTVSPost2010PropOp47
 70
     1
102
RTVSPost2010Prop48
 90
       50
102
RTVSPost2010PropOp48
 70
     1
102
RTVSPost2010Prop49
280
     0
102
RTVSPost2010PropOp49
 70
     1
102
RTVSPost2010Prop50
 90
       50
102
RTVSPost2010PropOp50
 70
     1
102
RTVSPost2010Prop51ColorIndex
 90
      256
102
RTVSPost2010Prop51ColorRGB
 90
-16777216
102
RTVSPost2010PropOp51
 70
     0
102
RTVSPost2010Prop52
140
1.0
102
RTVSPost2010PropOp52
 70
     0
102
RTVSPost2010Prop53
 90
        2
102
RTVSPost2010PropOp53
 70
     1
102
RTVSPost2010Prop54
  1
strokes_ogs.tif
102
RTVSPost2010PropOp54
 70
     1
102
RTVSPost2010Prop55
280
     0
102
RTVSPost2010PropOp55
 70
     1
102
RTVSPost2010Prop56
140
1.0
102
RTVSPost2010PropOp56
 70
     1
102
RTVSPost2010Prop57
140
1.0
102
RTVSPost2010PropOp57
 70
     1
102
RTVSPropertyOp0
 70
     1
102
RTVSPropertyOp1
 70
     1
102
RTVSPropertyOp2
 70
     1
102
RTVSPropertyOp3
 70
     1
102
RTVSPropertyOp4
 70
     1
102
RTVSPropertyOp5
 70
     1
102
RTVSPropertyOp6
 70
     1
102
RTVSPropertyOp7
 70
     1
102
RTVSPropertyOp8
 70
     1
102
RTVSPropertyOp9
 70
     1
102
RTVSPropertyOp10
 70
     1
102
RTVSPropertyOp11
 70
     1
102
RTVSPropertyOp12
 70
     1
102
RTVSPropertyOp13
 70
     1
102
RTVSPropertyOp14
 70
     1
102
RTVSPropertyOp15
 70
     1
102
RTVSPropertyOp16
 70
     1
102
RTVSPropertyOp17
 70
     1
102
RTVSPropertyOp18
 70
     1
102
RTVSPropertyOp19
 70
     1
102
RTVSPropertyOp20
 70
     1
102
RTVSPropertyOp21
 70
     1
102
RTVSPropertyOp22
 70
     1
102
RTVSPropertyOp23
 70
     1
102
RTVSPropertyOp24
 70
     1
102
RTVSPropertyOp25
 70
     1
102
RTVSPropertyOp26
 70
     1
102
RTVSPropertyOp27
 70
     1
102
RTVSPropertyOp28
 70
     1
102
RTVSPropertyOp29
 70
     1
102
RTVSPropertyOp30
 70
     1
102
RTVSPropertyOp31
 70
     1
102
RTVSPropertyOp32
 70
     1
102
RTVSPropertyOp33
 70
     1
102
RTVSPropertyOp34
 70
     1
102
RTVSPropertyOp35
 70
     1
102
RTVSPropertyOp36
 70
     1
102
RTVSPropertyOp37
 70
     1
102
RTVSPropertyOp38
 70
     1
102
RTVSPropertyOp39
 70
     1
102
RTVSPropertyOp40
 70
     1
102
RTVSPropertyOp41
 70
     1
102
RTVSPropertyOp42
 70
     1
102
RTVSPropertyOp43
 70
     1
102
RTVSPropertyOp44
 70
     1
102
RTVSPropertyOp45
 70
     1
102
RTVSPropertyOp46
 70
     1
102
RTVSPropertyOp47
 70
     1
102
RTVSPropertyOp48
 70
     1
102
RTVSPropertyOp49
 70
     1
102
RTVSPropertyOp50
 70
     1
102
RTVSPropertyOp51
 70
     0
102
RTVSPropertyOp52
 70
     0
102
RTVSPropertyOp53
 70
     1
102
RTVSPropertyOp54
 70
     1
102
RTVSPropertyOp55
 70
     1
102
RTVSPropertyOp56
 70
     1
102
RTVSPropertyOp57
 70
     1
102
RTVSPropertyOp58
 70
     1
102
RTVSPropertyOp59
 70
     1
102
RTVSPropertyOp60
 70
     1
102
RTVSPropertyOp61
 70
     1
102
RTVSPropertyOp62
 70
     1
  0
XRECORD
  5
2B7EE
102
{ACAD_REACTORS
330
2B7ED
102
}
330
2B7ED
100
AcDbXrecord
280
     1
102
RTVSPost2010Prop28
280
     0
102
RTVSPost2010PropOp28
 70
     1
102
RTVSPost2010Prop29
280
     1
102
RTVSPost2010PropOp29
 70
     1
102
RTVSPost2010Prop30
280
     1
102
RTVSPost2010PropOp30
 70
     1
102
RTVSPost2010Prop31
280
     0
102
RTVSPost2010PropOp31
 70
     1
102
RTVSPost2010Prop32
280
     0
102
RTVSPost2010PropOp32
 70
     1
102
RTVSPost2010Prop33
280
     0
102
RTVSPost2010PropOp33
 70
     1
102
RTVSPost2010Prop34
280
     0
102
RTVSPost2010PropOp34
 70
     1
102
RTVSPost2010Prop35
280
     0
102
RTVSPost2010PropOp35
 70
     1
102
RTVSPost2010Prop36
280
     0
102
RTVSPost2010PropOp36
 70
     1
102
RTVSPost2010Prop37
 90
       50
102
RTVSPost2010PropOp37
 70
     1
102
RTVSPost2010Prop38
140
0.0
102
RTVSPost2010PropOp38
 70
     1
102
RTVSPost2010Prop39
140
1.0
102
RTVSPost2010PropOp39
 70
     1
102
RTVSPost2010Prop40
 90
        0
102
RTVSPost2010PropOp40
 70
     1
102
RTVSPost2010Prop41ColorIndex
 90
       18
102
RTVSPost2010Prop41ColorRGB
 90
        0
102
RTVSPost2010PropOp41
 70
     1
102
RTVSPost2010Prop42
 90
       50
102
RTVSPost2010PropOp42
 70
     1
102
RTVSPost2010Prop43
 90
        3
102
RTVSPost2010PropOp43
 70
     1
102
RTVSPost2010Prop44ColorIndex
 90
        5
102
RTVSPost2010Prop44ColorRGB
 90
      255
102
RTVSPost2010PropOp44
 70
     1
102
RTVSPost2010Prop45
280
     0
102
RTVSPost2010PropOp45
 70
     1
102
RTVSPost2010Prop46
 90
       50
102
RTVSPost2010PropOp46
 70
     1
102
RTVSPost2010Prop47
 90
       50
102
RTVSPost2010PropOp47
 70
     1
102
RTVSPost2010Prop48
 90
       50
102
RTVSPost2010PropOp48
 70
     1
102
RTVSPost2010Prop49
280
     0
102
RTVSPost2010PropOp49
 70
     1
102
RTVSPost2010Prop50
 90
       50
102
RTVSPost2010PropOp50
 70
     1
102
RTVSPost2010Prop51ColorIndex
 90
      256
102
RTVSPost2010Prop51ColorRGB
 90
-16777216
102
RTVSPost2010PropOp51
 70
     0
102
RTVSPost2010Prop52
140
1.0
102
RTVSPost2010PropOp52
 70
     0
102
RTVSPost2010Prop53
 90
        2
102
RTVSPost2010PropOp53
 70
     1
102
RTVSPost2010Prop54
  1
strokes_ogs.tif
102
RTVSPost2010PropOp54
 70
     1
102
RTVSPost2010Prop55
280
     0
102
RTVSPost2010PropOp55
 70
     1
102
RTVSPost2010Prop56
140
1.0
102
RTVSPost2010PropOp56
 70
     1
102
RTVSPost2010Prop57
140
1.0
102
RTVSPost2010PropOp57
 70
     1
102
RTVSPropertyOp0
 70
     1
102
RTVSPropertyOp1
 70
     1
102
RTVSPropertyOp2
 70
     1
102
RTVSPropertyOp3
 70
     1
102
RTVSPropertyOp4
 70
     1
102
RTVSPropertyOp5
 70
     1
102
RTVSPropertyOp6
 70
     1
102
RTVSPropertyOp7
 70
     1
102
RTVSPropertyOp8
 70
     1
102
RTVSPropertyOp9
 70
     1
102
RTVSPropertyOp10
 70
     1
102
RTVSPropertyOp11
 70
     1
102
RTVSPropertyOp12
 70
     1
102
RTVSPropertyOp13
 70
     1
102
RTVSPropertyOp14
 70
     1
102
RTVSPropertyOp15
 70
     1
102
RTVSPropertyOp16
 70
     1
102
RTVSPropertyOp17
 70
     1
102
RTVSPropertyOp18
 70
     1
102
RTVSPropertyOp19
 70
     1
102
RTVSPropertyOp20
 70
     1
102
RTVSPropertyOp21
 70
     1
102
RTVSPropertyOp22
 70
     1
102
RTVSPropertyOp23
 70
     1
102
RTVSPropertyOp24
 70
     1
102
RTVSPropertyOp25
 70
     1
102
RTVSPropertyOp26
 70
     1
102
RTVSPropertyOp27
 70
     1
102
RTVSPropertyOp28
 70
     1
102
RTVSPropertyOp29
 70
     1
102
RTVSPropertyOp30
 70
     1
102
RTVSPropertyOp31
 70
     1
102
RTVSPropertyOp32
 70
     1
102
RTVSPropertyOp33
 70
     1
102
RTVSPropertyOp34
 70
     1
102
RTVSPropertyOp35
 70
     1
102
RTVSPropertyOp36
 70
     1
102
RTVSPropertyOp37
 70
     1
102
RTVSPropertyOp38
 70
     1
102
RTVSPropertyOp39
 70
     1
102
RTVSPropertyOp40
 70
     1
102
RTVSPropertyOp41
 70
     1
102
RTVSPropertyOp42
 70
     1
102
RTVSPropertyOp43
 70
     1
102
RTVSPropertyOp44
 70
     1
102
RTVSPropertyOp45
 70
     1
102
RTVSPropertyOp46
 70
     1
102
RTVSPropertyOp47
 70
     1
102
RTVSPropertyOp48
 70
     1
102
RTVSPropertyOp49
 70
     1
102
RTVSPropertyOp50
 70
     1
102
RTVSPropertyOp51
 70
     0
102
RTVSPropertyOp52
 70
     0
102
RTVSPropertyOp53
 70
     1
102
RTVSPropertyOp54
 70
     1
102
RTVSPropertyOp55
 70
     1
102
RTVSPropertyOp56
 70
     1
102
RTVSPropertyOp57
 70
     1
102
RTVSPropertyOp58
 70
     1
102
RTVSPropertyOp59
 70
     1
102
RTVSPropertyOp60
 70
     1
102
RTVSPropertyOp61
 70
     1
102
RTVSPropertyOp62
 70
     1
  0
XRECORD
  5
2B802
102
{ACAD_REACTORS
330
2B801
102
}
330
2B801
100
AcDbXrecord
280
     1
102
RTVSPost2010Prop28
280
     0
102
RTVSPost2010PropOp28
 70
     0
102
RTVSPost2010Prop29
280
     1
102
RTVSPost2010PropOp29
 70
     0
102
RTVSPost2010Prop30
280
     1
102
RTVSPost2010PropOp30
 70
     0
102
RTVSPost2010Prop31
280
     0
102
RTVSPost2010PropOp31
 70
     0
102
RTVSPost2010Prop32
280
     0
102
RTVSPost2010PropOp32
 70
     0
102
RTVSPost2010Prop33
280
     0
102
RTVSPost2010PropOp33
 70
     0
102
RTVSPost2010Prop34
280
     0
102
RTVSPost2010PropOp34
 70
     0
102
RTVSPost2010Prop35
280
     0
102
RTVSPost2010PropOp35
 70
     0
102
RTVSPost2010Prop36
280
     0
102
RTVSPost2010PropOp36
 70
     0
102
RTVSPost2010Prop37
 90
       50
102
RTVSPost2010PropOp37
 70
     0
102
RTVSPost2010Prop38
140
0.0
102
RTVSPost2010PropOp38
 70
     0
102
RTVSPost2010Prop39
140
1.0
102
RTVSPost2010PropOp39
 70
     0
102
RTVSPost2010Prop40
 90
        0
102
RTVSPost2010PropOp40
 70
     0
102
RTVSPost2010Prop41ColorIndex
 90
       18
102
RTVSPost2010Prop41ColorRGB
 90
        0
102
RTVSPost2010PropOp41
 70
     0
102
RTVSPost2010Prop42
 90
       50
102
RTVSPost2010PropOp42
 70
     0
102
RTVSPost2010Prop43
 90
        3
102
RTVSPost2010PropOp43
 70
     0
102
RTVSPost2010Prop44ColorIndex
 90
        5
102
RTVSPost2010Prop44ColorRGB
 90
      255
102
RTVSPost2010PropOp44
 70
     0
102
RTVSPost2010Prop45
280
     0
102
RTVSPost2010PropOp45
 70
     0
102
RTVSPost2010Prop46
 90
       50
102
RTVSPost2010PropOp46
 70
     0
102
RTVSPost2010Prop47
 90
       50
102
RTVSPost2010PropOp47
 70
     0
102
RTVSPost2010Prop48
 90
       50
102
RTVSPost2010PropOp48
 70
     0
102
RTVSPost2010Prop49
280
     0
102
RTVSPost2010PropOp49
 70
     0
102
RTVSPost2010Prop50
 90
       50
102
RTVSPost2010PropOp50
 70
     0
102
RTVSPost2010Prop51ColorIndex
 90
      256
102
RTVSPost2010Prop51ColorRGB
 90
-16777216
102
RTVSPost2010PropOp51
 70
     0
102
RTVSPost2010Prop52
140
1.0
102
RTVSPost2010PropOp52
 70
     0
102
RTVSPost2010Prop53
 90
        2
102
RTVSPost2010PropOp53
 70
     0
102
RTVSPost2010Prop54
  1
strokes_ogs.tif
102
RTVSPost2010PropOp54
 70
     0
102
RTVSPost2010Prop55
280
     0
102
RTVSPost2010PropOp55
 70
     0
102
RTVSPost2010Prop56
140
1.0
102
RTVSPost2010PropOp56
 70
     0
102
RTVSPost2010Prop57
140
1.0
102
RTVSPost2010PropOp57
 70
     0
102
RTVSPropertyOp0
 70
     0
102
RTVSPropertyOp1
 70
     0
102
RTVSPropertyOp2
 70
     0
102
RTVSPropertyOp3
 70
     0
102
RTVSPropertyOp4
 70
     0
102
RTVSPropertyOp5
 70
     0
102
RTVSPropertyOp6
 70
     0
102
RTVSPropertyOp7
 70
     0
102
RTVSPropertyOp8
 70
     0
102
RTVSPropertyOp9
 70
     0
102
RTVSPropertyOp10
 70
     0
102
RTVSPropertyOp11
 70
     0
102
RTVSPropertyOp12
 70
     0
102
RTVSPropertyOp13
 70
     0
102
RTVSPropertyOp14
 70
     2
102
RTVSPropertyOp15
 70
     0
102
RTVSPropertyOp16
 70
     0
102
RTVSPropertyOp17
 70
     0
102
RTVSPropertyOp18
 70
     0
102
RTVSPropertyOp19
 70
     0
102
RTVSPropertyOp20
 70
     0
102
RTVSPropertyOp21
 70
     0
102
RTVSPropertyOp22
 70
     0
102
RTVSPropertyOp23
 70
     0
102
RTVSPropertyOp24
 70
     0
102
RTVSPropertyOp25
 70
     0
102
RTVSPropertyOp26
 70
     0
102
RTVSPropertyOp27
 70
     0
102
RTVSPropertyOp28
 70
     0
102
RTVSPropertyOp29
 70
     0
102
RTVSPropertyOp30
 70
     0
102
RTVSPropertyOp31
 70
     0
102
RTVSPropertyOp32
 70
     0
102
RTVSPropertyOp33
 70
     0
102
RTVSPropertyOp34
 70
     0
102
RTVSPropertyOp35
 70
     0
102
RTVSPropertyOp36
 70
     0
102
RTVSPropertyOp37
 70
     0
102
RTVSPropertyOp38
 70
     0
102
RTVSPropertyOp39
 70
     0
102
RTVSPropertyOp40
 70
     0
102
RTVSPropertyOp41
 70
     0
102
RTVSPropertyOp42
 70
     0
102
RTVSPropertyOp43
 70
     0
102
RTVSPropertyOp44
 70
     0
102
RTVSPropertyOp45
 70
     0
102
RTVSPropertyOp46
 70
     0
102
RTVSPropertyOp47
 70
     0
102
RTVSPropertyOp48
 70
     0
102
RTVSPropertyOp49
 70
     0
102
RTVSPropertyOp50
 70
     0
102
RTVSPropertyOp51
 70
     0
102
RTVSPropertyOp52
 70
     0
102
RTVSPropertyOp53
 70
     0
102
RTVSPropertyOp54
 70
     0
102
RTVSPropertyOp55
 70
     0
102
RTVSPropertyOp56
 70
     0
102
RTVSPropertyOp57
 70
     0
102
RTVSPropertyOp58
 70
     1
102
RTVSPropertyOp59
 70
     1
102
RTVSPropertyOp60
 70
     1
102
RTVSPropertyOp61
 70
     1
102
RTVSPropertyOp62
 70
     1
  0
XRECORD
  5
2B7FC
102
{ACAD_REACTORS
330
2B7FB
102
}
330
2B7FB
100
AcDbXrecord
280
     1
102
RTVSPost2010Prop28
280
     0
102
RTVSPost2010PropOp28
 70
     1
102
RTVSPost2010Prop29
280
     1
102
RTVSPost2010PropOp29
 70
     1
102
RTVSPost2010Prop30
280
     1
102
RTVSPost2010PropOp30
 70
     1
102
RTVSPost2010Prop31
280
     0
102
RTVSPost2010PropOp31
 70
     1
102
RTVSPost2010Prop32
280
     0
102
RTVSPost2010PropOp32
 70
     1
102
RTVSPost2010Prop33
280
     0
102
RTVSPost2010PropOp33
 70
     1
102
RTVSPost2010Prop34
280
     0
102
RTVSPost2010PropOp34
 70
     1
102
RTVSPost2010Prop35
280
     0
102
RTVSPost2010PropOp35
 70
     1
102
RTVSPost2010Prop36
280
     0
102
RTVSPost2010PropOp36
 70
     1
102
RTVSPost2010Prop37
 90
       50
102
RTVSPost2010PropOp37
 70
     1
102
RTVSPost2010Prop38
140
0.0
102
RTVSPost2010PropOp38
 70
     1
102
RTVSPost2010Prop39
140
1.0
102
RTVSPost2010PropOp39
 70
     1
102
RTVSPost2010Prop40
 90
        0
102
RTVSPost2010PropOp40
 70
     1
102
RTVSPost2010Prop41ColorIndex
 90
       18
102
RTVSPost2010Prop41ColorRGB
 90
        0
102
RTVSPost2010PropOp41
 70
     1
102
RTVSPost2010Prop42
 90
       50
102
RTVSPost2010PropOp42
 70
     1
102
RTVSPost2010Prop43
 90
        3
102
RTVSPost2010PropOp43
 70
     1
102
RTVSPost2010Prop44ColorIndex
 90
        5
102
RTVSPost2010Prop44ColorRGB
 90
      255
102
RTVSPost2010PropOp44
 70
     1
102
RTVSPost2010Prop45
280
     0
102
RTVSPost2010PropOp45
 70
     1
102
RTVSPost2010Prop46
 90
       50
102
RTVSPost2010PropOp46
 70
     1
102
RTVSPost2010Prop47
 90
       50
102
RTVSPost2010PropOp47
 70
     1
102
RTVSPost2010Prop48
 90
       50
102
RTVSPost2010PropOp48
 70
     1
102
RTVSPost2010Prop49
280
     0
102
RTVSPost2010PropOp49
 70
     1
102
RTVSPost2010Prop50
 90
       50
102
RTVSPost2010PropOp50
 70
     1
102
RTVSPost2010Prop51ColorIndex
 90
      256
102
RTVSPost2010Prop51ColorRGB
 90
-16777216
102
RTVSPost2010PropOp51
 70
     0
102
RTVSPost2010Prop52
140
1.0
102
RTVSPost2010PropOp52
 70
     0
102
RTVSPost2010Prop53
 90
        2
102
RTVSPost2010PropOp53
 70
     1
102
RTVSPost2010Prop54
  1
strokes_ogs.tif
102
RTVSPost2010PropOp54
 70
     1
102
RTVSPost2010Prop55
280
     0
102
RTVSPost2010PropOp55
 70
     1
102
RTVSPost2010Prop56
140
1.0
102
RTVSPost2010PropOp56
 70
     1
102
RTVSPost2010Prop57
140
1.0
102
RTVSPost2010PropOp57
 70
     1
102
RTVSPropertyOp0
 70
     1
102
RTVSPropertyOp1
 70
     1
102
RTVSPropertyOp2
 70
     1
102
RTVSPropertyOp3
 70
     1
102
RTVSPropertyOp4
 70
     1
102
RTVSPropertyOp5
 70
     1
102
RTVSPropertyOp6
 70
     1
102
RTVSPropertyOp7
 70
     1
102
RTVSPropertyOp8
 70
     1
102
RTVSPropertyOp9
 70
     1
102
RTVSPropertyOp10
 70
     1
102
RTVSPropertyOp11
 70
     1
102
RTVSPropertyOp12
 70
     1
102
RTVSPropertyOp13
 70
     1
102
RTVSPropertyOp14
 70
     1
102
RTVSPropertyOp15
 70
     1
102
RTVSPropertyOp16
 70
     1
102
RTVSPropertyOp17
 70
     1
102
RTVSPropertyOp18
 70
     1
102
RTVSPropertyOp19
 70
     1
102
RTVSPropertyOp20
 70
     1
102
RTVSPropertyOp21
 70
     1
102
RTVSPropertyOp22
 70
     1
102
RTVSPropertyOp23
 70
     1
102
RTVSPropertyOp24
 70
     1
102
RTVSPropertyOp25
 70
     1
102
RTVSPropertyOp26
 70
     1
102
RTVSPropertyOp27
 70
     1
102
RTVSPropertyOp28
 70
     1
102
RTVSPropertyOp29
 70
     1
102
RTVSPropertyOp30
 70
     1
102
RTVSPropertyOp31
 70
     1
102
RTVSPropertyOp32
 70
     1
102
RTVSPropertyOp33
 70
     1
102
RTVSPropertyOp34
 70
     1
102
RTVSPropertyOp35
 70
     1
102
RTVSPropertyOp36
 70
     1
102
RTVSPropertyOp37
 70
     1
102
RTVSPropertyOp38
 70
     1
102
RTVSPropertyOp39
 70
     1
102
RTVSPropertyOp40
 70
     1
102
RTVSPropertyOp41
 70
     1
102
RTVSPropertyOp42
 70
     1
102
RTVSPropertyOp43
 70
     1
102
RTVSPropertyOp44
 70
     1
102
RTVSPropertyOp45
 70
     1
102
RTVSPropertyOp46
 70
     1
102
RTVSPropertyOp47
 70
     1
102
RTVSPropertyOp48
 70
     1
102
RTVSPropertyOp49
 70
     1
102
RTVSPropertyOp50
 70
     1
102
RTVSPropertyOp51
 70
     0
102
RTVSPropertyOp52
 70
     0
102
RTVSPropertyOp53
 70
     1
102
RTVSPropertyOp54
 70
     1
102
RTVSPropertyOp55
 70
     1
102
RTVSPropertyOp56
 70
     1
102
RTVSPropertyOp57
 70
     1
102
RTVSPropertyOp58
 70
     1
102
RTVSPropertyOp59
 70
     1
102
RTVSPropertyOp60
 70
     1
102
RTVSPropertyOp61
 70
     1
102
RTVSPropertyOp62
 70
     1
  0
XRECORD
  5
2B804
102
{ACAD_REACTORS
330
2B803
102
}
330
2B803
100
AcDbXrecord
280
     1
102
RTVSPost2010Prop28
280
     0
102
RTVSPost2010PropOp28
 70
     0
102
RTVSPost2010Prop29
280
     1
102
RTVSPost2010PropOp29
 70
     0
102
RTVSPost2010Prop30
280
     1
102
RTVSPost2010PropOp30
 70
     0
102
RTVSPost2010Prop31
280
     0
102
RTVSPost2010PropOp31
 70
     0
102
RTVSPost2010Prop32
280
     0
102
RTVSPost2010PropOp32
 70
     0
102
RTVSPost2010Prop33
280
     0
102
RTVSPost2010PropOp33
 70
     0
102
RTVSPost2010Prop34
280
     0
102
RTVSPost2010PropOp34
 70
     0
102
RTVSPost2010Prop35
280
     0
102
RTVSPost2010PropOp35
 70
     0
102
RTVSPost2010Prop36
280
     0
102
RTVSPost2010PropOp36
 70
     0
102
RTVSPost2010Prop37
 90
       50
102
RTVSPost2010PropOp37
 70
     0
102
RTVSPost2010Prop38
140
0.0
102
RTVSPost2010PropOp38
 70
     0
102
RTVSPost2010Prop39
140
1.0
102
RTVSPost2010PropOp39
 70
     0
102
RTVSPost2010Prop40
 90
        0
102
RTVSPost2010PropOp40
 70
     0
102
RTVSPost2010Prop41ColorIndex
 90
       18
102
RTVSPost2010Prop41ColorRGB
 90
        0
102
RTVSPost2010PropOp41
 70
     0
102
RTVSPost2010Prop42
 90
       50
102
RTVSPost2010PropOp42
 70
     0
102
RTVSPost2010Prop43
 90
        3
102
RTVSPost2010PropOp43
 70
     0
102
RTVSPost2010Prop44ColorIndex
 90
        5
102
RTVSPost2010Prop44ColorRGB
 90
      255
102
RTVSPost2010PropOp44
 70
     0
102
RTVSPost2010Prop45
280
     0
102
RTVSPost2010PropOp45
 70
     0
102
RTVSPost2010Prop46
 90
       50
102
RTVSPost2010PropOp46
 70
     0
102
RTVSPost2010Prop47
 90
       50
102
RTVSPost2010PropOp47
 70
     0
102
RTVSPost2010Prop48
 90
       50
102
RTVSPost2010PropOp48
 70
     0
102
RTVSPost2010Prop49
280
     0
102
RTVSPost2010PropOp49
 70
     0
102
RTVSPost2010Prop50
 90
       50
102
RTVSPost2010PropOp50
 70
     0
102
RTVSPost2010Prop51ColorIndex
 90
      256
102
RTVSPost2010Prop51ColorRGB
 90
-16777216
102
RTVSPost2010PropOp51
 70
     0
102
RTVSPost2010Prop52
140
1.0
102
RTVSPost2010PropOp52
 70
     0
102
RTVSPost2010Prop53
 90
        2
102
RTVSPost2010PropOp53
 70
     0
102
RTVSPost2010Prop54
  1
strokes_ogs.tif
102
RTVSPost2010PropOp54
 70
     0
102
RTVSPost2010Prop55
280
     0
102
RTVSPost2010PropOp55
 70
     0
102
RTVSPost2010Prop56
140
1.0
102
RTVSPost2010PropOp56
 70
     0
102
RTVSPost2010Prop57
140
1.0
102
RTVSPost2010PropOp57
 70
     0
102
RTVSPropertyOp0
 70
     0
102
RTVSPropertyOp1
 70
     0
102
RTVSPropertyOp2
 70
     0
102
RTVSPropertyOp3
 70
     0
102
RTVSPropertyOp4
 70
     0
102
RTVSPropertyOp5
 70
     0
102
RTVSPropertyOp6
 70
     0
102
RTVSPropertyOp7
 70
     0
102
RTVSPropertyOp8
 70
     0
102
RTVSPropertyOp9
 70
     0
102
RTVSPropertyOp10
 70
     0
102
RTVSPropertyOp11
 70
     0
102
RTVSPropertyOp12
 70
     0
102
RTVSPropertyOp13
 70
     0
102
RTVSPropertyOp14
 70
     2
102
RTVSPropertyOp15
 70
     0
102
RTVSPropertyOp16
 70
     0
102
RTVSPropertyOp17
 70
     0
102
RTVSPropertyOp18
 70
     0
102
RTVSPropertyOp19
 70
     0
102
RTVSPropertyOp20
 70
     0
102
RTVSPropertyOp21
 70
     0
102
RTVSPropertyOp22
 70
     0
102
RTVSPropertyOp23
 70
     0
102
RTVSPropertyOp24
 70
     0
102
RTVSPropertyOp25
 70
     0
102
RTVSPropertyOp26
 70
     0
102
RTVSPropertyOp27
 70
     0
102
RTVSPropertyOp28
 70
     0
102
RTVSPropertyOp29
 70
     0
102
RTVSPropertyOp30
 70
     0
102
RTVSPropertyOp31
 70
     0
102
RTVSPropertyOp32
 70
     0
102
RTVSPropertyOp33
 70
     0
102
RTVSPropertyOp34
 70
     0
102
RTVSPropertyOp35
 70
     0
102
RTVSPropertyOp36
 70
     0
102
RTVSPropertyOp37
 70
     0
102
RTVSPropertyOp38
 70
     0
102
RTVSPropertyOp39
 70
     0
102
RTVSPropertyOp40
 70
     0
102
RTVSPropertyOp41
 70
     0
102
RTVSPropertyOp42
 70
     0
102
RTVSPropertyOp43
 70
     0
102
RTVSPropertyOp44
 70
     0
102
RTVSPropertyOp45
 70
     0
102
RTVSPropertyOp46
 70
     0
102
RTVSPropertyOp47
 70
     0
102
RTVSPropertyOp48
 70
     0
102
RTVSPropertyOp49
 70
     0
102
RTVSPropertyOp50
 70
     0
102
RTVSPropertyOp51
 70
     0
102
RTVSPropertyOp52
 70
     0
102
RTVSPropertyOp53
 70
     0
102
RTVSPropertyOp54
 70
     0
102
RTVSPropertyOp55
 70
     0
102
RTVSPropertyOp56
 70
     0
102
RTVSPropertyOp57
 70
     0
102
RTVSPropertyOp58
 70
     1
102
RTVSPropertyOp59
 70
     1
102
RTVSPropertyOp60
 70
     1
102
RTVSPropertyOp61
 70
     1
102
RTVSPropertyOp62
 70
     1
  0
XRECORD
  5
2B7F2
102
{ACAD_REACTORS
330
2B7F1
102
}
330
2B7F1
100
AcDbXrecord
280
     1
102
RTVSPost2010Prop28
280
     0
102
RTVSPost2010PropOp28
 70
     1
102
RTVSPost2010Prop29
280
     1
102
RTVSPost2010PropOp29
 70
     1
102
RTVSPost2010Prop30
280
     1
102
RTVSPost2010PropOp30
 70
     1
102
RTVSPost2010Prop31
280
     0
102
RTVSPost2010PropOp31
 70
     1
102
RTVSPost2010Prop32
280
     0
102
RTVSPost2010PropOp32
 70
     1
102
RTVSPost2010Prop33
280
     0
102
RTVSPost2010PropOp33
 70
     1
102
RTVSPost2010Prop34
280
     0
102
RTVSPost2010PropOp34
 70
     1
102
RTVSPost2010Prop35
280
     0
102
RTVSPost2010PropOp35
 70
     1
102
RTVSPost2010Prop36
280
     0
102
RTVSPost2010PropOp36
 70
     1
102
RTVSPost2010Prop37
 90
       50
102
RTVSPost2010PropOp37
 70
     1
102
RTVSPost2010Prop38
140
0.0
102
RTVSPost2010PropOp38
 70
     1
102
RTVSPost2010Prop39
140
1.0
102
RTVSPost2010PropOp39
 70
     1
102
RTVSPost2010Prop40
 90
        0
102
RTVSPost2010PropOp40
 70
     1
102
RTVSPost2010Prop41ColorIndex
 90
       18
102
RTVSPost2010Prop41ColorRGB
 90
        0
102
RTVSPost2010PropOp41
 70
     1
102
RTVSPost2010Prop42
 90
       50
102
RTVSPost2010PropOp42
 70
     1
102
RTVSPost2010Prop43
 90
        3
102
RTVSPost2010PropOp43
 70
     1
102
RTVSPost2010Prop44ColorIndex
 90
        5
102
RTVSPost2010Prop44ColorRGB
 90
      255
102
RTVSPost2010PropOp44
 70
     1
102
RTVSPost2010Prop45
280
     0
102
RTVSPost2010PropOp45
 70
     1
102
RTVSPost2010Prop46
 90
       50
102
RTVSPost2010PropOp46
 70
     1
102
RTVSPost2010Prop47
 90
       50
102
RTVSPost2010PropOp47
 70
     1
102
RTVSPost2010Prop48
 90
       50
102
RTVSPost2010PropOp48
 70
     1
102
RTVSPost2010Prop49
280
     0
102
RTVSPost2010PropOp49
 70
     1
102
RTVSPost2010Prop50
 90
       50
102
RTVSPost2010PropOp50
 70
     1
102
RTVSPost2010Prop51ColorIndex
 90
      256
102
RTVSPost2010Prop51ColorRGB
 90
-16777216
102
RTVSPost2010PropOp51
 70
     0
102
RTVSPost2010Prop52
140
1.0
102
RTVSPost2010PropOp52
 70
     0
102
RTVSPost2010Prop53
 90
        2
102
RTVSPost2010PropOp53
 70
     1
102
RTVSPost2010Prop54
  1
strokes_ogs.tif
102
RTVSPost2010PropOp54
 70
     1
102
RTVSPost2010Prop55
280
     0
102
RTVSPost2010PropOp55
 70
     1
102
RTVSPost2010Prop56
140
1.0
102
RTVSPost2010PropOp56
 70
     1
102
RTVSPost2010Prop57
140
1.0
102
RTVSPost2010PropOp57
 70
     1
102
RTVSPropertyOp0
 70
     1
102
RTVSPropertyOp1
 70
     1
102
RTVSPropertyOp2
 70
     1
102
RTVSPropertyOp3
 70
     1
102
RTVSPropertyOp4
 70
     1
102
RTVSPropertyOp5
 70
     1
102
RTVSPropertyOp6
 70
     1
102
RTVSPropertyOp7
 70
     1
102
RTVSPropertyOp8
 70
     1
102
RTVSPropertyOp9
 70
     1
102
RTVSPropertyOp10
 70
     1
102
RTVSPropertyOp11
 70
     1
102
RTVSPropertyOp12
 70
     1
102
RTVSPropertyOp13
 70
     1
102
RTVSPropertyOp14
 70
     1
102
RTVSPropertyOp15
 70
     1
102
RTVSPropertyOp16
 70
     1
102
RTVSPropertyOp17
 70
     1
102
RTVSPropertyOp18
 70
     1
102
RTVSPropertyOp19
 70
     1
102
RTVSPropertyOp20
 70
     1
102
RTVSPropertyOp21
 70
     1
102
RTVSPropertyOp22
 70
     1
102
RTVSPropertyOp23
 70
     1
102
RTVSPropertyOp24
 70
     1
102
RTVSPropertyOp25
 70
     1
102
RTVSPropertyOp26
 70
     1
102
RTVSPropertyOp27
 70
     1
102
RTVSPropertyOp28
 70
     1
102
RTVSPropertyOp29
 70
     1
102
RTVSPropertyOp30
 70
     1
102
RTVSPropertyOp31
 70
     1
102
RTVSPropertyOp32
 70
     1
102
RTVSPropertyOp33
 70
     1
102
RTVSPropertyOp34
 70
     1
102
RTVSPropertyOp35
 70
     1
102
RTVSPropertyOp36
 70
     1
102
RTVSPropertyOp37
 70
     1
102
RTVSPropertyOp38
 70
     1
102
RTVSPropertyOp39
 70
     1
102
RTVSPropertyOp40
 70
     1
102
RTVSPropertyOp41
 70
     1
102
RTVSPropertyOp42
 70
     1
102
RTVSPropertyOp43
 70
     1
102
RTVSPropertyOp44
 70
     1
102
RTVSPropertyOp45
 70
     1
102
RTVSPropertyOp46
 70
     1
102
RTVSPropertyOp47
 70
     1
102
RTVSPropertyOp48
 70
     1
102
RTVSPropertyOp49
 70
     1
102
RTVSPropertyOp50
 70
     1
102
RTVSPropertyOp51
 70
     0
102
RTVSPropertyOp52
 70
     0
102
RTVSPropertyOp53
 70
     1
102
RTVSPropertyOp54
 70
     1
102
RTVSPropertyOp55
 70
     1
102
RTVSPropertyOp56
 70
     1
102
RTVSPropertyOp57
 70
     1
102
RTVSPropertyOp58
 70
     1
102
RTVSPropertyOp59
 70
     1
102
RTVSPropertyOp60
 70
     1
102
RTVSPropertyOp61
 70
     1
102
RTVSPropertyOp62
 70
     1
  0
XRECORD
  5
2B810
102
{ACAD_REACTORS
330
2B80F
102
}
330
2B80F
100
AcDbXrecord
280
     1
102
RTVSPost2010Prop28
280
     0
102
RTVSPost2010PropOp28
 70
     1
102
RTVSPost2010Prop29
280
     1
102
RTVSPost2010PropOp29
 70
     1
102
RTVSPost2010Prop30
280
     1
102
RTVSPost2010PropOp30
 70
     1
102
RTVSPost2010Prop31
280
     0
102
RTVSPost2010PropOp31
 70
     1
102
RTVSPost2010Prop32
280
     0
102
RTVSPost2010PropOp32
 70
     1
102
RTVSPost2010Prop33
280
     0
102
RTVSPost2010PropOp33
 70
     1
102
RTVSPost2010Prop34
280
     0
102
RTVSPost2010PropOp34
 70
     1
102
RTVSPost2010Prop35
280
     0
102
RTVSPost2010PropOp35
 70
     1
102
RTVSPost2010Prop36
280
     0
102
RTVSPost2010PropOp36
 70
     1
102
RTVSPost2010Prop37
 90
       50
102
RTVSPost2010PropOp37
 70
     1
102
RTVSPost2010Prop38
140
0.0
102
RTVSPost2010PropOp38
 70
     1
102
RTVSPost2010Prop39
140
1.0
102
RTVSPost2010PropOp39
 70
     1
102
RTVSPost2010Prop40
 90
        0
102
RTVSPost2010PropOp40
 70
     1
102
RTVSPost2010Prop41ColorIndex
 90
       18
102
RTVSPost2010Prop41ColorRGB
 90
        0
102
RTVSPost2010PropOp41
 70
     1
102
RTVSPost2010Prop42
 90
       50
102
RTVSPost2010PropOp42
 70
     1
102
RTVSPost2010Prop43
 90
        3
102
RTVSPost2010PropOp43
 70
     1
102
RTVSPost2010Prop44ColorIndex
 90
        5
102
RTVSPost2010Prop44ColorRGB
 90
      255
102
RTVSPost2010PropOp44
 70
     1
102
RTVSPost2010Prop45
280
     0
102
RTVSPost2010PropOp45
 70
     1
102
RTVSPost2010Prop46
 90
       50
102
RTVSPost2010PropOp46
 70
     1
102
RTVSPost2010Prop47
 90
       50
102
RTVSPost2010PropOp47
 70
     1
102
RTVSPost2010Prop48
 90
       50
102
RTVSPost2010PropOp48
 70
     1
102
RTVSPost2010Prop49
280
     0
102
RTVSPost2010PropOp49
 70
     1
102
RTVSPost2010Prop50
 90
       50
102
RTVSPost2010PropOp50
 70
     1
102
RTVSPost2010Prop51ColorIndex
 90
      256
102
RTVSPost2010Prop51ColorRGB
 90
-16777216
102
RTVSPost2010PropOp51
 70
     0
102
RTVSPost2010Prop52
140
1.0
102
RTVSPost2010PropOp52
 70
     0
102
RTVSPost2010Prop53
 90
        2
102
RTVSPost2010PropOp53
 70
     1
102
RTVSPost2010Prop54
  1
strokes_ogs.tif
102
RTVSPost2010PropOp54
 70
     1
102
RTVSPost2010Prop55
280
     0
102
RTVSPost2010PropOp55
 70
     1
102
RTVSPost2010Prop56
140
1.0
102
RTVSPost2010PropOp56
 70
     1
102
RTVSPost2010Prop57
140
1.0
102
RTVSPost2010PropOp57
 70
     1
102
RTVSPropertyOp0
 70
     1
102
RTVSPropertyOp1
 70
     1
102
RTVSPropertyOp2
 70
     1
102
RTVSPropertyOp3
 70
     1
102
RTVSPropertyOp4
 70
     1
102
RTVSPropertyOp5
 70
     1
102
RTVSPropertyOp6
 70
     1
102
RTVSPropertyOp7
 70
     1
102
RTVSPropertyOp8
 70
     1
102
RTVSPropertyOp9
 70
     1
102
RTVSPropertyOp10
 70
     1
102
RTVSPropertyOp11
 70
     1
102
RTVSPropertyOp12
 70
     1
102
RTVSPropertyOp13
 70
     1
102
RTVSPropertyOp14
 70
     1
102
RTVSPropertyOp15
 70
     1
102
RTVSPropertyOp16
 70
     1
102
RTVSPropertyOp17
 70
     1
102
RTVSPropertyOp18
 70
     1
102
RTVSPropertyOp19
 70
     1
102
RTVSPropertyOp20
 70
     1
102
RTVSPropertyOp21
 70
     1
102
RTVSPropertyOp22
 70
     1
102
RTVSPropertyOp23
 70
     1
102
RTVSPropertyOp24
 70
     1
102
RTVSPropertyOp25
 70
     1
102
RTVSPropertyOp26
 70
     1
102
RTVSPropertyOp27
 70
     1
102
RTVSPropertyOp28
 70
     1
102
RTVSPropertyOp29
 70
     1
102
RTVSPropertyOp30
 70
     1
102
RTVSPropertyOp31
 70
     1
102
RTVSPropertyOp32
 70
     1
102
RTVSPropertyOp33
 70
     1
102
RTVSPropertyOp34
 70
     1
102
RTVSPropertyOp35
 70
     1
102
RTVSPropertyOp36
 70
     1
102
RTVSPropertyOp37
 70
     1
102
RTVSPropertyOp38
 70
     1
102
RTVSPropertyOp39
 70
     1
102
RTVSPropertyOp40
 70
     1
102
RTVSPropertyOp41
 70
     1
102
RTVSPropertyOp42
 70
     1
102
RTVSPropertyOp43
 70
     1
102
RTVSPropertyOp44
 70
     1
102
RTVSPropertyOp45
 70
     1
102
RTVSPropertyOp46
 70
     1
102
RTVSPropertyOp47
 70
     1
102
RTVSPropertyOp48
 70
     1
102
RTVSPropertyOp49
 70
     1
102
RTVSPropertyOp50
 70
     1
102
RTVSPropertyOp51
 70
     0
102
RTVSPropertyOp52
 70
     0
102
RTVSPropertyOp53
 70
     1
102
RTVSPropertyOp54
 70
     1
102
RTVSPropertyOp55
 70
     1
102
RTVSPropertyOp56
 70
     1
102
RTVSPropertyOp57
 70
     1
102
RTVSPropertyOp58
 70
     1
102
RTVSPropertyOp59
 70
     1
102
RTVSPropertyOp60
 70
     1
102
RTVSPropertyOp61
 70
     1
102
RTVSPropertyOp62
 70
     1
  0
XRECORD
  5
2B80E
102
{ACAD_REACTORS
330
2B80D
102
}
330
2B80D
100
AcDbXrecord
280
     1
102
RTVSPost2010Prop28
280
     0
102
RTVSPost2010PropOp28
 70
     1
102
RTVSPost2010Prop29
280
     1
102
RTVSPost2010PropOp29
 70
     1
102
RTVSPost2010Prop30
280
     1
102
RTVSPost2010PropOp30
 70
     1
102
RTVSPost2010Prop31
280
     0
102
RTVSPost2010PropOp31
 70
     1
102
RTVSPost2010Prop32
280
     0
102
RTVSPost2010PropOp32
 70
     1
102
RTVSPost2010Prop33
280
     0
102
RTVSPost2010PropOp33
 70
     1
102
RTVSPost2010Prop34
280
     0
102
RTVSPost2010PropOp34
 70
     1
102
RTVSPost2010Prop35
280
     0
102
RTVSPost2010PropOp35
 70
     1
102
RTVSPost2010Prop36
280
     0
102
RTVSPost2010PropOp36
 70
     1
102
RTVSPost2010Prop37
 90
       50
102
RTVSPost2010PropOp37
 70
     1
102
RTVSPost2010Prop38
140
0.0
102
RTVSPost2010PropOp38
 70
     1
102
RTVSPost2010Prop39
140
1.0
102
RTVSPost2010PropOp39
 70
     1
102
RTVSPost2010Prop40
 90
        0
102
RTVSPost2010PropOp40
 70
     1
102
RTVSPost2010Prop41ColorIndex
 90
       18
102
RTVSPost2010Prop41ColorRGB
 90
        0
102
RTVSPost2010PropOp41
 70
     1
102
RTVSPost2010Prop42
 90
       50
102
RTVSPost2010PropOp42
 70
     1
102
RTVSPost2010Prop43
 90
        3
102
RTVSPost2010PropOp43
 70
     1
102
RTVSPost2010Prop44ColorIndex
 90
        5
102
RTVSPost2010Prop44ColorRGB
 90
      255
102
RTVSPost2010PropOp44
 70
     1
102
RTVSPost2010Prop45
280
     0
102
RTVSPost2010PropOp45
 70
     1
102
RTVSPost2010Prop46
 90
       50
102
RTVSPost2010PropOp46
 70
     1
102
RTVSPost2010Prop47
 90
       50
102
RTVSPost2010PropOp47
 70
     1
102
RTVSPost2010Prop48
 90
       50
102
RTVSPost2010PropOp48
 70
     1
102
RTVSPost2010Prop49
280
     0
102
RTVSPost2010PropOp49
 70
     1
102
RTVSPost2010Prop50
 90
       50
102
RTVSPost2010PropOp50
 70
     1
102
RTVSPost2010Prop51ColorIndex
 90
      256
102
RTVSPost2010Prop51ColorRGB
 90
-16777216
102
RTVSPost2010PropOp51
 70
     0
102
RTVSPost2010Prop52
140
1.0
102
RTVSPost2010PropOp52
 70
     0
102
RTVSPost2010Prop53
 90
        2
102
RTVSPost2010PropOp53
 70
     1
102
RTVSPost2010Prop54
  1
strokes_ogs.tif
102
RTVSPost2010PropOp54
 70
     1
102
RTVSPost2010Prop55
280
     0
102
RTVSPost2010PropOp55
 70
     1
102
RTVSPost2010Prop56
140
1.0
102
RTVSPost2010PropOp56
 70
     1
102
RTVSPost2010Prop57
140
1.0
102
RTVSPost2010PropOp57
 70
     1
102
RTVSPropertyOp0
 70
     1
102
RTVSPropertyOp1
 70
     1
102
RTVSPropertyOp2
 70
     1
102
RTVSPropertyOp3
 70
     1
102
RTVSPropertyOp4
 70
     1
102
RTVSPropertyOp5
 70
     1
102
RTVSPropertyOp6
 70
     1
102
RTVSPropertyOp7
 70
     1
102
RTVSPropertyOp8
 70
     1
102
RTVSPropertyOp9
 70
     1
102
RTVSPropertyOp10
 70
     1
102
RTVSPropertyOp11
 70
     1
102
RTVSPropertyOp12
 70
     1
102
RTVSPropertyOp13
 70
     1
102
RTVSPropertyOp14
 70
     1
102
RTVSPropertyOp15
 70
     1
102
RTVSPropertyOp16
 70
     1
102
RTVSPropertyOp17
 70
     1
102
RTVSPropertyOp18
 70
     1
102
RTVSPropertyOp19
 70
     1
102
RTVSPropertyOp20
 70
     1
102
RTVSPropertyOp21
 70
     1
102
RTVSPropertyOp22
 70
     1
102
RTVSPropertyOp23
 70
     1
102
RTVSPropertyOp24
 70
     1
102
RTVSPropertyOp25
 70
     1
102
RTVSPropertyOp26
 70
     1
102
RTVSPropertyOp27
 70
     1
102
RTVSPropertyOp28
 70
     1
102
RTVSPropertyOp29
 70
     1
102
RTVSPropertyOp30
 70
     1
102
RTVSPropertyOp31
 70
     1
102
RTVSPropertyOp32
 70
     1
102
RTVSPropertyOp33
 70
     1
102
RTVSPropertyOp34
 70
     1
102
RTVSPropertyOp35
 70
     1
102
RTVSPropertyOp36
 70
     1
102
RTVSPropertyOp37
 70
     1
102
RTVSPropertyOp38
 70
     1
102
RTVSPropertyOp39
 70
     1
102
RTVSPropertyOp40
 70
     1
102
RTVSPropertyOp41
 70
     1
102
RTVSPropertyOp42
 70
     1
102
RTVSPropertyOp43
 70
     1
102
RTVSPropertyOp44
 70
     1
102
RTVSPropertyOp45
 70
     1
102
RTVSPropertyOp46
 70
     1
102
RTVSPropertyOp47
 70
     1
102
RTVSPropertyOp48
 70
     1
102
RTVSPropertyOp49
 70
     1
102
RTVSPropertyOp50
 70
     1
102
RTVSPropertyOp51
 70
     0
102
RTVSPropertyOp52
 70
     0
102
RTVSPropertyOp53
 70
     1
102
RTVSPropertyOp54
 70
     1
102
RTVSPropertyOp55
 70
     1
102
RTVSPropertyOp56
 70
     1
102
RTVSPropertyOp57
 70
     1
102
RTVSPropertyOp58
 70
     1
102
RTVSPropertyOp59
 70
     1
102
RTVSPropertyOp60
 70
     1
102
RTVSPropertyOp61
 70
     1
102
RTVSPropertyOp62
 70
     1
  0
XRECORD
  5
2B808
102
{ACAD_REACTORS
330
2B807
102
}
330
2B807
100
AcDbXrecord
280
     1
102
RTVSPost2010Prop28
280
     0
102
RTVSPost2010PropOp28
 70
     1
102
RTVSPost2010Prop29
280
     1
102
RTVSPost2010PropOp29
 70
     1
102
RTVSPost2010Prop30
280
     1
102
RTVSPost2010PropOp30
 70
     1
102
RTVSPost2010Prop31
280
     0
102
RTVSPost2010PropOp31
 70
     1
102
RTVSPost2010Prop32
280
     0
102
RTVSPost2010PropOp32
 70
     1
102
RTVSPost2010Prop33
280
     0
102
RTVSPost2010PropOp33
 70
     1
102
RTVSPost2010Prop34
280
     0
102
RTVSPost2010PropOp34
 70
     1
102
RTVSPost2010Prop35
280
     0
102
RTVSPost2010PropOp35
 70
     1
102
RTVSPost2010Prop36
280
     0
102
RTVSPost2010PropOp36
 70
     1
102
RTVSPost2010Prop37
 90
       50
102
RTVSPost2010PropOp37
 70
     1
102
RTVSPost2010Prop38
140
0.0
102
RTVSPost2010PropOp38
 70
     1
102
RTVSPost2010Prop39
140
1.0
102
RTVSPost2010PropOp39
 70
     1
102
RTVSPost2010Prop40
 90
        0
102
RTVSPost2010PropOp40
 70
     1
102
RTVSPost2010Prop41ColorIndex
 90
       18
102
RTVSPost2010Prop41ColorRGB
 90
        0
102
RTVSPost2010PropOp41
 70
     1
102
RTVSPost2010Prop42
 90
       50
102
RTVSPost2010PropOp42
 70
     1
102
RTVSPost2010Prop43
 90
        3
102
RTVSPost2010PropOp43
 70
     1
102
RTVSPost2010Prop44ColorIndex
 90
        5
102
RTVSPost2010Prop44ColorRGB
 90
      255
102
RTVSPost2010PropOp44
 70
     1
102
RTVSPost2010Prop45
280
     0
102
RTVSPost2010PropOp45
 70
     1
102
RTVSPost2010Prop46
 90
       50
102
RTVSPost2010PropOp46
 70
     1
102
RTVSPost2010Prop47
 90
       50
102
RTVSPost2010PropOp47
 70
     1
102
RTVSPost2010Prop48
 90
       50
102
RTVSPost2010PropOp48
 70
     1
102
RTVSPost2010Prop49
280
     0
102
RTVSPost2010PropOp49
 70
     1
102
RTVSPost2010Prop50
 90
       50
102
RTVSPost2010PropOp50
 70
     1
102
RTVSPost2010Prop51ColorIndex
 90
      256
102
RTVSPost2010Prop51ColorRGB
 90
-16777216
102
RTVSPost2010PropOp51
 70
     0
102
RTVSPost2010Prop52
140
1.0
102
RTVSPost2010PropOp52
 70
     0
102
RTVSPost2010Prop53
 90
        2
102
RTVSPost2010PropOp53
 70
     1
102
RTVSPost2010Prop54
  1
strokes_ogs.tif
102
RTVSPost2010PropOp54
 70
     1
102
RTVSPost2010Prop55
280
     0
102
RTVSPost2010PropOp55
 70
     1
102
RTVSPost2010Prop56
140
1.0
102
RTVSPost2010PropOp56
 70
     1
102
RTVSPost2010Prop57
140
1.0
102
RTVSPost2010PropOp57
 70
     1
102
RTVSPropertyOp0
 70
     1
102
RTVSPropertyOp1
 70
     1
102
RTVSPropertyOp2
 70
     1
102
RTVSPropertyOp3
 70
     1
102
RTVSPropertyOp4
 70
     1
102
RTVSPropertyOp5
 70
     1
102
RTVSPropertyOp6
 70
     1
102
RTVSPropertyOp7
 70
     1
102
RTVSPropertyOp8
 70
     1
102
RTVSPropertyOp9
 70
     1
102
RTVSPropertyOp10
 70
     1
102
RTVSPropertyOp11
 70
     1
102
RTVSPropertyOp12
 70
     1
102
RTVSPropertyOp13
 70
     1
102
RTVSPropertyOp14
 70
     1
102
RTVSPropertyOp15
 70
     1
102
RTVSPropertyOp16
 70
     1
102
RTVSPropertyOp17
 70
     1
102
RTVSPropertyOp18
 70
     1
102
RTVSPropertyOp19
 70
     1
102
RTVSPropertyOp20
 70
     1
102
RTVSPropertyOp21
 70
     1
102
RTVSPropertyOp22
 70
     1
102
RTVSPropertyOp23
 70
     1
102
RTVSPropertyOp24
 70
     1
102
RTVSPropertyOp25
 70
     1
102
RTVSPropertyOp26
 70
     1
102
RTVSPropertyOp27
 70
     1
102
RTVSPropertyOp28
 70
     1
102
RTVSPropertyOp29
 70
     1
102
RTVSPropertyOp30
 70
     1
102
RTVSPropertyOp31
 70
     1
102
RTVSPropertyOp32
 70
     1
102
RTVSPropertyOp33
 70
     1
102
RTVSPropertyOp34
 70
     1
102
RTVSPropertyOp35
 70
     1
102
RTVSPropertyOp36
 70
     1
102
RTVSPropertyOp37
 70
     1
102
RTVSPropertyOp38
 70
     1
102
RTVSPropertyOp39
 70
     1
102
RTVSPropertyOp40
 70
     1
102
RTVSPropertyOp41
 70
     1
102
RTVSPropertyOp42
 70
     1
102
RTVSPropertyOp43
 70
     1
102
RTVSPropertyOp44
 70
     1
102
RTVSPropertyOp45
 70
     1
102
RTVSPropertyOp46
 70
     1
102
RTVSPropertyOp47
 70
     1
102
RTVSPropertyOp48
 70
     1
102
RTVSPropertyOp49
 70
     1
102
RTVSPropertyOp50
 70
     1
102
RTVSPropertyOp51
 70
     0
102
RTVSPropertyOp52
 70
     0
102
RTVSPropertyOp53
 70
     1
102
RTVSPropertyOp54
 70
     1
102
RTVSPropertyOp55
 70
     1
102
RTVSPropertyOp56
 70
     1
102
RTVSPropertyOp57
 70
     1
102
RTVSPropertyOp58
 70
     1
102
RTVSPropertyOp59
 70
     1
102
RTVSPropertyOp60
 70
     1
102
RTVSPropertyOp61
 70
     1
102
RTVSPropertyOp62
 70
     1
  0
XRECORD
  5
2B80A
102
{ACAD_REACTORS
330
2B809
102
}
330
2B809
100
AcDbXrecord
280
     1
102
RTVSPost2010Prop28
280
     0
102
RTVSPost2010PropOp28
 70
     1
102
RTVSPost2010Prop29
280
     1
102
RTVSPost2010PropOp29
 70
     1
102
RTVSPost2010Prop30
280
     1
102
RTVSPost2010PropOp30
 70
     1
102
RTVSPost2010Prop31
280
     0
102
RTVSPost2010PropOp31
 70
     1
102
RTVSPost2010Prop32
280
     0
102
RTVSPost2010PropOp32
 70
     1
102
RTVSPost2010Prop33
280
     0
102
RTVSPost2010PropOp33
 70
     1
102
RTVSPost2010Prop34
280
     0
102
RTVSPost2010PropOp34
 70
     1
102
RTVSPost2010Prop35
280
     0
102
RTVSPost2010PropOp35
 70
     1
102
RTVSPost2010Prop36
280
     0
102
RTVSPost2010PropOp36
 70
     1
102
RTVSPost2010Prop37
 90
       50
102
RTVSPost2010PropOp37
 70
     1
102
RTVSPost2010Prop38
140
0.0
102
RTVSPost2010PropOp38
 70
     1
102
RTVSPost2010Prop39
140
1.0
102
RTVSPost2010PropOp39
 70
     1
102
RTVSPost2010Prop40
 90
        0
102
RTVSPost2010PropOp40
 70
     1
102
RTVSPost2010Prop41ColorIndex
 90
       18
102
RTVSPost2010Prop41ColorRGB
 90
        0
102
RTVSPost2010PropOp41
 70
     1
102
RTVSPost2010Prop42
 90
       50
102
RTVSPost2010PropOp42
 70
     1
102
RTVSPost2010Prop43
 90
        3
102
RTVSPost2010PropOp43
 70
     1
102
RTVSPost2010Prop44ColorIndex
 90
        5
102
RTVSPost2010Prop44ColorRGB
 90
      255
102
RTVSPost2010PropOp44
 70
     1
102
RTVSPost2010Prop45
280
     0
102
RTVSPost2010PropOp45
 70
     1
102
RTVSPost2010Prop46
 90
       50
102
RTVSPost2010PropOp46
 70
     1
102
RTVSPost2010Prop47
 90
       50
102
RTVSPost2010PropOp47
 70
     1
102
RTVSPost2010Prop48
 90
       50
102
RTVSPost2010PropOp48
 70
     1
102
RTVSPost2010Prop49
280
     0
102
RTVSPost2010PropOp49
 70
     1
102
RTVSPost2010Prop50
 90
       50
102
RTVSPost2010PropOp50
 70
     1
102
RTVSPost2010Prop51ColorIndex
 90
      256
102
RTVSPost2010Prop51ColorRGB
 90
-16777216
102
RTVSPost2010PropOp51
 70
     0
102
RTVSPost2010Prop52
140
1.0
102
RTVSPost2010PropOp52
 70
     0
102
RTVSPost2010Prop53
 90
        2
102
RTVSPost2010PropOp53
 70
     1
102
RTVSPost2010Prop54
  1
strokes_ogs.tif
102
RTVSPost2010PropOp54
 70
     1
102
RTVSPost2010Prop55
280
     0
102
RTVSPost2010PropOp55
 70
     1
102
RTVSPost2010Prop56
140
1.0
102
RTVSPost2010PropOp56
 70
     1
102
RTVSPost2010Prop57
140
1.0
102
RTVSPost2010PropOp57
 70
     1
102
RTVSPropertyOp0
 70
     1
102
RTVSPropertyOp1
 70
     1
102
RTVSPropertyOp2
 70
     1
102
RTVSPropertyOp3
 70
     1
102
RTVSPropertyOp4
 70
     1
102
RTVSPropertyOp5
 70
     1
102
RTVSPropertyOp6
 70
     1
102
RTVSPropertyOp7
 70
     1
102
RTVSPropertyOp8
 70
     1
102
RTVSPropertyOp9
 70
     1
102
RTVSPropertyOp10
 70
     1
102
RTVSPropertyOp11
 70
     1
102
RTVSPropertyOp12
 70
     1
102
RTVSPropertyOp13
 70
     1
102
RTVSPropertyOp14
 70
     1
102
RTVSPropertyOp15
 70
     1
102
RTVSPropertyOp16
 70
     1
102
RTVSPropertyOp17
 70
     1
102
RTVSPropertyOp18
 70
     1
102
RTVSPropertyOp19
 70
     1
102
RTVSPropertyOp20
 70
     1
102
RTVSPropertyOp21
 70
     1
102
RTVSPropertyOp22
 70
     1
102
RTVSPropertyOp23
 70
     1
102
RTVSPropertyOp24
 70
     1
102
RTVSPropertyOp25
 70
     1
102
RTVSPropertyOp26
 70
     1
102
RTVSPropertyOp27
 70
     1
102
RTVSPropertyOp28
 70
     1
102
RTVSPropertyOp29
 70
     1
102
RTVSPropertyOp30
 70
     1
102
RTVSPropertyOp31
 70
     1
102
RTVSPropertyOp32
 70
     1
102
RTVSPropertyOp33
 70
     1
102
RTVSPropertyOp34
 70
     1
102
RTVSPropertyOp35
 70
     1
102
RTVSPropertyOp36
 70
     1
102
RTVSPropertyOp37
 70
     1
102
RTVSPropertyOp38
 70
     1
102
RTVSPropertyOp39
 70
     1
102
RTVSPropertyOp40
 70
     1
102
RTVSPropertyOp41
 70
     1
102
RTVSPropertyOp42
 70
     1
102
RTVSPropertyOp43
 70
     1
102
RTVSPropertyOp44
 70
     1
102
RTVSPropertyOp45
 70
     1
102
RTVSPropertyOp46
 70
     1
102
RTVSPropertyOp47
 70
     1
102
RTVSPropertyOp48
 70
     1
102
RTVSPropertyOp49
 70
     1
102
RTVSPropertyOp50
 70
     1
102
RTVSPropertyOp51
 70
     0
102
RTVSPropertyOp52
 70
     0
102
RTVSPropertyOp53
 70
     1
102
RTVSPropertyOp54
 70
     1
102
RTVSPropertyOp55
 70
     1
102
RTVSPropertyOp56
 70
     1
102
RTVSPropertyOp57
 70
     1
102
RTVSPropertyOp58
 70
     1
102
RTVSPropertyOp59
 70
     1
102
RTVSPropertyOp60
 70
     1
102
RTVSPropertyOp61
 70
     1
102
RTVSPropertyOp62
 70
     1
  0
XRECORD
  5
2B7FA
102
{ACAD_REACTORS
330
2B7F9
102
}
330
2B7F9
100
AcDbXrecord
280
     1
102
RTVSPost2010Prop28
280
     0
102
RTVSPost2010PropOp28
 70
     1
102
RTVSPost2010Prop29
280
     1
102
RTVSPost2010PropOp29
 70
     1
102
RTVSPost2010Prop30
280
     1
102
RTVSPost2010PropOp30
 70
     1
102
RTVSPost2010Prop31
280
     0
102
RTVSPost2010PropOp31
 70
     1
102
RTVSPost2010Prop32
280
     0
102
RTVSPost2010PropOp32
 70
     1
102
RTVSPost2010Prop33
280
     0
102
RTVSPost2010PropOp33
 70
     1
102
RTVSPost2010Prop34
280
     0
102
RTVSPost2010PropOp34
 70
     1
102
RTVSPost2010Prop35
280
     0
102
RTVSPost2010PropOp35
 70
     1
102
RTVSPost2010Prop36
280
     0
102
RTVSPost2010PropOp36
 70
     1
102
RTVSPost2010Prop37
 90
       50
102
RTVSPost2010PropOp37
 70
     1
102
RTVSPost2010Prop38
140
0.0
102
RTVSPost2010PropOp38
 70
     1
102
RTVSPost2010Prop39
140
1.0
102
RTVSPost2010PropOp39
 70
     1
102
RTVSPost2010Prop40
 90
        0
102
RTVSPost2010PropOp40
 70
     1
102
RTVSPost2010Prop41ColorIndex
 90
       18
102
RTVSPost2010Prop41ColorRGB
 90
        0
102
RTVSPost2010PropOp41
 70
     1
102
RTVSPost2010Prop42
 90
       50
102
RTVSPost2010PropOp42
 70
     1
102
RTVSPost2010Prop43
 90
        3
102
RTVSPost2010PropOp43
 70
     1
102
RTVSPost2010Prop44ColorIndex
 90
        5
102
RTVSPost2010Prop44ColorRGB
 90
      255
102
RTVSPost2010PropOp44
 70
     1
102
RTVSPost2010Prop45
280
     0
102
RTVSPost2010PropOp45
 70
     1
102
RTVSPost2010Prop46
 90
       50
102
RTVSPost2010PropOp46
 70
     1
102
RTVSPost2010Prop47
 90
       50
102
RTVSPost2010PropOp47
 70
     1
102
RTVSPost2010Prop48
 90
       50
102
RTVSPost2010PropOp48
 70
     1
102
RTVSPost2010Prop49
280
     0
102
RTVSPost2010PropOp49
 70
     1
102
RTVSPost2010Prop50
 90
       50
102
RTVSPost2010PropOp50
 70
     1
102
RTVSPost2010Prop51ColorIndex
 90
      256
102
RTVSPost2010Prop51ColorRGB
 90
-16777216
102
RTVSPost2010PropOp51
 70
     0
102
RTVSPost2010Prop52
140
1.0
102
RTVSPost2010PropOp52
 70
     0
102
RTVSPost2010Prop53
 90
        2
102
RTVSPost2010PropOp53
 70
     1
102
RTVSPost2010Prop54
  1
strokes_ogs.tif
102
RTVSPost2010PropOp54
 70
     1
102
RTVSPost2010Prop55
280
     0
102
RTVSPost2010PropOp55
 70
     1
102
RTVSPost2010Prop56
140
1.0
102
RTVSPost2010PropOp56
 70
     1
102
RTVSPost2010Prop57
140
1.0
102
RTVSPost2010PropOp57
 70
     1
102
RTVSPropertyOp0
 70
     1
102
RTVSPropertyOp1
 70
     1
102
RTVSPropertyOp2
 70
     1
102
RTVSPropertyOp3
 70
     1
102
RTVSPropertyOp4
 70
     1
102
RTVSPropertyOp5
 70
     1
102
RTVSPropertyOp6
 70
     1
102
RTVSPropertyOp7
 70
     1
102
RTVSPropertyOp8
 70
     1
102
RTVSPropertyOp9
 70
     1
102
RTVSPropertyOp10
 70
     1
102
RTVSPropertyOp11
 70
     1
102
RTVSPropertyOp12
 70
     1
102
RTVSPropertyOp13
 70
     1
102
RTVSPropertyOp14
 70
     1
102
RTVSPropertyOp15
 70
     1
102
RTVSPropertyOp16
 70
     1
102
RTVSPropertyOp17
 70
     1
102
RTVSPropertyOp18
 70
     1
102
RTVSPropertyOp19
 70
     1
102
RTVSPropertyOp20
 70
     1
102
RTVSPropertyOp21
 70
     1
102
RTVSPropertyOp22
 70
     1
102
RTVSPropertyOp23
 70
     1
102
RTVSPropertyOp24
 70
     1
102
RTVSPropertyOp25
 70
     1
102
RTVSPropertyOp26
 70
     1
102
RTVSPropertyOp27
 70
     1
102
RTVSPropertyOp28
 70
     1
102
RTVSPropertyOp29
 70
     1
102
RTVSPropertyOp30
 70
     1
102
RTVSPropertyOp31
 70
     1
102
RTVSPropertyOp32
 70
     1
102
RTVSPropertyOp33
 70
     1
102
RTVSPropertyOp34
 70
     1
102
RTVSPropertyOp35
 70
     1
102
RTVSPropertyOp36
 70
     1
102
RTVSPropertyOp37
 70
     1
102
RTVSPropertyOp38
 70
     1
102
RTVSPropertyOp39
 70
     1
102
RTVSPropertyOp40
 70
     1
102
RTVSPropertyOp41
 70
     1
102
RTVSPropertyOp42
 70
     1
102
RTVSPropertyOp43
 70
     1
102
RTVSPropertyOp44
 70
     1
102
RTVSPropertyOp45
 70
     1
102
RTVSPropertyOp46
 70
     1
102
RTVSPropertyOp47
 70
     1
102
RTVSPropertyOp48
 70
     1
102
RTVSPropertyOp49
 70
     1
102
RTVSPropertyOp50
 70
     1
102
RTVSPropertyOp51
 70
     0
102
RTVSPropertyOp52
 70
     0
102
RTVSPropertyOp53
 70
     1
102
RTVSPropertyOp54
 70
     1
102
RTVSPropertyOp55
 70
     1
102
RTVSPropertyOp56
 70
     1
102
RTVSPropertyOp57
 70
     1
102
RTVSPropertyOp58
 70
     1
102
RTVSPropertyOp59
 70
     1
102
RTVSPropertyOp60
 70
     1
102
RTVSPropertyOp61
 70
     1
102
RTVSPropertyOp62
 70
     1
  0
XRECORD
  5
2B7EC
102
{ACAD_REACTORS
330
2B7EB
102
}
330
2B7EB
100
AcDbXrecord
280
     1
102
RTVSPost2010Prop28
280
     0
102
RTVSPost2010PropOp28
 70
     1
102
RTVSPost2010Prop29
280
     1
102
RTVSPost2010PropOp29
 70
     1
102
RTVSPost2010Prop30
280
     1
102
RTVSPost2010PropOp30
 70
     1
102
RTVSPost2010Prop31
280
     0
102
RTVSPost2010PropOp31
 70
     1
102
RTVSPost2010Prop32
280
     0
102
RTVSPost2010PropOp32
 70
     1
102
RTVSPost2010Prop33
280
     0
102
RTVSPost2010PropOp33
 70
     1
102
RTVSPost2010Prop34
280
     0
102
RTVSPost2010PropOp34
 70
     1
102
RTVSPost2010Prop35
280
     0
102
RTVSPost2010PropOp35
 70
     1
102
RTVSPost2010Prop36
280
     0
102
RTVSPost2010PropOp36
 70
     1
102
RTVSPost2010Prop37
 90
       50
102
RTVSPost2010PropOp37
 70
     1
102
RTVSPost2010Prop38
140
0.0
102
RTVSPost2010PropOp38
 70
     1
102
RTVSPost2010Prop39
140
1.0
102
RTVSPost2010PropOp39
 70
     1
102
RTVSPost2010Prop40
 90
        0
102
RTVSPost2010PropOp40
 70
     1
102
RTVSPost2010Prop41ColorIndex
 90
       18
102
RTVSPost2010Prop41ColorRGB
 90
        0
102
RTVSPost2010PropOp41
 70
     1
102
RTVSPost2010Prop42
 90
       50
102
RTVSPost2010PropOp42
 70
     1
102
RTVSPost2010Prop43
 90
        3
102
RTVSPost2010PropOp43
 70
     1
102
RTVSPost2010Prop44ColorIndex
 90
        5
102
RTVSPost2010Prop44ColorRGB
 90
      255
102
RTVSPost2010PropOp44
 70
     1
102
RTVSPost2010Prop45
280
     0
102
RTVSPost2010PropOp45
 70
     1
102
RTVSPost2010Prop46
 90
       50
102
RTVSPost2010PropOp46
 70
     1
102
RTVSPost2010Prop47
 90
       50
102
RTVSPost2010PropOp47
 70
     1
102
RTVSPost2010Prop48
 90
       50
102
RTVSPost2010PropOp48
 70
     1
102
RTVSPost2010Prop49
280
     0
102
RTVSPost2010PropOp49
 70
     1
102
RTVSPost2010Prop50
 90
       50
102
RTVSPost2010PropOp50
 70
     1
102
RTVSPost2010Prop51ColorIndex
 90
      256
102
RTVSPost2010Prop51ColorRGB
 90
-16777216
102
RTVSPost2010PropOp51
 70
     0
102
RTVSPost2010Prop52
140
1.0
102
RTVSPost2010PropOp52
 70
     0
102
RTVSPost2010Prop53
 90
        2
102
RTVSPost2010PropOp53
 70
     1
102
RTVSPost2010Prop54
  1
strokes_ogs.tif
102
RTVSPost2010PropOp54
 70
     1
102
RTVSPost2010Prop55
280
     0
102
RTVSPost2010PropOp55
 70
     1
102
RTVSPost2010Prop56
140
1.0
102
RTVSPost2010PropOp56
 70
     1
102
RTVSPost2010Prop57
140
1.0
102
RTVSPost2010PropOp57
 70
     1
102
RTVSPropertyOp0
 70
     1
102
RTVSPropertyOp1
 70
     1
102
RTVSPropertyOp2
 70
     1
102
RTVSPropertyOp3
 70
     1
102
RTVSPropertyOp4
 70
     1
102
RTVSPropertyOp5
 70
     1
102
RTVSPropertyOp6
 70
     1
102
RTVSPropertyOp7
 70
     1
102
RTVSPropertyOp8
 70
     1
102
RTVSPropertyOp9
 70
     1
102
RTVSPropertyOp10
 70
     1
102
RTVSPropertyOp11
 70
     1
102
RTVSPropertyOp12
 70
     1
102
RTVSPropertyOp13
 70
     1
102
RTVSPropertyOp14
 70
     1
102
RTVSPropertyOp15
 70
     1
102
RTVSPropertyOp16
 70
     1
102
RTVSPropertyOp17
 70
     1
102
RTVSPropertyOp18
 70
     1
102
RTVSPropertyOp19
 70
     1
102
RTVSPropertyOp20
 70
     1
102
RTVSPropertyOp21
 70
     1
102
RTVSPropertyOp22
 70
     1
102
RTVSPropertyOp23
 70
     1
102
RTVSPropertyOp24
 70
     1
102
RTVSPropertyOp25
 70
     1
102
RTVSPropertyOp26
 70
     1
102
RTVSPropertyOp27
 70
     1
102
RTVSPropertyOp28
 70
     1
102
RTVSPropertyOp29
 70
     1
102
RTVSPropertyOp30
 70
     1
102
RTVSPropertyOp31
 70
     1
102
RTVSPropertyOp32
 70
     1
102
RTVSPropertyOp33
 70
     1
102
RTVSPropertyOp34
 70
     1
102
RTVSPropertyOp35
 70
     1
102
RTVSPropertyOp36
 70
     1
102
RTVSPropertyOp37
 70
     1
102
RTVSPropertyOp38
 70
     1
102
RTVSPropertyOp39
 70
     1
102
RTVSPropertyOp40
 70
     1
102
RTVSPropertyOp41
 70
     1
102
RTVSPropertyOp42
 70
     1
102
RTVSPropertyOp43
 70
     1
102
RTVSPropertyOp44
 70
     1
102
RTVSPropertyOp45
 70
     1
102
RTVSPropertyOp46
 70
     1
102
RTVSPropertyOp47
 70
     1
102
RTVSPropertyOp48
 70
     1
102
RTVSPropertyOp49
 70
     1
102
RTVSPropertyOp50
 70
     1
102
RTVSPropertyOp51
 70
     0
102
RTVSPropertyOp52
 70
     0
102
RTVSPropertyOp53
 70
     1
102
RTVSPropertyOp54
 70
     1
102
RTVSPropertyOp55
 70
     1
102
RTVSPropertyOp56
 70
     1
102
RTVSPropertyOp57
 70
     1
102
RTVSPropertyOp58
 70
     1
102
RTVSPropertyOp59
 70
     1
102
RTVSPropertyOp60
 70
     1
102
RTVSPropertyOp61
 70
     1
102
RTVSPropertyOp62
 70
     1
  0
XRECORD
  5
2B80C
102
{ACAD_REACTORS
330
2B80B
102
}
330
2B80B
100
AcDbXrecord
280
     1
102
RTVSPost2010Prop28
280
     0
102
RTVSPost2010PropOp28
 70
     1
102
RTVSPost2010Prop29
280
     1
102
RTVSPost2010PropOp29
 70
     1
102
RTVSPost2010Prop30
280
     1
102
RTVSPost2010PropOp30
 70
     1
102
RTVSPost2010Prop31
280
     0
102
RTVSPost2010PropOp31
 70
     1
102
RTVSPost2010Prop32
280
     0
102
RTVSPost2010PropOp32
 70
     1
102
RTVSPost2010Prop33
280
     0
102
RTVSPost2010PropOp33
 70
     1
102
RTVSPost2010Prop34
280
     0
102
RTVSPost2010PropOp34
 70
     1
102
RTVSPost2010Prop35
280
     0
102
RTVSPost2010PropOp35
 70
     1
102
RTVSPost2010Prop36
280
     0
102
RTVSPost2010PropOp36
 70
     1
102
RTVSPost2010Prop37
 90
       50
102
RTVSPost2010PropOp37
 70
     1
102
RTVSPost2010Prop38
140
0.0
102
RTVSPost2010PropOp38
 70
     1
102
RTVSPost2010Prop39
140
1.0
102
RTVSPost2010PropOp39
 70
     1
102
RTVSPost2010Prop40
 90
        0
102
RTVSPost2010PropOp40
 70
     1
102
RTVSPost2010Prop41ColorIndex
 90
       18
102
RTVSPost2010Prop41ColorRGB
 90
        0
102
RTVSPost2010PropOp41
 70
     1
102
RTVSPost2010Prop42
 90
       50
102
RTVSPost2010PropOp42
 70
     1
102
RTVSPost2010Prop43
 90
        3
102
RTVSPost2010PropOp43
 70
     1
102
RTVSPost2010Prop44ColorIndex
 90
        5
102
RTVSPost2010Prop44ColorRGB
 90
      255
102
RTVSPost2010PropOp44
 70
     1
102
RTVSPost2010Prop45
280
     0
102
RTVSPost2010PropOp45
 70
     1
102
RTVSPost2010Prop46
 90
       50
102
RTVSPost2010PropOp46
 70
     1
102
RTVSPost2010Prop47
 90
       50
102
RTVSPost2010PropOp47
 70
     1
102
RTVSPost2010Prop48
 90
       50
102
RTVSPost2010PropOp48
 70
     1
102
RTVSPost2010Prop49
280
     0
102
RTVSPost2010PropOp49
 70
     1
102
RTVSPost2010Prop50
 90
       50
102
RTVSPost2010PropOp50
 70
     1
102
RTVSPost2010Prop51ColorIndex
 90
      256
102
RTVSPost2010Prop51ColorRGB
 90
-16777216
102
RTVSPost2010PropOp51
 70
     0
102
RTVSPost2010Prop52
140
1.0
102
RTVSPost2010PropOp52
 70
     0
102
RTVSPost2010Prop53
 90
        2
102
RTVSPost2010PropOp53
 70
     1
102
RTVSPost2010Prop54
  1
strokes_ogs.tif
102
RTVSPost2010PropOp54
 70
     1
102
RTVSPost2010Prop55
280
     0
102
RTVSPost2010PropOp55
 70
     1
102
RTVSPost2010Prop56
140
1.0
102
RTVSPost2010PropOp56
 70
     1
102
RTVSPost2010Prop57
140
1.0
102
RTVSPost2010PropOp57
 70
     1
102
RTVSPropertyOp0
 70
     1
102
RTVSPropertyOp1
 70
     1
102
RTVSPropertyOp2
 70
     1
102
RTVSPropertyOp3
 70
     1
102
RTVSPropertyOp4
 70
     1
102
RTVSPropertyOp5
 70
     1
102
RTVSPropertyOp6
 70
     1
102
RTVSPropertyOp7
 70
     1
102
RTVSPropertyOp8
 70
     1
102
RTVSPropertyOp9
 70
     1
102
RTVSPropertyOp10
 70
     1
102
RTVSPropertyOp11
 70
     1
102
RTVSPropertyOp12
 70
     1
102
RTVSPropertyOp13
 70
     1
102
RTVSPropertyOp14
 70
     1
102
RTVSPropertyOp15
 70
     1
102
RTVSPropertyOp16
 70
     1
102
RTVSPropertyOp17
 70
     1
102
RTVSPropertyOp18
 70
     1
102
RTVSPropertyOp19
 70
     1
102
RTVSPropertyOp20
 70
     1
102
RTVSPropertyOp21
 70
     1
102
RTVSPropertyOp22
 70
     1
102
RTVSPropertyOp23
 70
     1
102
RTVSPropertyOp24
 70
     1
102
RTVSPropertyOp25
 70
     1
102
RTVSPropertyOp26
 70
     1
102
RTVSPropertyOp27
 70
     1
102
RTVSPropertyOp28
 70
     1
102
RTVSPropertyOp29
 70
     1
102
RTVSPropertyOp30
 70
     1
102
RTVSPropertyOp31
 70
     1
102
RTVSPropertyOp32
 70
     1
102
RTVSPropertyOp33
 70
     1
102
RTVSPropertyOp34
 70
     1
102
RTVSPropertyOp35
 70
     1
102
RTVSPropertyOp36
 70
     1
102
RTVSPropertyOp37
 70
     1
102
RTVSPropertyOp38
 70
     1
102
RTVSPropertyOp39
 70
     1
102
RTVSPropertyOp40
 70
     1
102
RTVSPropertyOp41
 70
     1
102
RTVSPropertyOp42
 70
     1
102
RTVSPropertyOp43
 70
     1
102
RTVSPropertyOp44
 70
     1
102
RTVSPropertyOp45
 70
     1
102
RTVSPropertyOp46
 70
     1
102
RTVSPropertyOp47
 70
     1
102
RTVSPropertyOp48
 70
     1
102
RTVSPropertyOp49
 70
     1
102
RTVSPropertyOp50
 70
     1
102
RTVSPropertyOp51
 70
     0
102
RTVSPropertyOp52
 70
     0
102
RTVSPropertyOp53
 70
     1
102
RTVSPropertyOp54
 70
     1
102
RTVSPropertyOp55
 70
     1
102
RTVSPropertyOp56
 70
     1
102
RTVSPropertyOp57
 70
     1
102
RTVSPropertyOp58
 70
     1
102
RTVSPropertyOp59
 70
     1
102
RTVSPropertyOp60
 70
     1
102
RTVSPropertyOp61
 70
     1
102
RTVSPropertyOp62
 70
     1
  0
ENDSEC
  0
EOF
