  0
SECTION
  2
HEADER
  9
$ACADVER
  1
AC1015
  9
$ACADMAINTVER
 70
    20
  9
$DWGCODEPAGE
  3
ANSI_932
  9
$INSBASE
 10
0.0
 20
0.0
 30
0.0
  9
$EXTMIN
 10
261.9757426446283
 20
-2565.73068231898
 30
0.0
  9
$EXTMAX
 10
1190.733748225512
 20
-2175.691602833293
 30
137.5
  9
$LIMMIN
 10
0.0
 20
0.0
  9
$LIMMAX
 10
420.0
 20
297.0
  9
$ORTHOMODE
 70
     1
  9
$REGENMODE
 70
     1
  9
$FILLMODE
 70
     1
  9
$QTEXTMODE
 70
     0
  9
$MIRRTEXT
 70
     0
  9
$LTSCALE
 40
20.0
  9
$ATTMODE
 70
     2
  9
$TEXTSIZE
 40
10.0
  9
$TRACEWID
 40
1.0
  9
$TEXTSTYLE
  7
\U+FF7D\U+FF80\U+FF72\U+FF993
  9
$CLAYER
  8
破線
  9
$CELTYPE
  6
BYLAYER
  9
$CECOLOR
 62
   256
  9
$CELTSCALE
 40
1.0
  9
$DISPSILH
 70
     0
  9
$DIMSCALE
 40
1.5
  9
$DIMASZ
 40
2.5
  9
$DIMEXO
 40
0.8
  9
$DIMDLI
 40
10.0
  9
$DIMRND
 40
0.0
  9
$DIMDLE
 40
0.0
  9
$DIMEXE
 40
0.18
  9
$DIMTP
 40
0.0
  9
$DIMTM
 40
0.0
  9
$DIMTXT
 40
3.0
  9
$DIMCEN
 40
0.0
  9
$DIMTSZ
 40
0.0
  9
$DIMTOL
 70
     0
  9
$DIMLIM
 70
     0
  9
$DIMTIH
 70
     0
  9
$DIMTOH
 70
     0
  9
$DIMSE1
 70
     0
  9
$DIMSE2
 70
     0
  9
$DIMTAD
 70
     3
  9
$DIMZIN
 70
     8
  9
$DIMBLK
  1
Open30
  9
$DIMASO
 70
     1
  9
$DIMSHO
 70
     1
  9
$DIMPOST
  1

  9
$DIMAPOST
  1

  9
$DIMALT
 70
     0
  9
$DIMALTD
 70
     2
  9
$DIMALTF
 40
25.4
  9
$DIMLFAC
 40
1.0
  9
$DIMTOFL
 70
     0
  9
$DIMTVP
 40
0.0
  9
$DIMTIX
 70
     0
  9
$DIMSOXD
 70
     0
  9
$DIMSAH
 70
     0
  9
$DIMBLK1
  1

  9
$DIMBLK2
  1

  9
$DIMSTYLE
  2
まこ
  9
$DIMCLRD
 70
     4
  9
$DIMCLRE
 70
     4
  9
$DIMCLRT
 70
   256
  9
$DIMTFAC
 40
1.0
  9
$DIMGAP
 40
0.5
  9
$DIMJUST
 70
     0
  9
$DIMSD1
 70
     0
  9
$DIMSD2
 70
     0
  9
$DIMTOLJ
 70
     1
  9
$DIMTZIN
 70
     0
  9
$DIMALTZ
 70
     0
  9
$DIMALTTZ
 70
     0
  9
$DIMUPT
 70
     0
  9
$DIMDEC
 70
     8
  9
$DIMTDEC
 70
     8
  9
$DIMALTU
 70
     2
  9
$DIMALTTD
 70
     2
  9
$DIMTXSTY
  7
まこ
  9
$DIMAUNIT
 70
     0
  9
$DIMADEC
 70
     0
  9
$DIMALTRND
 40
0.0
  9
$DIMAZIN
 70
     0
  9
$DIMDSEP
 70
    46
  9
$DIMATFIT
 70
     1
  9
$DIMFRAC
 70
     0
  9
$DIMLDRBLK
  1
Open30
  9
$DIMLUNIT
 70
     2
  9
$DIMLWD
 70
    13
  9
$DIMLWE
 70
    13
  9
$DIMTMOVE
 70
     0
  9
$LUNITS
 70
     2
  9
$LUPREC
 70
     4
  9
$SKETCHINC
 40
1.0
  9
$FILLETRAD
 40
0.0
  9
$AUNITS
 70
     0
  9
$AUPREC
 70
     0
  9
$MENU
  1
.
  9
$ELEVATION
 40
0.0
  9
$PELEVATION
 40
0.0
  9
$THICKNESS
 40
0.0
  9
$LIMCHECK
 70
     0
  9
$CHAMFERA
 40
0.5
  9
$CHAMFERB
 40
0.5
  9
$CHAMFERC
 40
20.0
  9
$CHAMFERD
 40
0.0
  9
$SKPOLY
 70
     0
  9
$TDCREATE
 40
2451224.660162037
  9
$TDUCREATE
 40
2451224.285162384
  9
$TDUPDATE
 40
2458549.471226852
  9
$TDUUPDATE
 40
2458549.096226852
  9
$TDINDWG
 40
0.0372130324
  9
$TDUSRTIMER
 40
2458232.171050070
  9
$USRTIMER
 70
     1
  9
$ANGBASE
 50
0.0
  9
$ANGDIR
 70
     0
  9
$PDMODE
 70
     0
  9
$PDSIZE
 40
0.0
  9
$PLINEWID
 40
0.0
  9
$SPLFRAME
 70
     0
  9
$SPLINETYPE
 70
     6
  9
$SPLINESEGS
 70
     8
  9
$HANDSEED
  5
2CD38
  9
$SURFTAB1
 70
     6
  9
$SURFTAB2
 70
     6
  9
$SURFTYPE
 70
     6
  9
$SURFU
 70
     6
  9
$SURFV
 70
     6
  9
$UCSBASE
  2

  9
$UCSNAME
  2

  9
$UCSORG
 10
0.0
 20
0.0
 30
0.0
  9
$UCSXDIR
 10
1.0
 20
0.0
 30
0.0
  9
$UCSYDIR
 10
0.0
 20
1.0
 30
0.0
  9
$UCSORTHOREF
  2

  9
$UCSORTHOVIEW
 70
     0
  9
$UCSORGTOP
 10
0.0
 20
0.0
 30
0.0
  9
$UCSORGBOTTOM
 10
0.0
 20
0.0
 30
0.0
  9
$UCSORGLEFT
 10
0.0
 20
0.0
 30
0.0
  9
$UCSORGRIGHT
 10
0.0
 20
0.0
 30
0.0
  9
$UCSORGFRONT
 10
0.0
 20
0.0
 30
0.0
  9
$UCSORGBACK
 10
0.0
 20
0.0
 30
0.0
  9
$PUCSBASE
  2

  9
$PUCSNAME
  2

  9
$PUCSORG
 10
0.0
 20
0.0
 30
0.0
  9
$PUCSXDIR
 10
1.0
 20
0.0
 30
0.0
  9
$PUCSYDIR
 10
0.0
 20
1.0
 30
0.0
  9
$PUCSORTHOREF
  2

  9
$PUCSORTHOVIEW
 70
     0
  9
$PUCSORGTOP
 10
0.0
 20
0.0
 30
0.0
  9
$PUCSORGBOTTOM
 10
0.0
 20
0.0
 30
0.0
  9
$PUCSORGLEFT
 10
0.0
 20
0.0
 30
0.0
  9
$PUCSORGRIGHT
 10
0.0
 20
0.0
 30
0.0
  9
$PUCSORGFRONT
 10
0.0
 20
0.0
 30
0.0
  9
$PUCSORGBACK
 10
0.0
 20
0.0
 30
0.0
  9
$USERI1
 70
     0
  9
$USERI2
 70
     0
  9
$USERI3
 70
     0
  9
$USERI4
 70
     0
  9
$USERI5
 70
     0
  9
$USERR1
 40
245.9999999999999
  9
$USERR2
 40
0.0
  9
$USERR3
 40
0.0
  9
$USERR4
 40
0.0
  9
$USERR5
 40
0.0
  9
$WORLDVIEW
 70
     1
  9
$SHADEDGE
 70
     3
  9
$SHADEDIF
 70
    70
  9
$TILEMODE
 70
     0
  9
$MAXACTVP
 70
    48
  9
$PINSBASE
 10
0.0
 20
0.0
 30
0.0
  9
$PLIMCHECK
 70
     0
  9
$PEXTMIN
 10
1.049999999999999
 20
0.6999999999999998
 30
0.0
  9
$PEXTMAX
 10
9.449999999999999
 20
6.3
 30
0.0
  9
$PLIMMIN
 10
0.0
 20
0.0
  9
$PLIMMAX
 10
0.0
 20
0.0
  9
$UNITMODE
 70
     0
  9
$VISRETAIN
 70
     1
  9
$PLINEGEN
 70
     0
  9
$PSLTSCALE
 70
     1
  9
$TREEDEPTH
 70
  3020
  9
$CMLSTYLE
  2
STANDARD
  9
$CMLJUST
 70
     0
  9
$CMLSCALE
 40
20.0
  9
$PROXYGRAPHICS
 70
     1
  9
$MEASUREMENT
 70
     0
  9
$CELWEIGHT
370
    -1
  9
$ENDCAPS
280
     0
  9
$JOINSTYLE
280
     0
  9
$LWDISPLAY
290
     0
  9
$INSUNITS
 70
     0
  9
$HYPERLINKBASE
  1

  9
$STYLESHEET
  1
monochrome.ctb
  9
$XEDIT
290
     1
  9
$CEPSNTYPE
380
     0
  9
$PSTYLEMODE
290
     1
  9
$FINGERPRINTGUID
  2
{D14EE3FF-941A-415A-9907-344E0A80D794}
  9
$VERSIONGUID
  2
{DE1FAACC-4F4D-4A07-B68E-06D5E6FC960D}
  9
$EXTNAMES
290
     1
  9
$PSVPSCALE
 40
0.0
  9
$OLESTARTUP
290
     0
  0
ENDSEC
  0
SECTION
  2
CLASSES
  0
CLASS
  1
ACDBDICTIONARYWDFLT
  2
AcDbDictionaryWithDefault
  3
ObjectDBX Classes
 90
        0
280
     0
281
     0
  0
CLASS
  1
ACDBPLACEHOLDER
  2
AcDbPlaceHolder
  3
ObjectDBX Classes
 90
        0
280
     0
281
     0
  0
CLASS
  1
LAYOUT
  2
AcDbLayout
  3
ObjectDBX Classes
 90
        0
280
     0
281
     0
  0
CLASS
  1
DICTIONARYVAR
  2
AcDbDictionaryVar
  3
ObjectDBX Classes
 90
        0
280
     0
281
     0
  0
CLASS
  1
VISUALSTYLE
  2
AcDbVisualStyle
  3
ObjectDBX Classes
 90
     4095
280
     0
281
     0
  0
CLASS
  1
SCALE
  2
AcDbScale
  3
ObjectDBX Classes
 90
     1153
280
     0
281
     0
  0
CLASS
  1
MATERIAL
  2
AcDbMaterial
  3
ObjectDBX Classes
 90
     1153
280
     0
281
     0
  0
CLASS
  1
TABLESTYLE
  2
AcDbTableStyle
  3
ObjectDBX Classes
 90
     4095
280
     0
281
     0
  0
CLASS
  1
MLEADERSTYLE
  2
AcDbMLeaderStyle
  3
ACDB_MLEADERSTYLE_CLASS
 90
     4095
280
     0
281
     0
  0
CLASS
  1
SUN
  2
AcDbSun
  3
SCENEOE
 90
     1153
280
     0
281
     0
  0
CLASS
  1
RASTERVARIABLES
  2
AcDbRasterVariables
  3
ISM
 90
        0
280
     0
281
     0
  0
CLASS
  1
DIMASSOC
  2
AcDbDimAssoc
  3
"AcDbDimAssoc|Product Desc:     AcDim ARX App For Dimension|Company:          Autodesk, Inc.|WEB Address:      www.autodesk.com"
 90
    32768
280
     0
281
     0
  0
CLASS
  1
SORTENTSTABLE
  2
AcDbSortentsTable
  3
ObjectDBX Classes
 90
        0
280
     0
281
     0
  0
CLASS
  1
ACDBSECTIONVIEWSTYLE
  2
AcDbSectionViewStyle
  3
ObjectDBX Classes
 90
     1025
280
     0
281
     0
  0
CLASS
  1
ACDBDETAILVIEWSTYLE
  2
AcDbDetailViewStyle
  3
ObjectDBX Classes
 90
     1025
280
     0
281
     0
  0
CLASS
  1
CELLSTYLEMAP
  2
AcDbCellStyleMap
  3
ObjectDBX Classes
 90
     1152
280
     0
281
     0
  0
ENDSEC
  0
SECTION
  2
TABLES
  0
TABLE
  2
VPORT
  5
8
102
{ACAD_XDICTIONARY
360
2CC96
102
}
330
0
100
AcDbSymbolTable
 70
     1
  0
VPORT
  5
2839E
330
8
100
AcDbSymbolTableRecord
100
AcDbViewportTableRecord
  2
*Active
 70
     0
 10
0.0
 20
0.0
 11
1.0
 21
1.0
 12
1184.234358075596
 22
-2552.181052174475
 13
0.0
 23
0.0
 14
10.0
 24
10.0
 15
10.0
 25
10.0
 16
0.0
 26
0.0
 36
1.0
 17
0.0
 27
0.0
 37
0.0
 40
192.0644158777544
 41
1.305479452054794
 42
50.0
 43
0.0
 44
0.0
 50
0.0
 51
0.0
 71
    16
 72
   100
 73
     1
 74
     0
 75
     0
 76
     0
 77
     0
 78
     0
281
     0
 65
     1
110
0.0
120
0.0
130
0.0
111
1.0
121
0.0
131
0.0
112
0.0
122
1.0
132
0.0
 79
     0
146
0.0
  0
ENDTAB
  0
TABLE
  2
LTYPE
  5
5
330
0
100
AcDbSymbolTable
 70
     5
  0
LTYPE
  5
12
330
5
100
AcDbSymbolTableRecord
100
AcDbLinetypeTableRecord
  2
BYBLOCK
 70
     0
  3

 72
    65
 73
     0
 40
0.0
  0
LTYPE
  5
13
330
5
100
AcDbSymbolTableRecord
100
AcDbLinetypeTableRecord
  2
BYLAYER
 70
     0
  3

 72
    65
 73
     0
 40
0.0
  0
LTYPE
  5
14
330
5
100
AcDbSymbolTableRecord
100
AcDbLinetypeTableRecord
  2
CONTINUOUS
 70
     0
  3
Solid line
 72
    65
 73
     0
 40
0.0
  0
LTYPE
  5
126C
330
5
100
AcDbSymbolTableRecord
100
AcDbLinetypeTableRecord
  2
CENTER
 70
     0
  3
____ _ ____ _ ____ _ ____ _ ____ _ ____ _ ____
 72
    65
 73
     4
 40
2.0
 49
1.25
 74
     0
 49
-0.25
 74
     0
 49
0.25
 74
     0
 49
-0.25
 74
     0
  0
LTYPE
  5
126E
330
5
100
AcDbSymbolTableRecord
100
AcDbLinetypeTableRecord
  2
DASHDOT
 70
     0
  3
__ . __ . __ . __ . __ . __ . __ . __ . __ . __
 72
    65
 73
     4
 40
1.0
 49
0.5
 74
     0
 49
-0.25
 74
     0
 49
0.0
 74
     0
 49
-0.25
 74
     0
  0
LTYPE
  5
15420
330
5
100
AcDbSymbolTableRecord
100
AcDbLinetypeTableRecord
  2
CENTER2
 70
     0
  3
Center (.5x) ___ _ ___ _ ___ _ ___ _ ___ _ ___
 72
    65
 73
     4
 40
1.125
 49
0.75
 74
     0
 49
-0.125
 74
     0
 49
0.125
 74
     0
 49
-0.125
 74
     0
  0
LTYPE
  5
2BB2D
330
5
100
AcDbSymbolTableRecord
100
AcDbLinetypeTableRecord
  2
HIDDEN2
 70
     0
  3
Hidden (.5x) _ _ _ _ _ _ _ _ _ _ _ _ _ _ _ _ _
 72
    65
 73
     2
 40
4.762499999999999
 49
3.174999999999999
 74
     0
 49
-1.587499999999999
 74
     0
  0
ENDTAB
  0
TABLE
  2
LAYER
  5
2
102
{ACAD_XDICTIONARY
360
254EC
102
}
330
0
100
AcDbSymbolTable
 70
     9
  0
LAYER
  5
E
330
2
100
AcDbSymbolTableRecord
100
AcDbLayerTableRecord
  2
0
 70
     2
 62
     7
  6
CONTINUOUS
370
    35
390
FB5C
  0
LAYER
  5
30
330
2
100
AcDbSymbolTableRecord
100
AcDbLayerTableRecord
  2
FRAME025
 70
     0
 62
     7
  6
CONTINUOUS
370
    -3
390
FB5C
  0
LAYER
  5
651
330
2
100
AcDbSymbolTableRecord
100
AcDbLayerTableRecord
  2
FRAME020
 70
     0
 62
     7
  6
CONTINUOUS
370
    -3
390
FB5C
  0
LAYER
  5
1271
330
2
100
AcDbSymbolTableRecord
100
AcDbLayerTableRecord
  2
A
 70
     0
 62
     7
  6
CONTINUOUS
370
    -3
390
FB5C
  0
LAYER
  5
122DE
330
2
100
AcDbSymbolTableRecord
100
AcDbLayerTableRecord
  2
dimension
 70
     0
 62
     7
  6
CONTINUOUS
370
    13
390
FB5C
  0
LAYER
  5
15422
330
2
100
AcDbSymbolTableRecord
100
AcDbLayerTableRecord
  2
細線
 70
     0
 62
     7
  6
CONTINUOUS
370
    13
390
FB5C
  0
LAYER
  5
15425
330
2
100
AcDbSymbolTableRecord
100
AcDbLayerTableRecord
  2
中心線
 70
     0
 62
     7
  6
CENTER2
370
    13
390
FB5C
  0
LAYER
  5
1A846
330
2
100
AcDbSymbolTableRecord
100
AcDbLayerTableRecord
  2
実線
 70
     0
 62
     7
  6
CONTINUOUS
370
    40
390
FB5C
  0
LAYER
  5
2BB2A
102
{ACAD_XDICTIONARY
360
2BB2B
102
}
330
2
100
AcDbSymbolTableRecord
100
AcDbLayerTableRecord
  2
破線
 70
     0
 62
     7
  6
HIDDEN2
370
    13
390
FB5C
  0
ENDTAB
  0
TABLE
  2
STYLE
  5
3
330
0
100
AcDbSymbolTable
 70
     7
  0
STYLE
  5
F
330
3
100
AcDbSymbolTableRecord
100
AcDbTextStyleTableRecord
  2
STANDARD
 70
     0
 40
0.0
 41
1.0
 50
0.0
 71
     0
 42
2.5
  3
isocp.shx
  4
bigfont.shx
  0
STYLE
  5
34
330
3
100
AcDbSymbolTableRecord
100
AcDbTextStyleTableRecord
  2
TIMESNR
 70
     0
 40
0.0
 41
1.0
 50
0.0
 71
     0
 42
2.0
  3
times.ttf
  4

1001
ACAD
1000
Times New Roman
1071
       18
  0
STYLE
  5
35
330
3
100
AcDbSymbolTableRecord
100
AcDbTextStyleTableRecord
  2
MS\U+FF7A\U+FF9E\U+FF7C\U+FF6F\U+FF78
 70
     0
 40
0.0
 41
1.0
 50
0.0
 71
     0
 42
5.0
  3

  4

1001
ACAD
1000
MS Gothic
1071
    32817
  0
STYLE
  5
1275
330
3
100
AcDbSymbolTableRecord
100
AcDbTextStyleTableRecord
  2
BIGFONT
 70
     0
 40
2.0
 41
1.0
 50
0.0
 71
     0
 42
2.0
  3
txt.shx
  4
bigfont.shx
  0
STYLE
  5
1A849
330
3
100
AcDbSymbolTableRecord
100
AcDbTextStyleTableRecord
  2
まこ
 70
     0
 40
0.0
 41
1.0
 50
0.0
 71
     0
 42
2.5
  3
simplex.shx
  4
bigfont.shx
  0
STYLE
  5
1A84A
330
3
100
AcDbSymbolTableRecord
100
AcDbTextStyleTableRecord
  2
\U+FF7D\U+FF80\U+FF72\U+FF993
 70
     0
 40
10.0
 41
1.0
 50
0.0
 71
     0
 42
10.0
  3
isocp.shx
  4
extfont.shx
  0
STYLE
  5
1F8B3
330
3
100
AcDbSymbolTableRecord
100
AcDbTextStyleTableRecord
  2
MS\U+FF7A\U+FF9E\U+FF7C\U+FF6F\U+FF78N
 70
     0
 40
0.0
 41
1.0
 50
0.0
 71
     0
 42
5.0
  3

  4

1001
ACAD
1000
MS Gothic
1071
    32817
  0
ENDTAB
  0
TABLE
  2
VIEW
  5
6
330
0
100
AcDbSymbolTable
 70
     0
  0
ENDTAB
  0
TABLE
  2
UCS
  5
7
330
0
100
AcDbSymbolTable
 70
     0
  0
ENDTAB
  0
TABLE
  2
APPID
  5
9
330
0
100
AcDbSymbolTable
 70
    12
  0
APPID
  5
10
330
9
100
AcDbSymbolTableRecord
100
AcDbRegAppTableRecord
  2
ACAD
 70
     0
  0
APPID
  5
F013
330
9
100
AcDbSymbolTableRecord
100
AcDbRegAppTableRecord
  2
CONTENTBLOCKDESCRIPTION
 70
     0
  0
APPID
  5
F014
330
9
100
AcDbSymbolTableRecord
100
AcDbRegAppTableRecord
  2
CONTENTBLOCKICON
 70
     0
  0
APPID
  5
1A9A0
330
9
100
AcDbSymbolTableRecord
100
AcDbRegAppTableRecord
  2
DCO15
 70
     0
  0
APPID
  5
28407
330
9
100
AcDbSymbolTableRecord
100
AcDbRegAppTableRecord
  2
PE_CLOUD
 70
     0
  0
APPID
  5
2895F
330
9
100
AcDbSymbolTableRecord
100
AcDbRegAppTableRecord
  2
PLOTTRANSPARENCY
 70
     0
  0
APPID
  5
2BA87
330
9
100
AcDbSymbolTableRecord
100
AcDbRegAppTableRecord
  2
ACAD_DSTYLE_DIMFLIPARROW_SYMBOL
 70
     0
  0
APPID
  5
2BA88
330
9
100
AcDbSymbolTableRecord
100
AcDbRegAppTableRecord
  2
ACAD_DSTYLE_DIMFLIPARROW_WHICH_SYMBOL
 70
     0
  0
APPID
  5
2BB38
330
9
100
AcDbSymbolTableRecord
100
AcDbRegAppTableRecord
  2
ACAD_DSTYLE_DIMJAG
 70
     0
  0
APPID
  5
2BB39
330
9
100
AcDbSymbolTableRecord
100
AcDbRegAppTableRecord
  2
ACAD_DSTYLE_DIMTALN
 70
     0
  0
APPID
  5
2BB3A
330
9
100
AcDbSymbolTableRecord
100
AcDbRegAppTableRecord
  2
ACAD_DSTYLE_DIMRADIAL_EXTENSION
 70
     0
  0
APPID
  5
2CCCF
330
9
100
AcDbSymbolTableRecord
100
AcDbRegAppTableRecord
  2
ACAD_MLEADERVER
 70
     0
  0
ENDTAB
  0
TABLE
  2
DIMSTYLE
  5
A
330
0
100
AcDbSymbolTable
 70
     2
100
AcDbDimStyleTable
 71
     0
  0
DIMSTYLE
105
1D
330
A
100
AcDbSymbolTableRecord
100
AcDbDimStyleTableRecord
  2
STANDARD
 70
     0
340
F
  0
DIMSTYLE
105
1A84D
330
A
100
AcDbSymbolTableRecord
100
AcDbDimStyleTableRecord
  2
まこ
 70
     0
 40
1.5
 41
2.5
 42
0.8
 43
10.0
 73
     0
 74
     0
 77
     3
 78
     8
140
3.0
141
0.0
147
0.5
176
     4
177
     4
178
   256
271
     8
272
     8
289
     1
340
1A849
341
1215D
342
1215D
371
    13
372
    13
  0
ENDTAB
  0
TABLE
  2
BLOCK_RECORD
  5
1
330
0
100
AcDbSymbolTable
 70
     2
  0
BLOCK_RECORD
  5
18
102
{ACAD_XDICTIONARY
360
2B88A
102
}
330
1
100
AcDbSymbolTableRecord
100
AcDbBlockTableRecord
  2
*MODEL_SPACE
340
FB5D
  0
BLOCK_RECORD
  5
2CC2D
330
1
100
AcDbSymbolTableRecord
100
AcDbBlockTableRecord
  2
*Paper_Space
340
2CC2E
  0
BLOCK_RECORD
  5
115C
330
1
100
AcDbSymbolTableRecord
100
AcDbBlockTableRecord
  2
機械A4横_LBP
340
0
102
{BLKREFS
331
187D7
102
}
  0
BLOCK_RECORD
  5
1215D
330
1
100
AcDbSymbolTableRecord
100
AcDbBlockTableRecord
  2
_Open30
340
0
  0
ENDTAB
  0
ENDSEC
  0
SECTION
  2
BLOCKS
  0
BLOCK
  5
19
330
18
100
AcDbEntity
  8
0
100
AcDbBlockBegin
  2
*MODEL_SPACE
 70
     0
 10
0.0
 20
0.0
 30
0.0
  3
*MODEL_SPACE
  1

  0
ENDBLK
  5
1A
330
18
100
AcDbEntity
  8
0
100
AcDbBlockEnd
  0
BLOCK
  5
2CC2F
330
2CC2D
100
AcDbEntity
 67
     1
  8
0
100
AcDbBlockBegin
  2
*Paper_Space
 70
     0
 10
0.0
 20
0.0
 30
0.0
  3
*Paper_Space
  1

  0
ENDBLK
  5
2CC30
330
2CC2D
100
AcDbEntity
 67
     1
  8
0
100
AcDbBlockEnd
  0
BLOCK
  5
115D
330
115C
100
AcDbEntity
  8
0
100
AcDbBlockBegin
  2
機械A4横_LBP
 70
     0
 10
0.0
 20
0.0
 30
0.0
  3
機械A4横_LBP
  1

  0
ENDBLK
  5
115E
330
115C
100
AcDbEntity
  8
0
100
AcDbBlockEnd
  0
BLOCK
  5
12161
330
1215D
100
AcDbEntity
  8
0
100
AcDbBlockBegin
  2
_Open30
 70
     0
 10
0.0
 20
0.0
 30
0.0
  3
_Open30
  1

  0
LINE
  5
1215E
330
1215D
100
AcDbEntity
  8
0
  6
ByBlock
 62
     0
370
    -2
100
AcDbLine
 10
-1.0
 20
0.26794919
 30
0.0
 11
0.0
 21
0.0
 31
0.0
  0
LINE
  5
1215F
330
1215D
100
AcDbEntity
  8
0
  6
ByBlock
 62
     0
370
    -2
100
AcDbLine
 10
0.0
 20
0.0
 30
0.0
 11
-1.0
 21
-0.26794919
 31
0.0
  0
LINE
  5
12160
330
1215D
100
AcDbEntity
  8
0
  6
ByBlock
 62
     0
370
    -2
100
AcDbLine
 10
0.0
 20
0.0
 30
0.0
 11
-1.0
 21
0.0
 31
0.0
  0
ENDBLK
  5
12162
330
1215D
100
AcDbEntity
  8
0
100
AcDbBlockEnd
  0
ENDSEC
  0
SECTION
  2
ENTITIES
  0
MTEXT
  5
176FC
330
18
100
AcDbEntity
  8
dimension
 62
     2
100
AcDbMText
 10
-100.7823601383244
 20
171.621314412839
 30
0.0
 40
8.0
 41
0.0
 71
     4
 72
     1
  1

 73
     1
 44
1.0
1001
ACAD
1000
MTEXTBEGIN
1070
    73
1070
     1
1070
    44
1040
1.0
1070
    74
1070
     0
1000
MTEXTEND
  0
TEXT
  5
187C8
330
18
100
AcDbEntity
  8
A
100
AcDbText
 10
27.08248755054501
 20
1784.547672862096
 30
0.0
 40
2.5
  1

  7
MS\U+FF7A\U+FF9E\U+FF7C\U+FF6F\U+FF78
100
AcDbText
  0
TEXT
  5
187C9
330
18
100
AcDbEntity
  8
A
100
AcDbText
 10
19.25748755054502
 20
1784.547672862096
 30
0.0
 40
2.5
  1

 41
0.5
  7
MS\U+FF7A\U+FF9E\U+FF7C\U+FF6F\U+FF78
100
AcDbText
  0
MTEXT
  5
187CB
330
18
100
AcDbEntity
  8
0
  6
ByBlock
100
AcDbMText
 10
325.4874764241681
 20
2232.511722574347
 30
0.0
 40
2.0
 41
0.0
 71
     4
 72
     5
  1

 11
-0.0000000000000002
 21
-1.0
 31
0.0
 73
     1
 44
1.0
1001
ACAD
1000
MTEXTBEGIN
1070
    73
1070
     1
1070
    44
1040
1.0
1070
    74
1070
     0
1000
MTEXTEND
  0
MTEXT
  5
187CC
330
18
100
AcDbEntity
  8
0
  6
ByBlock
100
AcDbMText
 10
360.9528647873209
 20
2221.71841421593
 30
0.0
 40
2.0
 41
0.0
 71
     7
 72
     5
  1

 11
0.0000000000000001
 21
1.0
 31
0.0
 73
     1
 44
1.0
1001
ACAD
1000
MTEXTBEGIN
1070
    73
1070
     1
1070
    44
1040
1.0
1070
    74
1070
     0
1000
MTEXTEND
  0
MTEXT
  5
187CD
330
18
100
AcDbEntity
  8
0
100
AcDbMText
 10
325.1733668026533
 20
2146.93890367364
 30
0.0
 40
2.0
 41
10.1453
 71
     1
 72
     5
  1

 11
-0.0000000000000002
 21
-1.0
 31
0.0
 73
     1
 44
1.0
1001
ACAD
1000
MTEXTBEGIN
1070
    73
1070
     1
1070
    44
1040
1.0
1070
    74
1070
     0
1000
MTEXTEND
  0
MTEXT
  5
187CE
330
18
100
AcDbEntity
  8
0
100
AcDbMText
 10
280.7738750495033
 20
2115.30742008065
 30
0.0
 40
2.0
 41
0.0
 71
     1
 72
     5
  1

 73
     1
 44
1.0
1001
ACAD
1000
MTEXTBEGIN
1070
    73
1070
     1
1070
    44
1040
1.0
1070
    74
1070
     0
1000
MTEXTEND
  0
MTEXT
  5
187CF
330
18
100
AcDbEntity
  8
0
  6
CENTER
100
AcDbMText
 10
606.3621522332663
 20
2216.239946825076
 30
0.0
 40
2.0
 41
15.6417
 71
     1
 72
     5
  1

  7
BIGFONT
 73
     1
 44
1.0
1001
ACAD
1000
MTEXTBEGIN
1070
    73
1070
     1
1070
    44
1040
1.0
1070
    74
1070
     0
1000
MTEXTEND
  0
MTEXT
  5
187D0
330
18
100
AcDbEntity
  8
0
  6
DASHDOT
100
AcDbMText
 10
368.6842112890945
 20
2323.029441652852
 30
0.0
 40
1.0
 41
2.0
 71
     1
 72
     5
  1

  7
BIGFONT
 73
     1
 44
1.0
1001
ACAD
1000
MTEXTBEGIN
1070
    73
1070
     1
1070
    44
1040
1.0
1070
    74
1070
     0
1000
MTEXTEND
  0
MTEXT
  5
187D1
330
18
100
AcDbEntity
  8
0
  6
ByBlock
100
AcDbMText
 10
325.4873894192178
 20
2232.511722574347
 30
0.0
 40
2.0
 41
0.0
 71
     4
 72
     5
  1

 11
-0.0000000000000002
 21
-1.0
 31
0.0
 73
     1
 44
1.0
1001
ACAD
1000
MTEXTBEGIN
1070
    73
1070
     1
1070
    44
1040
1.0
1070
    74
1070
     0
1000
MTEXTEND
  0
MTEXT
  5
187D2
330
18
100
AcDbEntity
  8
0
  6
ByBlock
100
AcDbMText
 10
360.9527777823708
 20
2221.71841421593
 30
0.0
 40
2.0
 41
0.0
 71
     7
 72
     5
  1

 11
0.0000000000000001
 21
1.0
 31
0.0
 73
     1
 44
1.0
1001
ACAD
1000
MTEXTBEGIN
1070
    73
1070
     1
1070
    44
1040
1.0
1070
    74
1070
     0
1000
MTEXTEND
  0
MTEXT
  5
187D3
330
18
100
AcDbEntity
  8
0
100
AcDbMText
 10
325.1732797977029
 20
2146.93890367364
 30
0.0
 40
2.0
 41
10.1453
 71
     1
 72
     5
  1

 11
-0.0000000000000002
 21
-1.0
 31
0.0
 73
     1
 44
1.0
1001
ACAD
1000
MTEXTBEGIN
1070
    73
1070
     1
1070
    44
1040
1.0
1070
    74
1070
     0
1000
MTEXTEND
  0
MTEXT
  5
187D4
330
18
100
AcDbEntity
  8
0
100
AcDbMText
 10
280.7737880445531
 20
2115.30742008065
 30
0.0
 40
2.0
 41
0.0
 71
     1
 72
     5
  1

 73
     1
 44
1.0
1001
ACAD
1000
MTEXTBEGIN
1070
    73
1070
     1
1070
    44
1040
1.0
1070
    74
1070
     0
1000
MTEXTEND
  0
MTEXT
  5
187D5
330
18
100
AcDbEntity
  8
0
  6
CENTER
100
AcDbMText
 10
606.3620652283159
 20
2216.239946825076
 30
0.0
 40
2.0
 41
15.6417
 71
     1
 72
     5
  1

  7
BIGFONT
 73
     1
 44
1.0
1001
ACAD
1000
MTEXTBEGIN
1070
    73
1070
     1
1070
    44
1040
1.0
1070
    74
1070
     0
1000
MTEXTEND
  0
MTEXT
  5
187D6
330
18
100
AcDbEntity
  8
0
  6
DASHDOT
100
AcDbMText
 10
368.6841242841443
 20
2323.029441652852
 30
0.0
 40
1.0
 41
2.0
 71
     1
 72
     5
  1

  7
BIGFONT
 73
     1
 44
1.0
1001
ACAD
1000
MTEXTBEGIN
1070
    73
1070
     1
1070
    44
1040
1.0
1070
    74
1070
     0
1000
MTEXTEND
  0
INSERT
  5
187D7
330
18
100
AcDbEntity
  8
FRAME025
100
AcDbBlockReference
  2
機械A4横_LBP
 10
271.0019941658661
 20
2006.888840564871
 30
0.0
  0
TEXT
  5
216E7
330
18
100
AcDbEntity
  8
FRAME020
  6
Continuous
100
AcDbText
 10
1272.84444499335
 20
-2736.187561819854
 30
0.0
 40
3.0
  1

 50
270.0
100
AcDbText
  0
MTEXT
  5
21ACC
330
18
100
AcDbEntity
  8
0
100
AcDbMText
 10
62.91095225984048
 20
-1280.130762802907
 30
0.0
 40
2.5
 41
0.625
 71
     9
 72
     1
  1

 73
     1
 44
1.0
1001
ACAD
1000
MTEXTBEGIN
1070
    73
1070
     1
1070
    44
1040
1.0
1070
    74
1070
     0
1000
MTEXTEND
  0
LINE
  5
27C69
330
18
100
AcDbEntity
  8
中心線
 48
0.5
100
AcDbLine
 10
425.431701924283
 20
-2183.191602833293
 30
0.0
 11
410.431701924283
 21
-2183.191602833293
 31
0.0
  0
LINE
  5
27C6A
330
18
100
AcDbEntity
  8
中心線
 48
0.5
100
AcDbLine
 10
410.431701924283
 20
-2298.191602833294
 30
0.0
 11
425.431701924283
 21
-2298.191602833294
 31
0.0
  0
LINE
  5
27C6C
330
18
100
AcDbEntity
  8
実線
100
AcDbLine
 10
402.1317019242832
 20
-2305.691602833293
 30
0.0
 11
881.7317019242832
 21
-2305.691602833293
 31
0.0
  0
LINE
  5
27C6D
330
18
100
AcDbEntity
  8
実線
100
AcDbLine
 10
402.1317019242832
 20
-2287.691602833294
 30
0.0
 11
881.7317019242832
 21
-2287.691602833294
 31
0.0
  0
LINE
  5
27C6E
330
18
100
AcDbEntity
  8
実線
100
AcDbLine
 10
881.7317019242832
 20
-2175.691602833293
 30
0.0
 11
402.1317019242832
 21
-2175.691602833293
 31
0.0
  0
LINE
  5
27C6F
330
18
100
AcDbEntity
  8
実線
100
AcDbLine
 10
881.731701924283
 20
-2193.691602833293
 30
0.0
 11
402.1317019242831
 21
-2193.691602833293
 31
0.0
  0
LINE
  5
27CE7
330
18
100
AcDbEntity
  8
中心線
 48
0.5
100
AcDbLine
 10
417.931701924283
 20
-2190.691602833294
 30
0.0
 11
417.931701924283
 21
-2175.691602833293
 31
0.0
  0
CIRCLE
  5
27CE8
330
18
100
AcDbEntity
  8
細線
100
AcDbCircle
 10
417.931701924283
 20
-2183.191602833293
 30
0.0
 40
2.5
  0
CIRCLE
  5
27CE9
330
18
100
AcDbEntity
  8
実線
100
AcDbCircle
 10
417.931701924283
 20
-2183.191602833293
 30
0.0
 40
2.066999999999999
  0
LINE
  5
27CEA
330
18
100
AcDbEntity
  8
実線
100
AcDbLine
 10
402.1317019242831
 20
-2193.691602833293
 30
0.0
 11
402.1317019242832
 21
-2175.691602833293
 31
0.0
  0
LINE
  5
27CEB
330
18
100
AcDbEntity
  8
実線
100
AcDbLine
 10
401.931701924283
 20
-2301.691602833294
 30
0.0
 11
401.931701924283
 21
-2179.691602833293
 31
0.0
  0
LINE
  5
27CEC
330
18
100
AcDbEntity
  8
実線
100
AcDbLine
 10
387.9317019242831
 20
-2179.691602833293
 30
0.0
 11
387.9317019242831
 21
-2301.691602833294
 31
0.0
  0
LINE
  5
27CF8
330
18
100
AcDbEntity
  8
実線
100
AcDbLine
 10
387.9317019242831
 20
-2301.691602833294
 30
0.0
 11
401.931701924283
 21
-2301.691602833294
 31
0.0
  0
LINE
  5
27CF9
330
18
100
AcDbEntity
  8
実線
100
AcDbLine
 10
402.1317019242832
 20
-2287.691602833294
 30
0.0
 11
402.1317019242832
 21
-2305.691602833293
 31
0.0
  0
LINE
  5
27CFA
330
18
100
AcDbEntity
  8
中心線
 48
0.5
100
AcDbLine
 10
417.931701924283
 20
-2290.691602833294
 30
0.0
 11
417.931701924283
 21
-2305.691602833293
 31
0.0
  0
CIRCLE
  5
27CFB
330
18
100
AcDbEntity
  8
実線
100
AcDbCircle
 10
417.931701924283
 20
-2298.191602833294
 30
0.0
 40
2.066999999999999
  0
CIRCLE
  5
27CFC
330
18
100
AcDbEntity
  8
細線
100
AcDbCircle
 10
417.931701924283
 20
-2298.191602833294
 30
0.0
 40
2.5
  0
LINE
  5
27CFD
330
18
100
AcDbEntity
  8
実線
100
AcDbLine
 10
401.931701924283
 20
-2179.691602833293
 30
0.0
 11
387.9317019242831
 21
-2179.691602833293
 31
0.0
  0
LINE
  5
27D02
330
18
100
AcDbEntity
  8
中心線
 48
0.5
100
AcDbLine
 10
1190.596858797326
 20
-2240.691602833294
 30
0.0
 11
1132.596858797326
 21
-2240.691602833294
 31
0.0
  0
LWPOLYLINE
  5
27D03
330
18
100
AcDbEntity
  8
実線
100
AcDbPolyline
 90
        4
 70
     1
 43
0.0
 10
1154.596858797326
 20
-2290.691602833294
 10
1154.596858797326
 20
-2190.691602833294
 10
1180.596858797326
 20
-2190.691602833294
 10
1180.596858797326
 20
-2290.691602833294
  0
LINE
  5
27D04
330
18
100
AcDbEntity
  8
実線
100
AcDbLine
 10
1154.596858797326
 20
-2299.691602833294
 30
0.0
 11
1166.596858797326
 21
-2299.691602833294
 31
0.0
  0
LINE
  5
27D05
330
18
100
AcDbEntity
  8
実線
100
AcDbLine
 10
1140.596858797326
 20
-2305.691602833295
 30
0.0
 11
1166.596858797325
 21
-2305.691602833295
 31
0.0
  0
LINE
  5
27D06
330
18
100
AcDbEntity
  8
実線
100
AcDbLine
 10
1140.596858797326
 20
-2175.691602833293
 30
0.0
 11
1166.596858797325
 21
-2175.691602833293
 31
0.0
  0
LINE
  5
27D07
330
18
100
AcDbEntity
  8
実線
100
AcDbLine
 10
1154.596858797326
 20
-2181.691602833294
 30
0.0
 11
1166.596858797326
 21
-2181.691602833294
 31
0.0
  0
LINE
  5
27D08
102
{ACAD_REACTORS
330
27D0A
102
}
330
18
100
AcDbEntity
  8
中心線
 48
0.5
100
AcDbLine
 10
1178.096858797326
 20
-2299.691602833294
 30
0.0
 11
1164.096858797326
 21
-2299.691602833294
 31
0.0
  0
CIRCLE
  5
27D09
102
{ACAD_REACTORS
330
27D0A
102
}
330
18
100
AcDbEntity
  8
実線
 48
0.2
100
AcDbCircle
 10
1171.096858797326
 20
-2299.691602833294
 30
0.0
 40
4.5
  0
HATCH
  5
27D0A
330
18
100
AcDbEntity
  8
0
100
AcDbHatch
 10
0.0
 20
0.0
 30
0.0
210
0.0
220
0.0
230
1.0
  2
ANSI31
 70
     0
 71
     1
 91
        2
 92
        7
 72
     1
 73
     1
 93
        3
 10
1175.596858797326
 20
-2299.691602833294
 42
0.4142135623731316
 10
1171.096858797326
 20
-2295.191602833295
 42
0.0
 10
1171.096858797326
 20
-2299.691602833294
 42
0.0
 97
        3
330
27D09
330
27E04
330
27D08
 92
        7
 72
     1
 73
     1
 93
        3
 10
1171.096858797326
 20
-2304.191602833295
 42
0.0
 10
1171.096858797326
 20
-2299.691602833294
 42
0.0
 10
1166.596858797326
 20
-2299.691602833294
 42
0.4142135623731316
 97
        3
330
27E04
330
27D08
330
27D09
 75
     0
 76
     1
 52
0.0
 41
5.0
 77
     0
 78
     1
 53
45.0
 43
288.1747323386301
 44
-5.24174566782176
 45
-0.4419417382415922
 46
0.4419417382415923
 79
     0
 47
0.0648433176565354
 98
        2
 10
1173.978809743573
 20
-2298.220571519687
 10
1169.762069939185
 20
-2301.397894195675
  0
LWPOLYLINE
  5
27D0D
330
18
100
AcDbEntity
  8
実線
100
AcDbPolyline
 90
        4
 70
     1
 43
0.0
 10
895.9317019242829
 20
-2179.691602833293
 10
881.9317019242831
 20
-2179.691602833293
 10
881.9317019242831
 20
-2301.691602833294
 10
895.9317019242829
 20
-2301.691602833294
  0
LINE
  5
27D13
330
18
100
AcDbEntity
  8
中心線
 48
0.5
100
AcDbLine
 10
900.931701924283
 20
-2264.691602833293
 30
0.0
 11
876.931701924283
 21
-2264.691602833293
 31
0.0
  0
LINE
  5
27D14
330
18
100
AcDbEntity
  8
中心線
 48
0.5
100
AcDbLine
 10
900.931701924283
 20
-2288.691602833293
 30
0.0
 11
876.931701924283
 21
-2288.691602833293
 31
0.0
  0
LINE
  5
27D3D
330
18
100
AcDbEntity
  8
実線
100
AcDbLine
 10
881.731701924283
 20
-2193.691602833293
 30
0.0
 11
881.7317019242832
 21
-2175.691602833293
 31
0.0
  0
LINE
  5
27D5A
330
18
100
AcDbEntity
  8
実線
100
AcDbLine
 10
881.7317019242832
 20
-2287.691602833294
 30
0.0
 11
881.7317019242832
 21
-2305.691602833293
 31
0.0
  0
CIRCLE
  5
27D9B
330
18
100
AcDbEntity
  8
実線
100
AcDbCircle
 10
1148.096858797326
 20
-2185.691602833294
 30
0.0
 40
4.75
  0
CIRCLE
  5
27D9C
330
18
100
AcDbEntity
  8
0
  6
Continuous
100
AcDbCircle
 10
1148.096858797326
 20
-2185.691602833294
 30
0.0
 40
4.25
  0
CIRCLE
  5
27D9D
330
18
100
AcDbEntity
  8
0
  6
Continuous
100
AcDbCircle
 10
1148.096858797326
 20
-2185.691602833294
 30
0.0
 40
3.749999999999991
  0
LWPOLYLINE
  5
27D9E
330
18
100
AcDbEntity
  8
実線
100
AcDbPolyline
 90
        4
 70
     1
 43
0.0
 10
1142.596858797326
 20
-2179.691602833294
 10
1154.596858797326
 20
-2179.691602833294
 10
1154.596858797326
 20
-2301.691602833294
 10
1142.596858797326
 20
-2301.691602833294
  0
LINE
  5
27D9F
330
18
100
AcDbEntity
  8
実線
100
AcDbLine
 10
1140.596858797326
 20
-2175.691602833293
 30
0.0
 11
1140.596858797326
 21
-2193.691602833293
 31
0.0
  0
LINE
  5
27DE3
330
18
100
AcDbEntity
  8
中心線
 48
0.5
100
AcDbLine
 10
1135.596858797326
 20
-2183.191602833293
 30
0.0
 11
1150.596858797326
 21
-2183.191602833293
 31
0.0
  0
LINE
  5
27DE4
330
18
100
AcDbEntity
  8
中心線
 48
0.5
100
AcDbLine
 10
1135.596858797326
 20
-2298.191602833294
 30
0.0
 11
1150.596858797326
 21
-2298.191602833294
 31
0.0
  0
LINE
  5
27DE7
330
18
100
AcDbEntity
  8
中心線
 48
0.5
100
AcDbLine
 10
1148.596858797326
 20
-2292.457602233294
 30
0.0
 11
1148.596858797326
 21
-2260.925603433293
 31
0.0
  0
LINE
  5
27DE8
330
18
100
AcDbEntity
  8
実線
100
AcDbLine
 10
1140.996858797325
 20
-2193.691602833293
 30
0.0
 11
1140.996858797325
 21
-2287.691602833294
 31
0.0
  0
CIRCLE
  5
27DE9
330
18
100
AcDbEntity
  8
細線
 48
2.0
100
AcDbCircle
 10
1148.596858797326
 20
-2288.691602833294
 30
0.0
 40
2.0
  0
CIRCLE
  5
27DEA
330
18
100
AcDbEntity
  8
実線
100
AcDbCircle
 10
1148.596858797326
 20
-2288.691602833294
 30
0.0
 40
1.75
  0
LINE
  5
27DEB
330
18
100
AcDbEntity
  8
0
  6
Continuous
100
AcDbLine
 10
1148.096858797326
 20
-2293.382201333293
 30
0.0
 11
1150.096858797326
 21
-2294.536902233294
 31
0.0
  0
LINE
  5
27DEC
330
18
100
AcDbEntity
  8
0
  6
Continuous
100
AcDbLine
 10
1150.096858797326
 20
-2296.846303433294
 30
0.0
 11
1148.096858797326
 21
-2298.001004333295
 31
0.0
  0
CIRCLE
  5
27DED
330
18
100
AcDbEntity
  8
実線
100
AcDbCircle
 10
1148.096858797326
 20
-2295.691602833294
 30
0.0
 40
4.75
  0
LINE
  5
27DEE
330
18
100
AcDbEntity
  8
中心線
 48
0.2
100
AcDbLine
 10
1144.830858797326
 20
-2288.691602833294
 30
0.0
 11
1152.362858197326
 21
-2288.691602833294
 31
0.0
  0
CIRCLE
  5
27DEF
330
18
100
AcDbEntity
  8
0
  6
Continuous
100
AcDbCircle
 10
1148.096858797326
 20
-2295.691602833294
 30
0.0
 40
4.25
  0
CIRCLE
  5
27DF0
330
18
100
AcDbEntity
  8
0
  6
Continuous
100
AcDbCircle
 10
1148.096858797326
 20
-2295.691602833294
 30
0.0
 40
3.749999999999991
  0
LINE
  5
27DF1
330
18
100
AcDbEntity
  8
0
  6
Continuous
100
AcDbLine
 10
1148.096858797326
 20
-2293.382201833294
 30
0.0
 11
1146.096857797318
 21
-2294.536902633293
 31
0.0
  0
LINE
  5
27DF2
330
18
100
AcDbEntity
  8
0
  6
Continuous
100
AcDbLine
 10
1148.096858797326
 20
-2298.001003833295
 30
0.0
 11
1146.096857797318
 21
-2296.846303033293
 31
0.0
  0
LINE
  5
27DF3
330
18
100
AcDbEntity
  8
0
  6
Continuous
100
AcDbLine
 10
1146.096858797326
 20
-2294.536902333293
 30
0.0
 11
1146.096858797326
 21
-2296.846303333293
 31
0.0
  0
LINE
  5
27DF4
330
18
100
AcDbEntity
  8
実線
100
AcDbLine
 10
1140.596858797326
 20
-2287.691602833294
 30
0.0
 11
1142.596858797326
 21
-2287.691602833294
 31
0.0
  0
LINE
  5
27DF5
330
18
100
AcDbEntity
  8
実線
100
AcDbLine
 10
1140.596858797326
 20
-2305.691602833295
 30
0.0
 11
1140.596858797326
 21
-2287.691602833294
 31
0.0
  0
LINE
  5
27DF6
330
18
100
AcDbEntity
  8
0
  6
Continuous
100
AcDbLine
 10
1150.096858797326
 20
-2294.536902333293
 30
0.0
 11
1150.096858797326
 21
-2296.846303333293
 31
0.0
  0
LINE
  5
27DF7
330
18
100
AcDbEntity
  8
0
  6
Continuous
100
AcDbLine
 10
1150.096858797326
 20
-2186.846303433294
 30
0.0
 11
1148.096858797326
 21
-2188.001004333294
 31
0.0
  0
LINE
  5
27DF8
330
18
100
AcDbEntity
  8
0
  6
Continuous
100
AcDbLine
 10
1148.096858797326
 20
-2183.382201333293
 30
0.0
 11
1150.096858797326
 21
-2184.536902233294
 31
0.0
  0
CIRCLE
  5
27DF9
330
18
100
AcDbEntity
  8
実線
100
AcDbCircle
 10
1148.596858797326
 20
-2264.691602833294
 30
0.0
 40
1.75
  0
CIRCLE
  5
27DFA
330
18
100
AcDbEntity
  8
細線
 48
2.0
100
AcDbCircle
 10
1148.596858797326
 20
-2264.691602833294
 30
0.0
 40
2.0
  0
LINE
  5
27DFB
330
18
100
AcDbEntity
  8
中心線
 48
0.2
100
AcDbLine
 10
1144.830858797326
 20
-2264.691602833294
 30
0.0
 11
1152.362858197326
 21
-2264.691602833294
 31
0.0
  0
LINE
  5
27DFC
330
18
100
AcDbEntity
  8
0
  6
Continuous
100
AcDbLine
 10
1148.096858797326
 20
-2183.382201833294
 30
0.0
 11
1146.096857797318
 21
-2184.536902633293
 31
0.0
  0
LINE
  5
27DFD
330
18
100
AcDbEntity
  8
0
  6
Continuous
100
AcDbLine
 10
1148.096858797326
 20
-2188.001003833294
 30
0.0
 11
1146.096857797318
 21
-2186.846303033293
 31
0.0
  0
LINE
  5
27DFE
330
18
100
AcDbEntity
  8
0
  6
Continuous
100
AcDbLine
 10
1146.096858797326
 20
-2184.536902333293
 30
0.0
 11
1146.096858797326
 21
-2186.846303333293
 31
0.0
  0
LINE
  5
27DFF
330
18
100
AcDbEntity
  8
実線
100
AcDbLine
 10
1140.596858797326
 20
-2193.691602833293
 30
0.0
 11
1142.596858797326
 21
-2193.691602833293
 31
0.0
  0
LINE
  5
27E00
330
18
100
AcDbEntity
  8
0
  6
Continuous
100
AcDbLine
 10
1150.096858797326
 20
-2184.536902333293
 30
0.0
 11
1150.096858797326
 21
-2186.846303333293
 31
0.0
  0
LINE
  5
27E02
330
18
100
AcDbEntity
  8
実線
100
AcDbLine
 10
1180.596858797326
 20
-2190.691602833294
 30
0.0
 11
1180.596858797326
 21
-2175.691602833293
 31
0.0
  0
LINE
  5
27E03
330
18
100
AcDbEntity
  8
実線
100
AcDbLine
 10
1166.596858797326
 20
-2305.691602833295
 30
0.0
 11
1180.596858797326
 21
-2305.691602833295
 31
0.0
  0
LINE
  5
27E04
102
{ACAD_REACTORS
330
27D0A
102
}
330
18
100
AcDbEntity
  8
中心線
 48
0.5
100
AcDbLine
 10
1171.096858797326
 20
-2292.691602833294
 30
0.0
 11
1171.096858797326
 21
-2306.691602833295
 31
0.0
  0
LINE
  5
27E05
330
18
100
AcDbEntity
  8
実線
100
AcDbLine
 10
1166.596858797326
 20
-2305.691602833295
 30
0.0
 11
1166.596858797326
 21
-2299.691602833294
 31
0.0
  0
LINE
  5
27E06
330
18
100
AcDbEntity
  8
実線
100
AcDbLine
 10
1180.596858797326
 20
-2290.691602833294
 30
0.0
 11
1180.596858797326
 21
-2305.691602833295
 31
0.0
  0
LINE
  5
27E07
330
18
100
AcDbEntity
  8
実線
100
AcDbLine
 10
1166.596858797326
 20
-2175.691602833293
 30
0.0
 11
1180.596858797326
 21
-2175.691602833293
 31
0.0
  0
LINE
  5
27E08
330
18
100
AcDbEntity
  8
実線
100
AcDbLine
 10
1166.596858797326
 20
-2175.691602833293
 30
0.0
 11
1166.596858797326
 21
-2181.691602833294
 31
0.0
  0
LINE
  5
2AD72
330
18
100
AcDbEntity
  8
中心線
 48
0.5
100
AcDbLine
 10
489.431701924283
 20
-2183.191602833293
 30
0.0
 11
474.4317019242831
 21
-2183.191602833293
 31
0.0
  0
LINE
  5
2AD73
330
18
100
AcDbEntity
  8
中心線
 48
0.5
100
AcDbLine
 10
474.4317019242831
 20
-2298.191602833294
 30
0.0
 11
489.431701924283
 21
-2298.191602833294
 31
0.0
  0
LINE
  5
2AD74
330
18
100
AcDbEntity
  8
中心線
 48
0.5
100
AcDbLine
 10
481.931701924283
 20
-2190.691602833294
 30
0.0
 11
481.931701924283
 21
-2175.691602833293
 31
0.0
  0
CIRCLE
  5
2AD75
330
18
100
AcDbEntity
  8
細線
100
AcDbCircle
 10
481.931701924283
 20
-2183.191602833293
 30
0.0
 40
2.5
  0
CIRCLE
  5
2AD76
330
18
100
AcDbEntity
  8
実線
100
AcDbCircle
 10
481.931701924283
 20
-2183.191602833293
 30
0.0
 40
2.066999999999999
  0
LINE
  5
2AD77
330
18
100
AcDbEntity
  8
中心線
 48
0.5
100
AcDbLine
 10
481.931701924283
 20
-2290.691602833294
 30
0.0
 11
481.931701924283
 21
-2305.691602833293
 31
0.0
  0
CIRCLE
  5
2AD78
330
18
100
AcDbEntity
  8
実線
100
AcDbCircle
 10
481.931701924283
 20
-2298.191602833294
 30
0.0
 40
2.066999999999999
  0
CIRCLE
  5
2AD79
330
18
100
AcDbEntity
  8
細線
100
AcDbCircle
 10
481.931701924283
 20
-2298.191602833294
 30
0.0
 40
2.5
  0
LINE
  5
2AD7B
330
18
100
AcDbEntity
  8
中心線
 48
0.5
100
AcDbLine
 10
553.4317019242831
 20
-2183.191602833293
 30
0.0
 11
538.431701924283
 21
-2183.191602833293
 31
0.0
  0
LINE
  5
2AD7C
330
18
100
AcDbEntity
  8
中心線
 48
0.5
100
AcDbLine
 10
538.431701924283
 20
-2298.191602833294
 30
0.0
 11
553.4317019242831
 21
-2298.191602833294
 31
0.0
  0
LINE
  5
2AD7D
330
18
100
AcDbEntity
  8
中心線
 48
0.5
100
AcDbLine
 10
545.931701924283
 20
-2190.691602833294
 30
0.0
 11
545.931701924283
 21
-2175.691602833293
 31
0.0
  0
CIRCLE
  5
2AD7E
330
18
100
AcDbEntity
  8
細線
100
AcDbCircle
 10
545.931701924283
 20
-2183.191602833293
 30
0.0
 40
2.5
  0
CIRCLE
  5
2AD7F
330
18
100
AcDbEntity
  8
実線
100
AcDbCircle
 10
545.931701924283
 20
-2183.191602833293
 30
0.0
 40
2.066999999999999
  0
LINE
  5
2AD80
330
18
100
AcDbEntity
  8
中心線
 48
0.5
100
AcDbLine
 10
545.931701924283
 20
-2290.691602833294
 30
0.0
 11
545.931701924283
 21
-2305.691602833293
 31
0.0
  0
CIRCLE
  5
2AD81
330
18
100
AcDbEntity
  8
実線
100
AcDbCircle
 10
545.931701924283
 20
-2298.191602833294
 30
0.0
 40
2.066999999999999
  0
CIRCLE
  5
2AD82
330
18
100
AcDbEntity
  8
細線
100
AcDbCircle
 10
545.931701924283
 20
-2298.191602833294
 30
0.0
 40
2.5
  0
LINE
  5
2AD84
330
18
100
AcDbEntity
  8
中心線
 48
0.5
100
AcDbLine
 10
617.431701924283
 20
-2183.191602833293
 30
0.0
 11
602.431701924283
 21
-2183.191602833293
 31
0.0
  0
LINE
  5
2AD85
330
18
100
AcDbEntity
  8
中心線
 48
0.5
100
AcDbLine
 10
602.431701924283
 20
-2298.191602833294
 30
0.0
 11
617.431701924283
 21
-2298.191602833294
 31
0.0
  0
LINE
  5
2AD86
330
18
100
AcDbEntity
  8
中心線
 48
0.5
100
AcDbLine
 10
609.931701924283
 20
-2190.691602833294
 30
0.0
 11
609.931701924283
 21
-2175.691602833293
 31
0.0
  0
CIRCLE
  5
2AD87
330
18
100
AcDbEntity
  8
細線
100
AcDbCircle
 10
609.931701924283
 20
-2183.191602833293
 30
0.0
 40
2.5
  0
CIRCLE
  5
2AD88
330
18
100
AcDbEntity
  8
実線
100
AcDbCircle
 10
609.931701924283
 20
-2183.191602833293
 30
0.0
 40
2.066999999999999
  0
LINE
  5
2AD89
330
18
100
AcDbEntity
  8
中心線
 48
0.5
100
AcDbLine
 10
609.931701924283
 20
-2290.691602833294
 30
0.0
 11
609.931701924283
 21
-2305.691602833293
 31
0.0
  0
CIRCLE
  5
2AD8A
330
18
100
AcDbEntity
  8
実線
100
AcDbCircle
 10
609.931701924283
 20
-2298.191602833294
 30
0.0
 40
2.066999999999999
  0
CIRCLE
  5
2AD8B
330
18
100
AcDbEntity
  8
細線
100
AcDbCircle
 10
609.931701924283
 20
-2298.191602833294
 30
0.0
 40
2.5
  0
LINE
  5
2AD8D
330
18
100
AcDbEntity
  8
中心線
 48
0.5
100
AcDbLine
 10
681.431701924283
 20
-2183.191602833293
 30
0.0
 11
666.431701924283
 21
-2183.191602833293
 31
0.0
  0
LINE
  5
2AD8E
330
18
100
AcDbEntity
  8
中心線
 48
0.5
100
AcDbLine
 10
666.431701924283
 20
-2298.191602833294
 30
0.0
 11
681.431701924283
 21
-2298.191602833294
 31
0.0
  0
LINE
  5
2AD8F
330
18
100
AcDbEntity
  8
中心線
 48
0.5
100
AcDbLine
 10
673.9317019242831
 20
-2190.691602833294
 30
0.0
 11
673.9317019242831
 21
-2175.691602833293
 31
0.0
  0
CIRCLE
  5
2AD90
330
18
100
AcDbEntity
  8
細線
100
AcDbCircle
 10
673.9317019242831
 20
-2183.191602833293
 30
0.0
 40
2.5
  0
CIRCLE
  5
2AD91
330
18
100
AcDbEntity
  8
実線
100
AcDbCircle
 10
673.9317019242831
 20
-2183.191602833293
 30
0.0
 40
2.066999999999999
  0
LINE
  5
2AD92
330
18
100
AcDbEntity
  8
中心線
 48
0.5
100
AcDbLine
 10
673.9317019242831
 20
-2290.691602833294
 30
0.0
 11
673.9317019242831
 21
-2305.691602833293
 31
0.0
  0
CIRCLE
  5
2AD93
330
18
100
AcDbEntity
  8
実線
100
AcDbCircle
 10
673.9317019242831
 20
-2298.191602833294
 30
0.0
 40
2.066999999999999
  0
CIRCLE
  5
2AD94
330
18
100
AcDbEntity
  8
細線
100
AcDbCircle
 10
673.9317019242831
 20
-2298.191602833294
 30
0.0
 40
2.5
  0
LINE
  5
2AD96
330
18
100
AcDbEntity
  8
中心線
 48
0.5
100
AcDbLine
 10
745.431701924283
 20
-2183.191602833293
 30
0.0
 11
730.431701924283
 21
-2183.191602833293
 31
0.0
  0
LINE
  5
2AD97
330
18
100
AcDbEntity
  8
中心線
 48
0.5
100
AcDbLine
 10
730.431701924283
 20
-2298.191602833294
 30
0.0
 11
745.431701924283
 21
-2298.191602833294
 31
0.0
  0
LINE
  5
2AD98
330
18
100
AcDbEntity
  8
中心線
 48
0.5
100
AcDbLine
 10
737.931701924283
 20
-2190.691602833294
 30
0.0
 11
737.931701924283
 21
-2175.691602833293
 31
0.0
  0
CIRCLE
  5
2AD99
330
18
100
AcDbEntity
  8
細線
100
AcDbCircle
 10
737.931701924283
 20
-2183.191602833293
 30
0.0
 40
2.5
  0
CIRCLE
  5
2AD9A
330
18
100
AcDbEntity
  8
実線
100
AcDbCircle
 10
737.931701924283
 20
-2183.191602833293
 30
0.0
 40
2.066999999999999
  0
LINE
  5
2AD9B
330
18
100
AcDbEntity
  8
中心線
 48
0.5
100
AcDbLine
 10
737.931701924283
 20
-2290.691602833294
 30
0.0
 11
737.931701924283
 21
-2305.691602833293
 31
0.0
  0
CIRCLE
  5
2AD9C
330
18
100
AcDbEntity
  8
実線
100
AcDbCircle
 10
737.931701924283
 20
-2298.191602833294
 30
0.0
 40
2.066999999999999
  0
CIRCLE
  5
2AD9D
330
18
100
AcDbEntity
  8
細線
100
AcDbCircle
 10
737.931701924283
 20
-2298.191602833294
 30
0.0
 40
2.5
  0
LINE
  5
2AD9F
330
18
100
AcDbEntity
  8
中心線
 48
0.5
100
AcDbLine
 10
809.4317019242831
 20
-2183.191602833293
 30
0.0
 11
794.4317019242831
 21
-2183.191602833293
 31
0.0
  0
LINE
  5
2ADA0
330
18
100
AcDbEntity
  8
中心線
 48
0.5
100
AcDbLine
 10
794.4317019242831
 20
-2298.191602833294
 30
0.0
 11
809.4317019242831
 21
-2298.191602833294
 31
0.0
  0
LINE
  5
2ADA1
330
18
100
AcDbEntity
  8
中心線
 48
0.5
100
AcDbLine
 10
801.931701924283
 20
-2190.691602833294
 30
0.0
 11
801.931701924283
 21
-2175.691602833293
 31
0.0
  0
CIRCLE
  5
2ADA2
330
18
100
AcDbEntity
  8
細線
100
AcDbCircle
 10
801.931701924283
 20
-2183.191602833293
 30
0.0
 40
2.5
  0
CIRCLE
  5
2ADA3
330
18
100
AcDbEntity
  8
実線
100
AcDbCircle
 10
801.931701924283
 20
-2183.191602833293
 30
0.0
 40
2.066999999999999
  0
LINE
  5
2ADA4
330
18
100
AcDbEntity
  8
中心線
 48
0.5
100
AcDbLine
 10
801.931701924283
 20
-2290.691602833294
 30
0.0
 11
801.931701924283
 21
-2305.691602833293
 31
0.0
  0
CIRCLE
  5
2ADA5
330
18
100
AcDbEntity
  8
実線
100
AcDbCircle
 10
801.931701924283
 20
-2298.191602833294
 30
0.0
 40
2.066999999999999
  0
CIRCLE
  5
2ADA6
330
18
100
AcDbEntity
  8
細線
100
AcDbCircle
 10
801.931701924283
 20
-2298.191602833294
 30
0.0
 40
2.5
  0
LINE
  5
2ADA8
330
18
100
AcDbEntity
  8
中心線
 48
0.5
100
AcDbLine
 10
873.431701924283
 20
-2183.191602833293
 30
0.0
 11
858.4317019242829
 21
-2183.191602833293
 31
0.0
  0
LINE
  5
2ADA9
330
18
100
AcDbEntity
  8
中心線
 48
0.5
100
AcDbLine
 10
858.4317019242829
 20
-2298.191602833294
 30
0.0
 11
873.431701924283
 21
-2298.191602833294
 31
0.0
  0
LINE
  5
2ADAA
330
18
100
AcDbEntity
  8
中心線
 48
0.5
100
AcDbLine
 10
865.9317019242831
 20
-2190.691602833294
 30
0.0
 11
865.9317019242831
 21
-2175.691602833293
 31
0.0
  0
CIRCLE
  5
2ADAB
330
18
100
AcDbEntity
  8
細線
100
AcDbCircle
 10
865.9317019242831
 20
-2183.191602833293
 30
0.0
 40
2.5
  0
CIRCLE
  5
2ADAC
330
18
100
AcDbEntity
  8
実線
100
AcDbCircle
 10
865.9317019242831
 20
-2183.191602833293
 30
0.0
 40
2.066999999999999
  0
LINE
  5
2ADAD
330
18
100
AcDbEntity
  8
中心線
 48
0.5
100
AcDbLine
 10
865.9317019242831
 20
-2290.691602833294
 30
0.0
 11
865.9317019242831
 21
-2305.691602833293
 31
0.0
  0
CIRCLE
  5
2ADAE
330
18
100
AcDbEntity
  8
実線
100
AcDbCircle
 10
865.9317019242831
 20
-2298.191602833294
 30
0.0
 40
2.066999999999999
  0
CIRCLE
  5
2ADAF
330
18
100
AcDbEntity
  8
細線
100
AcDbCircle
 10
865.9317019242831
 20
-2298.191602833294
 30
0.0
 40
2.5
  0
LINE
  5
2B4D5
330
18
100
AcDbEntity
  8
実線
100
AcDbLine
 10
297.9757426446283
 20
-2181.691602833294
 30
0.0
 11
285.9757426446283
 21
-2181.691602833294
 31
0.0
  0
LINE
  5
2B4D6
330
18
100
AcDbEntity
  8
実線
100
AcDbLine
 10
297.9757426446283
 20
-2299.691602833294
 30
0.0
 11
285.9757426446283
 21
-2299.691602833294
 31
0.0
  0
LWPOLYLINE
  5
2B4D7
330
18
100
AcDbEntity
  8
実線
100
AcDbPolyline
 90
        4
 70
     1
 43
0.0
 10
297.9757426446283
 20
-2290.691602833294
 10
297.9757426446283
 20
-2190.691602833294
 10
271.9757426446283
 20
-2190.691602833294
 10
271.9757426446283
 20
-2290.691602833294
  0
LINE
  5
2B4D8
330
18
100
AcDbEntity
  8
中心線
 48
0.5
100
AcDbLine
 10
261.9757426446283
 20
-2240.691602833294
 30
0.0
 11
319.9757426446283
 21
-2240.691602833294
 31
0.0
  0
LINE
  5
2B4D9
330
18
100
AcDbEntity
  8
実線
100
AcDbLine
 10
311.9757426446283
 20
-2305.691602833295
 30
0.0
 11
285.9757426446293
 21
-2305.691602833295
 31
0.0
  0
LINE
  5
2B4DA
330
18
100
AcDbEntity
  8
実線
100
AcDbLine
 10
311.9757426446283
 20
-2175.691602833293
 30
0.0
 11
285.9757426446293
 21
-2175.691602833293
 31
0.0
  0
LINE
  5
2B4DB
330
18
100
AcDbEntity
  8
実線
100
AcDbLine
 10
271.9757426446283
 20
-2190.691602833294
 30
0.0
 11
271.9757426446283
 21
-2175.691602833293
 31
0.0
  0
LINE
  5
2B4DE
330
18
100
AcDbEntity
  8
実線
100
AcDbLine
 10
285.9757426446283
 20
-2305.691602833295
 30
0.0
 11
271.9757426446283
 21
-2305.691602833295
 31
0.0
  0
LINE
  5
2B4DF
330
18
100
AcDbEntity
  8
実線
100
AcDbLine
 10
271.9757426446283
 20
-2290.691602833294
 30
0.0
 11
271.9757426446283
 21
-2305.691602833295
 31
0.0
  0
LINE
  5
2B4E0
330
18
100
AcDbEntity
  8
実線
100
AcDbLine
 10
285.9757426446283
 20
-2305.691602833295
 30
0.0
 11
285.9757426446274
 21
-2299.691602833294
 31
0.0
  0
LINE
  5
2B4E1
330
18
100
AcDbEntity
  8
実線
100
AcDbLine
 10
285.9757426446283
 20
-2175.691602833293
 30
0.0
 11
271.9757426446283
 21
-2175.691602833293
 31
0.0
  0
LINE
  5
2B4E2
330
18
100
AcDbEntity
  8
実線
100
AcDbLine
 10
285.9757426446283
 20
-2175.691602833293
 30
0.0
 11
285.9757426446274
 21
-2181.691602833294
 31
0.0
  0
LINE
  5
2B4E3
330
18
100
AcDbEntity
  8
実線
100
AcDbLine
 10
311.9757426446283
 20
-2175.691602833293
 30
0.0
 11
311.9757426446283
 21
-2193.691602833293
 31
0.0
  0
CIRCLE
  5
2B4E4
330
18
100
AcDbEntity
  8
0
  6
Continuous
100
AcDbCircle
 10
304.4757426446281
 20
-2185.691602833294
 30
0.0
 40
3.749999999999991
  0
CIRCLE
  5
2B4E5
330
18
100
AcDbEntity
  8
0
  6
Continuous
100
AcDbCircle
 10
304.4757426446281
 20
-2185.691602833294
 30
0.0
 40
4.25
  0
CIRCLE
  5
2B4E6
330
18
100
AcDbEntity
  8
実線
100
AcDbCircle
 10
304.4757426446281
 20
-2185.691602833294
 30
0.0
 40
4.75
  0
LWPOLYLINE
  5
2B4E7
330
18
100
AcDbEntity
  8
実線
100
AcDbPolyline
 90
        4
 70
     1
 43
0.0
 10
309.9757426446283
 20
-2179.691602833294
 10
297.9757426446283
 20
-2179.691602833294
 10
297.9757426446283
 20
-2301.691602833294
 10
309.9757426446283
 20
-2301.691602833294
  0
CIRCLE
  5
2B4E8
330
18
100
AcDbEntity
  8
0
  6
Continuous
100
AcDbCircle
 10
304.4757426446281
 20
-2295.691602833294
 30
0.0
 40
4.25
  0
CIRCLE
  5
2B4E9
330
18
100
AcDbEntity
  8
実線
100
AcDbCircle
 10
304.4757426446281
 20
-2295.691602833294
 30
0.0
 40
4.75
  0
LINE
  5
2B4EA
330
18
100
AcDbEntity
  8
0
  6
Continuous
100
AcDbLine
 10
304.4757426446281
 20
-2293.382201833294
 30
0.0
 11
306.4757436446357
 21
-2294.536902633293
 31
0.0
  0
LINE
  5
2B4EB
330
18
100
AcDbEntity
  8
0
  6
Continuous
100
AcDbLine
 10
304.4757426446281
 20
-2293.382201333293
 30
0.0
 11
302.4757426446281
 21
-2294.536902233294
 31
0.0
  0
LINE
  5
2B4EC
330
18
100
AcDbEntity
  8
0
  6
Continuous
100
AcDbLine
 10
304.4757426446281
 20
-2298.001003833295
 30
0.0
 11
306.4757436446357
 21
-2296.846303033293
 31
0.0
  0
LINE
  5
2B4ED
330
18
100
AcDbEntity
  8
0
  6
Continuous
100
AcDbLine
 10
302.4757426446281
 20
-2296.846303433294
 30
0.0
 11
304.4757426446281
 21
-2298.001004333295
 31
0.0
  0
LINE
  5
2B4EE
330
18
100
AcDbEntity
  8
0
  6
Continuous
100
AcDbLine
 10
302.4757426446281
 20
-2294.536902333293
 30
0.0
 11
302.4757426446281
 21
-2296.846303333293
 31
0.0
  0
LINE
  5
2B4EF
330
18
100
AcDbEntity
  8
0
  6
Continuous
100
AcDbLine
 10
306.4757426446281
 20
-2294.536902333293
 30
0.0
 11
306.4757426446281
 21
-2296.846303333293
 31
0.0
  0
CIRCLE
  5
2B4F0
330
18
100
AcDbEntity
  8
0
  6
Continuous
100
AcDbCircle
 10
304.4757426446281
 20
-2295.691602833294
 30
0.0
 40
3.749999999999991
  0
LINE
  5
2B4F1
330
18
100
AcDbEntity
  8
0
  6
Continuous
100
AcDbLine
 10
304.4757426446281
 20
-2183.382201833294
 30
0.0
 11
306.4757436446357
 21
-2184.536902633293
 31
0.0
  0
LINE
  5
2B4F2
330
18
100
AcDbEntity
  8
0
  6
Continuous
100
AcDbLine
 10
304.4757426446281
 20
-2183.382201333293
 30
0.0
 11
302.4757426446281
 21
-2184.536902233294
 31
0.0
  0
LINE
  5
2B4F3
330
18
100
AcDbEntity
  8
0
  6
Continuous
100
AcDbLine
 10
302.4757426446281
 20
-2184.536902333293
 30
0.0
 11
302.4757426446281
 21
-2186.846303333293
 31
0.0
  0
LINE
  5
2B4F4
330
18
100
AcDbEntity
  8
0
  6
Continuous
100
AcDbLine
 10
306.4757426446281
 20
-2184.536902333293
 30
0.0
 11
306.4757426446281
 21
-2186.846303333293
 31
0.0
  0
LINE
  5
2B4F5
330
18
100
AcDbEntity
  8
0
  6
Continuous
100
AcDbLine
 10
304.4757426446281
 20
-2188.001003833294
 30
0.0
 11
306.4757436446357
 21
-2186.846303033293
 31
0.0
  0
LINE
  5
2B4F6
330
18
100
AcDbEntity
  8
0
  6
Continuous
100
AcDbLine
 10
302.4757426446281
 20
-2186.846303433294
 30
0.0
 11
304.4757426446281
 21
-2188.001004333294
 31
0.0
  0
LINE
  5
2B4F7
330
18
100
AcDbEntity
  8
実線
100
AcDbLine
 10
311.5757426446283
 20
-2193.691602833293
 30
0.0
 11
311.5757426446283
 21
-2287.691602833294
 31
0.0
  0
LINE
  5
2B4F8
330
18
100
AcDbEntity
  8
実線
100
AcDbLine
 10
311.9757426446283
 20
-2287.691602833294
 30
0.0
 11
309.9757426446283
 21
-2287.691602833294
 31
0.0
  0
LINE
  5
2B4F9
330
18
100
AcDbEntity
  8
実線
100
AcDbLine
 10
311.9757426446283
 20
-2305.691602833295
 30
0.0
 11
311.9757426446283
 21
-2287.691602833294
 31
0.0
  0
LINE
  5
2B4FA
330
18
100
AcDbEntity
  8
実線
100
AcDbLine
 10
311.9757426446283
 20
-2193.691602833293
 30
0.0
 11
309.9757426446283
 21
-2193.691602833293
 31
0.0
  0
TEXT
  5
2B4FD
330
18
100
AcDbEntity
  8
0
100
AcDbText
 10
282.5344829603728
 20
-2224.988446291348
 30
0.0
 40
2.0
  1
SER No.******
 50
270.0
 41
1.199999999999999
  7
MS\U+FF7A\U+FF9E\U+FF7C\U+FF6F\U+FF78N
 11
282.1691392103728
 21
-2224.988446291348
 31
0.0
100
AcDbText
 73
     1
  0
TEXT
  5
2B4FE
330
18
100
AcDbEntity
  8
0
100
AcDbText
 10
285.3584747637534
 20
-2225.01557286416
 30
0.0
 40
2.6
  1
MODEL:CLNA1500MA
 50
270.0
 41
1.199999999999999
  7
MS\U+FF7A\U+FF9E\U+FF7C\U+FF6F\U+FF78N
 11
284.8835278887534
 21
-2225.01557286416
 31
0.0
100
AcDbText
 73
     1
  0
HATCH
  5
2B4FF
330
18
100
AcDbEntity
  8
0
100
AcDbHatch
 10
0.0
 20
0.0
 30
0.0
210
0.0
220
0.0
230
1.0
  2
SOLID
 70
     1
 71
     1
 91
        2
 92
       17
 93
        1
 72
     2
 10
279.23101606263
 20
-2228.140649334372
 40
0.6007500000000002
 50
0.0
 51
360.0
 73
     1
 97
        1
330
2B506
 92
        1
 93
        8
 72
     2
 10
279.2328788533275
 20
-2228.141580729721
 40
1.00311322310025
 50
23.58977727260604
 51
179.9468005913668
 73
     1
 72
     2
 10
279.0307660626301
 20
-2228.140649334372
 40
0.8009999999999999
 50
180.0
 51
360.0
 73
     1
 72
     1
 10
279.8317660626306
 20
-2228.140649334372
 11
279.8317660626306
 21
-2230.383449334372
 72
     1
 10
279.8317660626306
 20
-2230.383449334372
 11
277.82926606263
 21
-2230.143149334372
 72
     1
 10
277.82926606263
 20
-2230.143149334372
 11
277.82926606263
 21
-2225.737649334372
 72
     1
 10
277.82926606263
 20
-2225.737649334372
 11
281.0332660626297
 21
-2226.138149334372
 72
     1
 10
281.0332660626297
 20
-2226.138149334372
 11
281.0332660626297
 21
-2230.543649334372
 72
     1
 10
281.0332660626297
 20
-2230.543649334372
 11
280.1521660626302
 21
-2227.740149334373
 97
        8
330
2B50C
330
2B507
330
2B50B
330
2B509
330
2B501
330
2B511
330
2B500
330
2B50A
 75
     0
 76
     1
 98
        1
 10
281.7104908783901
 20
-2026.662939240137
  0
LINE
  5
2B500
102
{ACAD_REACTORS
330
2B4FF
102
}
330
18
100
AcDbEntity
  8
0
100
AcDbLine
 10
281.0332660626297
 20
-2226.138149334372
 30
0.0
 11
281.0332660626297
 21
-2230.543649334372
 31
0.0
  0
LINE
  5
2B501
102
{ACAD_REACTORS
330
2B4FF
102
}
330
18
100
AcDbEntity
  8
0
100
AcDbLine
 10
277.82926606263
 20
-2225.737649334372
 30
0.0
 11
277.82926606263
 21
-2230.143149334372
 31
0.0
  0
LINE
  5
2B502
330
18
100
AcDbEntity
  8
0
100
AcDbLine
 10
288.9757426446283
 20
-2257.691602833293
 30
0.0
 11
288.9757426446283
 21
-2223.691602833294
 31
0.0
  0
LINE
  5
2B503
330
18
100
AcDbEntity
  8
0
100
AcDbLine
 10
281.9757426446283
 20
-2223.191602833294
 30
0.0
 11
281.9757426446283
 21
-2258.191602833294
 31
0.0
  0
LINE
  5
2B504
330
18
100
AcDbEntity
  8
0
100
AcDbLine
 10
276.9757426446283
 20
-2223.691602833294
 30
0.0
 11
276.9757426446283
 21
-2257.691602833293
 31
0.0
  0
TEXT
  5
2B505
330
18
100
AcDbEntity
  8
0
100
AcDbText
 10
277.8770002012141
 20
-2231.359748558759
 30
0.0
 40
1.44
  1
DENSO
 50
270.0
 41
1.3
  7
TIMESNR
100
AcDbText
  0
CIRCLE
  5
2B506
102
{ACAD_REACTORS
330
2B4FF
102
}
330
18
100
AcDbEntity
  8
0
100
AcDbCircle
 10
279.23101606263
 20
-2228.140649334372
 30
0.0
 40
0.6007500000000002
  0
ARC
  5
2B507
102
{ACAD_REACTORS
330
2B4FF
102
}
330
18
100
AcDbEntity
  8
0
100
AcDbCircle
 10
279.0307660626301
 20
-2228.140649334372
 30
0.0
 40
0.8009999999999999
100
AcDbArc
 50
180.0
 51
0.0
  0
TEXT
  5
2B508
330
18
100
AcDbEntity
  8
0
100
AcDbText
 10
279.5737626101998
 20
-2231.4811616689
 30
0.0
 40
1.44
  1
NIKKI
 50
270.0
 41
1.25
  7
TIMESNR
100
AcDbText
  0
LINE
  5
2B509
102
{ACAD_REACTORS
330
2B4FF
102
}
330
18
100
AcDbEntity
  8
0
100
AcDbLine
 10
277.82926606263
 20
-2230.143149334372
 30
0.0
 11
279.8317660626306
 21
-2230.383449334372
 31
0.0
  0
LINE
  5
2B50A
102
{ACAD_REACTORS
330
2B4FF
102
}
330
18
100
AcDbEntity
  8
0
100
AcDbLine
 10
281.0332660626297
 20
-2230.543649334372
 30
0.0
 11
280.1521660626302
 21
-2227.740149334373
 31
0.0
  0
LINE
  5
2B50B
102
{ACAD_REACTORS
330
2B4FF
102
}
330
18
100
AcDbEntity
  8
0
100
AcDbLine
 10
279.8317660626306
 20
-2228.140649334372
 30
0.0
 11
279.8317660626306
 21
-2230.383449334372
 31
0.0
  0
ARC
  5
2B50C
102
{ACAD_REACTORS
330
2B4FF
102
}
330
18
100
AcDbEntity
  8
0
100
AcDbCircle
 10
279.2328788533275
 20
-2228.141580729721
 30
0.0
 40
1.00311322310025
100
AcDbArc
 50
23.58977727260604
 51
179.9468005913668
  0
LINE
  5
2B50D
330
18
100
AcDbEntity
  8
0
100
AcDbLine
 10
277.4757426446283
 20
-2258.191602833294
 30
0.0
 11
288.4757426446283
 21
-2258.191602833294
 31
0.0
  0
ARC
  5
2B50E
330
18
100
AcDbEntity
  8
0
100
AcDbCircle
 10
288.4757426446283
 20
-2257.691602833293
 30
0.0
 40
0.5
100
AcDbArc
 50
270.0
 51
0.0
  0
ARC
  5
2B50F
330
18
100
AcDbEntity
  8
0
100
AcDbCircle
 10
277.4757426446283
 20
-2257.691602833293
 30
0.0
 40
0.5
100
AcDbArc
 50
180.0
 51
270.0
  0
LINE
  5
2B510
330
18
100
AcDbEntity
  8
0
100
AcDbLine
 10
288.4757426446283
 20
-2223.191602833294
 30
0.0
 11
277.4757426446283
 21
-2223.191602833294
 31
0.0
  0
LINE
  5
2B511
102
{ACAD_REACTORS
330
2B4FF
102
}
330
18
100
AcDbEntity
  8
0
100
AcDbLine
 10
277.82926606263
 20
-2225.737649334372
 30
0.0
 11
281.0332660626297
 21
-2226.138149334372
 31
0.0
  0
ARC
  5
2B512
330
18
100
AcDbEntity
  8
0
100
AcDbCircle
 10
288.4757426446283
 20
-2223.691602833294
 30
0.0
 40
0.5
100
AcDbArc
 50
0.0
 51
90.0
  0
ARC
  5
2B513
330
18
100
AcDbEntity
  8
0
100
AcDbCircle
 10
277.4757426446283
 20
-2223.691602833294
 30
0.0
 40
0.5
100
AcDbArc
 50
90.0
 51
180.0
  0
TEXT
  5
2B514
330
18
100
AcDbEntity
  8
0
100
AcDbText
 10
279.4802340584392
 20
-2242.813263227846
 30
137.5
 40
1.5
  1
SN-16140
 50
270.0
  7
MS\U+FF7A\U+FF9E\U+FF7C\U+FF6F\U+FF78N
 11
279.2062262459392
 21
-2242.813263227846
 31
137.5
100
AcDbText
 73
     1
  0
TEXT
  5
2B515
330
18
100
AcDbEntity
  8
0
100
AcDbText
 10
277.610448008053
 20
-2242.813263227846
 30
137.5
 40
1.5
  1
MADE IN JAPAN
 50
270.0
  7
MS\U+FF7A\U+FF9E\U+FF7C\U+FF6F\U+FF78N
 11
277.336440195553
 21
-2242.813263227846
 31
137.5
100
AcDbText
 73
     1
  0
HATCH
  5
2B516
330
18
100
AcDbEntity
  8
細線
100
AcDbHatch
 10
0.0
 20
0.0
 30
0.0
210
0.0
220
0.0
230
1.0
  2
ANSI31
 70
     0
 71
     0
 91
        2
 92
        7
 72
     1
 73
     1
 93
        8
 10
286.1649003465761
 20
-2220.162445131347
 42
0.8256926312273156
 10
284.9757426446283
 20
-2213.991602833294
 42
0.0
 10
284.9757426446283
 20
-2213.458269499961
 42
0.0
 10
283.9090759779617
 20
-2214.524936166627
 42
0.0
 10
284.9757426446283
 20
-2215.591602833294
 42
0.0
 10
284.9757426446283
 20
-2215.05826949996
 42
-0.8235057969380607
 10
285.7788161615133
 20
-2219.168009683512
 42
0.0
 10
286.4690759779621
 20
-2219.85826949996
 42
0.0
 97
        0
 92
        7
 72
     1
 73
     1
 93
        8
 10
283.7865849426814
 20
-2214.220760535241
 42
0.8256926312273465
 10
284.9757426446283
 20
-2220.391602833294
 42
0.0
 10
284.9757426446283
 20
-2220.924936166627
 42
0.0
 10
286.0424093112949
 20
-2219.85826949996
 42
0.0
 10
284.9757426446283
 20
-2218.791602833294
 42
0.0
 10
284.9757426446283
 20
-2219.324936166628
 42
-0.8235057969380607
 10
284.1726691277433
 20
-2215.215195983075
 42
0.0
 10
283.4824093112954
 20
-2214.524936166627
 42
0.0
 97
        0
 75
     0
 76
     1
 52
270.0
 41
0.0106666666666667
 77
     0
 78
     1
 53
314.9999999999999
 43
174.4566195835775
 44
-1835.053043621028
 45
0.0239473496561844
 46
0.0239473496561844
 79
     0
 47
0.0
 98
        2
 10
287.2545157952907
 20
-2218.524496796897
 10
284.293066208608
 20
-2219.834368729468
1001
ACAD
1010
0.0
1020
0.0
1030
0.0
  0
LINE
  5
2B517
102
{ACAD_REACTORS
330
2B516
102
}
330
18
100
AcDbEntity
  8
細線
100
AcDbLine
 10
284.9757426446283
 20
-2218.791602833294
 30
0.0
 11
284.9757426446283
 21
-2219.324936166628
 31
0.0
  0
LINE
  5
2B518
102
{ACAD_REACTORS
330
2B516
102
}
330
18
100
AcDbEntity
  8
細線
100
AcDbLine
 10
286.0424093112949
 20
-2219.85826949996
 30
0.0
 11
284.9757426446283
 21
-2218.791602833294
 31
0.0
  0
LINE
  5
2B519
102
{ACAD_REACTORS
330
2B516
102
}
330
18
100
AcDbEntity
  8
細線
100
AcDbLine
 10
286.0424093112949
 20
-2219.85826949996
 30
0.0
 11
284.9757426446283
 21
-2220.924936166627
 31
0.0
  0
LINE
  5
2B51A
102
{ACAD_REACTORS
330
2B516
102
}
330
18
100
AcDbEntity
  8
細線
100
AcDbLine
 10
284.9757426446283
 20
-2215.591602833294
 30
0.0
 11
284.9757426446283
 21
-2215.05826949996
 31
0.0
  0
LINE
  5
2B51B
102
{ACAD_REACTORS
330
2B516
102
}
330
18
100
AcDbEntity
  8
細線
100
AcDbLine
 10
283.9090759779617
 20
-2214.524936166627
 30
0.0
 11
284.9757426446283
 21
-2215.591602833294
 31
0.0
  0
LINE
  5
2B51C
102
{ACAD_REACTORS
330
2B516
102
}
330
18
100
AcDbEntity
  8
細線
100
AcDbLine
 10
283.9090759779617
 20
-2214.524936166627
 30
0.0
 11
284.9757426446283
 21
-2213.458269499961
 31
0.0
  0
MTEXT
  5
2B51D
330
18
100
AcDbEntity
  8
細線
100
AcDbMText
 10
286.4296886683531
 20
-2215.449195088238
 30
0.0
 40
2.933333333333333
 41
4.005499725684842
 71
     1
 72
     5
  1
{\fImpact|b0|i0|c128|p49;15}
  7
MS\U+FF7A\U+FF9E\U+FF7C\U+FF6F\U+FF78
 11
-0.0000000000000002
 21
-1.0
 31
0.0
 73
     1
 44
1.0
1001
ACAD
1000
MTEXTBEGIN
1070
    73
1070
     1
1070
    44
1040
1.0
1070
    74
1070
     0
1000
MTEXTEND
1000
ACAD_MTEXT_DEFINED_HEIGHT_BEGIN
1070
    46
1040
224.1841841841842
1000
ACAD_MTEXT_DEFINED_HEIGHT_END
  0
ARC
  5
2B51E
102
{ACAD_REACTORS
330
2B516
102
}
330
18
100
AcDbEntity
  8
細線
100
AcDbCircle
 10
284.9757426446283
 20
-2217.191602833294
 30
0.0
 40
2.133333333333333
100
AcDbArc
 50
112.1133855977474
 51
270.0
  0
ARC
  5
2B51F
102
{ACAD_REACTORS
330
2B516
102
}
330
18
100
AcDbEntity
  8
細線
100
AcDbCircle
 10
284.9757426446283
 20
-2217.191602833294
 30
0.0
 40
3.2
100
AcDbArc
 50
111.8150544339211
 51
270.0
  0
LINE
  5
2B520
102
{ACAD_REACTORS
330
2B516
102
}
330
18
100
AcDbEntity
  8
細線
100
AcDbLine
 10
283.4824093112954
 20
-2214.524936166627
 30
0.0
 11
284.1726691277433
 21
-2215.215195983075
 31
0.0
  0
LINE
  5
2B521
102
{ACAD_REACTORS
330
2B516
102
}
330
18
100
AcDbEntity
  8
細線
100
AcDbLine
 10
283.4824093112954
 20
-2214.524936166627
 30
0.0
 11
283.7865849426814
 21
-2214.220760535241
 31
0.0
  0
LINE
  5
2B522
102
{ACAD_REACTORS
330
2B516
102
}
330
18
100
AcDbEntity
  8
細線
100
AcDbLine
 10
286.4690759779621
 20
-2219.85826949996
 30
0.0
 11
285.7788161615133
 21
-2219.168009683512
 31
0.0
  0
LINE
  5
2B523
102
{ACAD_REACTORS
330
2B516
102
}
330
18
100
AcDbEntity
  8
細線
100
AcDbLine
 10
286.4690759779621
 20
-2219.85826949996
 30
0.0
 11
286.1649003465761
 21
-2220.162445131347
 31
0.0
  0
ARC
  5
2B524
102
{ACAD_REACTORS
330
2B516
102
}
330
18
100
AcDbEntity
  8
細線
100
AcDbCircle
 10
284.9757426446283
 20
-2217.191602833294
 30
0.0
 40
2.133333333333333
100
AcDbArc
 50
292.1133855977474
 51
90.0
  0
ARC
  5
2B525
102
{ACAD_REACTORS
330
2B516
102
}
330
18
100
AcDbEntity
  8
細線
100
AcDbCircle
 10
284.9757426446283
 20
-2217.191602833294
 30
0.0
 40
3.2
100
AcDbArc
 50
291.8150544339212
 51
90.0
  0
LINE
  5
2B526
102
{ACAD_REACTORS
330
2B516
102
}
330
18
100
AcDbEntity
  8
細線
100
AcDbLine
 10
284.9757426446283
 20
-2213.991602833294
 30
0.0
 11
284.9757426446283
 21
-2213.458269499961
 31
0.0
  0
LINE
  5
2B527
102
{ACAD_REACTORS
330
2B516
102
}
330
18
100
AcDbEntity
  8
細線
100
AcDbLine
 10
284.9757426446283
 20
-2220.391602833294
 30
0.0
 11
284.9757426446283
 21
-2220.924936166627
 31
0.0
  0
CIRCLE
  5
2B528
330
18
100
AcDbEntity
  8
細線
100
AcDbCircle
 10
284.9757426446283
 20
-2217.191602833294
 30
0.0
 40
4.0
  0
LINE
  5
2B529
102
{ACAD_REACTORS
330
2B540
102
}
330
18
100
AcDbEntity
  8
細線
100
AcDbLine
 10
280.9757426446283
 20
-2260.691602833293
 30
0.0
 11
280.9757426446283
 21
-2272.691602833293
 31
0.0
  0
LINE
  5
2B52A
102
{ACAD_REACTORS
330
2B540
102
}
330
18
100
AcDbEntity
  8
細線
100
AcDbLine
 10
285.4757426446283
 20
-2260.191602833293
 30
0.0
 11
285.4757426446283
 21
-2273.191602833294
 31
0.0
  0
LINE
  5
2B52B
330
18
100
AcDbEntity
  8
細線
100
AcDbLine
 10
288.9757426446283
 20
-2272.691602833293
 30
0.0
 11
288.9757426446283
 21
-2260.691602833293
 31
0.0
  0
LINE
  5
2B52C
102
{ACAD_REACTORS
330
2B540
102
}
330
18
100
AcDbEntity
  8
細線
100
AcDbLine
 10
288.4757426446283
 20
-2260.191602833293
 30
0.0
 11
281.4757426446283
 21
-2260.191602833293
 31
0.0
  0
LINE
  5
2B52D
102
{ACAD_REACTORS
330
2B540
102
}
330
18
100
AcDbEntity
  8
細線
100
AcDbLine
 10
281.4757426446283
 20
-2273.191602833294
 30
0.0
 11
288.4757426446283
 21
-2273.191602833294
 31
0.0
  0
TEXT
  5
2B52E
102
{ACAD_REACTORS
330
2B540
102
}
330
18
100
AcDbEntity
  8
細線
100
AcDbText
 10
283.7502028250099
 20
-2265.291539938429
 30
0.0
 40
1.08
  1
NIKKI
 50
270.0
 41
1.354166666666666
  7
TIMESNR
100
AcDbText
  0
LINE
  5
2B52F
102
{ACAD_REACTORS
330
2B540
102
}
330
18
100
AcDbEntity
  8
細線
100
AcDbLine
 10
284.8448304143328
 20
-2264.529811166626
 30
0.0
 11
284.1840054143329
 21
-2262.251967416626
 31
0.0
  0
LINE
  5
2B530
102
{ACAD_REACTORS
330
2B540
102
}
330
18
100
AcDbEntity
  8
細線
100
AcDbLine
 10
282.4418304143326
 20
-2260.624936166626
 30
0.0
 11
284.8448304143328
 21
-2260.950342416627
 31
0.0
  0
TEXT
  5
2B531
102
{ACAD_REACTORS
330
2B540
102
}
330
18
100
AcDbEntity
  8
細線
100
AcDbText
 10
282.4776310182704
 20
-2265.192891786442
 30
0.0
 40
1.08
  1
DENSO
 50
270.0
 41
1.408333333333333
  7
TIMESNR
100
AcDbText
  0
LINE
  5
2B532
102
{ACAD_REACTORS
330
2B540
102
}
330
18
100
AcDbEntity
  8
細線
100
AcDbLine
 10
283.9437054143325
 20
-2262.577373666626
 30
0.0
 11
283.9437054143325
 21
-2264.399648666627
 31
0.0
  0
LINE
  5
2B533
102
{ACAD_REACTORS
330
2B540
102
}
330
18
100
AcDbEntity
  8
細線
100
AcDbLine
 10
282.4418304143326
 20
-2260.624936166626
 30
0.0
 11
282.4418304143326
 21
-2264.204404916626
 31
0.0
  0
ELLIPSE
  5
2B534
102
{ACAD_REACTORS
330
2B540
102
}
330
18
100
AcDbEntity
  8
細線
100
AcDbEllipse
 10
283.4931429143324
 20
-2262.577373666626
 30
0.0
 11
-0.0000000000000001
 21
-0.488109375
 31
0.0
210
0.0
220
0.0
230
1.0
 40
0.9230769230769231
 41
0.0
 42
6.283185307179586
  0
ELLIPSE
  5
2B535
102
{ACAD_REACTORS
330
2B540
102
}
330
18
100
AcDbEntity
  8
細線
100
AcDbEllipse
 10
283.4945400073554
 20
-2262.578130425348
 30
0.0
 11
-0.0000000000000001
 21
-0.8150294937689535
 31
0.0
210
0.0
220
0.0
230
1.0
 40
0.9230769230769231
 41
1.982515610014399
 42
4.711460475544681
  0
ELLIPSE
  5
2B536
102
{ACAD_REACTORS
330
2B540
102
}
330
18
100
AcDbEntity
  8
細線
100
AcDbEllipse
 10
283.3429554143329
 20
-2262.577373666626
 30
0.0
 11
-0.0000000000000001
 21
-0.6508125000000002
 31
0.0
210
0.0
220
0.0
230
1.0
 40
0.9230769230769231
 41
4.712388980384689
 42
7.853981633974482
  0
LINE
  5
2B537
102
{ACAD_REACTORS
330
2B540
102
}
330
18
100
AcDbEntity
  8
細線
100
AcDbLine
 10
282.4418304143326
 20
-2264.204404916626
 30
0.0
 11
283.9437054143325
 21
-2264.399648666627
 31
0.0
  0
LINE
  5
2B538
102
{ACAD_REACTORS
330
2B540
102
}
330
18
100
AcDbEntity
  8
細線
100
AcDbLine
 10
284.8448304143328
 20
-2260.950342416627
 30
0.0
 11
284.8448304143328
 21
-2264.529811166626
 31
0.0
  0
TEXT
  5
2B539
330
18
100
AcDbEntity
  8
細線
100
AcDbText
 10
286.2413327428992
 20
-2261.088180396942
 30
0.0
 40
2.0
  1
Certificate
 50
270.0
 41
0.8
  7
MS\U+FF7A\U+FF9E\U+FF7C\U+FF6F\U+FF78
100
AcDbText
  0
TEXT
  5
2B53A
102
{ACAD_REACTORS
330
2B540
102
}
330
18
100
AcDbEntity
  8
細線
100
AcDbText
 10
281.3993843802689
 20
-2267.526422248384
 30
0.0
 40
0.8
  1
S20-0010A
 50
270.0
100
AcDbText
  0
LINE
  5
2B53B
102
{ACAD_REACTORS
330
2B540
102
}
330
18
100
AcDbEntity
  8
細線
100
AcDbLine
 10
283.9851123553342
 20
-2261.960206171242
 30
0.0
 11
284.0649316265315
 21
-2262.046677048371
 31
0.0
  0
ARC
  5
2B53C
102
{ACAD_REACTORS
330
2B540
102
}
330
18
100
AcDbEntity
  8
細線
100
AcDbCircle
 10
281.4757426446283
 20
-2260.691602833293
 30
0.0
 40
0.5
100
AcDbArc
 50
90.0
 51
180.0
  0
ARC
  5
2B53D
102
{ACAD_REACTORS
330
2B540
102
}
330
18
100
AcDbEntity
  8
細線
100
AcDbCircle
 10
281.4757426446283
 20
-2272.691602833293
 30
0.0
 40
0.5
100
AcDbArc
 50
180.0
 51
270.0
  0
ARC
  5
2B53E
330
18
100
AcDbEntity
  8
細線
100
AcDbCircle
 10
288.4757426446283
 20
-2272.691602833293
 30
0.0
 40
0.4999999999999999
100
AcDbArc
 50
270.0
 51
0.0
  0
ARC
  5
2B53F
330
18
100
AcDbEntity
  8
細線
100
AcDbCircle
 10
288.4757426446283
 20
-2260.691602833293
 30
0.0
 40
0.5
100
AcDbArc
 50
0.0
 51
90.0
  0
HATCH
  5
2B540
330
18
100
AcDbEntity
  8
細線
100
AcDbHatch
 10
0.0
 20
0.0
 30
0.0
210
0.0
220
0.0
230
1.0
  2
ANSI31
 70
     0
 71
     1
 91
        5
 92
        1
 93
        6
 72
     1
 10
281.4757426446283
 20
-2273.191602833294
 11
288.4757426446283
 21
-2273.191602833294
 72
     1
 10
285.4757426446283
 20
-2260.191602833293
 11
285.4757426446283
 21
-2273.191602833294
 72
     1
 10
288.4757426446283
 20
-2260.191602833293
 11
281.4757426446283
 21
-2260.191602833293
 72
     2
 10
281.4757426446283
 20
-2260.691602833293
 40
0.5
 50
90.0
 51
180.0
 73
     1
 72
     1
 10
280.9757426446283
 20
-2260.691602833293
 11
280.9757426446283
 21
-2272.691602833293
 72
     2
 10
281.4757426446283
 20
-2272.691602833293
 40
0.5
 50
180.0
 51
270.0
 73
     1
 97
        6
330
2B52D
330
2B52A
330
2B52C
330
2B53C
330
2B529
330
2B53D
 92
        9
 93
        4
 72
     1
 10
281.174384380269
 20
-2267.376422248384
 11
282.424384380269
 21
-2267.376422248384
 72
     1
 10
282.424384380269
 20
-2267.376422248384
 11
282.424384380269
 21
-2272.79308891505
 72
     1
 10
282.424384380269
 20
-2272.793088915051
 11
281.1743843802689
 21
-2272.793088915051
 72
     1
 10
281.174384380269
 20
-2272.793088915051
 11
281.174384380269
 21
-2267.376422248384
 97
        1
330
2B53A
 92
       16
 93
       10
 72
     1
 10
282.4418304143326
 20
-2260.624936166626
 11
284.8448304143328
 21
-2260.950342416627
 72
     1
 10
284.8448304143328
 20
-2260.950342416627
 11
284.8448304143328
 21
-2264.529811166626
 72
     1
 10
284.8448304143328
 20
-2264.529811166626
 11
284.1840054143329
 21
-2262.251967416626
 72
     3
 10
283.4945400073554
 20
-2262.578130425348
 11
-0.0000000000000001
 21
-0.8150294937689535
 40
0.9230769230769231
 50
115.3172642090603
 51
269.9423673102363
 73
     1
 72
     1
 10
283.9851123553342
 20
-2261.960206171242
 11
284.0649316265315
 21
-2262.046677048371
 72
     3
 10
283.3429554143329
 20
-2262.577373666626
 11
-0.0000000000000001
 21
-0.6508125000000002
 40
0.9230769230769231
 50
270.0
 51
450.0
 73
     1
 72
     3
 10
283.4931429143324
 20
-2262.577373666626
 11
-0.0000000000000001
 21
-0.488109375
 40
0.9230769230769231
 50
0.0
 51
360.0
 73
     1
 72
     1
 10
283.9437054143325
 20
-2262.577373666626
 11
283.9437054143325
 21
-2264.399648666627
 72
     1
 10
282.4418304143326
 20
-2264.204404916626
 11
283.9437054143325
 21
-2264.399648666627
 72
     1
 10
282.4418304143326
 20
-2260.624936166626
 11
282.4418304143326
 21
-2264.204404916626
 97
       10
330
2B530
330
2B538
330
2B52F
330
2B535
330
2B53B
330
2B536
330
2B534
330
2B532
330
2B537
330
2B533
 92
       24
 93
        4
 72
     1
 10
283.3729055277128
 20
-2264.903724623114
 11
285.1664190412265
 21
-2264.903724623114
 72
     1
 10
285.1664190412265
 20
-2264.903724623114
 11
285.1664190412265
 21
-2271.719670569059
 72
     1
 10
285.1664190412265
 20
-2271.71967056906
 11
283.3729055277128
 21
-2271.71967056906
 72
     1
 10
283.3729055277128
 20
-2271.71967056906
 11
283.3729055277128
 21
-2264.903724623114
 97
        1
330
2B52E
 92
       24
 93
        4
 72
     1
 10
282.0938472344866
 20
-2264.872477372028
 11
283.9176310182705
 21
-2264.872477372028
 72
     1
 10
283.9176310182705
 20
-2264.872477372028
 11
283.9176310182705
 21
-2272.958441335991
 72
     1
 10
283.9176310182705
 20
-2272.958441335991
 11
282.0938472344866
 21
-2272.958441335991
 72
     1
 10
282.0938472344866
 20
-2272.958441335991
 11
282.0938472344866
 21
-2264.872477372028
 97
        1
330
2B531
 75
     0
 76
     1
 52
270.0
 41
5.0
 77
     0
 78
     1
 53
314.9999999999999
 43
109.6571332280734
 44
-2351.226121865318
 45
0.4419417382415923
 46
0.4419417382415922
 79
     0
 98
        2
 10
285.0210213572743
 20
-2263.739779994735
 10
285.0210213572743
 20
-2263.739779994735
1001
ACAD
1010
0.0
1020
0.0
1030
0.0
  0
LINE
  5
2BF3B
330
18
100
AcDbEntity
  8
実線
100
AcDbLine
 10
402.1317019242836
 20
-2490.892999053551
 30
0.0
 11
881.7317019242828
 21
-2490.892999053551
 31
0.0
  0
LINE
  5
2BF3C
330
18
100
AcDbEntity
  8
実線
100
AcDbLine
 10
402.1317019242836
 20
-2516.89299905355
 30
0.0
 11
881.7317019242828
 21
-2516.89299905355
 31
0.0
  0
LINE
  5
2BF3D
330
18
100
AcDbEntity
  8
実線
100
AcDbLine
 10
401.9317019242836
 20
-2530.892999053549
 30
0.0
 11
881.9317019242829
 21
-2530.892999053551
 31
0.0
  0
LINE
  5
2BF72
330
18
100
AcDbEntity
  8
実線
100
AcDbLine
 10
387.9317019242837
 20
-2504.89299905355
 30
0.0
 11
401.9317019242836
 21
-2504.89299905355
 31
0.0
  0
LINE
  5
2BF73
330
18
100
AcDbEntity
  8
実線
100
AcDbLine
 10
401.9317019242836
 20
-2530.892999053549
 30
0.0
 11
387.9317019242837
 21
-2530.892999053549
 31
0.0
  0
LINE
  5
2BF74
330
18
100
AcDbEntity
  8
実線
100
AcDbLine
 10
387.9317019242837
 20
-2492.892999053549
 30
0.0
 11
401.9317019242836
 21
-2492.892999053549
 31
0.0
  0
LINE
  5
2BF75
330
18
100
AcDbEntity
  8
実線
100
AcDbLine
 10
387.9317019242837
 20
-2530.892999053549
 30
0.0
 11
387.9317019242837
 21
-2492.892999053549
 31
0.0
  0
LINE
  5
2BF76
330
18
100
AcDbEntity
  8
実線
100
AcDbLine
 10
401.9317019242836
 20
-2492.89299905355
 30
0.0
 11
401.9317019242836
 21
-2530.892999053549
 31
0.0
  0
LINE
  5
2BF77
330
18
100
AcDbEntity
  8
実線
100
AcDbLine
 10
402.1317019242836
 20
-2490.89299905355
 30
0.0
 11
402.1317019242836
 21
-2516.89299905355
 31
0.0
  0
LINE
  5
2BF86
330
18
100
AcDbEntity
  8
実線
100
AcDbLine
 10
881.7317019242828
 20
-2490.892999053551
 30
0.0
 11
881.7317019242828
 21
-2516.89299905355
 31
0.0
  0
LINE
  5
2BF87
330
18
100
AcDbEntity
  8
実線
100
AcDbLine
 10
881.9317019242829
 20
-2530.892999053551
 30
0.0
 11
881.9317019242829
 21
-2492.89299905355
 31
0.0
  0
LINE
  5
2C0A2
330
18
100
AcDbEntity
  8
実線
100
AcDbLine
 10
881.9317019242829
 20
-2492.89299905355
 30
0.0
 11
895.9317019242844
 21
-2492.89299905355
 31
0.0
  0
LINE
  5
2C0A3
330
18
100
AcDbEntity
  8
実線
100
AcDbLine
 10
895.9317019242828
 20
-2530.892999053551
 30
0.0
 11
881.9317019242829
 21
-2530.892999053551
 31
0.0
  0
LINE
  5
2C0A4
330
18
100
AcDbEntity
  8
実線
100
AcDbLine
 10
881.9317019242829
 20
-2504.89299905355
 30
0.0
 11
895.9317019242828
 21
-2504.89299905355
 31
0.0
  0
LINE
  5
2C0A5
330
18
100
AcDbEntity
  8
実線
100
AcDbLine
 10
895.9317019242844
 20
-2492.89299905355
 30
0.0
 11
895.9317019242833
 21
-2517.39299905355
 31
0.0
  0
LINE
  5
2C0A6
330
18
100
AcDbEntity
  8
実線
100
AcDbLine
 10
895.9317019242833
 20
-2525.392999053549
 30
0.0
 11
895.9317019242828
 21
-2530.892999053551
 31
0.0
  0
LINE
  5
2C0DC
330
18
100
AcDbEntity
  8
中心線
100
AcDbLine
 10
915.9317019242838
 20
-2521.39299905355
 30
0.0
 11
873.1156428011011
 21
-2521.39299905355
 31
0.0
  0
LINE
  5
2C0DF
330
18
100
AcDbEntity
  8
中心線
 48
0.5
100
AcDbLine
 10
969.1756340412748
 20
-2465.169090879697
 30
0.0
 11
971.9179036281074
 21
-2449.616907227403
 31
0.0
  0
LINE
  5
2C0E0
330
18
100
AcDbEntity
  8
中心線
 48
0.5
100
AcDbLine
 10
971.1756340412748
 20
-2465.169090879697
 30
0.0
 11
973.9179036281074
 21
-2449.616907227403
 31
0.0
  0
LINE
  5
2C0E1
330
18
100
AcDbEntity
  8
中心線
100
AcDbLine
 10
959.9317019242839
 20
-2457.39299905355
 30
0.0
 11
1060.313034039337
 21
-2457.39299905355
 31
0.0
  0
LINE
  5
2C0E2
330
18
100
AcDbEntity
  8
実線
100
AcDbLine
 10
1034.131701924286
 20
-2465.019798634039
 30
0.0
 11
1010.131701924286
 21
-2465.019798634039
 31
0.0
  0
LINE
  5
2C0E3
330
18
100
AcDbEntity
  8
実線
100
AcDbLine
 10
1034.131701924286
 20
-2449.894798634038
 30
0.0
 11
1010.131701924286
 21
-2449.894798634038
 31
0.0
  0
LINE
  5
2C0E4
330
18
100
AcDbEntity
  8
実線
100
AcDbLine
 10
988.2317019242867
 20
-2455.11979863404
 30
0.0
 11
1010.131701924286
 21
-2458.819798634038
 31
0.0
  0
LINE
  5
2C0E5
330
18
100
AcDbEntity
  8
実線
100
AcDbLine
 10
988.2317019242867
 20
-2457.519798634039
 30
0.0
 11
1010.131701924286
 21
-2461.21979863404
 31
0.0
  0
LINE
  5
2C0E6
330
18
100
AcDbEntity
  8
実線
100
AcDbLine
 10
988.2317019242867
 20
-2457.119798634039
 30
0.0
 11
1010.131701924286
 21
-2460.819798634038
 31
0.0
  0
LINE
  5
2C0E7
330
18
100
AcDbEntity
  8
実線
100
AcDbLine
 10
988.2317019242867
 20
-2459.519798634039
 30
0.0
 11
1010.131701924286
 21
-2463.21979863404
 31
0.0
  0
LINE
  5
2C0E8
330
18
100
AcDbEntity
  8
実線
100
AcDbLine
 10
988.8235938161773
 20
-2455.21979863404
 30
0.0
 11
1010.131701924286
 21
-2451.61979863404
 31
0.0
  0
LINE
  5
2C0E9
330
18
100
AcDbEntity
  8
実線
100
AcDbLine
 10
1001.900829441064
 20
-2457.429194607194
 30
0.0
 11
1010.131701924286
 21
-2456.019798634039
 31
0.0
  0
LINE
  5
2C0EA
330
18
100
AcDbEntity
  8
実線
100
AcDbLine
 10
995.9262965188822
 20
-2456.419798634039
 30
0.0
 11
1010.131701924286
 21
-2454.019798634039
 31
0.0
  0
LINE
  5
2C0EB
330
18
100
AcDbEntity
  8
実線
100
AcDbLine
 10
994.8457958840185
 20
-2456.237248298469
 30
0.0
 11
1010.131701924286
 21
-2453.61979863404
 31
0.0
  0
LINE
  5
2C0EC
330
18
100
AcDbEntity
  8
実線
100
AcDbLine
 10
994.8457958840185
 20
-2458.637248298468
 30
0.0
 11
996.0216348101925
 21
-2458.43590601659
 31
0.0
  0
LINE
  5
2C0ED
330
18
100
AcDbEntity
  8
実線
100
AcDbLine
 10
1010.131701924286
 20
-2450.144798634039
 30
0.0
 11
1010.131701924286
 21
-2464.894798634039
 31
0.0
  0
LINE
  5
2C0EE
330
18
100
AcDbEntity
  8
実線
100
AcDbLine
 10
1010.131701924286
 20
-2449.894798634038
 30
0.0
 11
1010.131701924286
 21
-2465.019798634039
 31
0.0
  0
LINE
  5
2C0EF
330
18
100
AcDbEntity
  8
実線
100
AcDbLine
 10
1048.131701924286
 20
-2470.869798634039
 30
0.0
 11
1052.131701924286
 21
-2470.869798634039
 31
0.0
  0
LINE
  5
2C0F0
330
18
100
AcDbEntity
  8
実線
100
AcDbLine
 10
1035.131701924286
 20
-2459.019798634039
 30
0.0
 11
1048.131701924286
 21
-2459.019798634039
 31
0.0
  0
LINE
  5
2C0F1
330
18
100
AcDbEntity
  8
実線
100
AcDbLine
 10
1035.131701924286
 20
-2456.019798634039
 30
0.0
 11
1048.131701924286
 21
-2456.019798634039
 31
0.0
  0
LINE
  5
2C0F2
330
18
100
AcDbEntity
  8
実線
100
AcDbLine
 10
1048.131701924286
 20
-2468.769798634039
 30
0.0
 11
1035.131701924286
 21
-2468.769798634039
 31
0.0
  0
LINE
  5
2C0F3
330
18
100
AcDbEntity
  8
実線
100
AcDbLine
 10
1035.131701924286
 20
-2465.019798634039
 30
0.0
 11
1048.131701924286
 21
-2465.019798634039
 31
0.0
  0
LINE
  5
2C0F4
330
18
100
AcDbEntity
  8
実線
100
AcDbLine
 10
1035.131701924286
 20
-2468.019798634039
 30
0.0
 11
1048.131701924286
 21
-2468.019798634039
 31
0.0
  0
LINE
  5
2C0F5
330
18
100
AcDbEntity
  8
実線
100
AcDbLine
 10
1035.131701924286
 20
-2462.019798634039
 30
0.0
 11
1048.131701924286
 21
-2462.019798634039
 31
0.0
  0
LINE
  5
2C0F6
330
18
100
AcDbEntity
  8
実線
100
AcDbLine
 10
1035.131701924286
 20
-2453.019798634039
 30
0.0
 11
1048.131701924286
 21
-2453.019798634039
 31
0.0
  0
LINE
  5
2C0F7
330
18
100
AcDbEntity
  8
実線
100
AcDbLine
 10
1035.131701924286
 20
-2450.019798634039
 30
0.0
 11
1048.131701924286
 21
-2450.019798634039
 31
0.0
  0
LINE
  5
2C0F8
330
18
100
AcDbEntity
  8
実線
100
AcDbLine
 10
1035.131701924286
 20
-2447.019798634039
 30
0.0
 11
1048.131701924286
 21
-2447.019798634039
 31
0.0
  0
LINE
  5
2C0F9
330
18
100
AcDbEntity
  8
実線
100
AcDbLine
 10
1035.131701924286
 20
-2446.269798634039
 30
0.0
 11
1048.131701924286
 21
-2446.269798634039
 31
0.0
  0
LINE
  5
2C0FA
330
18
100
AcDbEntity
  8
実線
100
AcDbLine
 10
1035.131701924286
 20
-2456.019798634039
 30
0.0
 11
1035.131701924286
 21
-2459.019798634039
 31
0.0
  0
LINE
  5
2C0FB
330
18
100
AcDbEntity
  8
実線
100
AcDbLine
 10
1035.131701924286
 20
-2464.519798634039
 30
0.0
 11
1035.131701924286
 21
-2468.769798634039
 31
0.0
  0
LINE
  5
2C0FC
330
18
100
AcDbEntity
  8
実線
100
AcDbLine
 10
1034.131701924286
 20
-2465.019798634039
 30
0.0
 11
1035.131701924286
 21
-2464.519798634039
 31
0.0
  0
LINE
  5
2C0FD
330
18
100
AcDbEntity
  8
実線
100
AcDbLine
 10
1035.131701924286
 20
-2468.769798634039
 30
0.0
 11
1034.131701924286
 21
-2465.019798634039
 31
0.0
  0
LINE
  5
2C0FE
330
18
100
AcDbEntity
  8
実線
100
AcDbLine
 10
1035.131701924286
 20
-2462.019798634039
 30
0.0
 11
1035.131701924286
 21
-2465.019798634039
 31
0.0
  0
LINE
  5
2C0FF
330
18
100
AcDbEntity
  8
実線
100
AcDbLine
 10
1035.131701924286
 20
-2450.019798634039
 30
0.0
 11
1035.131701924286
 21
-2453.019798634039
 31
0.0
  0
LINE
  5
2C100
330
18
100
AcDbEntity
  8
実線
100
AcDbLine
 10
1035.131701924286
 20
-2446.269798634039
 30
0.0
 11
1035.131701924286
 21
-2450.519798634039
 31
0.0
  0
LINE
  5
2C101
330
18
100
AcDbEntity
  8
実線
100
AcDbLine
 10
1035.131701924286
 20
-2446.269798634039
 30
0.0
 11
1034.131701924286
 21
-2449.894798634038
 31
0.0
  0
LINE
  5
2C102
330
18
100
AcDbEntity
  8
実線
100
AcDbLine
 10
1034.131701924286
 20
-2449.894798634038
 30
0.0
 11
1035.131701924286
 21
-2450.519798634039
 31
0.0
  0
LINE
  5
2C103
330
18
100
AcDbEntity
  8
実線
100
AcDbLine
 10
1048.131701924286
 20
-2444.169798634038
 30
0.0
 11
1048.131701924286
 21
-2470.869798634039
 31
0.0
  0
LINE
  5
2C104
330
18
100
AcDbEntity
  8
実線
100
AcDbLine
 10
1052.131701924286
 20
-2468.769798634039
 30
0.0
 11
1057.131701924286
 21
-2468.769798634039
 31
0.0
  0
LINE
  5
2C105
330
18
100
AcDbEntity
  8
実線
100
AcDbLine
 10
1052.131701924286
 20
-2444.169798634038
 30
0.0
 11
1052.131701924286
 21
-2470.869798634039
 31
0.0
  0
LINE
  5
2C106
330
18
100
AcDbEntity
  8
実線
100
AcDbLine
 10
1057.131701924286
 20
-2446.269798634039
 30
0.0
 11
1052.131701924286
 21
-2446.269798634039
 31
0.0
  0
LINE
  5
2C107
330
18
100
AcDbEntity
  8
実線
100
AcDbLine
 10
1052.131701924286
 20
-2470.869798634039
 30
0.0
 11
1052.131701924286
 21
-2444.169798634038
 31
0.0
  0
LINE
  5
2C108
330
18
100
AcDbEntity
  8
実線
100
AcDbLine
 10
1052.131701924286
 20
-2444.169798634038
 30
0.0
 11
1048.131701924286
 21
-2444.169798634038
 31
0.0
  0
LINE
  5
2C109
330
18
100
AcDbEntity
  8
実線
100
AcDbLine
 10
1057.131701924285
 20
-2468.769798634039
 30
0.0
 11
1057.131701924286
 21
-2446.269798634039
 31
0.0
  0
LINE
  5
2C10A
330
18
100
AcDbEntity
  8
実線
 48
10.0
100
AcDbLine
 10
894.9317019242833
 20
-2516.89299905355
 30
0.0
 11
881.9317019242829
 21
-2516.89299905355
 31
0.0
  0
LINE
  5
2C10B
330
18
100
AcDbEntity
  8
実線
 48
10.0
100
AcDbLine
 10
894.9317019242833
 20
-2516.89299905355
 30
0.0
 11
894.931701924283
 21
-2525.89299905355
 31
0.0
  0
LINE
  5
2C10C
330
18
100
AcDbEntity
  8
実線
 48
10.0
100
AcDbLine
 10
894.931701924283
 20
-2525.89299905355
 30
0.0
 11
881.9317019242829
 21
-2525.89299905355
 31
0.0
  0
LINE
  5
2C10D
330
18
100
AcDbEntity
  8
実線
 48
10.0
100
AcDbLine
 10
933.9317019242839
 20
-2479.39299905355
 30
0.0
 11
933.9317019242839
 21
-2499.392999053549
 31
0.0
  0
LINE
  5
2C10E
330
18
100
AcDbEntity
  8
実線
 48
10.0
100
AcDbLine
 10
959.9317019242839
 20
-2461.39299905355
 30
0.0
 11
969.8414609118572
 21
-2461.39299905355
 31
0.0
  0
LINE
  5
2C10F
330
18
100
AcDbEntity
  8
実線
 48
10.0
100
AcDbLine
 10
959.9317019242839
 20
-2453.39299905355
 30
0.0
 11
971.2520767575249
 21
-2453.39299905355
 31
0.0
  0
LINE
  5
2C110
330
18
100
AcDbEntity
  8
実線
 48
10.0
100
AcDbLine
 10
915.9317019242838
 20
-2517.39299905355
 30
0.0
 11
894.9317019242833
 21
-2517.39299905355
 31
0.0
  0
LINE
  5
2C111
330
18
100
AcDbEntity
  8
実線
 48
10.0
100
AcDbLine
 10
915.9317019242838
 20
-2525.392999053549
 30
0.0
 11
894.931701924283
 21
-2525.392999053549
 31
0.0
  0
LINE
  5
2C112
330
18
100
AcDbEntity
  8
実線
100
AcDbLine
 10
988.2317019242846
 20
-2453.39299905355
 30
0.0
 11
988.2317019242849
 21
-2461.39299905355
 31
0.0
  0
ARC
  5
2C113
330
18
100
AcDbEntity
  8
実線
 48
10.0
100
AcDbCircle
 10
915.9317019242838
 20
-2499.392999053549
 30
0.0
 40
18.0
100
AcDbArc
 50
270.0
 51
0.0
  0
LINE
  5
2C114
330
18
100
AcDbEntity
  8
実線
 48
10.0
100
AcDbLine
 10
941.9317019242837
 20
-2479.39299905355
 30
0.0
 11
941.9317019242837
 21
-2499.392999053549
 31
0.0
  0
ARC
  5
2C115
330
18
100
AcDbEntity
  8
実線
 48
10.0
100
AcDbCircle
 10
959.9317019242839
 20
-2479.39299905355
 30
0.0
 40
18.0
100
AcDbArc
 50
90.0
 51
180.0
  0
ARC
  5
2C116
330
18
100
AcDbEntity
  8
実線
 48
10.0
100
AcDbCircle
 10
915.9317019242838
 20
-2499.392999053549
 30
0.0
 40
26.0
100
AcDbArc
 50
270.0
 51
2.795537696517015
  0
ARC
  5
2C117
330
18
100
AcDbEntity
  8
中心線
100
AcDbCircle
 10
959.9317019242839
 20
-2479.39299905355
 30
0.0
 40
22.0
100
AcDbArc
 50
90.0
 51
180.0
  0
ARC
  5
2C118
330
18
100
AcDbEntity
  8
実線
 48
10.0
100
AcDbCircle
 10
959.9317019242839
 20
-2479.39299905355
 30
0.0
 40
26.0
100
AcDbArc
 50
90.0
 51
180.0
  0
LINE
  5
2C119
330
18
100
AcDbEntity
  8
中心線
100
AcDbLine
 10
937.9317019242838
 20
-2479.39299905355
 30
0.0
 11
937.9317019242838
 21
-2499.392999053549
 31
0.0
  0
ARC
  5
2C11A
330
18
100
AcDbEntity
  8
中心線
100
AcDbCircle
 10
915.9317019242838
 20
-2499.392999053549
 30
0.0
 40
22.0
100
AcDbArc
 50
270.0
 51
0.0
  0
LINE
  5
2C11E
330
18
100
AcDbEntity
  8
実線
 48
10.0
100
AcDbLine
 10
973.252076757525
 20
-2453.39299905355
 30
0.0
 11
988.2317019242849
 21
-2453.39299905355
 31
0.0
  0
LINE
  5
2C11F
330
18
100
AcDbEntity
  8
実線
 48
10.0
100
AcDbLine
 10
971.8414609118571
 20
-2461.39299905355
 30
0.0
 11
988.2317019242849
 21
-2461.39299905355
 31
0.0
  0
LINE
  5
2C17A
330
18
100
AcDbEntity
  8
破線
 48
0.03
100
AcDbLine
 10
415.8317019242832
 20
-2503.892999053551
 30
0.0
 11
420.031701924284
 21
-2503.892999053551
 31
0.0
  0
LINE
  5
2C17B
330
18
100
AcDbEntity
  8
破線
 48
0.03
100
AcDbLine
 10
420.4317019242818
 20
-2500.89299905355
 30
0.0
 11
415.4317019242836
 21
-2500.89299905355
 31
0.0
  0
LINE
  5
2C17C
330
18
100
AcDbEntity
  8
破線
 48
0.03
100
AcDbLine
 10
420.4317019242836
 20
-2500.89299905355
 30
0.0
 11
420.031701924284
 21
-2501.585819376585
 31
0.0
  0
LINE
  5
2C17D
330
18
100
AcDbEntity
  8
破線
 48
0.03
100
AcDbLine
 10
420.031701924284
 20
-2490.892999053551
 30
0.0
 11
420.031701924284
 21
-2503.892999053551
 31
0.0
  0
LINE
  5
2C17E
330
18
100
AcDbEntity
  8
破線
 48
0.03
100
AcDbLine
 10
420.4317019242836
 20
-2490.892999053551
 30
0.0
 11
420.4317019242836
 21
-2500.89299905355
 31
0.0
  0
LINE
  5
2C17F
330
18
100
AcDbEntity
  8
破線
 48
0.03
100
AcDbLine
 10
415.4317019242836
 20
-2500.89299905355
 30
0.0
 11
415.8317019242832
 21
-2501.585819376585
 31
0.0
  0
LINE
  5
2C180
330
18
100
AcDbEntity
  8
破線
 48
0.03
100
AcDbLine
 10
415.8317019242832
 20
-2490.892999053551
 30
0.0
 11
415.8317019242832
 21
-2503.892999053551
 31
0.0
  0
LINE
  5
2C181
330
18
100
AcDbEntity
  8
中心線
 48
0.5
100
AcDbLine
 10
417.9317019242835
 20
-2488.869259433183
 30
0.0
 11
417.9317019242835
 21
-2506.690882854327
 31
0.0
  0
LINE
  5
2C182
330
18
100
AcDbEntity
  8
破線
 48
0.03
100
AcDbLine
 10
415.4317019242836
 20
-2490.892999053551
 30
0.0
 11
415.4317019242836
 21
-2500.89299905355
 31
0.0
  0
LINE
  5
2C183
330
18
100
AcDbEntity
  8
破線
 48
0.03
100
AcDbLine
 10
420.4317019242836
 20
-2490.892999053551
 30
0.0
 11
415.4317019242836
 21
-2490.892999053551
 31
0.0
  0
LINE
  5
2C184
330
18
100
AcDbEntity
  8
破線
 48
0.03
100
AcDbLine
 10
417.9317019242835
 20
-2505.105434618857
 30
0.0
 11
420.031701924284
 21
-2503.892999053551
 31
0.0
  0
LINE
  5
2C185
330
18
100
AcDbEntity
  8
破線
 48
0.03
100
AcDbLine
 10
417.9317019242835
 20
-2505.105434618857
 30
0.0
 11
415.8317019242832
 21
-2503.892999053551
 31
0.0
  0
LINE
  5
2C186
330
18
100
AcDbEntity
  8
破線
 48
0.03
100
AcDbLine
 10
479.8317019242833
 20
-2503.892999053551
 30
0.0
 11
484.0317019242839
 21
-2503.892999053551
 31
0.0
  0
LINE
  5
2C187
330
18
100
AcDbEntity
  8
破線
 48
0.03
100
AcDbLine
 10
484.4317019242818
 20
-2500.89299905355
 30
0.0
 11
479.4317019242836
 21
-2500.89299905355
 31
0.0
  0
LINE
  5
2C188
330
18
100
AcDbEntity
  8
破線
 48
0.03
100
AcDbLine
 10
484.4317019242835
 20
-2500.89299905355
 30
0.0
 11
484.0317019242839
 21
-2501.585819376585
 31
0.0
  0
LINE
  5
2C189
330
18
100
AcDbEntity
  8
破線
 48
0.03
100
AcDbLine
 10
484.0317019242839
 20
-2490.892999053551
 30
0.0
 11
484.0317019242839
 21
-2503.892999053551
 31
0.0
  0
LINE
  5
2C18A
330
18
100
AcDbEntity
  8
破線
 48
0.03
100
AcDbLine
 10
484.4317019242835
 20
-2490.892999053551
 30
0.0
 11
484.4317019242835
 21
-2500.89299905355
 31
0.0
  0
LINE
  5
2C18B
330
18
100
AcDbEntity
  8
破線
 48
0.03
100
AcDbLine
 10
479.4317019242836
 20
-2500.89299905355
 30
0.0
 11
479.8317019242833
 21
-2501.585819376585
 31
0.0
  0
LINE
  5
2C18C
330
18
100
AcDbEntity
  8
破線
 48
0.03
100
AcDbLine
 10
479.8317019242833
 20
-2490.892999053551
 30
0.0
 11
479.8317019242833
 21
-2503.892999053551
 31
0.0
  0
LINE
  5
2C18D
330
18
100
AcDbEntity
  8
中心線
 48
0.5
100
AcDbLine
 10
481.9317019242836
 20
-2488.869259433183
 30
0.0
 11
481.9317019242836
 21
-2506.690882854327
 31
0.0
  0
LINE
  5
2C18E
330
18
100
AcDbEntity
  8
破線
 48
0.03
100
AcDbLine
 10
479.4317019242836
 20
-2490.892999053551
 30
0.0
 11
479.4317019242836
 21
-2500.89299905355
 31
0.0
  0
LINE
  5
2C18F
330
18
100
AcDbEntity
  8
破線
 48
0.03
100
AcDbLine
 10
484.4317019242835
 20
-2490.892999053551
 30
0.0
 11
479.4317019242836
 21
-2490.892999053551
 31
0.0
  0
LINE
  5
2C190
330
18
100
AcDbEntity
  8
破線
 48
0.03
100
AcDbLine
 10
481.9317019242836
 20
-2505.105434618857
 30
0.0
 11
484.0317019242839
 21
-2503.892999053551
 31
0.0
  0
LINE
  5
2C191
330
18
100
AcDbEntity
  8
破線
 48
0.03
100
AcDbLine
 10
481.9317019242836
 20
-2505.105434618857
 30
0.0
 11
479.8317019242833
 21
-2503.892999053551
 31
0.0
  0
LINE
  5
2C192
330
18
100
AcDbEntity
  8
破線
 48
0.03
100
AcDbLine
 10
543.8317019242832
 20
-2503.892999053551
 30
0.0
 11
548.0317019242839
 21
-2503.892999053551
 31
0.0
  0
LINE
  5
2C193
330
18
100
AcDbEntity
  8
破線
 48
0.03
100
AcDbLine
 10
548.4317019242817
 20
-2500.89299905355
 30
0.0
 11
543.4317019242836
 21
-2500.89299905355
 31
0.0
  0
LINE
  5
2C194
330
18
100
AcDbEntity
  8
破線
 48
0.03
100
AcDbLine
 10
548.4317019242836
 20
-2500.89299905355
 30
0.0
 11
548.0317019242839
 21
-2501.585819376585
 31
0.0
  0
LINE
  5
2C195
330
18
100
AcDbEntity
  8
破線
 48
0.03
100
AcDbLine
 10
548.0317019242839
 20
-2490.892999053551
 30
0.0
 11
548.0317019242839
 21
-2503.892999053551
 31
0.0
  0
LINE
  5
2C196
330
18
100
AcDbEntity
  8
破線
 48
0.03
100
AcDbLine
 10
548.4317019242836
 20
-2490.892999053551
 30
0.0
 11
548.4317019242836
 21
-2500.89299905355
 31
0.0
  0
LINE
  5
2C197
330
18
100
AcDbEntity
  8
破線
 48
0.03
100
AcDbLine
 10
543.4317019242836
 20
-2500.89299905355
 30
0.0
 11
543.8317019242832
 21
-2501.585819376585
 31
0.0
  0
LINE
  5
2C198
330
18
100
AcDbEntity
  8
破線
 48
0.03
100
AcDbLine
 10
543.8317019242832
 20
-2490.892999053551
 30
0.0
 11
543.8317019242832
 21
-2503.892999053551
 31
0.0
  0
LINE
  5
2C199
330
18
100
AcDbEntity
  8
中心線
 48
0.5
100
AcDbLine
 10
545.9317019242836
 20
-2488.869259433183
 30
0.0
 11
545.9317019242836
 21
-2506.690882854327
 31
0.0
  0
LINE
  5
2C19A
330
18
100
AcDbEntity
  8
破線
 48
0.03
100
AcDbLine
 10
543.4317019242836
 20
-2490.892999053551
 30
0.0
 11
543.4317019242836
 21
-2500.89299905355
 31
0.0
  0
LINE
  5
2C19B
330
18
100
AcDbEntity
  8
破線
 48
0.03
100
AcDbLine
 10
548.4317019242836
 20
-2490.892999053551
 30
0.0
 11
543.4317019242836
 21
-2490.892999053551
 31
0.0
  0
LINE
  5
2C19C
330
18
100
AcDbEntity
  8
破線
 48
0.03
100
AcDbLine
 10
545.9317019242836
 20
-2505.105434618857
 30
0.0
 11
548.0317019242839
 21
-2503.892999053551
 31
0.0
  0
LINE
  5
2C19D
330
18
100
AcDbEntity
  8
破線
 48
0.03
100
AcDbLine
 10
545.9317019242836
 20
-2505.105434618857
 30
0.0
 11
543.8317019242832
 21
-2503.892999053551
 31
0.0
  0
LINE
  5
2C19E
330
18
100
AcDbEntity
  8
破線
 48
0.03
100
AcDbLine
 10
607.8317019242832
 20
-2503.892999053551
 30
0.0
 11
612.031701924284
 21
-2503.892999053551
 31
0.0
  0
LINE
  5
2C19F
330
18
100
AcDbEntity
  8
破線
 48
0.03
100
AcDbLine
 10
612.4317019242818
 20
-2500.89299905355
 30
0.0
 11
607.4317019242836
 21
-2500.89299905355
 31
0.0
  0
LINE
  5
2C1A0
330
18
100
AcDbEntity
  8
破線
 48
0.03
100
AcDbLine
 10
612.4317019242836
 20
-2500.89299905355
 30
0.0
 11
612.031701924284
 21
-2501.585819376585
 31
0.0
  0
LINE
  5
2C1A1
330
18
100
AcDbEntity
  8
破線
 48
0.03
100
AcDbLine
 10
612.031701924284
 20
-2490.892999053551
 30
0.0
 11
612.031701924284
 21
-2503.892999053551
 31
0.0
  0
LINE
  5
2C1A2
330
18
100
AcDbEntity
  8
破線
 48
0.03
100
AcDbLine
 10
612.4317019242836
 20
-2490.892999053551
 30
0.0
 11
612.4317019242836
 21
-2500.89299905355
 31
0.0
  0
LINE
  5
2C1A3
330
18
100
AcDbEntity
  8
破線
 48
0.03
100
AcDbLine
 10
607.4317019242836
 20
-2500.89299905355
 30
0.0
 11
607.8317019242832
 21
-2501.585819376585
 31
0.0
  0
LINE
  5
2C1A4
330
18
100
AcDbEntity
  8
破線
 48
0.03
100
AcDbLine
 10
607.8317019242832
 20
-2490.892999053551
 30
0.0
 11
607.8317019242832
 21
-2503.892999053551
 31
0.0
  0
LINE
  5
2C1A5
330
18
100
AcDbEntity
  8
中心線
 48
0.5
100
AcDbLine
 10
609.9317019242836
 20
-2488.869259433183
 30
0.0
 11
609.9317019242836
 21
-2506.690882854327
 31
0.0
  0
LINE
  5
2C1A6
330
18
100
AcDbEntity
  8
破線
 48
0.03
100
AcDbLine
 10
607.4317019242836
 20
-2490.892999053551
 30
0.0
 11
607.4317019242836
 21
-2500.89299905355
 31
0.0
  0
LINE
  5
2C1A7
330
18
100
AcDbEntity
  8
破線
 48
0.03
100
AcDbLine
 10
612.4317019242836
 20
-2490.892999053551
 30
0.0
 11
607.4317019242836
 21
-2490.892999053551
 31
0.0
  0
LINE
  5
2C1A8
330
18
100
AcDbEntity
  8
破線
 48
0.03
100
AcDbLine
 10
609.9317019242836
 20
-2505.105434618857
 30
0.0
 11
612.031701924284
 21
-2503.892999053551
 31
0.0
  0
LINE
  5
2C1A9
330
18
100
AcDbEntity
  8
破線
 48
0.03
100
AcDbLine
 10
609.9317019242836
 20
-2505.105434618857
 30
0.0
 11
607.8317019242832
 21
-2503.892999053551
 31
0.0
  0
LINE
  5
2C1AA
330
18
100
AcDbEntity
  8
破線
 48
0.03
100
AcDbLine
 10
671.8317019242832
 20
-2503.892999053551
 30
0.0
 11
676.0317019242839
 21
-2503.892999053551
 31
0.0
  0
LINE
  5
2C1AB
330
18
100
AcDbEntity
  8
破線
 48
0.03
100
AcDbLine
 10
676.4317019242818
 20
-2500.89299905355
 30
0.0
 11
671.4317019242836
 21
-2500.89299905355
 31
0.0
  0
LINE
  5
2C1AC
330
18
100
AcDbEntity
  8
破線
 48
0.03
100
AcDbLine
 10
676.4317019242836
 20
-2500.89299905355
 30
0.0
 11
676.0317019242839
 21
-2501.585819376585
 31
0.0
  0
LINE
  5
2C1AD
330
18
100
AcDbEntity
  8
破線
 48
0.03
100
AcDbLine
 10
676.0317019242839
 20
-2490.892999053551
 30
0.0
 11
676.0317019242839
 21
-2503.892999053551
 31
0.0
  0
LINE
  5
2C1AE
330
18
100
AcDbEntity
  8
破線
 48
0.03
100
AcDbLine
 10
676.4317019242836
 20
-2490.892999053551
 30
0.0
 11
676.4317019242836
 21
-2500.89299905355
 31
0.0
  0
LINE
  5
2C1AF
330
18
100
AcDbEntity
  8
破線
 48
0.03
100
AcDbLine
 10
671.4317019242836
 20
-2500.89299905355
 30
0.0
 11
671.8317019242832
 21
-2501.585819376585
 31
0.0
  0
LINE
  5
2C1B0
330
18
100
AcDbEntity
  8
破線
 48
0.03
100
AcDbLine
 10
671.8317019242832
 20
-2490.892999053551
 30
0.0
 11
671.8317019242832
 21
-2503.892999053551
 31
0.0
  0
LINE
  5
2C1B1
330
18
100
AcDbEntity
  8
中心線
 48
0.5
100
AcDbLine
 10
673.9317019242836
 20
-2488.869259433183
 30
0.0
 11
673.9317019242836
 21
-2506.690882854327
 31
0.0
  0
LINE
  5
2C1B2
330
18
100
AcDbEntity
  8
破線
 48
0.03
100
AcDbLine
 10
671.4317019242836
 20
-2490.892999053551
 30
0.0
 11
671.4317019242836
 21
-2500.89299905355
 31
0.0
  0
LINE
  5
2C1B3
330
18
100
AcDbEntity
  8
破線
 48
0.03
100
AcDbLine
 10
676.4317019242836
 20
-2490.892999053551
 30
0.0
 11
671.4317019242836
 21
-2490.892999053551
 31
0.0
  0
LINE
  5
2C1B4
330
18
100
AcDbEntity
  8
破線
 48
0.03
100
AcDbLine
 10
673.9317019242836
 20
-2505.105434618857
 30
0.0
 11
676.0317019242839
 21
-2503.892999053551
 31
0.0
  0
LINE
  5
2C1B5
330
18
100
AcDbEntity
  8
破線
 48
0.03
100
AcDbLine
 10
673.9317019242836
 20
-2505.105434618857
 30
0.0
 11
671.8317019242832
 21
-2503.892999053551
 31
0.0
  0
LINE
  5
2C1B6
330
18
100
AcDbEntity
  8
破線
 48
0.03
100
AcDbLine
 10
735.8317019242832
 20
-2503.892999053551
 30
0.0
 11
740.031701924284
 21
-2503.892999053551
 31
0.0
  0
LINE
  5
2C1B7
330
18
100
AcDbEntity
  8
破線
 48
0.03
100
AcDbLine
 10
740.4317019242817
 20
-2500.89299905355
 30
0.0
 11
735.4317019242836
 21
-2500.89299905355
 31
0.0
  0
LINE
  5
2C1B8
330
18
100
AcDbEntity
  8
破線
 48
0.03
100
AcDbLine
 10
740.4317019242836
 20
-2500.89299905355
 30
0.0
 11
740.031701924284
 21
-2501.585819376585
 31
0.0
  0
LINE
  5
2C1B9
330
18
100
AcDbEntity
  8
破線
 48
0.03
100
AcDbLine
 10
740.031701924284
 20
-2490.892999053551
 30
0.0
 11
740.031701924284
 21
-2503.892999053551
 31
0.0
  0
LINE
  5
2C1BA
330
18
100
AcDbEntity
  8
破線
 48
0.03
100
AcDbLine
 10
740.4317019242836
 20
-2490.892999053551
 30
0.0
 11
740.4317019242836
 21
-2500.89299905355
 31
0.0
  0
LINE
  5
2C1BB
330
18
100
AcDbEntity
  8
破線
 48
0.03
100
AcDbLine
 10
735.4317019242836
 20
-2500.89299905355
 30
0.0
 11
735.8317019242832
 21
-2501.585819376585
 31
0.0
  0
LINE
  5
2C1BC
330
18
100
AcDbEntity
  8
破線
 48
0.03
100
AcDbLine
 10
735.8317019242832
 20
-2490.892999053551
 30
0.0
 11
735.8317019242832
 21
-2503.892999053551
 31
0.0
  0
LINE
  5
2C1BD
330
18
100
AcDbEntity
  8
中心線
 48
0.5
100
AcDbLine
 10
737.9317019242836
 20
-2488.869259433183
 30
0.0
 11
737.9317019242836
 21
-2506.690882854327
 31
0.0
  0
LINE
  5
2C1BE
330
18
100
AcDbEntity
  8
破線
 48
0.03
100
AcDbLine
 10
735.4317019242836
 20
-2490.892999053551
 30
0.0
 11
735.4317019242836
 21
-2500.89299905355
 31
0.0
  0
LINE
  5
2C1BF
330
18
100
AcDbEntity
  8
破線
 48
0.03
100
AcDbLine
 10
740.4317019242836
 20
-2490.892999053551
 30
0.0
 11
735.4317019242836
 21
-2490.892999053551
 31
0.0
  0
LINE
  5
2C1C0
330
18
100
AcDbEntity
  8
破線
 48
0.03
100
AcDbLine
 10
737.9317019242836
 20
-2505.105434618857
 30
0.0
 11
740.031701924284
 21
-2503.892999053551
 31
0.0
  0
LINE
  5
2C1C1
330
18
100
AcDbEntity
  8
破線
 48
0.03
100
AcDbLine
 10
737.9317019242836
 20
-2505.105434618857
 30
0.0
 11
735.8317019242832
 21
-2503.892999053551
 31
0.0
  0
LINE
  5
2C1C2
330
18
100
AcDbEntity
  8
破線
 48
0.03
100
AcDbLine
 10
799.8317019242833
 20
-2503.892999053551
 30
0.0
 11
804.031701924284
 21
-2503.892999053551
 31
0.0
  0
LINE
  5
2C1C3
330
18
100
AcDbEntity
  8
破線
 48
0.03
100
AcDbLine
 10
804.4317019242818
 20
-2500.89299905355
 30
0.0
 11
799.4317019242836
 21
-2500.89299905355
 31
0.0
  0
LINE
  5
2C1C4
330
18
100
AcDbEntity
  8
破線
 48
0.03
100
AcDbLine
 10
804.4317019242836
 20
-2500.89299905355
 30
0.0
 11
804.031701924284
 21
-2501.585819376585
 31
0.0
  0
LINE
  5
2C1C5
330
18
100
AcDbEntity
  8
破線
 48
0.03
100
AcDbLine
 10
804.031701924284
 20
-2490.892999053551
 30
0.0
 11
804.031701924284
 21
-2503.892999053551
 31
0.0
  0
LINE
  5
2C1C6
330
18
100
AcDbEntity
  8
破線
 48
0.03
100
AcDbLine
 10
804.4317019242836
 20
-2490.892999053551
 30
0.0
 11
804.4317019242836
 21
-2500.89299905355
 31
0.0
  0
LINE
  5
2C1C7
330
18
100
AcDbEntity
  8
破線
 48
0.03
100
AcDbLine
 10
799.4317019242836
 20
-2500.89299905355
 30
0.0
 11
799.8317019242833
 21
-2501.585819376585
 31
0.0
  0
LINE
  5
2C1C8
330
18
100
AcDbEntity
  8
破線
 48
0.03
100
AcDbLine
 10
799.8317019242833
 20
-2490.892999053551
 30
0.0
 11
799.8317019242833
 21
-2503.892999053551
 31
0.0
  0
LINE
  5
2C1C9
330
18
100
AcDbEntity
  8
中心線
 48
0.5
100
AcDbLine
 10
801.9317019242835
 20
-2488.869259433183
 30
0.0
 11
801.9317019242835
 21
-2506.690882854327
 31
0.0
  0
LINE
  5
2C1CA
330
18
100
AcDbEntity
  8
破線
 48
0.03
100
AcDbLine
 10
799.4317019242836
 20
-2490.892999053551
 30
0.0
 11
799.4317019242836
 21
-2500.89299905355
 31
0.0
  0
LINE
  5
2C1CB
330
18
100
AcDbEntity
  8
破線
 48
0.03
100
AcDbLine
 10
804.4317019242836
 20
-2490.892999053551
 30
0.0
 11
799.4317019242836
 21
-2490.892999053551
 31
0.0
  0
LINE
  5
2C1CC
330
18
100
AcDbEntity
  8
破線
 48
0.03
100
AcDbLine
 10
801.9317019242835
 20
-2505.105434618857
 30
0.0
 11
804.031701924284
 21
-2503.892999053551
 31
0.0
  0
LINE
  5
2C1CD
330
18
100
AcDbEntity
  8
破線
 48
0.03
100
AcDbLine
 10
801.9317019242835
 20
-2505.105434618857
 30
0.0
 11
799.8317019242833
 21
-2503.892999053551
 31
0.0
  0
LINE
  5
2C1CE
330
18
100
AcDbEntity
  8
破線
 48
0.03
100
AcDbLine
 10
863.8317019242832
 20
-2503.892999053551
 30
0.0
 11
868.031701924284
 21
-2503.892999053551
 31
0.0
  0
LINE
  5
2C1CF
330
18
100
AcDbEntity
  8
破線
 48
0.03
100
AcDbLine
 10
868.4317019242818
 20
-2500.89299905355
 30
0.0
 11
863.4317019242836
 21
-2500.89299905355
 31
0.0
  0
LINE
  5
2C1D0
330
18
100
AcDbEntity
  8
破線
 48
0.03
100
AcDbLine
 10
868.4317019242836
 20
-2500.89299905355
 30
0.0
 11
868.031701924284
 21
-2501.585819376585
 31
0.0
  0
LINE
  5
2C1D1
330
18
100
AcDbEntity
  8
破線
 48
0.03
100
AcDbLine
 10
868.031701924284
 20
-2490.892999053551
 30
0.0
 11
868.031701924284
 21
-2503.892999053551
 31
0.0
  0
LINE
  5
2C1D2
330
18
100
AcDbEntity
  8
破線
 48
0.03
100
AcDbLine
 10
868.4317019242836
 20
-2490.892999053551
 30
0.0
 11
868.4317019242836
 21
-2500.89299905355
 31
0.0
  0
LINE
  5
2C1D3
330
18
100
AcDbEntity
  8
破線
 48
0.03
100
AcDbLine
 10
863.4317019242836
 20
-2500.89299905355
 30
0.0
 11
863.8317019242832
 21
-2501.585819376585
 31
0.0
  0
LINE
  5
2C1D4
330
18
100
AcDbEntity
  8
破線
 48
0.03
100
AcDbLine
 10
863.8317019242832
 20
-2490.892999053551
 30
0.0
 11
863.8317019242832
 21
-2503.892999053551
 31
0.0
  0
LINE
  5
2C1D5
330
18
100
AcDbEntity
  8
中心線
 48
0.5
100
AcDbLine
 10
865.9317019242836
 20
-2488.869259433183
 30
0.0
 11
865.9317019242836
 21
-2506.690882854327
 31
0.0
  0
LINE
  5
2C1D6
330
18
100
AcDbEntity
  8
破線
 48
0.03
100
AcDbLine
 10
863.4317019242836
 20
-2490.892999053551
 30
0.0
 11
863.4317019242836
 21
-2500.89299905355
 31
0.0
  0
LINE
  5
2C1D7
330
18
100
AcDbEntity
  8
破線
 48
0.03
100
AcDbLine
 10
868.4317019242836
 20
-2490.892999053551
 30
0.0
 11
863.4317019242836
 21
-2490.892999053551
 31
0.0
  0
LINE
  5
2C1D8
330
18
100
AcDbEntity
  8
破線
 48
0.03
100
AcDbLine
 10
865.9317019242836
 20
-2505.105434618857
 30
0.0
 11
868.031701924284
 21
-2503.892999053551
 31
0.0
  0
LINE
  5
2C1D9
330
18
100
AcDbEntity
  8
破線
 48
0.03
100
AcDbLine
 10
865.9317019242836
 20
-2505.105434618857
 30
0.0
 11
863.8317019242832
 21
-2503.892999053551
 31
0.0
  0
LINE
  5
2C1DA
330
18
100
AcDbEntity
  8
破線
 48
0.03
100
AcDbLine
 10
895.9317019242844
 20
-2497.142999053551
 30
0.0
 11
883.9317019242844
 21
-2497.142999053551
 31
0.0
  0
LINE
  5
2C1DB
330
18
100
AcDbEntity
  8
破線
 48
0.03
100
AcDbLine
 10
895.9317019242844
 20
-2496.89299905355
 30
0.0
 11
885.9317019242844
 21
-2496.89299905355
 31
0.0
  0
LINE
  5
2C1DC
330
18
100
AcDbEntity
  8
破線
 48
0.03
100
AcDbLine
 10
882.9213389531979
 20
-2498.892999053551
 30
0.0
 11
883.9317019242844
 21
-2497.142999053551
 31
0.0
  0
LINE
  5
2C1DD
330
18
100
AcDbEntity
  8
破線
 48
0.03
100
AcDbLine
 10
883.9317019242844
 20
-2500.642999053551
 30
0.0
 11
883.9317019242844
 21
-2497.142999053551
 31
0.0
  0
LINE
  5
2C1DE
330
18
100
AcDbEntity
  8
破線
 48
0.03
100
AcDbLine
 10
885.9317019242844
 20
-2496.89299905355
 30
0.0
 11
885.4986892223861
 21
-2497.142999053551
 31
0.0
  0
LINE
  5
2C1DF
330
18
100
AcDbEntity
  8
破線
 48
0.03
100
AcDbLine
 10
885.9317019242844
 20
-2500.89299905355
 30
0.0
 11
885.9317019242844
 21
-2496.89299905355
 31
0.0
  0
LINE
  5
2C1E0
330
18
100
AcDbEntity
  8
破線
 48
0.03
100
AcDbLine
 10
882.9213389531979
 20
-2498.892999053551
 30
0.0
 11
883.9317019242844
 21
-2500.642999053551
 31
0.0
  0
LINE
  5
2C1E1
330
18
100
AcDbEntity
  8
破線
 48
0.03
100
AcDbLine
 10
895.9317019242844
 20
-2500.89299905355
 30
0.0
 11
885.9317019242844
 21
-2500.89299905355
 31
0.0
  0
LINE
  5
2C1E2
330
18
100
AcDbEntity
  8
破線
 48
0.03
100
AcDbLine
 10
895.9317019242844
 20
-2500.642999053551
 30
0.0
 11
883.9317019242844
 21
-2500.642999053551
 31
0.0
  0
LINE
  5
2C1E3
330
18
100
AcDbEntity
  8
破線
 48
0.03
100
AcDbLine
 10
885.9317019242844
 20
-2500.89299905355
 30
0.0
 11
885.4986892223861
 21
-2500.642999053551
 31
0.0
  0
LINE
  5
2C1E4
330
18
100
AcDbEntity
  8
中心線
 48
0.5
100
AcDbLine
 10
900.9317019242844
 20
-2498.892999053551
 30
0.0
 11
876.9317019242844
 21
-2498.892999053551
 31
0.0
  0
LINE
  5
2C308
330
18
100
AcDbEntity
  8
中心線
100
AcDbLine
 10
918.6679093376366
 20
-2240.691602833294
 30
0.0
 11
374.9566340714338
 21
-2240.691602833294
 31
0.0
  0
LINE
  5
2C317
330
18
100
AcDbEntity
  8
実線
100
AcDbLine
 10
894.9317019242824
 20
-2304.191602833295
 30
0.0
 11
894.9317019242824
 21
-2301.691602833294
 31
0.0
  0
LINE
  5
2C318
330
18
100
AcDbEntity
  8
実線
100
AcDbLine
 10
881.7317019242832
 20
-2304.191602833295
 30
0.0
 11
894.9317019242824
 21
-2304.191602833295
 31
0.0
  0
LINE
  5
2C319
330
18
100
AcDbEntity
  8
中心線
 48
0.5
100
AcDbLine
 10
900.931701924283
 20
-2288.691602833293
 30
0.0
 11
876.931701924283
 21
-2288.691602833293
 31
0.0
  0
LINE
  5
2C31A
330
18
100
AcDbEntity
  8
破線
 48
0.03
100
AcDbLine
 10
895.9317019242833
 20
-2286.941602833294
 30
0.0
 11
883.9317019242834
 21
-2286.941602833294
 31
0.0
  0
LINE
  5
2C31B
330
18
100
AcDbEntity
  8
破線
 48
0.03
100
AcDbLine
 10
895.9317019242833
 20
-2286.691602833293
 30
0.0
 11
885.9317019242833
 21
-2286.691602833293
 31
0.0
  0
LINE
  5
2C31C
330
18
100
AcDbEntity
  8
破線
 48
0.03
100
AcDbLine
 10
882.9213389531968
 20
-2288.691602833293
 30
0.0
 11
883.9317019242834
 21
-2286.941602833294
 31
0.0
  0
LINE
  5
2C31D
330
18
100
AcDbEntity
  8
破線
 48
0.03
100
AcDbLine
 10
883.9317019242834
 20
-2290.441602833293
 30
0.0
 11
883.9317019242834
 21
-2286.941602833294
 31
0.0
  0
LINE
  5
2C31E
330
18
100
AcDbEntity
  8
破線
 48
0.03
100
AcDbLine
 10
885.9317019242833
 20
-2286.691602833293
 30
0.0
 11
885.498689222385
 21
-2286.941602833294
 31
0.0
  0
LINE
  5
2C31F
330
18
100
AcDbEntity
  8
破線
 48
0.03
100
AcDbLine
 10
885.9317019242833
 20
-2290.691602833294
 30
0.0
 11
885.9317019242833
 21
-2286.691602833293
 31
0.0
  0
LINE
  5
2C320
330
18
100
AcDbEntity
  8
破線
 48
0.03
100
AcDbLine
 10
882.9213389531968
 20
-2288.691602833293
 30
0.0
 11
883.9317019242834
 21
-2290.441602833293
 31
0.0
  0
LINE
  5
2C321
330
18
100
AcDbEntity
  8
破線
 48
0.03
100
AcDbLine
 10
895.9317019242833
 20
-2290.691602833294
 30
0.0
 11
885.9317019242833
 21
-2290.691602833294
 31
0.0
  0
LINE
  5
2C322
330
18
100
AcDbEntity
  8
破線
 48
0.03
100
AcDbLine
 10
895.9317019242833
 20
-2290.441602833293
 30
0.0
 11
883.9317019242834
 21
-2290.441602833293
 31
0.0
  0
LINE
  5
2C323
330
18
100
AcDbEntity
  8
破線
 48
0.03
100
AcDbLine
 10
885.9317019242833
 20
-2290.691602833294
 30
0.0
 11
885.498689222385
 21
-2290.441602833293
 31
0.0
  0
LINE
  5
2C324
330
18
100
AcDbEntity
  8
中心線
 48
0.5
100
AcDbLine
 10
900.931701924283
 20
-2264.691602833293
 30
0.0
 11
876.931701924283
 21
-2264.691602833293
 31
0.0
  0
LINE
  5
2C325
330
18
100
AcDbEntity
  8
中心線
 48
0.5
100
AcDbLine
 10
900.931701924283
 20
-2264.691602833293
 30
0.0
 11
876.931701924283
 21
-2264.691602833293
 31
0.0
  0
LINE
  5
2C326
330
18
100
AcDbEntity
  8
破線
 48
0.03
100
AcDbLine
 10
895.9317019242833
 20
-2262.941602833294
 30
0.0
 11
883.9317019242834
 21
-2262.941602833294
 31
0.0
  0
LINE
  5
2C327
330
18
100
AcDbEntity
  8
破線
 48
0.03
100
AcDbLine
 10
895.9317019242833
 20
-2262.691602833294
 30
0.0
 11
885.9317019242833
 21
-2262.691602833294
 31
0.0
  0
LINE
  5
2C328
330
18
100
AcDbEntity
  8
破線
 48
0.03
100
AcDbLine
 10
882.9213389531968
 20
-2264.691602833293
 30
0.0
 11
883.9317019242834
 21
-2262.941602833294
 31
0.0
  0
LINE
  5
2C329
330
18
100
AcDbEntity
  8
破線
 48
0.03
100
AcDbLine
 10
883.9317019242834
 20
-2266.441602833293
 30
0.0
 11
883.9317019242834
 21
-2262.941602833294
 31
0.0
  0
LINE
  5
2C32A
330
18
100
AcDbEntity
  8
破線
 48
0.03
100
AcDbLine
 10
885.9317019242833
 20
-2262.691602833294
 30
0.0
 11
885.498689222385
 21
-2262.941602833294
 31
0.0
  0
LINE
  5
2C32B
330
18
100
AcDbEntity
  8
破線
 48
0.03
100
AcDbLine
 10
885.9317019242833
 20
-2266.691602833294
 30
0.0
 11
885.9317019242833
 21
-2262.691602833294
 31
0.0
  0
LINE
  5
2C32C
330
18
100
AcDbEntity
  8
破線
 48
0.03
100
AcDbLine
 10
882.9213389531968
 20
-2264.691602833293
 30
0.0
 11
883.9317019242834
 21
-2266.441602833293
 31
0.0
  0
LINE
  5
2C32D
330
18
100
AcDbEntity
  8
破線
 48
0.03
100
AcDbLine
 10
895.9317019242833
 20
-2266.691602833294
 30
0.0
 11
885.9317019242833
 21
-2266.691602833294
 31
0.0
  0
LINE
  5
2C32E
330
18
100
AcDbEntity
  8
破線
 48
0.03
100
AcDbLine
 10
895.9317019242833
 20
-2266.441602833293
 30
0.0
 11
883.9317019242834
 21
-2266.441602833293
 31
0.0
  0
LINE
  5
2C32F
330
18
100
AcDbEntity
  8
破線
 48
0.03
100
AcDbLine
 10
885.9317019242833
 20
-2266.691602833294
 30
0.0
 11
885.498689222385
 21
-2266.441602833293
 31
0.0
  0
LINE
  5
2C330
330
18
100
AcDbEntity
  8
実線
100
AcDbLine
 10
881.7317019242832
 20
-2287.691602833294
 30
0.0
 11
881.7317019242832
 21
-2305.691602833293
 31
0.0
  0
LINE
  5
2C331
330
18
100
AcDbEntity
  8
中心線
 48
0.5
100
AcDbLine
 10
971.7605671308687
 20
-2307.817694659442
 30
0.0
 11
974.5028367177015
 21
-2292.265511007148
 31
0.0
  0
LINE
  5
2C332
330
18
100
AcDbEntity
  8
中心線
 48
0.5
100
AcDbLine
 10
973.7605671308688
 20
-2307.817694659442
 30
0.0
 11
976.5028367177015
 21
-2292.265511007148
 31
0.0
  0
LINE
  5
2C333
330
18
100
AcDbEntity
  8
実線
100
AcDbLine
 10
1035.131701924285
 20
-2288.958586518905
 30
0.0
 11
1048.131701924285
 21
-2288.958586518905
 31
0.0
  0
LINE
  5
2C334
330
18
100
AcDbEntity
  8
実線
100
AcDbLine
 10
1035.131701924285
 20
-2291.958586518906
 30
0.0
 11
1048.131701924285
 21
-2291.958586518906
 31
0.0
  0
LINE
  5
2C335
330
18
100
AcDbEntity
  8
実線
100
AcDbLine
 10
1035.131701924285
 20
-2294.958586518906
 30
0.0
 11
1048.131701924285
 21
-2294.958586518906
 31
0.0
  0
LINE
  5
2C336
330
18
100
AcDbEntity
  8
実線
100
AcDbLine
 10
1035.131701924285
 20
-2297.958586518905
 30
0.0
 11
1048.131701924285
 21
-2297.958586518905
 31
0.0
  0
LINE
  5
2C337
330
18
100
AcDbEntity
  8
実線
100
AcDbLine
 10
1048.131701924285
 20
-2284.708586518906
 30
0.0
 11
1035.131701924285
 21
-2284.708586518906
 31
0.0
  0
LINE
  5
2C338
330
18
100
AcDbEntity
  8
実線
100
AcDbLine
 10
1035.131701924285
 20
-2314.208586518906
 30
0.0
 11
1048.131701924285
 21
-2314.208586518906
 31
0.0
  0
LINE
  5
2C339
330
18
100
AcDbEntity
  8
実線
100
AcDbLine
 10
1035.131701924285
 20
-2303.958586518906
 30
0.0
 11
1048.131701924285
 21
-2303.958586518906
 31
0.0
  0
LINE
  5
2C33A
330
18
100
AcDbEntity
  8
実線
100
AcDbLine
 10
1035.131701924285
 20
-2300.958586518905
 30
0.0
 11
1048.131701924285
 21
-2300.958586518905
 31
0.0
  0
LINE
  5
2C33B
330
18
100
AcDbEntity
  8
実線
100
AcDbLine
 10
1035.131701924285
 20
-2306.958586518906
 30
0.0
 11
1048.131701924285
 21
-2306.958586518906
 31
0.0
  0
LINE
  5
2C33C
330
18
100
AcDbEntity
  8
実線
100
AcDbLine
 10
1035.131701924285
 20
-2309.958586518906
 30
0.0
 11
1048.131701924285
 21
-2309.958586518906
 31
0.0
  0
LINE
  5
2C33D
330
18
100
AcDbEntity
  8
実線
100
AcDbLine
 10
1035.131701924285
 20
-2294.958586518906
 30
0.0
 11
1035.131701924285
 21
-2291.958586518906
 31
0.0
  0
LINE
  5
2C33E
330
18
100
AcDbEntity
  8
実線
100
AcDbLine
 10
1034.131701924285
 20
-2288.458586518906
 30
0.0
 11
1035.131701924285
 21
-2288.958586518905
 31
0.0
  0
LINE
  5
2C33F
330
18
100
AcDbEntity
  8
実線
100
AcDbLine
 10
1035.131701924285
 20
-2284.708586518906
 30
0.0
 11
1034.131701924285
 21
-2288.458586518906
 31
0.0
  0
LINE
  5
2C340
330
18
100
AcDbEntity
  8
実線
100
AcDbLine
 10
1035.131701924285
 20
-2288.958586518905
 30
0.0
 11
1035.131701924285
 21
-2284.708586518906
 31
0.0
  0
LINE
  5
2C341
330
18
100
AcDbEntity
  8
実線
100
AcDbLine
 10
1034.131701924285
 20
-2288.458586518906
 30
0.0
 11
1010.131701924285
 21
-2288.458586518906
 31
0.0
  0
LINE
  5
2C342
330
18
100
AcDbEntity
  8
実線
100
AcDbLine
 10
1035.131701924285
 20
-2314.208586518906
 30
0.0
 11
1035.131701924285
 21
-2309.958586518906
 31
0.0
  0
LINE
  5
2C343
330
18
100
AcDbEntity
  8
実線
100
AcDbLine
 10
1034.131701924285
 20
-2310.458586518906
 30
0.0
 11
1035.131701924285
 21
-2309.958586518906
 31
0.0
  0
LINE
  5
2C344
330
18
100
AcDbEntity
  8
実線
100
AcDbLine
 10
1035.131701924285
 20
-2314.208586518906
 30
0.0
 11
1034.131701924285
 21
-2310.458586518906
 31
0.0
  0
LINE
  5
2C345
330
18
100
AcDbEntity
  8
実線
100
AcDbLine
 10
1034.131701924285
 20
-2310.458586518906
 30
0.0
 11
1010.131701924285
 21
-2310.458586518906
 31
0.0
  0
LINE
  5
2C346
330
18
100
AcDbEntity
  8
実線
100
AcDbLine
 10
1035.131701924285
 20
-2306.958586518906
 30
0.0
 11
1035.131701924285
 21
-2303.958586518906
 31
0.0
  0
LINE
  5
2C347
330
18
100
AcDbEntity
  8
実線
100
AcDbLine
 10
1035.131701924285
 20
-2300.958586518905
 30
0.0
 11
1035.131701924285
 21
-2297.958586518905
 31
0.0
  0
LWPOLYLINE
  5
2C348
330
18
100
AcDbEntity
  8
実線
100
AcDbPolyline
 90
        4
 70
   129
 43
0.0
 10
1057.131701924285
 20
-2314.208586518906
 10
1052.131701924285
 20
-2314.208586518906
 10
1052.131701924285
 20
-2284.708586518906
 10
1057.131701924285
 20
-2284.708586518906
  0
LWPOLYLINE
  5
2C349
330
18
100
AcDbEntity
  8
実線
100
AcDbPolyline
 90
        4
 70
   129
 43
0.0
 10
1052.131701924285
 20
-2316.308586518905
 10
1048.131701924285
 20
-2316.308586518905
 10
1048.131701924285
 20
-2282.608586518906
 10
1052.131701924285
 20
-2282.608586518906
  0
LINE
  5
2C34A
330
18
100
AcDbEntity
  8
実線
100
AcDbLine
 10
1010.131701924285
 20
-2310.458586518906
 30
0.0
 11
1010.131701924285
 21
-2288.458586518906
 31
0.0
  0
LINE
  5
2C34B
330
18
100
AcDbEntity
  8
実線
100
AcDbLine
 10
1010.131701924285
 20
-2306.833586518906
 30
0.0
 11
1010.131701924285
 21
-2292.083586518906
 31
0.0
  0
LINE
  5
2C34C
330
18
100
AcDbEntity
  8
実線
100
AcDbLine
 10
989.9914650632981
 20
-2297.441602833294
 30
0.0
 11
1010.131701924285
 21
-2300.783586518905
 31
0.0
  0
LINE
  5
2C34D
330
18
100
AcDbEntity
  8
実線
100
AcDbLine
 10
989.9914650632981
 20
-2299.441602833295
 30
0.0
 11
1010.131701924285
 21
-2302.783586518904
 31
0.0
  0
LINE
  5
2C34E
330
18
100
AcDbEntity
  8
実線
100
AcDbLine
 10
990.58335695519
 20
-2297.541602833294
 30
0.0
 11
1010.131701924285
 21
-2293.583586518906
 31
0.0
  0
LINE
  5
2C34F
330
18
100
AcDbEntity
  8
実線
100
AcDbLine
 10
989.9914650632981
 20
-2301.841602833294
 30
0.0
 11
1010.131701924285
 21
-2305.183586518905
 31
0.0
  0
LINE
  5
2C350
330
18
100
AcDbEntity
  8
実線
100
AcDbLine
 10
989.9914650632981
 20
-2299.841602833294
 30
0.0
 11
1010.131701924285
 21
-2303.183586518905
 31
0.0
  0
LINE
  5
2C351
330
18
100
AcDbEntity
  8
実線
100
AcDbLine
 10
999.7985062135162
 20
-2299.068940771491
 30
0.0
 11
1010.131701924285
 21
-2297.983586518905
 31
0.0
  0
LINE
  5
2C352
330
18
100
AcDbEntity
  8
実線
100
AcDbLine
 10
993.4008032872416
 20
-2298.00733365373
 30
0.0
 11
1010.131701924285
 21
-2295.983586518905
 31
0.0
  0
LINE
  5
2C353
330
18
100
AcDbEntity
  8
実線
100
AcDbLine
 10
992.2331909512768
 20
-2297.813585119151
 30
0.0
 11
1010.131701924285
 21
-2295.583586518906
 31
0.0
  0
LINE
  5
2C354
330
18
100
AcDbEntity
  8
実線
100
AcDbLine
 10
989.9914650632981
 20
-2295.691602833294
 30
0.0
 11
989.9914650632981
 21
-2303.691602833294
 31
0.0
  0
LINE
  5
2C355
330
18
100
AcDbEntity
  8
実線
100
AcDbLine
 10
989.9914650632981
 20
-2302.091602833294
 30
0.0
 11
990.7263643921568
 21
-2301.965763907119
 31
0.0
  0
LINE
  5
2C356
330
18
100
AcDbEntity
  8
実線
100
AcDbLine
 10
989.9914896684876
 20
-2296.691602833294
 30
0.0
 11
989.9914650632981
 21
-2297.341602836594
 31
0.0
  0
LINE
  5
2C357
330
18
100
AcDbEntity
  8
実線
100
AcDbLine
 10
989.9914650632981
 20
-2302.341602829995
 30
0.0
 11
989.9914650632981
 21
-2302.691602833295
 31
0.0
  0
LINE
  5
2C358
330
18
100
AcDbEntity
  8
実線
 48
10.0
100
AcDbLine
 10
894.9317019242824
 20
-2303.691602833294
 30
0.0
 11
972.4881084446993
 21
-2303.691602833294
 31
0.0
  0
LINE
  5
2C359
330
18
100
AcDbEntity
  8
実線
 48
10.0
100
AcDbLine
 10
895.9317019242829
 20
-2295.691602833294
 30
0.0
 11
973.898724290367
 21
-2295.691602833294
 31
0.0
  0
LINE
  5
2C35A
330
18
100
AcDbEntity
  8
実線
 48
10.0
100
AcDbLine
 10
975.8987242903669
 20
-2295.691602833294
 30
0.0
 11
989.9914650632984
 21
-2295.691602833294
 31
0.0
  0
LINE
  5
2C35B
330
18
100
AcDbEntity
  8
実線
 48
10.0
100
AcDbLine
 10
974.4881084446992
 20
-2303.691602833294
 30
0.0
 11
989.9914650632984
 21
-2303.691602833294
 31
0.0
  0
TEXT
  5
2CC26
330
18
100
AcDbEntity
  8
細線
  6
Continuous
100
AcDbText
 10
1126.82236687745
 20
-2543.835795802194
 30
0.0
 40
3.2
  1
CLNA1500MA
100
AcDbText
  0
TEXT
  5
2CC27
330
18
100
AcDbEntity
  8
細線
100
AcDbText
 10
1122.183748225511
 20
-2554.38503480531
 30
0.0
 40
5.0
  1
外形図_コイルユニット単体
 41
0.9
100
AcDbText
  0
TEXT
  5
2CC28
330
18
100
AcDbEntity
  8
細線
100
AcDbText
 10
1122.297308443688
 20
-2566.130682318979
 30
0.0
 40
6.0
  1
ＳＥ－８７３４０
 41
1.1
100
AcDbText
  0
VIEWPORT
  5
2CC31
102
{ACAD_XDICTIONARY
360
2CD2F
102
}
330
2CC2D
100
AcDbEntity
 67
     1
  8
0
100
AcDbViewport
 10
9.12677023147021
 20
2.163844265205479
 30
0.0
 40
3.356365697175991
 41
2.151516472548712
 68
     1
 69
     1
 12
9.12677023147021
 22
2.163844265205479
 13
0.0
 23
0.0
 14
0.5
 24
0.5
 15
0.0
 25
0.0
 16
0.0
 26
0.0
 36
1.0
 17
0.0
 27
0.0
 37
0.0
 42
50.0
 43
0.0
 44
0.0
 45
2.151516472548712
 50
0.0
 51
0.0
 72
   100
 90
   557168
  1

281
     0
 71
     1
 74
     0
110
0.0
120
0.0
130
0.0
111
1.0
121
0.0
131
0.0
112
0.0
122
1.0
132
0.0
 79
     0
146
0.0
  0
VIEWPORT
  5
2CC32
102
{ACAD_XDICTIONARY
360
2CC33
102
}
330
2CC2D
100
AcDbEntity
 67
     1
  8
0
100
AcDbViewport
 10
5.25
 20
3.5
 30
0.0
 40
8.4
 41
5.6
 68
     2
 69
     2
 12
730.8397130819875
 22
-2338.993320451675
 13
0.0
 23
0.0
 14
0.5
 24
0.5
 15
0.0
 25
0.0
 16
0.0
 26
0.0
 36
1.0
 17
0.0
 27
0.0
 37
0.0
 42
50.0
 43
0.0
 44
0.0
 45
637.6549997948083
 50
0.0
 51
0.0
 72
   100
341
E
 90
   557152
  1

281
     0
 71
     1
 74
     0
110
0.0
120
0.0
130
0.0
111
1.0
121
0.0
131
0.0
112
0.0
122
1.0
132
0.0
 79
     0
146
0.0
  0
ENDSEC
  0
SECTION
  2
OBJECTS
  0
DICTIONARY
  5
C
330
0
100
AcDbDictionary
281
     1
  3
ACAD_2007HEADERVARS_RT
350
2CCF4
  3
ACAD_CIP_PREVIOUS_PRODUCT_INFO
350
2CC86
  3
ACAD_COLOR
350
2CC76
  3
ACAD_DETAILVIEWSTYLE
350
28920
  3
ACAD_GROUP
350
D
  3
ACAD_IMAGE_VARS
350
283ED
  3
ACAD_LAYOUT
350
DB2
  3
ACAD_MATERIAL
350
2CBE8
  3
ACAD_MLEADERSTYLE
350
2CBEE
  3
ACAD_MLINESTYLE
350
1B
  3
ACAD_PLOTSETTINGS
350
DB3
  3
ACAD_PLOTSTYLENAME
350
FB5B
  3
ACAD_SCALELIST
350
283C1
  3
ACAD_SECTIONVIEWSTYLE
350
28921
  3
ACAD_TABLESTYLE
350
2CBEC
  3
ACAD_VISUALSTYLE
350
2CBCF
  3
AcadDim
350
264CA
  3
ACDB_RECOMPOSE_DATA
350
2CCF2
  3
AcDbVariableDictionary
350
106A6
  3
APPDATA
350
283EB
  3
ASE_INDEX_DICTIONARY
350
1A99F
  3
DWGPROPS
350
2CCF3
  3
FX_DICT_DIMENSION_PALETTE
350
28918
  3
FX_DICT_DIMENSION_PALETTE_RECENTLIST
350
28919
  0
DICTIONARY
  5
2CC96
330
8
100
AcDbDictionary
280
     1
281
     1
  0
DICTIONARY
  5
254EC
330
2
100
AcDbDictionary
280
     1
281
     1
  3
ACAD_LAYERSTATES
360
254F9
  3
ACLYDICTIONARY
360
2CC68
  0
DICTIONARY
  5
2BB2B
330
2BB2A
100
AcDbDictionary
280
     1
281
     1
  3
ADSK_XREC_LAYER_RECONCILED
360
2BB2C
  0
DICTIONARY
  5
2B88A
330
18
100
AcDbDictionary
280
     1
281
     1
  3
ACAD_SORTENTS
360
2B88B
  0
DICTIONARY
  5
2CD2F
330
2CC31
100
AcDbDictionary
280
     1
281
     1
  3
ACAD_XREC_ROUNDTRIP
360
2CD30
  0
DICTIONARY
  5
2CC33
330
2CC32
100
AcDbDictionary
280
     1
281
     1
  3
ACAD_XREC_ROUNDTRIP
360
2CD31
  3
ASDK_XREC_ANNOTATION_SCALE_INFO
360
2CC34
  0
DICTIONARY
  5
2CCF4
102
{ACAD_REACTORS
330
C
102
}
330
C
100
AcDbDictionary
281
     1
  3
INTERFERECOLOR
350
2CCF5
  0
XRECORD
  5
2CC86
102
{ACAD_REACTORS
330
C
102
}
330
C
100
AcDbXrecord
280
     1
300
ACDLT
300
2019
300
87085ACDLT_2019_0F
  0
DICTIONARY
  5
2CC76
102
{ACAD_REACTORS
330
C
102
}
330
C
100
AcDbDictionary
281
     1
  0
DICTIONARY
  5
28920
102
{ACAD_REACTORS
330
C
102
}
330
C
100
AcDbDictionary
281
     1
  3
Imperial24
350
2CC78
  0
DICTIONARY
  5
D
102
{ACAD_REACTORS
330
C
102
}
330
C
100
AcDbDictionary
281
     1
  0
RASTERVARIABLES
  5
283ED
102
{ACAD_REACTORS
330
C
102
}
330
C
100
AcDbRasterVariables
 90
        0
 70
     1
 71
     1
 72
     0
  0
DICTIONARY
  5
DB2
102
{ACAD_REACTORS
330
C
102
}
330
C
100
AcDbDictionary
281
     1
  3
Model
350
FB5D
  3
Sheet1
350
2CC2E
  0
DICTIONARY
  5
2CBE8
102
{ACAD_REACTORS
330
C
102
}
330
C
100
AcDbDictionary
281
     1
  3
ByBlock
350
2CC74
  3
ByLayer
350
2CBE9
  3
Global
350
2CBEB
  0
DICTIONARY
  5
2CBEE
102
{ACAD_REACTORS
330
C
102
}
330
C
100
AcDbDictionary
281
     1
  3
Standard
350
2CBEF
  0
DICTIONARY
  5
1B
102
{ACAD_REACTORS
330
C
102
}
330
C
100
AcDbDictionary
281
     1
  3
STANDARD
350
1C
  0
DICTIONARY
  5
DB3
102
{ACAD_REACTORS
330
C
102
}
330
C
100
AcDbDictionary
281
     1
  0
ACDBDICTIONARYWDFLT
  5
FB5B
102
{ACAD_REACTORS
330
C
102
}
330
C
100
AcDbDictionary
281
     1
  3
Normal
350
FB5C
100
AcDbDictionaryWithDefault
340
FB5C
  0
DICTIONARY
  5
283C1
102
{ACAD_REACTORS
330
C
102
}
330
C
100
AcDbDictionary
281
     1
  3
A0
350
283C2
  3
A1
350
283C3
  3
A2
350
283C4
  3
A3
350
283C5
  3
A4
350
283C6
  3
A5
350
283C7
  3
A6
350
283C8
  3
A7
350
283C9
  3
A8
350
283CA
  3
A9
350
283CB
  3
B0
350
283CC
  3
B1
350
283CD
  3
B2
350
283CE
  3
B3
350
283CF
  3
B4
350
283D0
  3
B5
350
283D1
  3
B6
350
283D2
  3
B7
350
283D3
  3
B8
350
283D4
  3
B9
350
283D5
  3
C0
350
283D6
  3
C1
350
283D7
  3
C2
350
283D8
  3
C3
350
283D9
  3
C4
350
283DA
  3
C5
350
283DB
  3
C6
350
283DC
  3
C7
350
283DD
  3
C8
350
283DE
  3
C9
350
283DF
  3
D0
350
283E0
  3
D1
350
283E1
  3
D2
350
283E2
  0
DICTIONARY
  5
28921
102
{ACAD_REACTORS
330
C
102
}
330
C
100
AcDbDictionary
281
     1
  3
Imperial24
350
2CC77
  0
DICTIONARY
  5
2CBEC
102
{ACAD_REACTORS
330
C
102
}
330
C
100
AcDbDictionary
281
     1
  3
Standard
350
2CBED
  0
DICTIONARY
  5
2CBCF
102
{ACAD_REACTORS
330
C
102
}
330
C
100
AcDbDictionary
281
     1
  3
2dWireframe
350
2CBD4
  3
Basic
350
2CBD7
  3
Brighten
350
2CBDB
  3
ColorChange
350
2CBDF
  3
Conceptual
350
2CBD9
  3
Dim
350
2CBDA
  3
EdgeColorOff
350
2CBE2
  3
Facepattern
350
2CBDE
  3
Flat
350
2CBD0
  3
FlatWithEdges
350
2CBD1
  3
Gouraud
350
2CBD2
  3
GouraudWithEdges
350
2CBD3
  3
Hidden
350
2CBD6
  3
JitterOff
350
2CBE0
  3
Linepattern
350
2CBDD
  3
OverhangOff
350
2CBE1
  3
Realistic
350
2CBD8
  3
Shaded
350
2CBE7
  3
Shaded with edges
350
2CBE6
  3
Shades of Gray
350
2CBE3
  3
Sketchy
350
2CBE4
  3
Thicken
350
2CBDC
  3
Wireframe
350
2CBD5
  3
X-Ray
350
2CBE5
  0
XRECORD
  5
264CA
102
{ACAD_REACTORS
330
C
102
}
330
C
100
AcDbXrecord
280
     1
 90
   990106
  3

 60
     0
 61
     0
 62
     4
 63
     4
 64
     1
 65
     0
 66
     0
 67
     3
 68
     1
 69
     0
 70
     0
 71
     0
 72
     0
 40
0.0
170
     2
340
0
  0
XRECORD
  5
2CCF2
102
{ACAD_REACTORS
330
C
102
}
330
C
100
AcDbXrecord
280
     1
 90
        1
330
2CBED
  0
DICTIONARY
  5
106A6
102
{ACAD_REACTORS
330
C
102
}
330
C
100
AcDbDictionary
281
     1
  3
CANNOSCALE
350
2CC29
  3
CMLEADERSTYLE
350
2CC2B
  3
CTABLESTYLE
350
2CC2A
  3
CVIEWDETAILSTYLE
350
2CCDB
  3
CVIEWSECTIONSTYLE
350
2CCDC
  3
DGNFRAME
350
2CCE3
  3
DIMASSOC
350
2CCE2
  3
HIDETEXT
350
2CCE1
  3
INDEXCTL
350
2CCE0
  3
LAYEREVAL
350
2CCDE
  3
LAYERNOTIFY
350
2CCDF
  3
LIGHTINGUNITS
350
2CCDD
  3
MSLTSCALE
350
2CC2C
  3
SORTENTS
350
106A7
  3
XCLIPFRAME
350
2CCF0
  0
DICTIONARY
  5
283EB
102
{ACAD_REACTORS
330
C
102
}
330
C
100
AcDbDictionary
281
     1
  0
DICTIONARY
  5
1A99F
102
{ACAD_REACTORS
330
C
102
}
330
C
100
AcDbDictionary
281
     1
  3
ASEBlockHierarchyIndexRecord
350
1A9A1
1001
DCO15
1040
1464612067.17
  0
XRECORD
  5
2CCF3
102
{ACAD_REACTORS
330
C
102
}
330
C
100
AcDbXrecord
280
     1
  1
DWGPROPS COOKIE
  2

  3

  4

  6

  7

  8
NI0949
  9

300
=
301
=
302
=
303
=
304
=
305
=
306
=
307
=
308
=
309
=
 40
0.0372130324074074
 41
2451224.660162037
 42
2458549.471226852
  1

 90
        0
  0
DICTIONARY
  5
28918
102
{ACAD_REACTORS
330
C
102
}
330
C
100
AcDbDictionary
281
     1
  0
DICTIONARY
  5
28919
102
{ACAD_REACTORS
330
C
102
}
330
C
100
AcDbDictionary
281
     1
  3
10
350
2B605
  3
11
350
2C35C
  3
12
350
2C35D
  3
13
350
2C60A
  3
14
350
2C60B
  3
15
350
2C60C
  3
16
350
2C978
  3
7
350
2894A
  3
8
350
2AE90
  3
9
350
2AEA1
  0
DICTIONARY
  5
254F9
102
{ACAD_REACTORS
330
254EC
102
}
330
254EC
100
AcDbDictionary
281
     1
  0
DICTIONARY
  5
2CC68
102
{ACAD_REACTORS
330
254EC
102
}
330
254EC
100
AcDbDictionary
281
     1
  3
*A1
350
2CC69
  3
*A10
350
2CC70
  3
*A11
350
2CC71
  3
*A2
350
2CC72
  3
*A3
350
2CC73
  3
*A4
350
2CC6A
  3
*A5
350
2CC6B
  3
*A6
350
2CC6C
  3
*A7
350
2CC6D
  3
*A8
350
2CC6E
  3
*A9
350
2CC6F
1001
ACAD
1000
<All
  0
XRECORD
  5
2BB2C
102
{ACAD_REACTORS
330
2BB2B
102
}
330
2BB2B
100
AcDbXrecord
280
     1
290
     1
  0
SORTENTSTABLE
  5
2B88B
102
{ACAD_REACTORS
330
2B88A
102
}
330
2B88A
100
AcDbSortentsTable
330
18
331
176FC
  5
187C9
331
187C8
  5
187CB
331
187C9
  5
187CC
331
187CB
  5
187CD
331
187CC
  5
187CE
331
187CD
  5
187CF
331
187CE
  5
187D0
331
187CF
  5
187D1
331
187D0
  5
187D2
331
187D1
  5
187D3
331
187D2
  5
187D4
331
187D3
  5
187D5
331
187D4
  5
187D6
331
187D5
  5
187D7
331
187D6
  5
216E7
331
187D7
  5
21ACC
331
216E7
  5
27C69
331
21ACC
  5
27C6A
331
27C69
  5
27C6C
331
27C6A
  5
27C6D
331
27C6C
  5
27C6E
331
27C6D
  5
27C6F
331
27C6E
  5
27C70
331
27C6F
  5
27C71
331
27CE7
  5
27CE9
331
27CE8
  5
27CEA
331
27CE9
  5
27CEB
331
27CEA
  5
27CEC
331
27CEB
  5
27CED
331
27CEC
  5
27CEE
331
27CF8
  5
27CFA
331
27CF9
  5
27CFB
331
27CFA
  5
27CFC
331
27CFB
  5
27CFD
331
27CFC
  5
27D02
331
27CFD
  5
27D03
331
27D02
  5
27D04
331
27D03
  5
27D05
331
27D04
  5
27D06
331
27D05
  5
27D07
331
27D06
  5
27D08
331
27D07
  5
27D09
331
27D08
  5
27D0A
331
27D09
  5
27D0B
331
27D0A
  5
27D0C
331
27D0D
  5
27D14
331
27D13
  5
27D15
331
27D14
  5
27D16
331
27D3D
  5
27D54
331
27D5A
  5
27D9B
331
27D9B
  5
27D9D
331
27D9C
  5
27D9E
331
27D9D
  5
27D9F
331
27D9E
  5
27DA0
331
27D9F
  5
27DA1
331
27DE3
  5
27DE5
331
27DE4
  5
27DE6
331
27DE7
  5
27DE9
331
27DE8
  5
27DEA
331
27DE9
  5
27DEB
331
27DEA
  5
27DEC
331
27DEB
  5
27DED
331
27DEC
  5
27DEE
331
27DED
  5
27DEF
331
27DEE
  5
27DF0
331
27DEF
  5
27DF1
331
27DF0
  5
27DF2
331
27DF1
  5
27DF3
331
27DF2
  5
27DF4
331
27DF3
  5
27DF5
331
27DF4
  5
27DF6
331
27DF5
  5
27DF7
331
27DF6
  5
27DF8
331
27DF7
  5
27DF9
331
27DF8
  5
27DFA
331
27DF9
  5
27DFB
331
27DFA
  5
27DFC
331
27DFB
  5
27DFD
331
27DFC
  5
27DFE
331
27DFD
  5
27DFF
331
27DFE
  5
27E00
331
27DFF
  5
27E02
331
27E00
  5
27E03
331
27E02
  5
27E04
331
27E03
  5
27E05
331
27E04
  5
27E06
331
27E05
  5
27E07
331
27E06
  5
27E08
331
27E07
  5
27FE0
331
27E08
  5
27FE1
331
2AD72
  5
2AD74
331
2AD73
  5
2AD75
331
2AD74
  5
2AD76
331
2AD75
  5
2AD77
331
2AD76
  5
2AD78
331
2AD77
  5
2AD79
331
2AD78
  5
2AD7A
331
2AD79
  5
2AD7B
331
2AD7B
  5
2AD7D
331
2AD7C
  5
2AD7E
331
2AD7D
  5
2AD7F
331
2AD7E
  5
2AD80
331
2AD7F
  5
2AD81
331
2AD80
  5
2AD82
331
2AD81
  5
2AD83
331
2AD82
  5
2AD84
331
2AD84
  5
2AD86
331
2AD85
  5
2AD87
331
2AD86
  5
2AD88
331
2AD87
  5
2AD89
331
2AD88
  5
2AD8A
331
2AD89
  5
2AD8B
331
2AD8A
  5
2AD8C
331
2AD8B
  5
2AD8D
331
2AD8D
  5
2AD8F
331
2AD8E
  5
2AD90
331
2AD8F
  5
2AD91
331
2AD90
  5
2AD92
331
2AD91
  5
2AD93
331
2AD92
  5
2AD94
331
2AD93
  5
2AD95
331
2AD94
  5
2AD96
331
2AD96
  5
2AD98
331
2AD97
  5
2AD99
331
2AD98
  5
2AD9A
331
2AD99
  5
2AD9B
331
2AD9A
  5
2AD9C
331
2AD9B
  5
2AD9D
331
2AD9C
  5
2AD9E
331
2AD9D
  5
2AD9F
331
2AD9F
  5
2ADA1
331
2ADA0
  5
2ADA2
331
2ADA1
  5
2ADA3
331
2ADA2
  5
2ADA4
331
2ADA3
  5
2ADA5
331
2ADA4
  5
2ADA6
331
2ADA5
  5
2ADA7
331
2ADA6
  5
2ADA8
331
2ADA8
  5
2ADAA
331
2ADA9
  5
2ADAB
331
2ADAA
  5
2ADAC
331
2ADAB
  5
2ADAD
331
2ADAC
  5
2ADAE
331
2ADAD
  5
2ADAF
331
2ADAE
  5
2ADB0
331
2ADAF
  5
2ADD2
331
2B4D5
  5
2B4D7
331
2B4D6
  5
2B4D8
331
2B4D7
  5
2B4D9
331
2B4D8
  5
2B4DA
331
2B4D9
  5
2B4DB
331
2B4DA
  5
2B4DC
331
2B4DB
  5
2B4DD
331
2B4DE
  5
2B4E0
331
2B4DF
  5
2B4E1
331
2B4E0
  5
2B4E2
331
2B4E1
  5
2B4E3
331
2B4E2
  5
2B4E4
331
2B4E3
  5
2B4E5
331
2B4E4
  5
2B4E6
331
2B4E5
  5
2B4E7
331
2B4E6
  5
2B4E8
331
2B4E7
  5
2B4E9
331
2B4E8
  5
2B4EA
331
2B4E9
  5
2B4EB
331
2B4EA
  5
2B4EC
331
2B4EB
  5
2B4ED
331
2B4EC
  5
2B4EE
331
2B4ED
  5
2B4EF
331
2B4EE
  5
2B4F0
331
2B4EF
  5
2B4F1
331
2B4F0
  5
2B4F2
331
2B4F1
  5
2B4F3
331
2B4F2
  5
2B4F4
331
2B4F3
  5
2B4F5
331
2B4F4
  5
2B4F6
331
2B4F5
  5
2B4F7
331
2B4F6
  5
2B4F8
331
2B4F7
  5
2B4F9
331
2B4F8
  5
2B4FA
331
2B4F9
  5
2B4FB
331
2B4FA
  5
2B4FC
331
2B4FD
  5
2B4FF
331
2B4FE
  5
2B500
331
2B4FF
  5
2B501
331
2B500
  5
2B502
331
2B501
  5
2B503
331
2B502
  5
2B504
331
2B503
  5
2B505
331
2B504
  5
2B506
331
2B505
  5
2B507
331
2B506
  5
2B508
331
2B507
  5
2B509
331
2B508
  5
2B50A
331
2B509
  5
2B50B
331
2B50A
  5
2B50C
331
2B50B
  5
2B50D
331
2B50C
  5
2B50E
331
2B50D
  5
2B50F
331
2B50E
  5
2B510
331
2B50F
  5
2B511
331
2B510
  5
2B512
331
2B511
  5
2B513
331
2B512
  5
2B514
331
2B513
  5
2B515
331
2B514
  5
2B516
331
2B515
  5
2B517
331
2B516
  5
2B518
331
2B517
  5
2B519
331
2B518
  5
2B51A
331
2B519
  5
2B51B
331
2B51A
  5
2B51C
331
2B51B
  5
2B51D
331
2B51C
  5
2B51E
331
2B51D
  5
2B51F
331
2B51E
  5
2B520
331
2B51F
  5
2B521
331
2B520
  5
2B522
331
2B521
  5
2B523
331
2B522
  5
2B524
331
2B523
  5
2B525
331
2B524
  5
2B526
331
2B525
  5
2B527
331
2B526
  5
2B528
331
2B527
  5
2B529
331
2B528
  5
2B52A
331
2B529
  5
2B52B
331
2B52A
  5
2B52C
331
2B52B
  5
2B52D
331
2B52C
  5
2B52E
331
2B52D
  5
2B52F
331
2B52E
  5
2B530
331
2B52F
  5
2B531
331
2B530
  5
2B532
331
2B531
  5
2B533
331
2B532
  5
2B534
331
2B533
  5
2B535
331
2B534
  5
2B536
331
2B535
  5
2B537
331
2B536
  5
2B538
331
2B537
  5
2B539
331
2B538
  5
2B53A
331
2B539
  5
2B53B
331
2B53A
  5
2B53C
331
2B53B
  5
2B53D
331
2B53C
  5
2B53E
331
2B53D
  5
2B53F
331
2B53E
  5
2B540
331
2B53F
  5
2B541
331
2B540
  5
2B542
331
2BF3B
  5
2BF3C
331
2BF3C
  5
2BF3D
331
2BF3D
  5
2BF3E
331
2BF72
  5
2BF73
331
2BF73
  5
2BF74
331
2BF74
  5
2BF75
331
2BF75
  5
2BF76
331
2BF76
  5
2BF77
331
2BF77
  5
2BF78
331
2BF86
  5
2BF87
331
2BF87
  5
2BF88
331
2C0A2
  5
2C0A3
331
2C0A3
  5
2C0A4
331
2C0A4
  5
2C0A5
331
2C0A5
  5
2C0A6
331
2C0A6
  5
2C0A7
331
2C0DC
  5
2C0DD
331
2C0DF
  5
2C0E0
331
2C0E0
  5
2C0E1
331
2C0E1
  5
2C0E2
331
2C0E2
  5
2C0E3
331
2C0E3
  5
2C0E4
331
2C0E4
  5
2C0E5
331
2C0E5
  5
2C0E6
331
2C0E6
  5
2C0E7
331
2C0E7
  5
2C0E8
331
2C0E8
  5
2C0E9
331
2C0E9
  5
2C0EA
331
2C0EA
  5
2C0EB
331
2C0EB
  5
2C0EC
331
2C0EC
  5
2C0ED
331
2C0ED
  5
2C0EE
331
2C0EE
  5
2C0EF
331
2C0EF
  5
2C0F0
331
2C0F0
  5
2C0F1
331
2C0F1
  5
2C0F2
331
2C0F2
  5
2C0F3
331
2C0F3
  5
2C0F4
331
2C0F4
  5
2C0F5
331
2C0F5
  5
2C0F6
331
2C0F6
  5
2C0F7
331
2C0F7
  5
2C0F8
331
2C0F8
  5
2C0F9
331
2C0F9
  5
2C0FA
331
2C0FA
  5
2C0FB
331
2C0FB
  5
2C0FC
331
2C0FC
  5
2C0FD
331
2C0FD
  5
2C0FE
331
2C0FE
  5
2C0FF
331
2C0FF
  5
2C100
331
2C100
  5
2C101
331
2C101
  5
2C102
331
2C102
  5
2C103
331
2C103
  5
2C104
331
2C104
  5
2C105
331
2C105
  5
2C106
331
2C106
  5
2C107
331
2C107
  5
2C108
331
2C108
  5
2C109
331
2C109
  5
2C10A
331
2C10A
  5
2C10B
331
2C10B
  5
2C10C
331
2C10C
  5
2C10D
331
2C10D
  5
2C10E
331
2C10E
  5
2C10F
331
2C10F
  5
2C110
331
2C110
  5
2C111
331
2C111
  5
2C112
331
2C112
  5
2C113
331
2C113
  5
2C114
331
2C114
  5
2C115
331
2C115
  5
2C116
331
2C116
  5
2C117
331
2C117
  5
2C118
331
2C118
  5
2C119
331
2C119
  5
2C11A
331
2C11A
  5
2C11B
331
2C11E
  5
2C11F
331
2C11F
  5
2C120
331
2C17A
  5
2C17B
331
2C17B
  5
2C17C
331
2C17C
  5
2C17D
331
2C17D
  5
2C17E
331
2C17E
  5
2C17F
331
2C17F
  5
2C180
331
2C180
  5
2C181
331
2C181
  5
2C182
331
2C182
  5
2C183
331
2C183
  5
2C184
331
2C184
  5
2C185
331
2C185
  5
2C186
331
2C186
  5
2C187
331
2C187
  5
2C188
331
2C188
  5
2C189
331
2C189
  5
2C18A
331
2C18A
  5
2C18B
331
2C18B
  5
2C18C
331
2C18C
  5
2C18D
331
2C18D
  5
2C18E
331
2C18E
  5
2C18F
331
2C18F
  5
2C190
331
2C190
  5
2C191
331
2C191
  5
2C192
331
2C192
  5
2C193
331
2C193
  5
2C194
331
2C194
  5
2C195
331
2C195
  5
2C196
331
2C196
  5
2C197
331
2C197
  5
2C198
331
2C198
  5
2C199
331
2C199
  5
2C19A
331
2C19A
  5
2C19B
331
2C19B
  5
2C19C
331
2C19C
  5
2C19D
331
2C19D
  5
2C19E
331
2C19E
  5
2C19F
331
2C19F
  5
2C1A0
331
2C1A0
  5
2C1A1
331
2C1A1
  5
2C1A2
331
2C1A2
  5
2C1A3
331
2C1A3
  5
2C1A4
331
2C1A4
  5
2C1A5
331
2C1A5
  5
2C1A6
331
2C1A6
  5
2C1A7
331
2C1A7
  5
2C1A8
331
2C1A8
  5
2C1A9
331
2C1A9
  5
2C1AA
331
2C1AA
  5
2C1AB
331
2C1AB
  5
2C1AC
331
2C1AC
  5
2C1AD
331
2C1AD
  5
2C1AE
331
2C1AE
  5
2C1AF
331
2C1AF
  5
2C1B0
331
2C1B0
  5
2C1B1
331
2C1B1
  5
2C1B2
331
2C1B2
  5
2C1B3
331
2C1B3
  5
2C1B4
331
2C1B4
  5
2C1B5
331
2C1B5
  5
2C1B6
331
2C1B6
  5
2C1B7
331
2C1B7
  5
2C1B8
331
2C1B8
  5
2C1B9
331
2C1B9
  5
2C1BA
331
2C1BA
  5
2C1BB
331
2C1BB
  5
2C1BC
331
2C1BC
  5
2C1BD
331
2C1BD
  5
2C1BE
331
2C1BE
  5
2C1BF
331
2C1BF
  5
2C1C0
331
2C1C0
  5
2C1C1
331
2C1C1
  5
2C1C2
331
2C1C2
  5
2C1C3
331
2C1C3
  5
2C1C4
331
2C1C4
  5
2C1C5
331
2C1C5
  5
2C1C6
331
2C1C6
  5
2C1C7
331
2C1C7
  5
2C1C8
331
2C1C8
  5
2C1C9
331
2C1C9
  5
2C1CA
331
2C1CA
  5
2C1CB
331
2C1CB
  5
2C1CC
331
2C1CC
  5
2C1CD
331
2C1CD
  5
2C1CE
331
2C1CE
  5
2C1CF
331
2C1CF
  5
2C1D0
331
2C1D0
  5
2C1D1
331
2C1D1
  5
2C1D2
331
2C1D2
  5
2C1D3
331
2C1D3
  5
2C1D4
331
2C1D4
  5
2C1D5
331
2C1D5
  5
2C1D6
331
2C1D6
  5
2C1D7
331
2C1D7
  5
2C1D8
331
2C1D8
  5
2C1D9
331
2C1D9
  5
2C1DA
331
2C1DA
  5
2C1DB
331
2C1DB
  5
2C1DC
331
2C1DC
  5
2C1DD
331
2C1DD
  5
2C1DE
331
2C1DE
  5
2C1DF
331
2C1DF
  5
2C1E0
331
2C1E0
  5
2C1E1
331
2C1E1
  5
2C1E2
331
2C1E2
  5
2C1E3
331
2C1E3
  5
2C1E4
331
2C1E4
  5
2C1E5
  0
XRECORD
  5
2CD30
102
{ACAD_REACTORS
330
2CD2F
102
}
330
2CD2F
100
AcDbXrecord
280
     1
102
SHADEPLOT
 70
     0
  0
XRECORD
  5
2CD31
102
{ACAD_REACTORS
330
2CC33
102
}
330
2CC33
100
AcDbXrecord
280
     1
102
SHADEPLOT
 70
     0
  0
XRECORD
  5
2CC34
102
{ACAD_REACTORS
330
2CC33
102
}
330
2CC33
100
AcDbXrecord
280
     1
 90
        1
340
283C2
  0
XRECORD
  5
2CCF5
102
{ACAD_REACTORS
330
2CCF4
102
}
330
2CCF4
100
AcDbXrecord
280
     1
1004
1800000001000000000000C0000000000000000000000000
  0
ACDBDETAILVIEWSTYLE
  5
2CC78
102
{ACAD_XDICTIONARY
360
2CD36
102
}
102
{ACAD_REACTORS
330
28920
102
}
330
28920
100
AcDbModelDocViewStyle
 70
     0
  3
Imperial24
290
     0
100
AcDbDetailViewStyle
 70
     0
 71
     0
 90
        3
 71
     1
340
F
 40
0.24
340
0
 40
0.24
300

 40
0.36
280
     3
 71
     2
340
14
 90
       25
 71
     3
340
F
 40
0.24
 90
        1
 40
0.75
 90
        1
300
%<\AcVar ViewType \f "%tc1">% %<\AcVar ViewDetailId>%\PSCALE %<\AcVar ViewScale \f "%sn">%
 71
     4
340
14
 90
       25
340
14
 90
       25
280
     0
  0
LAYOUT
  5
FB5D
102
{ACAD_XDICTIONARY
360
2CCF6
102
}
102
{ACAD_REACTORS
330
DB2
102
}
330
DB2
100
AcDbPlotSettings
  1

  2
\\HONAMI\LBP-910
  4
A3
  6

 40
5.873749732971191
 41
5.873747825622558
 42
5.873748779296875
 43
5.873748779296875
 44
296.9259948730469
 45
419.9466552734374
 46
0.0
 47
0.0
 48
-134.0496161171158
 49
-116.2294073187233
140
1105.745250909008
141
633.2284101676227
142
1.0
143
2.866823569012708
 70
 11952
 72
     1
 73
     1
 74
     1
  7
monochrome.ctb
 75
     0
147
0.3488181173089717
148
98.7130430422485
149
74.96499340265336
100
AcDbLayout
  1
Model
 70
     1
 71
     0
 10
0.0
 20
0.0
 11
12.0
 21
9.0
 12
0.0
 22
0.0
 32
0.0
 14
261.9757426446283
 24
-2565.430682318979
 34
0.0
 15
1190.596858797326
 25
-2175.691602833293
 35
137.5
146
0.0
 13
0.0
 23
0.0
 33
0.0
 16
1.0
 26
0.0
 36
0.0
 17
0.0
 27
1.0
 37
0.0
 76
     0
330
18
  0
LAYOUT
  5
2CC2E
102
{ACAD_XDICTIONARY
360
2CD2D
102
}
102
{ACAD_REACTORS
330
DB2
102
}
330
DB2
100
AcDbPlotSettings
  1

  2
none_device
  4
ANSI_A_(11.00_x_8.50_Inches)
  6

 40
6.349999999999999
 41
19.05
 42
6.349999999999999
 43
19.05
 44
279.4
 45
215.9
 46
0.0
 47
0.0
 48
0.0
 49
0.0
140
0.0
141
0.0
142
1.0
143
1.0
 70
   688
 72
     0
 73
     0
 74
     5
  7

 75
    16
147
1.0
148
0.0
149
0.0
100
AcDbLayout
  1
Sheet1
 70
     1
 71
     1
 10
0.0
 20
0.0
 11
0.0
 21
0.0
 12
0.0
 22
0.0
 32
0.0
 14
1.049999999999999
 24
0.6999999999999998
 34
0.0
 15
9.449999999999999
 25
6.3
 35
0.0
146
0.0
 13
0.0
 23
0.0
 33
0.0
 16
1.0
 26
0.0
 36
0.0
 17
0.0
 27
1.0
 37
0.0
 76
     0
330
2CC2D
331
2CC31
  0
MATERIAL
  5
2CC74
102
{ACAD_XDICTIONARY
360
2CD32
102
}
102
{ACAD_REACTORS
330
2CBE8
102
}
330
2CBE8
100
AcDbMaterial
  1
ByBlock
 73
     1
 78
     1
172
     1
176
     1
270
     1
274
     1
  0
MATERIAL
  5
2CBE9
102
{ACAD_XDICTIONARY
360
2CD28
102
}
102
{ACAD_REACTORS
330
2CBE8
102
}
330
2CBE8
100
AcDbMaterial
  1
ByLayer
 73
     1
 78
     1
172
     1
176
     1
270
     1
274
     1
  0
MATERIAL
  5
2CBEB
102
{ACAD_XDICTIONARY
360
2CD2A
102
}
102
{ACAD_REACTORS
330
2CBE8
102
}
330
2CBE8
100
AcDbMaterial
  1
Global
 73
     1
 78
     1
172
     1
176
     1
270
     1
274
     1
  0
MLEADERSTYLE
  5
2CBEF
102
{ACAD_REACTORS
330
2CBEE
102
}
330
2CBEE
100
AcDbMLeaderStyle
170
     2
171
     1
172
     0
 90
        2
 40
0.0
 41
0.0
173
     1
 91
-1056964608
340
12
 92
       -2
290
     1
 42
0.09
291
     1
 43
0.36
  3
Standard
 44
0.18
300

342
F
174
     1
178
     6
175
     1
176
     0
 93
-1056964608
 45
0.18
292
     0
297
     0
 46
0.18
 94
-1056964608
 47
1.0
 49
1.0
140
1.0
293
     1
141
0.0
294
     1
177
     0
142
1.0
295
     0
296
     0
143
0.125
1001
ACAD_MLEADERVER
1070
     2
  0
MLINESTYLE
  5
1C
102
{ACAD_REACTORS
330
1B
102
}
330
1B
100
AcDbMlineStyle
  2
STANDARD
 70
     0
  3

 62
   256
 51
90.0
 52
90.0
 71
     2
 49
0.5
 62
   256
  6
BYLAYER
 49
-0.5
 62
   256
  6
BYLAYER
  0
ACDBPLACEHOLDER
  5
FB5C
102
{ACAD_REACTORS
330
FB5B
102
}
330
FB5B
  0
SCALE
  5
283C2
102
{ACAD_REACTORS
330
283C1
102
}
330
283C1
100
AcDbScale
 70
     0
300
1:1
140
1.0
141
1.0
290
     1
  0
SCALE
  5
283C3
102
{ACAD_REACTORS
330
283C1
102
}
330
283C1
100
AcDbScale
 70
     0
300
1:2
140
1.0
141
2.0
290
     0
  0
SCALE
  5
283C4
102
{ACAD_REACTORS
330
283C1
102
}
330
283C1
100
AcDbScale
 70
     0
300
1:4
140
1.0
141
4.0
290
     0
  0
SCALE
  5
283C5
102
{ACAD_REACTORS
330
283C1
102
}
330
283C1
100
AcDbScale
 70
     0
300
1:5
140
1.0
141
5.0
290
     0
  0
SCALE
  5
283C6
102
{ACAD_REACTORS
330
283C1
102
}
330
283C1
100
AcDbScale
 70
     0
300
1:8
140
1.0
141
8.0
290
     0
  0
SCALE
  5
283C7
102
{ACAD_REACTORS
330
283C1
102
}
330
283C1
100
AcDbScale
 70
     0
300
1:10
140
1.0
141
10.0
290
     0
  0
SCALE
  5
283C8
102
{ACAD_REACTORS
330
283C1
102
}
330
283C1
100
AcDbScale
 70
     0
300
1:16
140
1.0
141
16.0
290
     0
  0
SCALE
  5
283C9
102
{ACAD_REACTORS
330
283C1
102
}
330
283C1
100
AcDbScale
 70
     0
300
1:20
140
1.0
141
20.0
290
     0
  0
SCALE
  5
283CA
102
{ACAD_REACTORS
330
283C1
102
}
330
283C1
100
AcDbScale
 70
     0
300
1:30
140
1.0
141
30.0
290
     0
  0
SCALE
  5
283CB
102
{ACAD_REACTORS
330
283C1
102
}
330
283C1
100
AcDbScale
 70
     0
300
1:40
140
1.0
141
40.0
290
     0
  0
SCALE
  5
283CC
102
{ACAD_REACTORS
330
283C1
102
}
330
283C1
100
AcDbScale
 70
     0
300
1:50
140
1.0
141
50.0
290
     0
  0
SCALE
  5
283CD
102
{ACAD_REACTORS
330
283C1
102
}
330
283C1
100
AcDbScale
 70
     0
300
1:100
140
1.0
141
100.0
290
     0
  0
SCALE
  5
283CE
102
{ACAD_REACTORS
330
283C1
102
}
330
283C1
100
AcDbScale
 70
     0
300
2:1
140
2.0
141
1.0
290
     0
  0
SCALE
  5
283CF
102
{ACAD_REACTORS
330
283C1
102
}
330
283C1
100
AcDbScale
 70
     0
300
4:1
140
4.0
141
1.0
290
     0
  0
SCALE
  5
283D0
102
{ACAD_REACTORS
330
283C1
102
}
330
283C1
100
AcDbScale
 70
     0
300
8:1
140
8.0
141
1.0
290
     0
  0
SCALE
  5
283D1
102
{ACAD_REACTORS
330
283C1
102
}
330
283C1
100
AcDbScale
 70
     0
300
10:1
140
10.0
141
1.0
290
     0
  0
SCALE
  5
283D2
102
{ACAD_REACTORS
330
283C1
102
}
330
283C1
100
AcDbScale
 70
     0
300
100:1
140
100.0
141
1.0
290
     0
  0
SCALE
  5
283D3
102
{ACAD_REACTORS
330
283C1
102
}
330
283C1
100
AcDbScale
 70
     0
300
1/128" = 1'-0"
140
0.0078125
141
12.0
290
     0
  0
SCALE
  5
283D4
102
{ACAD_REACTORS
330
283C1
102
}
330
283C1
100
AcDbScale
 70
     0
300
1/64" = 1'-0"
140
0.015625
141
12.0
290
     0
  0
SCALE
  5
283D5
102
{ACAD_REACTORS
330
283C1
102
}
330
283C1
100
AcDbScale
 70
     0
300
1/32" = 1'-0"
140
0.03125
141
12.0
290
     0
  0
SCALE
  5
283D6
102
{ACAD_REACTORS
330
283C1
102
}
330
283C1
100
AcDbScale
 70
     0
300
1/16" = 1'-0"
140
0.0625
141
12.0
290
     0
  0
SCALE
  5
283D7
102
{ACAD_REACTORS
330
283C1
102
}
330
283C1
100
AcDbScale
 70
     0
300
3/32" = 1'-0"
140
0.09375
141
12.0
290
     0
  0
SCALE
  5
283D8
102
{ACAD_REACTORS
330
283C1
102
}
330
283C1
100
AcDbScale
 70
     0
300
1/8" = 1'-0"
140
0.125
141
12.0
290
     0
  0
SCALE
  5
283D9
102
{ACAD_REACTORS
330
283C1
102
}
330
283C1
100
AcDbScale
 70
     0
300
3/16" = 1'-0"
140
0.1875
141
12.0
290
     0
  0
SCALE
  5
283DA
102
{ACAD_REACTORS
330
283C1
102
}
330
283C1
100
AcDbScale
 70
     0
300
1/4" = 1'-0"
140
0.25
141
12.0
290
     0
  0
SCALE
  5
283DB
102
{ACAD_REACTORS
330
283C1
102
}
330
283C1
100
AcDbScale
 70
     0
300
3/8" = 1'-0"
140
0.375
141
12.0
290
     0
  0
SCALE
  5
283DC
102
{ACAD_REACTORS
330
283C1
102
}
330
283C1
100
AcDbScale
 70
     0
300
1/2" = 1'-0"
140
0.5
141
12.0
290
     0
  0
SCALE
  5
283DD
102
{ACAD_REACTORS
330
283C1
102
}
330
283C1
100
AcDbScale
 70
     0
300
3/4" = 1'-0"
140
0.75
141
12.0
290
     0
  0
SCALE
  5
283DE
102
{ACAD_REACTORS
330
283C1
102
}
330
283C1
100
AcDbScale
 70
     0
300
1" = 1'-0"
140
1.0
141
12.0
290
     0
  0
SCALE
  5
283DF
102
{ACAD_REACTORS
330
283C1
102
}
330
283C1
100
AcDbScale
 70
     0
300
1-1/2" = 1'-0"
140
1.5
141
12.0
290
     0
  0
SCALE
  5
283E0
102
{ACAD_REACTORS
330
283C1
102
}
330
283C1
100
AcDbScale
 70
     0
300
3" = 1'-0"
140
3.0
141
12.0
290
     0
  0
SCALE
  5
283E1
102
{ACAD_REACTORS
330
283C1
102
}
330
283C1
100
AcDbScale
 70
     0
300
6" = 1'-0"
140
6.0
141
12.0
290
     0
  0
SCALE
  5
283E2
102
{ACAD_REACTORS
330
283C1
102
}
330
283C1
100
AcDbScale
 70
     0
300
1'-0" = 1'-0"
140
12.0
141
12.0
290
     0
  0
ACDBSECTIONVIEWSTYLE
  5
2CC77
102
{ACAD_XDICTIONARY
360
2CD34
102
}
102
{ACAD_REACTORS
330
28921
102
}
330
28921
100
AcDbModelDocViewStyle
 70
     0
  3
Imperial24
290
     0
100
AcDbSectionViewStyle
 70
     0
 71
     0
 90
       78
 71
     1
340
F
 40
0.24
340
0
340
0
 40
0.24
300
I, O, Q, S, X, Z
 40
0.48
 90
        3
 40
0.18
 90
        1
 71
     2
340
14
 90
       25
340
14
 90
       50
 40
0.24
 40
0.0
 40
0.24
 71
     3
340
F
 40
0.24
 90
        1
 40
0.75
 90
        1
300
%<\AcVar ViewType \f "%tc1">% %<\AcVar ViewSectionStartId>%-%<\AcVar ViewSectionEndId>%\PSCALE %<\AcVar ViewScale \f "%sn">%
 71
     4
300
ANSI31
 40
1.0
 90
        0
290
     0
290
     0
 90
        6
 40
0.0
 40
1.570796326794896
 40
0.2617993877991494
 40
1.308996938995747
 40
-0.2617993877991494
 40
1.832595714594046
  0
TABLESTYLE
  5
2CBED
102
{ACAD_XDICTIONARY
360
2CC87
102
}
102
{ACAD_REACTORS
330
2CBEC
102
}
330
2CBEC
100
AcDbTableStyle
  3
Standard
 70
     0
 71
     0
 40
0.06
 41
0.06
280
     0
281
     0
  7
STANDARD
140
0.18
170
     2
 62
     0
 63
     7
283
     0
274
    -2
284
     1
 64
     0
275
    -2
285
     1
 65
     0
276
    -2
286
     1
 66
     0
277
    -2
287
     1
 67
     0
278
    -2
288
     1
 68
     0
279
    -2
289
     1
 69
     0
  7
STANDARD
140
0.25
170
     5
 62
     0
 63
     7
283
     0
274
    -2
284
     1
 64
     0
275
    -2
285
     1
 65
     0
276
    -2
286
     1
 66
     0
277
    -2
287
     1
 67
     0
278
    -2
288
     1
 68
     0
279
    -2
289
     1
 69
     0
  7
STANDARD
140
0.18
170
     5
 62
     0
 63
     7
283
     0
274
    -2
284
     1
 64
     0
275
    -2
285
     1
 65
     0
276
    -2
286
     1
 66
     0
277
    -2
287
     1
 67
     0
278
    -2
288
     1
 68
     0
279
    -2
289
     1
 69
     0
  0
VISUALSTYLE
  5
2CBD4
102
{ACAD_XDICTIONARY
360
2CD00
102
}
102
{ACAD_REACTORS
330
2CBCF
102
}
330
2CBCF
100
AcDbVisualStyle
  2
2dWireframe
 70
     4
 71
     0
 72
     2
 73
     0
 90
        0
 40
-0.6
 41
-30.0
 62
     5
 63
     7
 74
     1
 91
        4
 64
     7
 65
   257
 75
     1
175
     1
 42
1.0
 92
        0
 66
   257
 43
1.0
 76
     1
 77
     6
 78
     2
 67
     7
 79
     5
170
     0
171
     0
290
     0
174
     0
 93
        1
 44
0.0
173
     0
291
     0
 45
0.0
1001
ACAD
1000
AcDbSavedByObjectVersion
1070
     0
  0
VISUALSTYLE
  5
2CBD7
102
{ACAD_XDICTIONARY
360
2CD06
102
}
102
{ACAD_REACTORS
330
2CBCF
102
}
330
2CBCF
100
AcDbVisualStyle
  2
Basic
 70
     7
 71
     1
 72
     0
 73
     1
 90
        0
 40
-0.6
 41
-30.0
 62
     5
 63
     7
 74
     0
 91
        4
 64
     7
 65
   257
 75
     1
175
     1
 42
1.0
 92
        8
 66
     7
 43
1.0
 76
     1
 77
     6
 78
     2
 67
     7
 79
     5
170
     0
171
     0
290
     0
174
     0
 93
        1
 44
0.0
173
     0
291
     1
 45
0.0
1001
ACAD
1000
AcDbSavedByObjectVersion
1070
     0
  0
VISUALSTYLE
  5
2CBDB
102
{ACAD_XDICTIONARY
360
2CD0E
102
}
102
{ACAD_REACTORS
330
2CBCF
102
}
330
2CBCF
100
AcDbVisualStyle
  2
Brighten
 70
    12
 71
     2
 72
     2
 73
     0
 90
        0
 40
-0.6
 41
-30.0
 62
     5
 63
     7
 74
     1
 91
        4
 64
     7
 65
   257
 75
     1
175
     1
 42
1.0
 92
        8
 66
     7
 43
1.0
 76
     1
 77
     6
 78
     2
 67
     7
 79
     5
170
     0
171
     0
290
     0
174
     0
 93
        1
 44
50.0
173
     0
291
     1
 45
0.0
1001
ACAD
1000
AcDbSavedByObjectVersion
1070
     0
  0
VISUALSTYLE
  5
2CBDF
102
{ACAD_XDICTIONARY
360
2CD16
102
}
102
{ACAD_REACTORS
330
2CBCF
102
}
330
2CBCF
100
AcDbVisualStyle
  2
ColorChange
 70
    16
 71
     2
 72
     2
 73
     3
 90
        0
 40
-0.6
 41
-30.0
 62
     5
 63
     8
 74
     1
 91
        4
 64
     7
 65
   257
 75
     1
175
     1
 42
1.0
 92
        8
 66
     8
 43
1.0
 76
     1
 77
     6
 78
     2
 67
     7
 79
     5
170
     0
171
     0
290
     0
174
     0
 93
        1
 44
0.0
173
     0
291
     1
 45
0.0
1001
ACAD
1000
AcDbSavedByObjectVersion
1070
     0
  0
VISUALSTYLE
  5
2CBD9
102
{ACAD_XDICTIONARY
360
2CD0A
102
}
102
{ACAD_REACTORS
330
2CBCF
102
}
330
2CBCF
100
AcDbVisualStyle
  2
Conceptual
 70
     9
 71
     3
 72
     2
 73
     0
 90
        0
 40
-0.6
 41
-30.0
 62
     5
 63
     7
 74
     2
 91
        2
 64
     7
 65
   257
 75
     1
175
     1
 42
179.0
 92
        8
 66
     7
 43
1.0
 76
     1
 77
     6
 78
     2
 67
     7
 79
     3
170
     0
171
     0
290
     0
174
     0
 93
        1
 44
0.0
173
     0
291
     0
 45
0.0
1001
ACAD
1000
AcDbSavedByObjectVersion
1070
     0
  0
VISUALSTYLE
  5
2CBDA
102
{ACAD_XDICTIONARY
360
2CD0C
102
}
102
{ACAD_REACTORS
330
2CBCF
102
}
330
2CBCF
100
AcDbVisualStyle
  2
Dim
 70
    11
 71
     2
 72
     2
 73
     0
 90
        0
 40
-0.6
 41
-30.0
 62
     5
 63
     7
 74
     1
 91
        4
 64
     7
 65
   257
 75
     1
175
     1
 42
1.0
 92
        8
 66
     7
 43
1.0
 76
     1
 77
     6
 78
     2
 67
     7
 79
     5
170
     0
171
     0
290
     0
174
     0
 93
        1
 44
-50.0
173
     0
291
     1
 45
0.0
1001
ACAD
1000
AcDbSavedByObjectVersion
1070
     0
  0
VISUALSTYLE
  5
2CBE2
102
{ACAD_XDICTIONARY
360
2CD1C
102
}
102
{ACAD_REACTORS
330
2CBCF
102
}
330
2CBCF
100
AcDbVisualStyle
  2
EdgeColorOff
 70
    22
 71
     2
 72
     2
 73
     0
 90
        0
 40
-0.6
 41
-30.0
 62
     5
 63
     7
 74
     1
 91
        4
 64
     7
 65
   257
 75
     1
175
     1
 42
1.0
 92
        8
 66
     7
 43
1.0
 76
     1
 77
     6
 78
     2
 67
     7
 79
     5
170
     0
171
     0
290
     0
174
     0
 93
        1
 44
0.0
173
     0
291
     1
 45
0.0
1001
ACAD
1000
AcDbSavedByObjectVersion
1070
     0
  0
VISUALSTYLE
  5
2CBDE
102
{ACAD_XDICTIONARY
360
2CD14
102
}
102
{ACAD_REACTORS
330
2CBCF
102
}
330
2CBCF
100
AcDbVisualStyle
  2
Facepattern
 70
    15
 71
     2
 72
     2
 73
     0
 90
        0
 40
-0.6
 41
-30.0
 62
     5
 63
     7
 74
     1
 91
        4
 64
     7
 65
   257
 75
     1
175
     1
 42
1.0
 92
        8
 66
     7
 43
1.0
 76
     1
 77
     6
 78
     2
 67
     7
 79
     5
170
     0
171
     0
290
     0
174
     0
 93
        1
 44
0.0
173
     0
291
     1
 45
0.0
1001
ACAD
1000
AcDbSavedByObjectVersion
1070
     0
  0
VISUALSTYLE
  5
2CBD0
102
{ACAD_XDICTIONARY
360
2CCF8
102
}
102
{ACAD_REACTORS
330
2CBCF
102
}
330
2CBCF
100
AcDbVisualStyle
  2
Flat
 70
     0
 71
     2
 72
     1
 73
     1
 90
        2
 40
-0.6
 41
30.0
 62
     5
 63
     7
 74
     0
 91
        0
 64
     7
 65
   257
 75
     1
175
     1
 42
1.0
 92
        8
 66
     7
 43
1.0
 76
     1
 77
     6
 78
     2
 67
     7
 79
     5
170
     0
171
     0
290
     0
174
     0
 93
       13
 44
0.0
173
     0
291
     1
 45
0.0
1001
ACAD
1000
AcDbSavedByObjectVersion
1070
     0
  0
VISUALSTYLE
  5
2CBD1
102
{ACAD_XDICTIONARY
360
2CCFA
102
}
102
{ACAD_REACTORS
330
2CBCF
102
}
330
2CBCF
100
AcDbVisualStyle
  2
FlatWithEdges
 70
     1
 71
     2
 72
     1
 73
     1
 90
        2
 40
-0.6
 41
30.0
 62
     5
 63
     7
 74
     1
 91
        0
 64
     7
 65
   257
 75
     1
175
     1
 42
1.0
 92
        0
 66
   257
 43
1.0
 76
     1
 77
     6
 78
     2
 67
     7
 79
     5
170
     0
171
     0
290
     0
174
     0
 93
       13
 44
0.0
173
     0
291
     1
 45
0.0
1001
ACAD
1000
AcDbSavedByObjectVersion
1070
     0
  0
VISUALSTYLE
  5
2CBD2
102
{ACAD_XDICTIONARY
360
2CCFC
102
}
102
{ACAD_REACTORS
330
2CBCF
102
}
330
2CBCF
100
AcDbVisualStyle
  2
Gouraud
 70
     2
 71
     2
 72
     2
 73
     1
 90
        2
 40
-0.6
 41
30.0
 62
     5
 63
     7
 74
     0
 91
        0
 64
     7
 65
   257
 75
     1
175
     1
 42
1.0
 92
        0
 66
     7
 43
1.0
 76
     1
 77
     6
 78
     2
 67
     7
 79
     5
170
     0
171
     0
290
     0
174
     0
 93
       13
 44
0.0
173
     0
291
     1
 45
0.0
1001
ACAD
1000
AcDbSavedByObjectVersion
1070
     0
  0
VISUALSTYLE
  5
2CBD3
102
{ACAD_XDICTIONARY
360
2CCFE
102
}
102
{ACAD_REACTORS
330
2CBCF
102
}
330
2CBCF
100
AcDbVisualStyle
  2
GouraudWithEdges
 70
     3
 71
     2
 72
     2
 73
     1
 90
        2
 40
-0.6
 41
30.0
 62
     5
 63
     7
 74
     1
 91
        0
 64
     7
 65
   257
 75
     1
175
     1
 42
1.0
 92
        0
 66
   257
 43
1.0
 76
     1
 77
     6
 78
     2
 67
     7
 79
     5
170
     0
171
     0
290
     0
174
     0
 93
       13
 44
0.0
173
     0
291
     1
 45
0.0
1001
ACAD
1000
AcDbSavedByObjectVersion
1070
     0
  0
VISUALSTYLE
  5
2CBD6
102
{ACAD_XDICTIONARY
360
2CD04
102
}
102
{ACAD_REACTORS
330
2CBCF
102
}
330
2CBCF
100
AcDbVisualStyle
  2
Hidden
 70
     6
 71
     1
 72
     2
 73
     2
 90
        0
 40
-0.6
 41
-30.0
 62
     5
 63
     7
 74
     2
 91
        2
 64
     7
 65
   257
 75
     2
175
     1
 42
40.0
 92
        0
 66
   257
 43
1.0
 76
     1
 77
     6
 78
     2
 67
     7
 79
     3
170
     0
171
     0
290
     0
174
     0
 93
        1
 44
0.0
173
     0
291
     0
 45
0.0
1001
ACAD
1000
AcDbSavedByObjectVersion
1070
     0
  0
VISUALSTYLE
  5
2CBE0
102
{ACAD_XDICTIONARY
360
2CD18
102
}
102
{ACAD_REACTORS
330
2CBCF
102
}
330
2CBCF
100
AcDbVisualStyle
  2
JitterOff
 70
    20
 71
     2
 72
     2
 73
     0
 90
        0
 40
-0.6
 41
-30.0
 62
     5
 63
     7
 74
     1
 91
        4
 64
     7
 65
   257
 75
     1
175
     1
 42
1.0
 92
       10
 66
     7
 43
1.0
 76
     1
 77
     6
 78
     2
 67
     7
 79
     5
170
     0
171
     0
290
     0
174
     0
 93
        1
 44
0.0
173
     0
291
     1
 45
0.0
1001
ACAD
1000
AcDbSavedByObjectVersion
1070
     0
  0
VISUALSTYLE
  5
2CBDD
102
{ACAD_XDICTIONARY
360
2CD12
102
}
102
{ACAD_REACTORS
330
2CBCF
102
}
330
2CBCF
100
AcDbVisualStyle
  2
Linepattern
 70
    14
 71
     2
 72
     2
 73
     0
 90
        0
 40
-0.6
 41
-30.0
 62
     5
 63
     7
 74
     1
 91
        4
 64
     7
 65
   257
 75
     7
175
     7
 42
1.0
 92
        8
 66
     7
 43
1.0
 76
     1
 77
     6
 78
     2
 67
     7
 79
     5
170
     0
171
     0
290
     0
174
     0
 93
        1
 44
0.0
173
     0
291
     1
 45
0.0
1001
ACAD
1000
AcDbSavedByObjectVersion
1070
     0
  0
VISUALSTYLE
  5
2CBE1
102
{ACAD_XDICTIONARY
360
2CD1A
102
}
102
{ACAD_REACTORS
330
2CBCF
102
}
330
2CBCF
100
AcDbVisualStyle
  2
OverhangOff
 70
    21
 71
     2
 72
     2
 73
     0
 90
        0
 40
-0.6
 41
-30.0
 62
     5
 63
     7
 74
     1
 91
        4
 64
     7
 65
   257
 75
     1
175
     1
 42
1.0
 92
        9
 66
     7
 43
1.0
 76
     1
 77
     6
 78
     2
 67
     7
 79
     5
170
     0
171
     0
290
     0
174
     0
 93
        1
 44
0.0
173
     0
291
     1
 45
0.0
1001
ACAD
1000
AcDbSavedByObjectVersion
1070
     0
  0
VISUALSTYLE
  5
2CBD8
102
{ACAD_XDICTIONARY
360
2CD08
102
}
102
{ACAD_REACTORS
330
2CBCF
102
}
330
2CBCF
100
AcDbVisualStyle
  2
Realistic
 70
     8
 71
     2
 72
     2
 73
     0
 90
        2
 40
-0.6
 41
30.0
 62
     5
 63
     7
 74
     0
 91
        0
 64
     7
 65
   257
 75
     1
175
     1
 42
1.0
 92
        8
 66
   257
 43
1.0
 76
     1
 77
     6
 78
     2
 67
     7
 79
     3
170
     0
171
     0
290
     0
174
     0
 93
       13
 44
0.0
173
     0
291
     0
 45
0.0
1001
ACAD
1000
AcDbSavedByObjectVersion
1070
     0
  0
VISUALSTYLE
  5
2CBE7
102
{ACAD_XDICTIONARY
360
2CD26
102
}
102
{ACAD_REACTORS
330
2CBCF
102
}
330
2CBCF
100
AcDbVisualStyle
  2
Shaded
 70
    27
 71
     2
 72
     2
 73
     1
 90
        2
 40
-0.6
 41
30.0
 62
     5
 63
     7
 74
     0
 91
        4
 64
     7
 65
   257
 75
     1
175
     1
 42
1.0
 92
        8
 66
   257
 43
1.0
 76
     1
 77
     6
 78
     2
 67
     8
 79
     3
170
     0
171
     0
290
     0
174
     0
 93
        5
 44
0.0
173
     0
291
     0
 45
0.0
1001
ACAD
1000
AcDbSavedByObjectVersion
1070
     0
  0
VISUALSTYLE
  5
2CBE6
102
{ACAD_XDICTIONARY
360
2CD24
102
}
102
{ACAD_REACTORS
330
2CBCF
102
}
330
2CBCF
100
AcDbVisualStyle
  2
Shaded with edges
 70
    26
 71
     2
 72
     2
 73
     1
 90
        2
 40
-0.6
 41
30.0
 62
     5
 63
     7
 74
     1
 91
        2
 64
     7
 65
   257
 75
     2
175
     1
 42
1.0
 92
        8
 66
   257
 43
1.0
 76
     1
 77
     6
 78
     2
 67
     7
 79
     3
170
     0
171
     0
290
     0
174
     0
 93
        5
 44
0.0
173
     0
291
     0
 45
0.0
1001
ACAD
1000
AcDbSavedByObjectVersion
1070
     0
  0
VISUALSTYLE
  5
2CBE3
102
{ACAD_XDICTIONARY
360
2CD1E
102
}
102
{ACAD_REACTORS
330
2CBCF
102
}
330
2CBCF
100
AcDbVisualStyle
  2
Shades of Gray
 70
    23
 71
     2
 72
     2
 73
     3
 90
        0
 40
-0.6
 41
-30.0
 62
     5
 63
     7
 74
     2
 91
        2
 64
     7
 65
     7
 75
     1
175
     1
 42
40.0
 92
        8
 66
     7
 43
1.0
 76
     1
 77
     6
 78
     2
 67
     7
 79
     3
170
     0
171
     0
290
     0
174
     0
 93
        1
 44
0.0
173
     0
291
     0
 45
0.0
1001
ACAD
1000
AcDbSavedByObjectVersion
1070
     0
  0
VISUALSTYLE
  5
2CBE4
102
{ACAD_XDICTIONARY
360
2CD20
102
}
102
{ACAD_REACTORS
330
2CBCF
102
}
330
2CBCF
100
AcDbVisualStyle
  2
Sketchy
 70
    24
 71
     1
 72
     2
 73
     2
 90
        0
 40
-0.6
 41
-30.0
 62
     5
 63
     7
 74
     2
 91
        2
 64
     7
 65
     7
 75
     1
175
     1
 42
40.0
 92
       11
 66
     7
 43
1.0
 76
     1
 77
     6
 78
     2
 67
     7
 79
     6
170
     0
171
     0
290
     0
174
     0
 93
        1
 44
0.0
173
     0
291
     0
 45
0.0
1001
ACAD
1000
AcDbSavedByObjectVersion
1070
     0
  0
VISUALSTYLE
  5
2CBDC
102
{ACAD_XDICTIONARY
360
2CD10
102
}
102
{ACAD_REACTORS
330
2CBCF
102
}
330
2CBCF
100
AcDbVisualStyle
  2
Thicken
 70
    13
 71
     2
 72
     2
 73
     0
 90
        0
 40
-0.6
 41
-30.0
 62
     5
 63
     7
 74
     1
 91
        4
 64
     7
 65
   257
 75
     1
175
     1
 42
1.0
 92
       12
 66
     7
 43
1.0
 76
     1
 77
     6
 78
     2
 67
     7
 79
     5
170
     0
171
     0
290
     0
174
     0
 93
        1
 44
0.0
173
     0
291
     1
 45
0.0
1001
ACAD
1000
AcDbSavedByObjectVersion
1070
     0
  0
VISUALSTYLE
  5
2CBD5
102
{ACAD_XDICTIONARY
360
2CD02
102
}
102
{ACAD_REACTORS
330
2CBCF
102
}
330
2CBCF
100
AcDbVisualStyle
  2
Wireframe
 70
     5
 71
     0
 72
     2
 73
     0
 90
        0
 40
-0.6
 41
-30.0
 62
     5
 63
     7
 74
     1
 91
        4
 64
     7
 65
   257
 75
     1
175
     1
 42
1.0
 92
        0
 66
   257
 43
1.0
 76
     1
 77
     6
 78
     2
 67
     7
 79
     3
170
     0
171
     0
290
     0
174
     0
 93
        1
 44
0.0
173
     0
291
     0
 45
0.0
1001
ACAD
1000
AcDbSavedByObjectVersion
1070
     0
  0
VISUALSTYLE
  5
2CBE5
102
{ACAD_XDICTIONARY
360
2CD22
102
}
102
{ACAD_REACTORS
330
2CBCF
102
}
330
2CBCF
100
AcDbVisualStyle
  2
X-Ray
 70
    25
 71
     2
 72
     2
 73
     1
 90
        1
 40
0.5
 41
-30.0
 62
     5
 63
     7
 74
     1
 91
        0
 64
     7
 65
   257
 75
     1
175
     1
 42
1.0
 92
        8
 66
     7
 43
1.0
 76
     1
 77
     6
 78
     2
 67
     7
 79
     3
170
     0
171
     0
290
     0
174
     0
 93
       13
 44
0.0
173
     0
291
     0
 45
0.0
1001
ACAD
1000
AcDbSavedByObjectVersion
1070
     0
  0
DICTIONARYVAR
  5
2CC29
102
{ACAD_REACTORS
330
106A6
102
}
330
106A6
100
DictionaryVariables
280
     0
  1
1:1
  0
DICTIONARYVAR
  5
2CC2B
102
{ACAD_REACTORS
330
106A6
102
}
330
106A6
100
DictionaryVariables
280
     0
  1
STANDARD
  0
DICTIONARYVAR
  5
2CC2A
102
{ACAD_REACTORS
330
106A6
102
}
330
106A6
100
DictionaryVariables
280
     0
  1
STANDARD
  0
DICTIONARYVAR
  5
2CCDB
102
{ACAD_REACTORS
330
106A6
102
}
330
106A6
100
DictionaryVariables
280
     0
  1
Imperial24
  0
DICTIONARYVAR
  5
2CCDC
102
{ACAD_REACTORS
330
106A6
102
}
330
106A6
100
DictionaryVariables
280
     0
  1
Imperial24
  0
DICTIONARYVAR
  5
2CCE3
102
{ACAD_REACTORS
330
106A6
102
}
330
106A6
100
DictionaryVariables
280
     0
  1
2
  0
DICTIONARYVAR
  5
2CCE2
102
{ACAD_REACTORS
330
106A6
102
}
330
106A6
100
DictionaryVariables
280
     0
  1
2
  0
DICTIONARYVAR
  5
2CCE1
102
{ACAD_REACTORS
330
106A6
102
}
330
106A6
100
DictionaryVariables
280
     0
  1
1
  0
DICTIONARYVAR
  5
2CCE0
102
{ACAD_REACTORS
330
106A6
102
}
330
106A6
100
DictionaryVariables
280
     0
  1
0
  0
DICTIONARYVAR
  5
2CCDE
102
{ACAD_REACTORS
330
106A6
102
}
330
106A6
100
DictionaryVariables
280
     0
  1
0
  0
DICTIONARYVAR
  5
2CCDF
102
{ACAD_REACTORS
330
106A6
102
}
330
106A6
100
DictionaryVariables
280
     0
  1
0
  0
DICTIONARYVAR
  5
2CCDD
102
{ACAD_REACTORS
330
106A6
102
}
330
106A6
100
DictionaryVariables
280
     0
  1
2
  0
DICTIONARYVAR
  5
2CC2C
102
{ACAD_REACTORS
330
106A6
102
}
330
106A6
100
DictionaryVariables
280
     0
  1
0
  0
DICTIONARYVAR
  5
106A7
102
{ACAD_REACTORS
330
106A6
102
}
330
106A6
100
DictionaryVariables
280
     0
  1
96
  0
DICTIONARYVAR
  5
2CCF0
102
{ACAD_REACTORS
330
106A6
102
}
330
106A6
100
DictionaryVariables
280
     0
  1
2
  0
XRECORD
  5
1A9A1
102
{ACAD_REACTORS
330
1A99F
102
}
330
1A99F
100
AcDbXrecord
280
     1
330
187D7
330
0
330
0
330
0
330
0
330
0
330
0
330
0
330
0
330
0
330
0
330
0
330
0
330
0
330
0
330
0
330
0
330
0
330
0
330
0
330
0
330
0
330
0
330
0
330
0
330
0
330
0
330
0
330
0
330
0
330
0
330
0
330
0
330
0
330
0
330
0
330
0
330
0
330
0
330
0
330
0
330
0
330
0
330
0
  0
XRECORD
  5
2B605
102
{ACAD_REACTORS
330
28919
102
}
330
28919
100
AcDbXrecord
280
     1
290
     0
290
     1
  0
XRECORD
  5
2C35C
102
{ACAD_REACTORS
330
28919
102
}
330
28919
100
AcDbXrecord
280
     1
290
     1
290
     0
  0
XRECORD
  5
2C35D
102
{ACAD_REACTORS
330
28919
102
}
330
28919
100
AcDbXrecord
280
     1
290
     1
290
     1
  0
XRECORD
  5
2C60A
102
{ACAD_REACTORS
330
28919
102
}
330
28919
100
AcDbXrecord
280
     1
290
     1
290
     0
  0
XRECORD
  5
2C60B
102
{ACAD_REACTORS
330
28919
102
}
330
28919
100
AcDbXrecord
280
     1
290
     1
290
     1
  0
XRECORD
  5
2C60C
102
{ACAD_REACTORS
330
28919
102
}
330
28919
100
AcDbXrecord
280
     1
290
     0
290
     0
  0
XRECORD
  5
2C978
102
{ACAD_REACTORS
330
28919
102
}
330
28919
100
AcDbXrecord
280
     1
290
     0
290
     0
  0
XRECORD
  5
2894A
102
{ACAD_REACTORS
330
28919
102
}
330
28919
100
AcDbXrecord
280
     1
290
     1
290
     1
  0
XRECORD
  5
2AE90
102
{ACAD_REACTORS
330
28919
102
}
330
28919
100
AcDbXrecord
280
     1
290
     1
290
     0
  0
XRECORD
  5
2AEA1
102
{ACAD_REACTORS
330
28919
102
}
330
28919
100
AcDbXrecord
280
     1
290
     1
290
     0
  0
XRECORD
  5
2CC69
102
{ACAD_REACTORS
330
2CC68
102
}
330
2CC68
100
AcDbXrecord
280
     1
  1
AcLyLayerFilter
 90
        1
300
0
301
NAME=="*0"
  0
XRECORD
  5
2CC70
102
{ACAD_REACTORS
330
2CC68
102
}
330
2CC68
100
AcDbXrecord
280
     1
  1
AcLyLayerFilter
 90
        1
300
4
301
NAME=="*4"
  0
XRECORD
  5
2CC71
102
{ACAD_REACTORS
330
2CC68
102
}
330
2CC68
100
AcDbXrecord
280
     1
  1
AcLyLayerFilter
 90
        1
300
5
301
NAME=="*5"
  0
XRECORD
  5
2CC72
102
{ACAD_REACTORS
330
2CC68
102
}
330
2CC68
100
AcDbXrecord
280
     1
  1
AcLyLayerFilter
 90
        1
300
7
301
NAME=="*7"
  0
XRECORD
  5
2CC73
102
{ACAD_REACTORS
330
2CC68
102
}
330
2CC68
100
AcDbXrecord
280
     1
  1
AcLyLayerFilter
 90
        1
300
kiseki
301
NAME=="kiseki*"
  0
XRECORD
  5
2CC6A
102
{ACAD_REACTORS
330
2CC68
102
}
330
2CC68
100
AcDbXrecord
280
     1
  1
AcLyLayerFilter
 90
        1
300
11
301
NAME=="*11"
  0
XRECORD
  5
2CC6B
102
{ACAD_REACTORS
330
2CC68
102
}
330
2CC68
100
AcDbXrecord
280
     1
  1
AcLyLayerFilter
 90
        1
300
150_
301
NAME=="150_*"
  0
XRECORD
  5
2CC6C
102
{ACAD_REACTORS
330
2CC68
102
}
330
2CC68
100
AcDbXrecord
280
     1
  1
AcLyLayerFilter
 90
        1
300
160_
301
NAME=="160_*"
  0
XRECORD
  5
2CC6D
102
{ACAD_REACTORS
330
2CC68
102
}
330
2CC68
100
AcDbXrecord
280
     1
  1
AcLyLayerFilter
 90
        1
300
170_
301
NAME=="170_*"
  0
XRECORD
  5
2CC6E
102
{ACAD_REACTORS
330
2CC68
102
}
330
2CC68
100
AcDbXrecord
280
     1
  1
AcLyLayerFilter
 90
        1
300
171_
301
NAME=="171_*"
  0
XRECORD
  5
2CC6F
102
{ACAD_REACTORS
330
2CC68
102
}
330
2CC68
100
AcDbXrecord
280
     1
  1
AcLyLayerFilter
 90
        1
300
350_
301
NAME=="350_*"
  0
DICTIONARY
  5
2CD36
330
2CC78
100
AcDbDictionary
280
     1
281
     1
  3
ACAD_XREC_ROUNDTRIP
360
2CD37
  0
DICTIONARY
  5
2CCF6
330
FB5D
100
AcDbDictionary
280
     1
281
     1
  3
ACAD_XREC_ROUNDTRIP
360
2CCF7
  0
DICTIONARY
  5
2CD2D
330
2CC2E
100
AcDbDictionary
280
     1
281
     1
  3
ACAD_XREC_ROUNDTRIP
360
2CD2E
  0
DICTIONARY
  5
2CD32
330
2CC74
100
AcDbDictionary
280
     1
281
     1
  3
ACAD_XREC_ROUNDTRIP
360
2CD33
  0
DICTIONARY
  5
2CD28
330
2CBE9
100
AcDbDictionary
280
     1
281
     1
  3
ACAD_XREC_ROUNDTRIP
360
2CD29
  0
DICTIONARY
  5
2CD2A
330
2CBEB
100
AcDbDictionary
280
     1
281
     1
  3
ACAD_XREC_ROUNDTRIP
360
2CD2B
  0
DICTIONARY
  5
2CD34
330
2CC77
100
AcDbDictionary
280
     1
281
     1
  3
ACAD_XREC_ROUNDTRIP
360
2CD35
  0
DICTIONARY
  5
2CC87
330
2CBED
100
AcDbDictionary
280
     1
281
     1
  3
ACAD_ROUNDTRIP_2008_TABLESTYLE_CELLSTYLEMAP
360
2CCF1
  3
ACAD_XREC_ROUNDTRIP
360
2CD2C
  0
DICTIONARY
  5
2CD00
330
2CBD4
100
AcDbDictionary
280
     1
281
     1
  3
ACAD_XREC_ROUNDTRIP
360
2CD01
  0
DICTIONARY
  5
2CD06
330
2CBD7
100
AcDbDictionary
280
     1
281
     1
  3
ACAD_XREC_ROUNDTRIP
360
2CD07
  0
DICTIONARY
  5
2CD0E
330
2CBDB
100
AcDbDictionary
280
     1
281
     1
  3
ACAD_XREC_ROUNDTRIP
360
2CD0F
  0
DICTIONARY
  5
2CD16
330
2CBDF
100
AcDbDictionary
280
     1
281
     1
  3
ACAD_XREC_ROUNDTRIP
360
2CD17
  0
DICTIONARY
  5
2CD0A
330
2CBD9
100
AcDbDictionary
280
     1
281
     1
  3
ACAD_XREC_ROUNDTRIP
360
2CD0B
  0
DICTIONARY
  5
2CD0C
330
2CBDA
100
AcDbDictionary
280
     1
281
     1
  3
ACAD_XREC_ROUNDTRIP
360
2CD0D
  0
DICTIONARY
  5
2CD1C
330
2CBE2
100
AcDbDictionary
280
     1
281
     1
  3
ACAD_XREC_ROUNDTRIP
360
2CD1D
  0
DICTIONARY
  5
2CD14
330
2CBDE
100
AcDbDictionary
280
     1
281
     1
  3
ACAD_XREC_ROUNDTRIP
360
2CD15
  0
DICTIONARY
  5
2CCF8
330
2CBD0
100
AcDbDictionary
280
     1
281
     1
  3
ACAD_XREC_ROUNDTRIP
360
2CCF9
  0
DICTIONARY
  5
2CCFA
330
2CBD1
100
AcDbDictionary
280
     1
281
     1
  3
ACAD_XREC_ROUNDTRIP
360
2CCFB
  0
DICTIONARY
  5
2CCFC
330
2CBD2
100
AcDbDictionary
280
     1
281
     1
  3
ACAD_XREC_ROUNDTRIP
360
2CCFD
  0
DICTIONARY
  5
2CCFE
330
2CBD3
100
AcDbDictionary
280
     1
281
     1
  3
ACAD_XREC_ROUNDTRIP
360
2CCFF
  0
DICTIONARY
  5
2CD04
330
2CBD6
100
AcDbDictionary
280
     1
281
     1
  3
ACAD_XREC_ROUNDTRIP
360
2CD05
  0
DICTIONARY
  5
2CD18
330
2CBE0
100
AcDbDictionary
280
     1
281
     1
  3
ACAD_XREC_ROUNDTRIP
360
2CD19
  0
DICTIONARY
  5
2CD12
330
2CBDD
100
AcDbDictionary
280
     1
281
     1
  3
ACAD_XREC_ROUNDTRIP
360
2CD13
  0
DICTIONARY
  5
2CD1A
330
2CBE1
100
AcDbDictionary
280
     1
281
     1
  3
ACAD_XREC_ROUNDTRIP
360
2CD1B
  0
DICTIONARY
  5
2CD08
330
2CBD8
100
AcDbDictionary
280
     1
281
     1
  3
ACAD_XREC_ROUNDTRIP
360
2CD09
  0
DICTIONARY
  5
2CD26
330
2CBE7
100
AcDbDictionary
280
     1
281
     1
  3
ACAD_XREC_ROUNDTRIP
360
2CD27
  0
DICTIONARY
  5
2CD24
330
2CBE6
100
AcDbDictionary
280
     1
281
     1
  3
ACAD_XREC_ROUNDTRIP
360
2CD25
  0
DICTIONARY
  5
2CD1E
330
2CBE3
100
AcDbDictionary
280
     1
281
     1
  3
ACAD_XREC_ROUNDTRIP
360
2CD1F
  0
DICTIONARY
  5
2CD20
330
2CBE4
100
AcDbDictionary
280
     1
281
     1
  3
ACAD_XREC_ROUNDTRIP
360
2CD21
  0
DICTIONARY
  5
2CD10
330
2CBDC
100
AcDbDictionary
280
     1
281
     1
  3
ACAD_XREC_ROUNDTRIP
360
2CD11
  0
DICTIONARY
  5
2CD02
330
2CBD5
100
AcDbDictionary
280
     1
281
     1
  3
ACAD_XREC_ROUNDTRIP
360
2CD03
  0
DICTIONARY
  5
2CD22
330
2CBE5
100
AcDbDictionary
280
     1
281
     1
  3
ACAD_XREC_ROUNDTRIP
360
2CD23
  0
XRECORD
  5
2CD37
102
{ACAD_REACTORS
330
2CD36
102
}
330
2CD36
100
AcDbXrecord
280
     1
102
DISPLAYNAME
  1
Imperial24
102
FLAGS
 90
        0
  0
XRECORD
  5
2CCF7
102
{ACAD_REACTORS
330
2CCF6
102
}
330
2CCF6
100
AcDbXrecord
280
     1
102
SHADEPLOT
 70
     0
102
SHADEPLOTRESLEVEL
 70
     2
102
SHADEPLOTCUSTOMDPI
 70
   300
  0
XRECORD
  5
2CD2E
102
{ACAD_REACTORS
330
2CD2D
102
}
330
2CD2D
100
AcDbXrecord
280
     1
102
SHADEPLOT
 70
     0
102
SHADEPLOTRESLEVEL
 70
     2
102
SHADEPLOTCUSTOMDPI
 70
   300
  0
XRECORD
  5
2CD33
102
{ACAD_REACTORS
330
2CD32
102
}
330
2CD32
100
AcDbXrecord
280
     1
102
MATERIAL
148
0.0
149
0.0
149
0.0
 93
        0
 94
      127
282
     0
 72
     1
 77
     1
171
     1
175
     1
179
     1
273
     0
  0
XRECORD
  5
2CD29
102
{ACAD_REACTORS
330
2CD28
102
}
330
2CD28
100
AcDbXrecord
280
     1
102
MATERIAL
148
0.0
149
0.0
149
0.0
 93
        0
 94
      127
282
     0
 72
     1
 77
     1
171
     1
175
     1
179
     1
273
     0
  0
XRECORD
  5
2CD2B
102
{ACAD_REACTORS
330
2CD2A
102
}
330
2CD2A
100
AcDbXrecord
280
     1
102
MATERIAL
148
0.0
149
0.0
149
0.0
 93
        0
 94
      127
282
     0
 72
     1
 77
     1
171
     1
175
     1
179
     1
273
     0
  0
XRECORD
  5
2CD35
102
{ACAD_REACTORS
330
2CD34
102
}
330
2CD34
100
AcDbXrecord
280
     1
102
DISPLAYNAME
  1
Imperial24
102
FLAGS
 90
        0
  0
CELLSTYLEMAP
  5
2CCF1
102
{ACAD_REACTORS
330
2CC87
102
}
330
2CC87
100
AcDbCellStyleMap
 90
        3
300
CELLSTYLE
  1
TABLEFORMAT_BEGIN
 90
        5
170
     1
 91
        0
 92
    32768
 62
   257
 93
        1
300
CONTENTFORMAT
  1
CONTENTFORMAT_BEGIN
 90
        0
 91
        0
 92
        4
 93
        0
300

 40
0.0
140
1.0
 94
        5
 62
     0
340
F
144
0.25
309
CONTENTFORMAT_END
171
     1
301
MARGIN
  1
CELLMARGIN_BEGIN
 40
0.06
 40
0.06
 40
0.06
 40
0.06
 40
0.06
 40
0.06
309
CELLMARGIN_END
 94
        6
 95
        1
302
GRIDFORMAT
  1
GRIDFORMAT_BEGIN
 90
        0
 91
        1
 62
     0
 92
       -2
340
12
 93
        0
 40
0.045
309
GRIDFORMAT_END
 95
        2
302
GRIDFORMAT
  1
GRIDFORMAT_BEGIN
 90
        0
 91
        1
 62
     0
 92
       -2
340
12
 93
        0
 40
0.045
309
GRIDFORMAT_END
 95
        4
302
GRIDFORMAT
  1
GRIDFORMAT_BEGIN
 90
        0
 91
        1
 62
     0
 92
       -2
340
12
 93
        0
 40
0.045
309
GRIDFORMAT_END
 95
        8
302
GRIDFORMAT
  1
GRIDFORMAT_BEGIN
 90
        0
 91
        1
 62
     0
 92
       -2
340
12
 93
        0
 40
0.045
309
GRIDFORMAT_END
 95
       16
302
GRIDFORMAT
  1
GRIDFORMAT_BEGIN
 90
        0
 91
        1
 62
     0
 92
       -2
340
12
 93
        0
 40
0.045
309
GRIDFORMAT_END
 95
       32
302
GRIDFORMAT
  1
GRIDFORMAT_BEGIN
 90
        0
 91
        1
 62
     0
 92
       -2
340
12
 93
        0
 40
0.045
309
GRIDFORMAT_END
309
TABLEFORMAT_END
  1
CELLSTYLE_BEGIN
 90
        1
 91
        1
300
_TITLE
309
CELLSTYLE_END
300
CELLSTYLE
  1
TABLEFORMAT_BEGIN
 90
        5
170
     1
 91
        0
 92
        0
 62
   257
 93
        1
300
CONTENTFORMAT
  1
CONTENTFORMAT_BEGIN
 90
        0
 91
        0
 92
        4
 93
        0
300

 40
0.0
140
1.0
 94
        5
 62
     0
340
F
144
0.18
309
CONTENTFORMAT_END
171
     1
301
MARGIN
  1
CELLMARGIN_BEGIN
 40
0.06
 40
0.06
 40
0.06
 40
0.06
 40
0.06
 40
0.06
309
CELLMARGIN_END
 94
        6
 95
        1
302
GRIDFORMAT
  1
GRIDFORMAT_BEGIN
 90
        0
 91
        1
 62
     0
 92
       -2
340
12
 93
        0
 40
0.045
309
GRIDFORMAT_END
 95
        2
302
GRIDFORMAT
  1
GRIDFORMAT_BEGIN
 90
        0
 91
        1
 62
     0
 92
       -2
340
12
 93
        0
 40
0.045
309
GRIDFORMAT_END
 95
        4
302
GRIDFORMAT
  1
GRIDFORMAT_BEGIN
 90
        0
 91
        1
 62
     0
 92
       -2
340
12
 93
        0
 40
0.045
309
GRIDFORMAT_END
 95
        8
302
GRIDFORMAT
  1
GRIDFORMAT_BEGIN
 90
        0
 91
        1
 62
     0
 92
       -2
340
12
 93
        0
 40
0.045
309
GRIDFORMAT_END
 95
       16
302
GRIDFORMAT
  1
GRIDFORMAT_BEGIN
 90
        0
 91
        1
 62
     0
 92
       -2
340
12
 93
        0
 40
0.045
309
GRIDFORMAT_END
 95
       32
302
GRIDFORMAT
  1
GRIDFORMAT_BEGIN
 90
        0
 91
        1
 62
     0
 92
       -2
340
12
 93
        0
 40
0.045
309
GRIDFORMAT_END
309
TABLEFORMAT_END
  1
CELLSTYLE_BEGIN
 90
        2
 91
        1
300
_HEADER
309
CELLSTYLE_END
300
CELLSTYLE
  1
TABLEFORMAT_BEGIN
 90
        5
170
     1
 91
        0
 92
        0
 62
   257
 93
        1
300
CONTENTFORMAT
  1
CONTENTFORMAT_BEGIN
 90
        0
 91
        0
 92
        4
 93
        0
300

 40
0.0
140
1.0
 94
        2
 62
     0
340
F
144
0.18
309
CONTENTFORMAT_END
171
     1
301
MARGIN
  1
CELLMARGIN_BEGIN
 40
0.06
 40
0.06
 40
0.06
 40
0.06
 40
0.06
 40
0.06
309
CELLMARGIN_END
 94
        6
 95
        1
302
GRIDFORMAT
  1
GRIDFORMAT_BEGIN
 90
        0
 91
        1
 62
     0
 92
       -2
340
12
 93
        0
 40
0.045
309
GRIDFORMAT_END
 95
        2
302
GRIDFORMAT
  1
GRIDFORMAT_BEGIN
 90
        0
 91
        1
 62
     0
 92
       -2
340
12
 93
        0
 40
0.045
309
GRIDFORMAT_END
 95
        4
302
GRIDFORMAT
  1
GRIDFORMAT_BEGIN
 90
        0
 91
        1
 62
     0
 92
       -2
340
12
 93
        0
 40
0.045
309
GRIDFORMAT_END
 95
        8
302
GRIDFORMAT
  1
GRIDFORMAT_BEGIN
 90
        0
 91
        1
 62
     0
 92
       -2
340
12
 93
        0
 40
0.045
309
GRIDFORMAT_END
 95
       16
302
GRIDFORMAT
  1
GRIDFORMAT_BEGIN
 90
        0
 91
        1
 62
     0
 92
       -2
340
12
 93
        0
 40
0.045
309
GRIDFORMAT_END
 95
       32
302
GRIDFORMAT
  1
GRIDFORMAT_BEGIN
 90
        0
 91
        1
 62
     0
 92
       -2
340
12
 93
        0
 40
0.045
309
GRIDFORMAT_END
309
TABLEFORMAT_END
  1
CELLSTYLE_BEGIN
 90
        3
 91
        2
300
_DATA
309
CELLSTYLE_END
  0
XRECORD
  5
2CD2C
102
{ACAD_REACTORS
330
2CC87
102
}
330
2CC87
100
AcDbXrecord
280
     1
102
ACAD_ROUNDTRIP_PRE2007_TABLESTYLE
 90
        4
 91
        0
  1

 92
        4
 93
        0
  2

 94
        4
 95
        0
  3

  0
XRECORD
  5
2CD01
102
{ACAD_REACTORS
330
2CD00
102
}
330
2CD00
100
AcDbXrecord
280
     1
102
RTVSPost2010Prop28
280
     1
102
RTVSPost2010PropOp28
 70
     1
102
RTVSPost2010Prop29
280
     1
102
RTVSPost2010PropOp29
 70
     1
102
RTVSPost2010Prop30
280
     0
102
RTVSPost2010PropOp30
 70
     1
102
RTVSPost2010Prop31
280
     0
102
RTVSPost2010PropOp31
 70
     1
102
RTVSPost2010Prop32
280
     0
102
RTVSPost2010PropOp32
 70
     1
102
RTVSPost2010Prop33
280
     0
102
RTVSPost2010PropOp33
 70
     1
102
RTVSPost2010Prop34
280
     0
102
RTVSPost2010PropOp34
 70
     1
102
RTVSPost2010Prop35
280
     0
102
RTVSPost2010PropOp35
 70
     1
102
RTVSPost2010Prop36
280
     0
102
RTVSPost2010PropOp36
 70
     1
102
RTVSPost2010Prop37
 90
       50
102
RTVSPost2010PropOp37
 70
     1
102
RTVSPost2010Prop38
140
0.0
102
RTVSPost2010PropOp38
 70
     1
102
RTVSPost2010Prop39
140
1.0
102
RTVSPost2010PropOp39
 70
     1
102
RTVSPost2010Prop40
 90
        0
102
RTVSPost2010PropOp40
 70
     1
102
RTVSPost2010Prop41ColorIndex
 90
       18
102
RTVSPost2010Prop41ColorRGB
 90
        0
102
RTVSPost2010PropOp41
 70
     1
102
RTVSPost2010Prop42
 90
       50
102
RTVSPost2010PropOp42
 70
     1
102
RTVSPost2010Prop43
 90
        3
102
RTVSPost2010PropOp43
 70
     1
102
RTVSPost2010Prop44ColorIndex
 90
        5
102
RTVSPost2010Prop44ColorRGB
 90
      255
102
RTVSPost2010PropOp44
 70
     1
102
RTVSPost2010Prop45
280
     0
102
RTVSPost2010PropOp45
 70
     1
102
RTVSPost2010Prop46
 90
       50
102
RTVSPost2010PropOp46
 70
     1
102
RTVSPost2010Prop47
 90
       50
102
RTVSPost2010PropOp47
 70
     1
102
RTVSPost2010Prop48
 90
       50
102
RTVSPost2010PropOp48
 70
     1
102
RTVSPost2010Prop49
280
     0
102
RTVSPost2010PropOp49
 70
     1
102
RTVSPost2010Prop50
 90
       50
102
RTVSPost2010PropOp50
 70
     1
102
RTVSPost2010Prop51ColorIndex
 90
      256
102
RTVSPost2010Prop51ColorRGB
 90
-16777216
102
RTVSPost2010PropOp51
 70
     0
102
RTVSPost2010Prop52
140
1.0
102
RTVSPost2010PropOp52
 70
     0
102
RTVSPost2010Prop53
 90
        2
102
RTVSPost2010PropOp53
 70
     1
102
RTVSPost2010Prop54
  1
strokes_ogs.tif
102
RTVSPost2010PropOp54
 70
     1
102
RTVSPost2010Prop55
280
     0
102
RTVSPost2010PropOp55
 70
     1
102
RTVSPost2010Prop56
140
1.0
102
RTVSPost2010PropOp56
 70
     1
102
RTVSPost2010Prop57
140
1.0
102
RTVSPost2010PropOp57
 70
     1
102
RTVSPropertyOp0
 70
     1
102
RTVSPropertyOp1
 70
     1
102
RTVSPropertyOp2
 70
     1
102
RTVSPropertyOp3
 70
     1
102
RTVSPropertyOp4
 70
     1
102
RTVSPropertyOp5
 70
     1
102
RTVSPropertyOp6
 70
     1
102
RTVSPropertyOp7
 70
     1
102
RTVSPropertyOp8
 70
     1
102
RTVSPropertyOp9
 70
     1
102
RTVSPropertyOp10
 70
     1
102
RTVSPropertyOp11
 70
     1
102
RTVSPropertyOp12
 70
     1
102
RTVSPropertyOp13
 70
     1
102
RTVSPropertyOp14
 70
     1
102
RTVSPropertyOp15
 70
     1
102
RTVSPropertyOp16
 70
     1
102
RTVSPropertyOp17
 70
     1
102
RTVSPropertyOp18
 70
     1
102
RTVSPropertyOp19
 70
     1
102
RTVSPropertyOp20
 70
     1
102
RTVSPropertyOp21
 70
     1
102
RTVSPropertyOp22
 70
     1
102
RTVSPropertyOp23
 70
     1
102
RTVSPropertyOp24
 70
     1
102
RTVSPropertyOp25
 70
     1
102
RTVSPropertyOp26
 70
     1
102
RTVSPropertyOp27
 70
     1
102
RTVSPropertyOp28
 70
     1
102
RTVSPropertyOp29
 70
     1
102
RTVSPropertyOp30
 70
     1
102
RTVSPropertyOp31
 70
     1
102
RTVSPropertyOp32
 70
     1
102
RTVSPropertyOp33
 70
     1
102
RTVSPropertyOp34
 70
     1
102
RTVSPropertyOp35
 70
     1
102
RTVSPropertyOp36
 70
     1
102
RTVSPropertyOp37
 70
     1
102
RTVSPropertyOp38
 70
     1
102
RTVSPropertyOp39
 70
     1
102
RTVSPropertyOp40
 70
     1
102
RTVSPropertyOp41
 70
     1
102
RTVSPropertyOp42
 70
     1
102
RTVSPropertyOp43
 70
     1
102
RTVSPropertyOp44
 70
     1
102
RTVSPropertyOp45
 70
     1
102
RTVSPropertyOp46
 70
     1
102
RTVSPropertyOp47
 70
     1
102
RTVSPropertyOp48
 70
     1
102
RTVSPropertyOp49
 70
     1
102
RTVSPropertyOp50
 70
     1
102
RTVSPropertyOp51
 70
     0
102
RTVSPropertyOp52
 70
     0
102
RTVSPropertyOp53
 70
     1
102
RTVSPropertyOp54
 70
     1
102
RTVSPropertyOp55
 70
     1
102
RTVSPropertyOp56
 70
     1
102
RTVSPropertyOp57
 70
     1
102
RTVSPropertyOp58
 70
     1
102
RTVSPropertyOp59
 70
     1
102
RTVSPropertyOp60
 70
     1
102
RTVSPropertyOp61
 70
     1
102
RTVSPropertyOp62
 70
     1
  0
XRECORD
  5
2CD07
102
{ACAD_REACTORS
330
2CD06
102
}
330
2CD06
100
AcDbXrecord
280
     1
102
RTVSPost2010Prop28
280
     0
102
RTVSPost2010PropOp28
 70
     1
102
RTVSPost2010Prop29
280
     1
102
RTVSPost2010PropOp29
 70
     1
102
RTVSPost2010Prop30
280
     1
102
RTVSPost2010PropOp30
 70
     1
102
RTVSPost2010Prop31
280
     0
102
RTVSPost2010PropOp31
 70
     1
102
RTVSPost2010Prop32
280
     0
102
RTVSPost2010PropOp32
 70
     1
102
RTVSPost2010Prop33
280
     0
102
RTVSPost2010PropOp33
 70
     1
102
RTVSPost2010Prop34
280
     0
102
RTVSPost2010PropOp34
 70
     1
102
RTVSPost2010Prop35
280
     0
102
RTVSPost2010PropOp35
 70
     1
102
RTVSPost2010Prop36
280
     0
102
RTVSPost2010PropOp36
 70
     1
102
RTVSPost2010Prop37
 90
       50
102
RTVSPost2010PropOp37
 70
     1
102
RTVSPost2010Prop38
140
0.0
102
RTVSPost2010PropOp38
 70
     1
102
RTVSPost2010Prop39
140
1.0
102
RTVSPost2010PropOp39
 70
     1
102
RTVSPost2010Prop40
 90
        0
102
RTVSPost2010PropOp40
 70
     1
102
RTVSPost2010Prop41ColorIndex
 90
       18
102
RTVSPost2010Prop41ColorRGB
 90
        0
102
RTVSPost2010PropOp41
 70
     1
102
RTVSPost2010Prop42
 90
       50
102
RTVSPost2010PropOp42
 70
     1
102
RTVSPost2010Prop43
 90
        3
102
RTVSPost2010PropOp43
 70
     1
102
RTVSPost2010Prop44ColorIndex
 90
        5
102
RTVSPost2010Prop44ColorRGB
 90
      255
102
RTVSPost2010PropOp44
 70
     1
102
RTVSPost2010Prop45
280
     0
102
RTVSPost2010PropOp45
 70
     1
102
RTVSPost2010Prop46
 90
       50
102
RTVSPost2010PropOp46
 70
     1
102
RTVSPost2010Prop47
 90
       50
102
RTVSPost2010PropOp47
 70
     1
102
RTVSPost2010Prop48
 90
       50
102
RTVSPost2010PropOp48
 70
     1
102
RTVSPost2010Prop49
280
     0
102
RTVSPost2010PropOp49
 70
     1
102
RTVSPost2010Prop50
 90
       50
102
RTVSPost2010PropOp50
 70
     1
102
RTVSPost2010Prop51ColorIndex
 90
      256
102
RTVSPost2010Prop51ColorRGB
 90
-16777216
102
RTVSPost2010PropOp51
 70
     0
102
RTVSPost2010Prop52
140
1.0
102
RTVSPost2010PropOp52
 70
     0
102
RTVSPost2010Prop53
 90
        2
102
RTVSPost2010PropOp53
 70
     1
102
RTVSPost2010Prop54
  1
strokes_ogs.tif
102
RTVSPost2010PropOp54
 70
     1
102
RTVSPost2010Prop55
280
     0
102
RTVSPost2010PropOp55
 70
     1
102
RTVSPost2010Prop56
140
1.0
102
RTVSPost2010PropOp56
 70
     1
102
RTVSPost2010Prop57
140
1.0
102
RTVSPost2010PropOp57
 70
     1
102
RTVSPropertyOp0
 70
     1
102
RTVSPropertyOp1
 70
     1
102
RTVSPropertyOp2
 70
     1
102
RTVSPropertyOp3
 70
     1
102
RTVSPropertyOp4
 70
     1
102
RTVSPropertyOp5
 70
     1
102
RTVSPropertyOp6
 70
     1
102
RTVSPropertyOp7
 70
     1
102
RTVSPropertyOp8
 70
     1
102
RTVSPropertyOp9
 70
     1
102
RTVSPropertyOp10
 70
     1
102
RTVSPropertyOp11
 70
     1
102
RTVSPropertyOp12
 70
     1
102
RTVSPropertyOp13
 70
     1
102
RTVSPropertyOp14
 70
     1
102
RTVSPropertyOp15
 70
     1
102
RTVSPropertyOp16
 70
     1
102
RTVSPropertyOp17
 70
     1
102
RTVSPropertyOp18
 70
     1
102
RTVSPropertyOp19
 70
     1
102
RTVSPropertyOp20
 70
     1
102
RTVSPropertyOp21
 70
     1
102
RTVSPropertyOp22
 70
     1
102
RTVSPropertyOp23
 70
     1
102
RTVSPropertyOp24
 70
     1
102
RTVSPropertyOp25
 70
     1
102
RTVSPropertyOp26
 70
     1
102
RTVSPropertyOp27
 70
     1
102
RTVSPropertyOp28
 70
     1
102
RTVSPropertyOp29
 70
     1
102
RTVSPropertyOp30
 70
     1
102
RTVSPropertyOp31
 70
     1
102
RTVSPropertyOp32
 70
     1
102
RTVSPropertyOp33
 70
     1
102
RTVSPropertyOp34
 70
     1
102
RTVSPropertyOp35
 70
     1
102
RTVSPropertyOp36
 70
     1
102
RTVSPropertyOp37
 70
     1
102
RTVSPropertyOp38
 70
     1
102
RTVSPropertyOp39
 70
     1
102
RTVSPropertyOp40
 70
     1
102
RTVSPropertyOp41
 70
     1
102
RTVSPropertyOp42
 70
     1
102
RTVSPropertyOp43
 70
     1
102
RTVSPropertyOp44
 70
     1
102
RTVSPropertyOp45
 70
     1
102
RTVSPropertyOp46
 70
     1
102
RTVSPropertyOp47
 70
     1
102
RTVSPropertyOp48
 70
     1
102
RTVSPropertyOp49
 70
     1
102
RTVSPropertyOp50
 70
     1
102
RTVSPropertyOp51
 70
     0
102
RTVSPropertyOp52
 70
     0
102
RTVSPropertyOp53
 70
     1
102
RTVSPropertyOp54
 70
     1
102
RTVSPropertyOp55
 70
     1
102
RTVSPropertyOp56
 70
     1
102
RTVSPropertyOp57
 70
     1
102
RTVSPropertyOp58
 70
     1
102
RTVSPropertyOp59
 70
     1
102
RTVSPropertyOp60
 70
     1
102
RTVSPropertyOp61
 70
     1
102
RTVSPropertyOp62
 70
     1
  0
XRECORD
  5
2CD0F
102
{ACAD_REACTORS
330
2CD0E
102
}
330
2CD0E
100
AcDbXrecord
280
     1
102
RTVSPost2010Prop28
280
     0
102
RTVSPost2010PropOp28
 70
     1
102
RTVSPost2010Prop29
280
     1
102
RTVSPost2010PropOp29
 70
     1
102
RTVSPost2010Prop30
280
     1
102
RTVSPost2010PropOp30
 70
     1
102
RTVSPost2010Prop31
280
     0
102
RTVSPost2010PropOp31
 70
     1
102
RTVSPost2010Prop32
280
     0
102
RTVSPost2010PropOp32
 70
     1
102
RTVSPost2010Prop33
280
     0
102
RTVSPost2010PropOp33
 70
     1
102
RTVSPost2010Prop34
280
     0
102
RTVSPost2010PropOp34
 70
     1
102
RTVSPost2010Prop35
280
     0
102
RTVSPost2010PropOp35
 70
     1
102
RTVSPost2010Prop36
280
     0
102
RTVSPost2010PropOp36
 70
     1
102
RTVSPost2010Prop37
 90
       50
102
RTVSPost2010PropOp37
 70
     1
102
RTVSPost2010Prop38
140
0.0
102
RTVSPost2010PropOp38
 70
     1
102
RTVSPost2010Prop39
140
1.0
102
RTVSPost2010PropOp39
 70
     1
102
RTVSPost2010Prop40
 90
        0
102
RTVSPost2010PropOp40
 70
     1
102
RTVSPost2010Prop41ColorIndex
 90
       18
102
RTVSPost2010Prop41ColorRGB
 90
        0
102
RTVSPost2010PropOp41
 70
     1
102
RTVSPost2010Prop42
 90
       50
102
RTVSPost2010PropOp42
 70
     1
102
RTVSPost2010Prop43
 90
        3
102
RTVSPost2010PropOp43
 70
     1
102
RTVSPost2010Prop44ColorIndex
 90
        5
102
RTVSPost2010Prop44ColorRGB
 90
      255
102
RTVSPost2010PropOp44
 70
     1
102
RTVSPost2010Prop45
280
     0
102
RTVSPost2010PropOp45
 70
     1
102
RTVSPost2010Prop46
 90
       50
102
RTVSPost2010PropOp46
 70
     1
102
RTVSPost2010Prop47
 90
       50
102
RTVSPost2010PropOp47
 70
     1
102
RTVSPost2010Prop48
 90
       50
102
RTVSPost2010PropOp48
 70
     1
102
RTVSPost2010Prop49
280
     0
102
RTVSPost2010PropOp49
 70
     1
102
RTVSPost2010Prop50
 90
       50
102
RTVSPost2010PropOp50
 70
     1
102
RTVSPost2010Prop51ColorIndex
 90
      256
102
RTVSPost2010Prop51ColorRGB
 90
-16777216
102
RTVSPost2010PropOp51
 70
     0
102
RTVSPost2010Prop52
140
1.0
102
RTVSPost2010PropOp52
 70
     0
102
RTVSPost2010Prop53
 90
        2
102
RTVSPost2010PropOp53
 70
     1
102
RTVSPost2010Prop54
  1
strokes_ogs.tif
102
RTVSPost2010PropOp54
 70
     1
102
RTVSPost2010Prop55
280
     0
102
RTVSPost2010PropOp55
 70
     1
102
RTVSPost2010Prop56
140
1.0
102
RTVSPost2010PropOp56
 70
     1
102
RTVSPost2010Prop57
140
1.0
102
RTVSPost2010PropOp57
 70
     1
102
RTVSPropertyOp0
 70
     1
102
RTVSPropertyOp1
 70
     1
102
RTVSPropertyOp2
 70
     1
102
RTVSPropertyOp3
 70
     1
102
RTVSPropertyOp4
 70
     1
102
RTVSPropertyOp5
 70
     1
102
RTVSPropertyOp6
 70
     1
102
RTVSPropertyOp7
 70
     1
102
RTVSPropertyOp8
 70
     1
102
RTVSPropertyOp9
 70
     1
102
RTVSPropertyOp10
 70
     1
102
RTVSPropertyOp11
 70
     1
102
RTVSPropertyOp12
 70
     1
102
RTVSPropertyOp13
 70
     1
102
RTVSPropertyOp14
 70
     1
102
RTVSPropertyOp15
 70
     1
102
RTVSPropertyOp16
 70
     1
102
RTVSPropertyOp17
 70
     1
102
RTVSPropertyOp18
 70
     1
102
RTVSPropertyOp19
 70
     1
102
RTVSPropertyOp20
 70
     1
102
RTVSPropertyOp21
 70
     1
102
RTVSPropertyOp22
 70
     1
102
RTVSPropertyOp23
 70
     1
102
RTVSPropertyOp24
 70
     1
102
RTVSPropertyOp25
 70
     1
102
RTVSPropertyOp26
 70
     1
102
RTVSPropertyOp27
 70
     1
102
RTVSPropertyOp28
 70
     1
102
RTVSPropertyOp29
 70
     1
102
RTVSPropertyOp30
 70
     1
102
RTVSPropertyOp31
 70
     1
102
RTVSPropertyOp32
 70
     1
102
RTVSPropertyOp33
 70
     1
102
RTVSPropertyOp34
 70
     1
102
RTVSPropertyOp35
 70
     1
102
RTVSPropertyOp36
 70
     1
102
RTVSPropertyOp37
 70
     1
102
RTVSPropertyOp38
 70
     1
102
RTVSPropertyOp39
 70
     1
102
RTVSPropertyOp40
 70
     1
102
RTVSPropertyOp41
 70
     1
102
RTVSPropertyOp42
 70
     1
102
RTVSPropertyOp43
 70
     1
102
RTVSPropertyOp44
 70
     1
102
RTVSPropertyOp45
 70
     1
102
RTVSPropertyOp46
 70
     1
102
RTVSPropertyOp47
 70
     1
102
RTVSPropertyOp48
 70
     1
102
RTVSPropertyOp49
 70
     1
102
RTVSPropertyOp50
 70
     1
102
RTVSPropertyOp51
 70
     0
102
RTVSPropertyOp52
 70
     0
102
RTVSPropertyOp53
 70
     1
102
RTVSPropertyOp54
 70
     1
102
RTVSPropertyOp55
 70
     1
102
RTVSPropertyOp56
 70
     1
102
RTVSPropertyOp57
 70
     1
102
RTVSPropertyOp58
 70
     1
102
RTVSPropertyOp59
 70
     1
102
RTVSPropertyOp60
 70
     1
102
RTVSPropertyOp61
 70
     1
102
RTVSPropertyOp62
 70
     1
  0
XRECORD
  5
2CD17
102
{ACAD_REACTORS
330
2CD16
102
}
330
2CD16
100
AcDbXrecord
280
     1
102
RTVSPost2010Prop28
280
     0
102
RTVSPost2010PropOp28
 70
     1
102
RTVSPost2010Prop29
280
     1
102
RTVSPost2010PropOp29
 70
     1
102
RTVSPost2010Prop30
280
     1
102
RTVSPost2010PropOp30
 70
     1
102
RTVSPost2010Prop31
280
     0
102
RTVSPost2010PropOp31
 70
     1
102
RTVSPost2010Prop32
280
     0
102
RTVSPost2010PropOp32
 70
     1
102
RTVSPost2010Prop33
280
     0
102
RTVSPost2010PropOp33
 70
     1
102
RTVSPost2010Prop34
280
     0
102
RTVSPost2010PropOp34
 70
     1
102
RTVSPost2010Prop35
280
     0
102
RTVSPost2010PropOp35
 70
     1
102
RTVSPost2010Prop36
280
     0
102
RTVSPost2010PropOp36
 70
     1
102
RTVSPost2010Prop37
 90
       50
102
RTVSPost2010PropOp37
 70
     1
102
RTVSPost2010Prop38
140
0.0
102
RTVSPost2010PropOp38
 70
     1
102
RTVSPost2010Prop39
140
1.0
102
RTVSPost2010PropOp39
 70
     1
102
RTVSPost2010Prop40
 90
        0
102
RTVSPost2010PropOp40
 70
     1
102
RTVSPost2010Prop41ColorIndex
 90
       18
102
RTVSPost2010Prop41ColorRGB
 90
        0
102
RTVSPost2010PropOp41
 70
     1
102
RTVSPost2010Prop42
 90
       50
102
RTVSPost2010PropOp42
 70
     1
102
RTVSPost2010Prop43
 90
        3
102
RTVSPost2010PropOp43
 70
     1
102
RTVSPost2010Prop44ColorIndex
 90
        5
102
RTVSPost2010Prop44ColorRGB
 90
      255
102
RTVSPost2010PropOp44
 70
     1
102
RTVSPost2010Prop45
280
     0
102
RTVSPost2010PropOp45
 70
     1
102
RTVSPost2010Prop46
 90
       50
102
RTVSPost2010PropOp46
 70
     1
102
RTVSPost2010Prop47
 90
       50
102
RTVSPost2010PropOp47
 70
     1
102
RTVSPost2010Prop48
 90
       50
102
RTVSPost2010PropOp48
 70
     1
102
RTVSPost2010Prop49
280
     0
102
RTVSPost2010PropOp49
 70
     1
102
RTVSPost2010Prop50
 90
       50
102
RTVSPost2010PropOp50
 70
     1
102
RTVSPost2010Prop51ColorIndex
 90
      256
102
RTVSPost2010Prop51ColorRGB
 90
-16777216
102
RTVSPost2010PropOp51
 70
     0
102
RTVSPost2010Prop52
140
1.0
102
RTVSPost2010PropOp52
 70
     0
102
RTVSPost2010Prop53
 90
        2
102
RTVSPost2010PropOp53
 70
     1
102
RTVSPost2010Prop54
  1
strokes_ogs.tif
102
RTVSPost2010PropOp54
 70
     1
102
RTVSPost2010Prop55
280
     0
102
RTVSPost2010PropOp55
 70
     1
102
RTVSPost2010Prop56
140
1.0
102
RTVSPost2010PropOp56
 70
     1
102
RTVSPost2010Prop57
140
1.0
102
RTVSPost2010PropOp57
 70
     1
102
RTVSPropertyOp0
 70
     1
102
RTVSPropertyOp1
 70
     1
102
RTVSPropertyOp2
 70
     1
102
RTVSPropertyOp3
 70
     1
102
RTVSPropertyOp4
 70
     1
102
RTVSPropertyOp5
 70
     1
102
RTVSPropertyOp6
 70
     1
102
RTVSPropertyOp7
 70
     1
102
RTVSPropertyOp8
 70
     1
102
RTVSPropertyOp9
 70
     1
102
RTVSPropertyOp10
 70
     1
102
RTVSPropertyOp11
 70
     1
102
RTVSPropertyOp12
 70
     1
102
RTVSPropertyOp13
 70
     1
102
RTVSPropertyOp14
 70
     1
102
RTVSPropertyOp15
 70
     1
102
RTVSPropertyOp16
 70
     1
102
RTVSPropertyOp17
 70
     1
102
RTVSPropertyOp18
 70
     1
102
RTVSPropertyOp19
 70
     1
102
RTVSPropertyOp20
 70
     1
102
RTVSPropertyOp21
 70
     1
102
RTVSPropertyOp22
 70
     1
102
RTVSPropertyOp23
 70
     1
102
RTVSPropertyOp24
 70
     1
102
RTVSPropertyOp25
 70
     1
102
RTVSPropertyOp26
 70
     1
102
RTVSPropertyOp27
 70
     1
102
RTVSPropertyOp28
 70
     1
102
RTVSPropertyOp29
 70
     1
102
RTVSPropertyOp30
 70
     1
102
RTVSPropertyOp31
 70
     1
102
RTVSPropertyOp32
 70
     1
102
RTVSPropertyOp33
 70
     1
102
RTVSPropertyOp34
 70
     1
102
RTVSPropertyOp35
 70
     1
102
RTVSPropertyOp36
 70
     1
102
RTVSPropertyOp37
 70
     1
102
RTVSPropertyOp38
 70
     1
102
RTVSPropertyOp39
 70
     1
102
RTVSPropertyOp40
 70
     1
102
RTVSPropertyOp41
 70
     1
102
RTVSPropertyOp42
 70
     1
102
RTVSPropertyOp43
 70
     1
102
RTVSPropertyOp44
 70
     1
102
RTVSPropertyOp45
 70
     1
102
RTVSPropertyOp46
 70
     1
102
RTVSPropertyOp47
 70
     1
102
RTVSPropertyOp48
 70
     1
102
RTVSPropertyOp49
 70
     1
102
RTVSPropertyOp50
 70
     1
102
RTVSPropertyOp51
 70
     0
102
RTVSPropertyOp52
 70
     0
102
RTVSPropertyOp53
 70
     1
102
RTVSPropertyOp54
 70
     1
102
RTVSPropertyOp55
 70
     1
102
RTVSPropertyOp56
 70
     1
102
RTVSPropertyOp57
 70
     1
102
RTVSPropertyOp58
 70
     1
102
RTVSPropertyOp59
 70
     1
102
RTVSPropertyOp60
 70
     1
102
RTVSPropertyOp61
 70
     1
102
RTVSPropertyOp62
 70
     1
  0
XRECORD
  5
2CD0B
102
{ACAD_REACTORS
330
2CD0A
102
}
330
2CD0A
100
AcDbXrecord
280
     1
102
RTVSPost2010Prop28
280
     0
102
RTVSPost2010PropOp28
 70
     1
102
RTVSPost2010Prop29
280
     1
102
RTVSPost2010PropOp29
 70
     1
102
RTVSPost2010Prop30
280
     1
102
RTVSPost2010PropOp30
 70
     1
102
RTVSPost2010Prop31
280
     0
102
RTVSPost2010PropOp31
 70
     1
102
RTVSPost2010Prop32
280
     0
102
RTVSPost2010PropOp32
 70
     1
102
RTVSPost2010Prop33
280
     0
102
RTVSPost2010PropOp33
 70
     1
102
RTVSPost2010Prop34
280
     0
102
RTVSPost2010PropOp34
 70
     1
102
RTVSPost2010Prop35
280
     0
102
RTVSPost2010PropOp35
 70
     1
102
RTVSPost2010Prop36
280
     0
102
RTVSPost2010PropOp36
 70
     1
102
RTVSPost2010Prop37
 90
       50
102
RTVSPost2010PropOp37
 70
     1
102
RTVSPost2010Prop38
140
0.0
102
RTVSPost2010PropOp38
 70
     1
102
RTVSPost2010Prop39
140
1.0
102
RTVSPost2010PropOp39
 70
     1
102
RTVSPost2010Prop40
 90
        0
102
RTVSPost2010PropOp40
 70
     1
102
RTVSPost2010Prop41ColorIndex
 90
       18
102
RTVSPost2010Prop41ColorRGB
 90
        0
102
RTVSPost2010PropOp41
 70
     1
102
RTVSPost2010Prop42
 90
       50
102
RTVSPost2010PropOp42
 70
     1
102
RTVSPost2010Prop43
 90
        3
102
RTVSPost2010PropOp43
 70
     1
102
RTVSPost2010Prop44ColorIndex
 90
        5
102
RTVSPost2010Prop44ColorRGB
 90
      255
102
RTVSPost2010PropOp44
 70
     1
102
RTVSPost2010Prop45
280
     0
102
RTVSPost2010PropOp45
 70
     1
102
RTVSPost2010Prop46
 90
       50
102
RTVSPost2010PropOp46
 70
     1
102
RTVSPost2010Prop47
 90
       50
102
RTVSPost2010PropOp47
 70
     1
102
RTVSPost2010Prop48
 90
       50
102
RTVSPost2010PropOp48
 70
     1
102
RTVSPost2010Prop49
280
     0
102
RTVSPost2010PropOp49
 70
     1
102
RTVSPost2010Prop50
 90
       50
102
RTVSPost2010PropOp50
 70
     1
102
RTVSPost2010Prop51ColorIndex
 90
      256
102
RTVSPost2010Prop51ColorRGB
 90
-16777216
102
RTVSPost2010PropOp51
 70
     0
102
RTVSPost2010Prop52
140
1.0
102
RTVSPost2010PropOp52
 70
     0
102
RTVSPost2010Prop53
 90
        2
102
RTVSPost2010PropOp53
 70
     1
102
RTVSPost2010Prop54
  1
strokes_ogs.tif
102
RTVSPost2010PropOp54
 70
     1
102
RTVSPost2010Prop55
280
     0
102
RTVSPost2010PropOp55
 70
     1
102
RTVSPost2010Prop56
140
1.0
102
RTVSPost2010PropOp56
 70
     1
102
RTVSPost2010Prop57
140
1.0
102
RTVSPost2010PropOp57
 70
     1
102
RTVSPropertyOp0
 70
     1
102
RTVSPropertyOp1
 70
     1
102
RTVSPropertyOp2
 70
     1
102
RTVSPropertyOp3
 70
     1
102
RTVSPropertyOp4
 70
     1
102
RTVSPropertyOp5
 70
     1
102
RTVSPropertyOp6
 70
     1
102
RTVSPropertyOp7
 70
     1
102
RTVSPropertyOp8
 70
     1
102
RTVSPropertyOp9
 70
     1
102
RTVSPropertyOp10
 70
     1
102
RTVSPropertyOp11
 70
     1
102
RTVSPropertyOp12
 70
     1
102
RTVSPropertyOp13
 70
     1
102
RTVSPropertyOp14
 70
     1
102
RTVSPropertyOp15
 70
     1
102
RTVSPropertyOp16
 70
     1
102
RTVSPropertyOp17
 70
     1
102
RTVSPropertyOp18
 70
     1
102
RTVSPropertyOp19
 70
     1
102
RTVSPropertyOp20
 70
     1
102
RTVSPropertyOp21
 70
     1
102
RTVSPropertyOp22
 70
     1
102
RTVSPropertyOp23
 70
     1
102
RTVSPropertyOp24
 70
     1
102
RTVSPropertyOp25
 70
     1
102
RTVSPropertyOp26
 70
     1
102
RTVSPropertyOp27
 70
     1
102
RTVSPropertyOp28
 70
     1
102
RTVSPropertyOp29
 70
     1
102
RTVSPropertyOp30
 70
     1
102
RTVSPropertyOp31
 70
     1
102
RTVSPropertyOp32
 70
     1
102
RTVSPropertyOp33
 70
     1
102
RTVSPropertyOp34
 70
     1
102
RTVSPropertyOp35
 70
     1
102
RTVSPropertyOp36
 70
     1
102
RTVSPropertyOp37
 70
     1
102
RTVSPropertyOp38
 70
     1
102
RTVSPropertyOp39
 70
     1
102
RTVSPropertyOp40
 70
     1
102
RTVSPropertyOp41
 70
     1
102
RTVSPropertyOp42
 70
     1
102
RTVSPropertyOp43
 70
     1
102
RTVSPropertyOp44
 70
     1
102
RTVSPropertyOp45
 70
     1
102
RTVSPropertyOp46
 70
     1
102
RTVSPropertyOp47
 70
     1
102
RTVSPropertyOp48
 70
     1
102
RTVSPropertyOp49
 70
     1
102
RTVSPropertyOp50
 70
     1
102
RTVSPropertyOp51
 70
     0
102
RTVSPropertyOp52
 70
     0
102
RTVSPropertyOp53
 70
     1
102
RTVSPropertyOp54
 70
     1
102
RTVSPropertyOp55
 70
     1
102
RTVSPropertyOp56
 70
     1
102
RTVSPropertyOp57
 70
     1
102
RTVSPropertyOp58
 70
     1
102
RTVSPropertyOp59
 70
     1
102
RTVSPropertyOp60
 70
     1
102
RTVSPropertyOp61
 70
     1
102
RTVSPropertyOp62
 70
     1
  0
XRECORD
  5
2CD0D
102
{ACAD_REACTORS
330
2CD0C
102
}
330
2CD0C
100
AcDbXrecord
280
     1
102
RTVSPost2010Prop28
280
     0
102
RTVSPost2010PropOp28
 70
     1
102
RTVSPost2010Prop29
280
     1
102
RTVSPost2010PropOp29
 70
     1
102
RTVSPost2010Prop30
280
     1
102
RTVSPost2010PropOp30
 70
     1
102
RTVSPost2010Prop31
280
     0
102
RTVSPost2010PropOp31
 70
     1
102
RTVSPost2010Prop32
280
     0
102
RTVSPost2010PropOp32
 70
     1
102
RTVSPost2010Prop33
280
     0
102
RTVSPost2010PropOp33
 70
     1
102
RTVSPost2010Prop34
280
     0
102
RTVSPost2010PropOp34
 70
     1
102
RTVSPost2010Prop35
280
     0
102
RTVSPost2010PropOp35
 70
     1
102
RTVSPost2010Prop36
280
     0
102
RTVSPost2010PropOp36
 70
     1
102
RTVSPost2010Prop37
 90
       50
102
RTVSPost2010PropOp37
 70
     1
102
RTVSPost2010Prop38
140
0.0
102
RTVSPost2010PropOp38
 70
     1
102
RTVSPost2010Prop39
140
1.0
102
RTVSPost2010PropOp39
 70
     1
102
RTVSPost2010Prop40
 90
        0
102
RTVSPost2010PropOp40
 70
     1
102
RTVSPost2010Prop41ColorIndex
 90
       18
102
RTVSPost2010Prop41ColorRGB
 90
        0
102
RTVSPost2010PropOp41
 70
     1
102
RTVSPost2010Prop42
 90
       50
102
RTVSPost2010PropOp42
 70
     1
102
RTVSPost2010Prop43
 90
        3
102
RTVSPost2010PropOp43
 70
     1
102
RTVSPost2010Prop44ColorIndex
 90
        5
102
RTVSPost2010Prop44ColorRGB
 90
      255
102
RTVSPost2010PropOp44
 70
     1
102
RTVSPost2010Prop45
280
     0
102
RTVSPost2010PropOp45
 70
     1
102
RTVSPost2010Prop46
 90
       50
102
RTVSPost2010PropOp46
 70
     1
102
RTVSPost2010Prop47
 90
       50
102
RTVSPost2010PropOp47
 70
     1
102
RTVSPost2010Prop48
 90
       50
102
RTVSPost2010PropOp48
 70
     1
102
RTVSPost2010Prop49
280
     0
102
RTVSPost2010PropOp49
 70
     1
102
RTVSPost2010Prop50
 90
       50
102
RTVSPost2010PropOp50
 70
     1
102
RTVSPost2010Prop51ColorIndex
 90
      256
102
RTVSPost2010Prop51ColorRGB
 90
-16777216
102
RTVSPost2010PropOp51
 70
     0
102
RTVSPost2010Prop52
140
1.0
102
RTVSPost2010PropOp52
 70
     0
102
RTVSPost2010Prop53
 90
        2
102
RTVSPost2010PropOp53
 70
     1
102
RTVSPost2010Prop54
  1
strokes_ogs.tif
102
RTVSPost2010PropOp54
 70
     1
102
RTVSPost2010Prop55
280
     0
102
RTVSPost2010PropOp55
 70
     1
102
RTVSPost2010Prop56
140
1.0
102
RTVSPost2010PropOp56
 70
     1
102
RTVSPost2010Prop57
140
1.0
102
RTVSPost2010PropOp57
 70
     1
102
RTVSPropertyOp0
 70
     1
102
RTVSPropertyOp1
 70
     1
102
RTVSPropertyOp2
 70
     1
102
RTVSPropertyOp3
 70
     1
102
RTVSPropertyOp4
 70
     1
102
RTVSPropertyOp5
 70
     1
102
RTVSPropertyOp6
 70
     1
102
RTVSPropertyOp7
 70
     1
102
RTVSPropertyOp8
 70
     1
102
RTVSPropertyOp9
 70
     1
102
RTVSPropertyOp10
 70
     1
102
RTVSPropertyOp11
 70
     1
102
RTVSPropertyOp12
 70
     1
102
RTVSPropertyOp13
 70
     1
102
RTVSPropertyOp14
 70
     1
102
RTVSPropertyOp15
 70
     1
102
RTVSPropertyOp16
 70
     1
102
RTVSPropertyOp17
 70
     1
102
RTVSPropertyOp18
 70
     1
102
RTVSPropertyOp19
 70
     1
102
RTVSPropertyOp20
 70
     1
102
RTVSPropertyOp21
 70
     1
102
RTVSPropertyOp22
 70
     1
102
RTVSPropertyOp23
 70
     1
102
RTVSPropertyOp24
 70
     1
102
RTVSPropertyOp25
 70
     1
102
RTVSPropertyOp26
 70
     1
102
RTVSPropertyOp27
 70
     1
102
RTVSPropertyOp28
 70
     1
102
RTVSPropertyOp29
 70
     1
102
RTVSPropertyOp30
 70
     1
102
RTVSPropertyOp31
 70
     1
102
RTVSPropertyOp32
 70
     1
102
RTVSPropertyOp33
 70
     1
102
RTVSPropertyOp34
 70
     1
102
RTVSPropertyOp35
 70
     1
102
RTVSPropertyOp36
 70
     1
102
RTVSPropertyOp37
 70
     1
102
RTVSPropertyOp38
 70
     1
102
RTVSPropertyOp39
 70
     1
102
RTVSPropertyOp40
 70
     1
102
RTVSPropertyOp41
 70
     1
102
RTVSPropertyOp42
 70
     1
102
RTVSPropertyOp43
 70
     1
102
RTVSPropertyOp44
 70
     1
102
RTVSPropertyOp45
 70
     1
102
RTVSPropertyOp46
 70
     1
102
RTVSPropertyOp47
 70
     1
102
RTVSPropertyOp48
 70
     1
102
RTVSPropertyOp49
 70
     1
102
RTVSPropertyOp50
 70
     1
102
RTVSPropertyOp51
 70
     0
102
RTVSPropertyOp52
 70
     0
102
RTVSPropertyOp53
 70
     1
102
RTVSPropertyOp54
 70
     1
102
RTVSPropertyOp55
 70
     1
102
RTVSPropertyOp56
 70
     1
102
RTVSPropertyOp57
 70
     1
102
RTVSPropertyOp58
 70
     1
102
RTVSPropertyOp59
 70
     1
102
RTVSPropertyOp60
 70
     1
102
RTVSPropertyOp61
 70
     1
102
RTVSPropertyOp62
 70
     1
  0
XRECORD
  5
2CD1D
102
{ACAD_REACTORS
330
2CD1C
102
}
330
2CD1C
100
AcDbXrecord
280
     1
102
RTVSPost2010Prop28
280
     0
102
RTVSPost2010PropOp28
 70
     0
102
RTVSPost2010Prop29
280
     1
102
RTVSPost2010PropOp29
 70
     0
102
RTVSPost2010Prop30
280
     1
102
RTVSPost2010PropOp30
 70
     0
102
RTVSPost2010Prop31
280
     0
102
RTVSPost2010PropOp31
 70
     0
102
RTVSPost2010Prop32
280
     0
102
RTVSPost2010PropOp32
 70
     0
102
RTVSPost2010Prop33
280
     0
102
RTVSPost2010PropOp33
 70
     0
102
RTVSPost2010Prop34
280
     0
102
RTVSPost2010PropOp34
 70
     0
102
RTVSPost2010Prop35
280
     0
102
RTVSPost2010PropOp35
 70
     0
102
RTVSPost2010Prop36
280
     0
102
RTVSPost2010PropOp36
 70
     0
102
RTVSPost2010Prop37
 90
       50
102
RTVSPost2010PropOp37
 70
     0
102
RTVSPost2010Prop38
140
0.0
102
RTVSPost2010PropOp38
 70
     0
102
RTVSPost2010Prop39
140
1.0
102
RTVSPost2010PropOp39
 70
     0
102
RTVSPost2010Prop40
 90
        0
102
RTVSPost2010PropOp40
 70
     0
102
RTVSPost2010Prop41ColorIndex
 90
       18
102
RTVSPost2010Prop41ColorRGB
 90
        0
102
RTVSPost2010PropOp41
 70
     0
102
RTVSPost2010Prop42
 90
       50
102
RTVSPost2010PropOp42
 70
     0
102
RTVSPost2010Prop43
 90
        3
102
RTVSPost2010PropOp43
 70
     0
102
RTVSPost2010Prop44ColorIndex
 90
        5
102
RTVSPost2010Prop44ColorRGB
 90
      255
102
RTVSPost2010PropOp44
 70
     0
102
RTVSPost2010Prop45
280
     0
102
RTVSPost2010PropOp45
 70
     0
102
RTVSPost2010Prop46
 90
       50
102
RTVSPost2010PropOp46
 70
     0
102
RTVSPost2010Prop47
 90
       50
102
RTVSPost2010PropOp47
 70
     0
102
RTVSPost2010Prop48
 90
       50
102
RTVSPost2010PropOp48
 70
     0
102
RTVSPost2010Prop49
280
     0
102
RTVSPost2010PropOp49
 70
     0
102
RTVSPost2010Prop50
 90
       50
102
RTVSPost2010PropOp50
 70
     0
102
RTVSPost2010Prop51ColorIndex
 90
      256
102
RTVSPost2010Prop51ColorRGB
 90
-16777216
102
RTVSPost2010PropOp51
 70
     0
102
RTVSPost2010Prop52
140
1.0
102
RTVSPost2010PropOp52
 70
     0
102
RTVSPost2010Prop53
 90
        2
102
RTVSPost2010PropOp53
 70
     0
102
RTVSPost2010Prop54
  1
strokes_ogs.tif
102
RTVSPost2010PropOp54
 70
     0
102
RTVSPost2010Prop55
280
     0
102
RTVSPost2010PropOp55
 70
     0
102
RTVSPost2010Prop56
140
1.0
102
RTVSPost2010PropOp56
 70
     0
102
RTVSPost2010Prop57
140
1.0
102
RTVSPost2010PropOp57
 70
     0
102
RTVSPropertyOp0
 70
     0
102
RTVSPropertyOp1
 70
     0
102
RTVSPropertyOp2
 70
     0
102
RTVSPropertyOp3
 70
     0
102
RTVSPropertyOp4
 70
     0
102
RTVSPropertyOp5
 70
     0
102
RTVSPropertyOp6
 70
     0
102
RTVSPropertyOp7
 70
     0
102
RTVSPropertyOp8
 70
     0
102
RTVSPropertyOp9
 70
     0
102
RTVSPropertyOp10
 70
     0
102
RTVSPropertyOp11
 70
     0
102
RTVSPropertyOp12
 70
     0
102
RTVSPropertyOp13
 70
     0
102
RTVSPropertyOp14
 70
     2
102
RTVSPropertyOp15
 70
     0
102
RTVSPropertyOp16
 70
     0
102
RTVSPropertyOp17
 70
     0
102
RTVSPropertyOp18
 70
     0
102
RTVSPropertyOp19
 70
     0
102
RTVSPropertyOp20
 70
     0
102
RTVSPropertyOp21
 70
     0
102
RTVSPropertyOp22
 70
     0
102
RTVSPropertyOp23
 70
     0
102
RTVSPropertyOp24
 70
     0
102
RTVSPropertyOp25
 70
     0
102
RTVSPropertyOp26
 70
     0
102
RTVSPropertyOp27
 70
     0
102
RTVSPropertyOp28
 70
     0
102
RTVSPropertyOp29
 70
     0
102
RTVSPropertyOp30
 70
     0
102
RTVSPropertyOp31
 70
     0
102
RTVSPropertyOp32
 70
     0
102
RTVSPropertyOp33
 70
     0
102
RTVSPropertyOp34
 70
     0
102
RTVSPropertyOp35
 70
     0
102
RTVSPropertyOp36
 70
     0
102
RTVSPropertyOp37
 70
     0
102
RTVSPropertyOp38
 70
     0
102
RTVSPropertyOp39
 70
     0
102
RTVSPropertyOp40
 70
     0
102
RTVSPropertyOp41
 70
     0
102
RTVSPropertyOp42
 70
     0
102
RTVSPropertyOp43
 70
     0
102
RTVSPropertyOp44
 70
     0
102
RTVSPropertyOp45
 70
     0
102
RTVSPropertyOp46
 70
     0
102
RTVSPropertyOp47
 70
     0
102
RTVSPropertyOp48
 70
     0
102
RTVSPropertyOp49
 70
     0
102
RTVSPropertyOp50
 70
     0
102
RTVSPropertyOp51
 70
     0
102
RTVSPropertyOp52
 70
     0
102
RTVSPropertyOp53
 70
     0
102
RTVSPropertyOp54
 70
     0
102
RTVSPropertyOp55
 70
     0
102
RTVSPropertyOp56
 70
     0
102
RTVSPropertyOp57
 70
     0
102
RTVSPropertyOp58
 70
     1
102
RTVSPropertyOp59
 70
     1
102
RTVSPropertyOp60
 70
     1
102
RTVSPropertyOp61
 70
     1
102
RTVSPropertyOp62
 70
     1
  0
XRECORD
  5
2CD15
102
{ACAD_REACTORS
330
2CD14
102
}
330
2CD14
100
AcDbXrecord
280
     1
102
RTVSPost2010Prop28
280
     0
102
RTVSPost2010PropOp28
 70
     1
102
RTVSPost2010Prop29
280
     1
102
RTVSPost2010PropOp29
 70
     1
102
RTVSPost2010Prop30
280
     1
102
RTVSPost2010PropOp30
 70
     1
102
RTVSPost2010Prop31
280
     0
102
RTVSPost2010PropOp31
 70
     1
102
RTVSPost2010Prop32
280
     0
102
RTVSPost2010PropOp32
 70
     1
102
RTVSPost2010Prop33
280
     0
102
RTVSPost2010PropOp33
 70
     1
102
RTVSPost2010Prop34
280
     0
102
RTVSPost2010PropOp34
 70
     1
102
RTVSPost2010Prop35
280
     0
102
RTVSPost2010PropOp35
 70
     1
102
RTVSPost2010Prop36
280
     0
102
RTVSPost2010PropOp36
 70
     1
102
RTVSPost2010Prop37
 90
       50
102
RTVSPost2010PropOp37
 70
     1
102
RTVSPost2010Prop38
140
0.0
102
RTVSPost2010PropOp38
 70
     1
102
RTVSPost2010Prop39
140
1.0
102
RTVSPost2010PropOp39
 70
     1
102
RTVSPost2010Prop40
 90
        0
102
RTVSPost2010PropOp40
 70
     1
102
RTVSPost2010Prop41ColorIndex
 90
       18
102
RTVSPost2010Prop41ColorRGB
 90
        0
102
RTVSPost2010PropOp41
 70
     1
102
RTVSPost2010Prop42
 90
       50
102
RTVSPost2010PropOp42
 70
     1
102
RTVSPost2010Prop43
 90
        3
102
RTVSPost2010PropOp43
 70
     1
102
RTVSPost2010Prop44ColorIndex
 90
        5
102
RTVSPost2010Prop44ColorRGB
 90
      255
102
RTVSPost2010PropOp44
 70
     1
102
RTVSPost2010Prop45
280
     0
102
RTVSPost2010PropOp45
 70
     1
102
RTVSPost2010Prop46
 90
       50
102
RTVSPost2010PropOp46
 70
     1
102
RTVSPost2010Prop47
 90
       50
102
RTVSPost2010PropOp47
 70
     1
102
RTVSPost2010Prop48
 90
       50
102
RTVSPost2010PropOp48
 70
     1
102
RTVSPost2010Prop49
280
     0
102
RTVSPost2010PropOp49
 70
     1
102
RTVSPost2010Prop50
 90
       50
102
RTVSPost2010PropOp50
 70
     1
102
RTVSPost2010Prop51ColorIndex
 90
      256
102
RTVSPost2010Prop51ColorRGB
 90
-16777216
102
RTVSPost2010PropOp51
 70
     0
102
RTVSPost2010Prop52
140
1.0
102
RTVSPost2010PropOp52
 70
     0
102
RTVSPost2010Prop53
 90
        2
102
RTVSPost2010PropOp53
 70
     1
102
RTVSPost2010Prop54
  1
strokes_ogs.tif
102
RTVSPost2010PropOp54
 70
     1
102
RTVSPost2010Prop55
280
     0
102
RTVSPost2010PropOp55
 70
     1
102
RTVSPost2010Prop56
140
1.0
102
RTVSPost2010PropOp56
 70
     1
102
RTVSPost2010Prop57
140
1.0
102
RTVSPost2010PropOp57
 70
     1
102
RTVSPropertyOp0
 70
     1
102
RTVSPropertyOp1
 70
     1
102
RTVSPropertyOp2
 70
     1
102
RTVSPropertyOp3
 70
     1
102
RTVSPropertyOp4
 70
     1
102
RTVSPropertyOp5
 70
     1
102
RTVSPropertyOp6
 70
     1
102
RTVSPropertyOp7
 70
     1
102
RTVSPropertyOp8
 70
     1
102
RTVSPropertyOp9
 70
     1
102
RTVSPropertyOp10
 70
     1
102
RTVSPropertyOp11
 70
     1
102
RTVSPropertyOp12
 70
     1
102
RTVSPropertyOp13
 70
     1
102
RTVSPropertyOp14
 70
     1
102
RTVSPropertyOp15
 70
     1
102
RTVSPropertyOp16
 70
     1
102
RTVSPropertyOp17
 70
     1
102
RTVSPropertyOp18
 70
     1
102
RTVSPropertyOp19
 70
     1
102
RTVSPropertyOp20
 70
     1
102
RTVSPropertyOp21
 70
     1
102
RTVSPropertyOp22
 70
     1
102
RTVSPropertyOp23
 70
     1
102
RTVSPropertyOp24
 70
     1
102
RTVSPropertyOp25
 70
     1
102
RTVSPropertyOp26
 70
     1
102
RTVSPropertyOp27
 70
     1
102
RTVSPropertyOp28
 70
     1
102
RTVSPropertyOp29
 70
     1
102
RTVSPropertyOp30
 70
     1
102
RTVSPropertyOp31
 70
     1
102
RTVSPropertyOp32
 70
     1
102
RTVSPropertyOp33
 70
     1
102
RTVSPropertyOp34
 70
     1
102
RTVSPropertyOp35
 70
     1
102
RTVSPropertyOp36
 70
     1
102
RTVSPropertyOp37
 70
     1
102
RTVSPropertyOp38
 70
     1
102
RTVSPropertyOp39
 70
     1
102
RTVSPropertyOp40
 70
     1
102
RTVSPropertyOp41
 70
     1
102
RTVSPropertyOp42
 70
     1
102
RTVSPropertyOp43
 70
     1
102
RTVSPropertyOp44
 70
     1
102
RTVSPropertyOp45
 70
     1
102
RTVSPropertyOp46
 70
     1
102
RTVSPropertyOp47
 70
     1
102
RTVSPropertyOp48
 70
     1
102
RTVSPropertyOp49
 70
     1
102
RTVSPropertyOp50
 70
     1
102
RTVSPropertyOp51
 70
     0
102
RTVSPropertyOp52
 70
     0
102
RTVSPropertyOp53
 70
     1
102
RTVSPropertyOp54
 70
     1
102
RTVSPropertyOp55
 70
     1
102
RTVSPropertyOp56
 70
     1
102
RTVSPropertyOp57
 70
     1
102
RTVSPropertyOp58
 70
     1
102
RTVSPropertyOp59
 70
     1
102
RTVSPropertyOp60
 70
     1
102
RTVSPropertyOp61
 70
     1
102
RTVSPropertyOp62
 70
     1
  0
XRECORD
  5
2CCF9
102
{ACAD_REACTORS
330
2CCF8
102
}
330
2CCF8
100
AcDbXrecord
280
     1
102
RTVSPost2010Prop28
280
     0
102
RTVSPost2010PropOp28
 70
     1
102
RTVSPost2010Prop29
280
     1
102
RTVSPost2010PropOp29
 70
     1
102
RTVSPost2010Prop30
280
     1
102
RTVSPost2010PropOp30
 70
     1
102
RTVSPost2010Prop31
280
     0
102
RTVSPost2010PropOp31
 70
     1
102
RTVSPost2010Prop32
280
     0
102
RTVSPost2010PropOp32
 70
     1
102
RTVSPost2010Prop33
280
     0
102
RTVSPost2010PropOp33
 70
     1
102
RTVSPost2010Prop34
280
     0
102
RTVSPost2010PropOp34
 70
     1
102
RTVSPost2010Prop35
280
     0
102
RTVSPost2010PropOp35
 70
     1
102
RTVSPost2010Prop36
280
     0
102
RTVSPost2010PropOp36
 70
     1
102
RTVSPost2010Prop37
 90
       50
102
RTVSPost2010PropOp37
 70
     1
102
RTVSPost2010Prop38
140
0.0
102
RTVSPost2010PropOp38
 70
     1
102
RTVSPost2010Prop39
140
1.0
102
RTVSPost2010PropOp39
 70
     1
102
RTVSPost2010Prop40
 90
        0
102
RTVSPost2010PropOp40
 70
     1
102
RTVSPost2010Prop41ColorIndex
 90
       18
102
RTVSPost2010Prop41ColorRGB
 90
        0
102
RTVSPost2010PropOp41
 70
     1
102
RTVSPost2010Prop42
 90
       50
102
RTVSPost2010PropOp42
 70
     1
102
RTVSPost2010Prop43
 90
        3
102
RTVSPost2010PropOp43
 70
     1
102
RTVSPost2010Prop44ColorIndex
 90
        5
102
RTVSPost2010Prop44ColorRGB
 90
      255
102
RTVSPost2010PropOp44
 70
     1
102
RTVSPost2010Prop45
280
     0
102
RTVSPost2010PropOp45
 70
     1
102
RTVSPost2010Prop46
 90
       50
102
RTVSPost2010PropOp46
 70
     1
102
RTVSPost2010Prop47
 90
       50
102
RTVSPost2010PropOp47
 70
     1
102
RTVSPost2010Prop48
 90
       50
102
RTVSPost2010PropOp48
 70
     1
102
RTVSPost2010Prop49
280
     0
102
RTVSPost2010PropOp49
 70
     1
102
RTVSPost2010Prop50
 90
       50
102
RTVSPost2010PropOp50
 70
     1
102
RTVSPost2010Prop51ColorIndex
 90
      256
102
RTVSPost2010Prop51ColorRGB
 90
-16777216
102
RTVSPost2010PropOp51
 70
     0
102
RTVSPost2010Prop52
140
1.0
102
RTVSPost2010PropOp52
 70
     0
102
RTVSPost2010Prop53
 90
        2
102
RTVSPost2010PropOp53
 70
     1
102
RTVSPost2010Prop54
  1
strokes_ogs.tif
102
RTVSPost2010PropOp54
 70
     1
102
RTVSPost2010Prop55
280
     0
102
RTVSPost2010PropOp55
 70
     1
102
RTVSPost2010Prop56
140
1.0
102
RTVSPost2010PropOp56
 70
     1
102
RTVSPost2010Prop57
140
1.0
102
RTVSPost2010PropOp57
 70
     1
102
RTVSPropertyOp0
 70
     1
102
RTVSPropertyOp1
 70
     1
102
RTVSPropertyOp2
 70
     1
102
RTVSPropertyOp3
 70
     1
102
RTVSPropertyOp4
 70
     1
102
RTVSPropertyOp5
 70
     1
102
RTVSPropertyOp6
 70
     1
102
RTVSPropertyOp7
 70
     1
102
RTVSPropertyOp8
 70
     1
102
RTVSPropertyOp9
 70
     1
102
RTVSPropertyOp10
 70
     1
102
RTVSPropertyOp11
 70
     1
102
RTVSPropertyOp12
 70
     1
102
RTVSPropertyOp13
 70
     1
102
RTVSPropertyOp14
 70
     1
102
RTVSPropertyOp15
 70
     1
102
RTVSPropertyOp16
 70
     1
102
RTVSPropertyOp17
 70
     1
102
RTVSPropertyOp18
 70
     1
102
RTVSPropertyOp19
 70
     1
102
RTVSPropertyOp20
 70
     1
102
RTVSPropertyOp21
 70
     1
102
RTVSPropertyOp22
 70
     1
102
RTVSPropertyOp23
 70
     1
102
RTVSPropertyOp24
 70
     1
102
RTVSPropertyOp25
 70
     1
102
RTVSPropertyOp26
 70
     1
102
RTVSPropertyOp27
 70
     1
102
RTVSPropertyOp28
 70
     1
102
RTVSPropertyOp29
 70
     1
102
RTVSPropertyOp30
 70
     1
102
RTVSPropertyOp31
 70
     1
102
RTVSPropertyOp32
 70
     1
102
RTVSPropertyOp33
 70
     1
102
RTVSPropertyOp34
 70
     1
102
RTVSPropertyOp35
 70
     1
102
RTVSPropertyOp36
 70
     1
102
RTVSPropertyOp37
 70
     1
102
RTVSPropertyOp38
 70
     1
102
RTVSPropertyOp39
 70
     1
102
RTVSPropertyOp40
 70
     1
102
RTVSPropertyOp41
 70
     1
102
RTVSPropertyOp42
 70
     1
102
RTVSPropertyOp43
 70
     1
102
RTVSPropertyOp44
 70
     1
102
RTVSPropertyOp45
 70
     1
102
RTVSPropertyOp46
 70
     1
102
RTVSPropertyOp47
 70
     1
102
RTVSPropertyOp48
 70
     1
102
RTVSPropertyOp49
 70
     1
102
RTVSPropertyOp50
 70
     1
102
RTVSPropertyOp51
 70
     0
102
RTVSPropertyOp52
 70
     0
102
RTVSPropertyOp53
 70
     1
102
RTVSPropertyOp54
 70
     1
102
RTVSPropertyOp55
 70
     1
102
RTVSPropertyOp56
 70
     1
102
RTVSPropertyOp57
 70
     1
102
RTVSPropertyOp58
 70
     1
102
RTVSPropertyOp59
 70
     1
102
RTVSPropertyOp60
 70
     1
102
RTVSPropertyOp61
 70
     1
102
RTVSPropertyOp62
 70
     1
  0
XRECORD
  5
2CCFB
102
{ACAD_REACTORS
330
2CCFA
102
}
330
2CCFA
100
AcDbXrecord
280
     1
102
RTVSPost2010Prop28
280
     0
102
RTVSPost2010PropOp28
 70
     1
102
RTVSPost2010Prop29
280
     1
102
RTVSPost2010PropOp29
 70
     1
102
RTVSPost2010Prop30
280
     1
102
RTVSPost2010PropOp30
 70
     1
102
RTVSPost2010Prop31
280
     0
102
RTVSPost2010PropOp31
 70
     1
102
RTVSPost2010Prop32
280
     0
102
RTVSPost2010PropOp32
 70
     1
102
RTVSPost2010Prop33
280
     0
102
RTVSPost2010PropOp33
 70
     1
102
RTVSPost2010Prop34
280
     0
102
RTVSPost2010PropOp34
 70
     1
102
RTVSPost2010Prop35
280
     0
102
RTVSPost2010PropOp35
 70
     1
102
RTVSPost2010Prop36
280
     0
102
RTVSPost2010PropOp36
 70
     1
102
RTVSPost2010Prop37
 90
       50
102
RTVSPost2010PropOp37
 70
     1
102
RTVSPost2010Prop38
140
0.0
102
RTVSPost2010PropOp38
 70
     1
102
RTVSPost2010Prop39
140
1.0
102
RTVSPost2010PropOp39
 70
     1
102
RTVSPost2010Prop40
 90
        0
102
RTVSPost2010PropOp40
 70
     1
102
RTVSPost2010Prop41ColorIndex
 90
       18
102
RTVSPost2010Prop41ColorRGB
 90
        0
102
RTVSPost2010PropOp41
 70
     1
102
RTVSPost2010Prop42
 90
       50
102
RTVSPost2010PropOp42
 70
     1
102
RTVSPost2010Prop43
 90
        3
102
RTVSPost2010PropOp43
 70
     1
102
RTVSPost2010Prop44ColorIndex
 90
        5
102
RTVSPost2010Prop44ColorRGB
 90
      255
102
RTVSPost2010PropOp44
 70
     1
102
RTVSPost2010Prop45
280
     0
102
RTVSPost2010PropOp45
 70
     1
102
RTVSPost2010Prop46
 90
       50
102
RTVSPost2010PropOp46
 70
     1
102
RTVSPost2010Prop47
 90
       50
102
RTVSPost2010PropOp47
 70
     1
102
RTVSPost2010Prop48
 90
       50
102
RTVSPost2010PropOp48
 70
     1
102
RTVSPost2010Prop49
280
     0
102
RTVSPost2010PropOp49
 70
     1
102
RTVSPost2010Prop50
 90
       50
102
RTVSPost2010PropOp50
 70
     1
102
RTVSPost2010Prop51ColorIndex
 90
      256
102
RTVSPost2010Prop51ColorRGB
 90
-16777216
102
RTVSPost2010PropOp51
 70
     0
102
RTVSPost2010Prop52
140
1.0
102
RTVSPost2010PropOp52
 70
     0
102
RTVSPost2010Prop53
 90
        2
102
RTVSPost2010PropOp53
 70
     1
102
RTVSPost2010Prop54
  1
strokes_ogs.tif
102
RTVSPost2010PropOp54
 70
     1
102
RTVSPost2010Prop55
280
     0
102
RTVSPost2010PropOp55
 70
     1
102
RTVSPost2010Prop56
140
1.0
102
RTVSPost2010PropOp56
 70
     1
102
RTVSPost2010Prop57
140
1.0
102
RTVSPost2010PropOp57
 70
     1
102
RTVSPropertyOp0
 70
     1
102
RTVSPropertyOp1
 70
     1
102
RTVSPropertyOp2
 70
     1
102
RTVSPropertyOp3
 70
     1
102
RTVSPropertyOp4
 70
     1
102
RTVSPropertyOp5
 70
     1
102
RTVSPropertyOp6
 70
     1
102
RTVSPropertyOp7
 70
     1
102
RTVSPropertyOp8
 70
     1
102
RTVSPropertyOp9
 70
     1
102
RTVSPropertyOp10
 70
     1
102
RTVSPropertyOp11
 70
     1
102
RTVSPropertyOp12
 70
     1
102
RTVSPropertyOp13
 70
     1
102
RTVSPropertyOp14
 70
     1
102
RTVSPropertyOp15
 70
     1
102
RTVSPropertyOp16
 70
     1
102
RTVSPropertyOp17
 70
     1
102
RTVSPropertyOp18
 70
     1
102
RTVSPropertyOp19
 70
     1
102
RTVSPropertyOp20
 70
     1
102
RTVSPropertyOp21
 70
     1
102
RTVSPropertyOp22
 70
     1
102
RTVSPropertyOp23
 70
     1
102
RTVSPropertyOp24
 70
     1
102
RTVSPropertyOp25
 70
     1
102
RTVSPropertyOp26
 70
     1
102
RTVSPropertyOp27
 70
     1
102
RTVSPropertyOp28
 70
     1
102
RTVSPropertyOp29
 70
     1
102
RTVSPropertyOp30
 70
     1
102
RTVSPropertyOp31
 70
     1
102
RTVSPropertyOp32
 70
     1
102
RTVSPropertyOp33
 70
     1
102
RTVSPropertyOp34
 70
     1
102
RTVSPropertyOp35
 70
     1
102
RTVSPropertyOp36
 70
     1
102
RTVSPropertyOp37
 70
     1
102
RTVSPropertyOp38
 70
     1
102
RTVSPropertyOp39
 70
     1
102
RTVSPropertyOp40
 70
     1
102
RTVSPropertyOp41
 70
     1
102
RTVSPropertyOp42
 70
     1
102
RTVSPropertyOp43
 70
     1
102
RTVSPropertyOp44
 70
     1
102
RTVSPropertyOp45
 70
     1
102
RTVSPropertyOp46
 70
     1
102
RTVSPropertyOp47
 70
     1
102
RTVSPropertyOp48
 70
     1
102
RTVSPropertyOp49
 70
     1
102
RTVSPropertyOp50
 70
     1
102
RTVSPropertyOp51
 70
     0
102
RTVSPropertyOp52
 70
     0
102
RTVSPropertyOp53
 70
     1
102
RTVSPropertyOp54
 70
     1
102
RTVSPropertyOp55
 70
     1
102
RTVSPropertyOp56
 70
     1
102
RTVSPropertyOp57
 70
     1
102
RTVSPropertyOp58
 70
     1
102
RTVSPropertyOp59
 70
     1
102
RTVSPropertyOp60
 70
     1
102
RTVSPropertyOp61
 70
     1
102
RTVSPropertyOp62
 70
     1
  0
XRECORD
  5
2CCFD
102
{ACAD_REACTORS
330
2CCFC
102
}
330
2CCFC
100
AcDbXrecord
280
     1
102
RTVSPost2010Prop28
280
     0
102
RTVSPost2010PropOp28
 70
     1
102
RTVSPost2010Prop29
280
     1
102
RTVSPost2010PropOp29
 70
     1
102
RTVSPost2010Prop30
280
     1
102
RTVSPost2010PropOp30
 70
     1
102
RTVSPost2010Prop31
280
     0
102
RTVSPost2010PropOp31
 70
     1
102
RTVSPost2010Prop32
280
     0
102
RTVSPost2010PropOp32
 70
     1
102
RTVSPost2010Prop33
280
     0
102
RTVSPost2010PropOp33
 70
     1
102
RTVSPost2010Prop34
280
     0
102
RTVSPost2010PropOp34
 70
     1
102
RTVSPost2010Prop35
280
     0
102
RTVSPost2010PropOp35
 70
     1
102
RTVSPost2010Prop36
280
     0
102
RTVSPost2010PropOp36
 70
     1
102
RTVSPost2010Prop37
 90
       50
102
RTVSPost2010PropOp37
 70
     1
102
RTVSPost2010Prop38
140
0.0
102
RTVSPost2010PropOp38
 70
     1
102
RTVSPost2010Prop39
140
1.0
102
RTVSPost2010PropOp39
 70
     1
102
RTVSPost2010Prop40
 90
        0
102
RTVSPost2010PropOp40
 70
     1
102
RTVSPost2010Prop41ColorIndex
 90
       18
102
RTVSPost2010Prop41ColorRGB
 90
        0
102
RTVSPost2010PropOp41
 70
     1
102
RTVSPost2010Prop42
 90
       50
102
RTVSPost2010PropOp42
 70
     1
102
RTVSPost2010Prop43
 90
        3
102
RTVSPost2010PropOp43
 70
     1
102
RTVSPost2010Prop44ColorIndex
 90
        5
102
RTVSPost2010Prop44ColorRGB
 90
      255
102
RTVSPost2010PropOp44
 70
     1
102
RTVSPost2010Prop45
280
     0
102
RTVSPost2010PropOp45
 70
     1
102
RTVSPost2010Prop46
 90
       50
102
RTVSPost2010PropOp46
 70
     1
102
RTVSPost2010Prop47
 90
       50
102
RTVSPost2010PropOp47
 70
     1
102
RTVSPost2010Prop48
 90
       50
102
RTVSPost2010PropOp48
 70
     1
102
RTVSPost2010Prop49
280
     0
102
RTVSPost2010PropOp49
 70
     1
102
RTVSPost2010Prop50
 90
       50
102
RTVSPost2010PropOp50
 70
     1
102
RTVSPost2010Prop51ColorIndex
 90
      256
102
RTVSPost2010Prop51ColorRGB
 90
-16777216
102
RTVSPost2010PropOp51
 70
     0
102
RTVSPost2010Prop52
140
1.0
102
RTVSPost2010PropOp52
 70
     0
102
RTVSPost2010Prop53
 90
        2
102
RTVSPost2010PropOp53
 70
     1
102
RTVSPost2010Prop54
  1
strokes_ogs.tif
102
RTVSPost2010PropOp54
 70
     1
102
RTVSPost2010Prop55
280
     0
102
RTVSPost2010PropOp55
 70
     1
102
RTVSPost2010Prop56
140
1.0
102
RTVSPost2010PropOp56
 70
     1
102
RTVSPost2010Prop57
140
1.0
102
RTVSPost2010PropOp57
 70
     1
102
RTVSPropertyOp0
 70
     1
102
RTVSPropertyOp1
 70
     1
102
RTVSPropertyOp2
 70
     1
102
RTVSPropertyOp3
 70
     1
102
RTVSPropertyOp4
 70
     1
102
RTVSPropertyOp5
 70
     1
102
RTVSPropertyOp6
 70
     1
102
RTVSPropertyOp7
 70
     1
102
RTVSPropertyOp8
 70
     1
102
RTVSPropertyOp9
 70
     1
102
RTVSPropertyOp10
 70
     1
102
RTVSPropertyOp11
 70
     1
102
RTVSPropertyOp12
 70
     1
102
RTVSPropertyOp13
 70
     1
102
RTVSPropertyOp14
 70
     1
102
RTVSPropertyOp15
 70
     1
102
RTVSPropertyOp16
 70
     1
102
RTVSPropertyOp17
 70
     1
102
RTVSPropertyOp18
 70
     1
102
RTVSPropertyOp19
 70
     1
102
RTVSPropertyOp20
 70
     1
102
RTVSPropertyOp21
 70
     1
102
RTVSPropertyOp22
 70
     1
102
RTVSPropertyOp23
 70
     1
102
RTVSPropertyOp24
 70
     1
102
RTVSPropertyOp25
 70
     1
102
RTVSPropertyOp26
 70
     1
102
RTVSPropertyOp27
 70
     1
102
RTVSPropertyOp28
 70
     1
102
RTVSPropertyOp29
 70
     1
102
RTVSPropertyOp30
 70
     1
102
RTVSPropertyOp31
 70
     1
102
RTVSPropertyOp32
 70
     1
102
RTVSPropertyOp33
 70
     1
102
RTVSPropertyOp34
 70
     1
102
RTVSPropertyOp35
 70
     1
102
RTVSPropertyOp36
 70
     1
102
RTVSPropertyOp37
 70
     1
102
RTVSPropertyOp38
 70
     1
102
RTVSPropertyOp39
 70
     1
102
RTVSPropertyOp40
 70
     1
102
RTVSPropertyOp41
 70
     1
102
RTVSPropertyOp42
 70
     1
102
RTVSPropertyOp43
 70
     1
102
RTVSPropertyOp44
 70
     1
102
RTVSPropertyOp45
 70
     1
102
RTVSPropertyOp46
 70
     1
102
RTVSPropertyOp47
 70
     1
102
RTVSPropertyOp48
 70
     1
102
RTVSPropertyOp49
 70
     1
102
RTVSPropertyOp50
 70
     1
102
RTVSPropertyOp51
 70
     0
102
RTVSPropertyOp52
 70
     0
102
RTVSPropertyOp53
 70
     1
102
RTVSPropertyOp54
 70
     1
102
RTVSPropertyOp55
 70
     1
102
RTVSPropertyOp56
 70
     1
102
RTVSPropertyOp57
 70
     1
102
RTVSPropertyOp58
 70
     1
102
RTVSPropertyOp59
 70
     1
102
RTVSPropertyOp60
 70
     1
102
RTVSPropertyOp61
 70
     1
102
RTVSPropertyOp62
 70
     1
  0
XRECORD
  5
2CCFF
102
{ACAD_REACTORS
330
2CCFE
102
}
330
2CCFE
100
AcDbXrecord
280
     1
102
RTVSPost2010Prop28
280
     0
102
RTVSPost2010PropOp28
 70
     1
102
RTVSPost2010Prop29
280
     1
102
RTVSPost2010PropOp29
 70
     1
102
RTVSPost2010Prop30
280
     1
102
RTVSPost2010PropOp30
 70
     1
102
RTVSPost2010Prop31
280
     0
102
RTVSPost2010PropOp31
 70
     1
102
RTVSPost2010Prop32
280
     0
102
RTVSPost2010PropOp32
 70
     1
102
RTVSPost2010Prop33
280
     0
102
RTVSPost2010PropOp33
 70
     1
102
RTVSPost2010Prop34
280
     0
102
RTVSPost2010PropOp34
 70
     1
102
RTVSPost2010Prop35
280
     0
102
RTVSPost2010PropOp35
 70
     1
102
RTVSPost2010Prop36
280
     0
102
RTVSPost2010PropOp36
 70
     1
102
RTVSPost2010Prop37
 90
       50
102
RTVSPost2010PropOp37
 70
     1
102
RTVSPost2010Prop38
140
0.0
102
RTVSPost2010PropOp38
 70
     1
102
RTVSPost2010Prop39
140
1.0
102
RTVSPost2010PropOp39
 70
     1
102
RTVSPost2010Prop40
 90
        0
102
RTVSPost2010PropOp40
 70
     1
102
RTVSPost2010Prop41ColorIndex
 90
       18
102
RTVSPost2010Prop41ColorRGB
 90
        0
102
RTVSPost2010PropOp41
 70
     1
102
RTVSPost2010Prop42
 90
       50
102
RTVSPost2010PropOp42
 70
     1
102
RTVSPost2010Prop43
 90
        3
102
RTVSPost2010PropOp43
 70
     1
102
RTVSPost2010Prop44ColorIndex
 90
        5
102
RTVSPost2010Prop44ColorRGB
 90
      255
102
RTVSPost2010PropOp44
 70
     1
102
RTVSPost2010Prop45
280
     0
102
RTVSPost2010PropOp45
 70
     1
102
RTVSPost2010Prop46
 90
       50
102
RTVSPost2010PropOp46
 70
     1
102
RTVSPost2010Prop47
 90
       50
102
RTVSPost2010PropOp47
 70
     1
102
RTVSPost2010Prop48
 90
       50
102
RTVSPost2010PropOp48
 70
     1
102
RTVSPost2010Prop49
280
     0
102
RTVSPost2010PropOp49
 70
     1
102
RTVSPost2010Prop50
 90
       50
102
RTVSPost2010PropOp50
 70
     1
102
RTVSPost2010Prop51ColorIndex
 90
      256
102
RTVSPost2010Prop51ColorRGB
 90
-16777216
102
RTVSPost2010PropOp51
 70
     0
102
RTVSPost2010Prop52
140
1.0
102
RTVSPost2010PropOp52
 70
     0
102
RTVSPost2010Prop53
 90
        2
102
RTVSPost2010PropOp53
 70
     1
102
RTVSPost2010Prop54
  1
strokes_ogs.tif
102
RTVSPost2010PropOp54
 70
     1
102
RTVSPost2010Prop55
280
     0
102
RTVSPost2010PropOp55
 70
     1
102
RTVSPost2010Prop56
140
1.0
102
RTVSPost2010PropOp56
 70
     1
102
RTVSPost2010Prop57
140
1.0
102
RTVSPost2010PropOp57
 70
     1
102
RTVSPropertyOp0
 70
     1
102
RTVSPropertyOp1
 70
     1
102
RTVSPropertyOp2
 70
     1
102
RTVSPropertyOp3
 70
     1
102
RTVSPropertyOp4
 70
     1
102
RTVSPropertyOp5
 70
     1
102
RTVSPropertyOp6
 70
     1
102
RTVSPropertyOp7
 70
     1
102
RTVSPropertyOp8
 70
     1
102
RTVSPropertyOp9
 70
     1
102
RTVSPropertyOp10
 70
     1
102
RTVSPropertyOp11
 70
     1
102
RTVSPropertyOp12
 70
     1
102
RTVSPropertyOp13
 70
     1
102
RTVSPropertyOp14
 70
     1
102
RTVSPropertyOp15
 70
     1
102
RTVSPropertyOp16
 70
     1
102
RTVSPropertyOp17
 70
     1
102
RTVSPropertyOp18
 70
     1
102
RTVSPropertyOp19
 70
     1
102
RTVSPropertyOp20
 70
     1
102
RTVSPropertyOp21
 70
     1
102
RTVSPropertyOp22
 70
     1
102
RTVSPropertyOp23
 70
     1
102
RTVSPropertyOp24
 70
     1
102
RTVSPropertyOp25
 70
     1
102
RTVSPropertyOp26
 70
     1
102
RTVSPropertyOp27
 70
     1
102
RTVSPropertyOp28
 70
     1
102
RTVSPropertyOp29
 70
     1
102
RTVSPropertyOp30
 70
     1
102
RTVSPropertyOp31
 70
     1
102
RTVSPropertyOp32
 70
     1
102
RTVSPropertyOp33
 70
     1
102
RTVSPropertyOp34
 70
     1
102
RTVSPropertyOp35
 70
     1
102
RTVSPropertyOp36
 70
     1
102
RTVSPropertyOp37
 70
     1
102
RTVSPropertyOp38
 70
     1
102
RTVSPropertyOp39
 70
     1
102
RTVSPropertyOp40
 70
     1
102
RTVSPropertyOp41
 70
     1
102
RTVSPropertyOp42
 70
     1
102
RTVSPropertyOp43
 70
     1
102
RTVSPropertyOp44
 70
     1
102
RTVSPropertyOp45
 70
     1
102
RTVSPropertyOp46
 70
     1
102
RTVSPropertyOp47
 70
     1
102
RTVSPropertyOp48
 70
     1
102
RTVSPropertyOp49
 70
     1
102
RTVSPropertyOp50
 70
     1
102
RTVSPropertyOp51
 70
     0
102
RTVSPropertyOp52
 70
     0
102
RTVSPropertyOp53
 70
     1
102
RTVSPropertyOp54
 70
     1
102
RTVSPropertyOp55
 70
     1
102
RTVSPropertyOp56
 70
     1
102
RTVSPropertyOp57
 70
     1
102
RTVSPropertyOp58
 70
     1
102
RTVSPropertyOp59
 70
     1
102
RTVSPropertyOp60
 70
     1
102
RTVSPropertyOp61
 70
     1
102
RTVSPropertyOp62
 70
     1
  0
XRECORD
  5
2CD05
102
{ACAD_REACTORS
330
2CD04
102
}
330
2CD04
100
AcDbXrecord
280
     1
102
RTVSPost2010Prop28
280
     0
102
RTVSPost2010PropOp28
 70
     1
102
RTVSPost2010Prop29
280
     1
102
RTVSPost2010PropOp29
 70
     1
102
RTVSPost2010Prop30
280
     1
102
RTVSPost2010PropOp30
 70
     1
102
RTVSPost2010Prop31
280
     0
102
RTVSPost2010PropOp31
 70
     1
102
RTVSPost2010Prop32
280
     0
102
RTVSPost2010PropOp32
 70
     1
102
RTVSPost2010Prop33
280
     0
102
RTVSPost2010PropOp33
 70
     1
102
RTVSPost2010Prop34
280
     0
102
RTVSPost2010PropOp34
 70
     1
102
RTVSPost2010Prop35
280
     0
102
RTVSPost2010PropOp35
 70
     1
102
RTVSPost2010Prop36
280
     0
102
RTVSPost2010PropOp36
 70
     1
102
RTVSPost2010Prop37
 90
       50
102
RTVSPost2010PropOp37
 70
     1
102
RTVSPost2010Prop38
140
0.0
102
RTVSPost2010PropOp38
 70
     1
102
RTVSPost2010Prop39
140
1.0
102
RTVSPost2010PropOp39
 70
     1
102
RTVSPost2010Prop40
 90
        0
102
RTVSPost2010PropOp40
 70
     1
102
RTVSPost2010Prop41ColorIndex
 90
       18
102
RTVSPost2010Prop41ColorRGB
 90
        0
102
RTVSPost2010PropOp41
 70
     1
102
RTVSPost2010Prop42
 90
       50
102
RTVSPost2010PropOp42
 70
     1
102
RTVSPost2010Prop43
 90
        3
102
RTVSPost2010PropOp43
 70
     1
102
RTVSPost2010Prop44ColorIndex
 90
        5
102
RTVSPost2010Prop44ColorRGB
 90
      255
102
RTVSPost2010PropOp44
 70
     1
102
RTVSPost2010Prop45
280
     0
102
RTVSPost2010PropOp45
 70
     1
102
RTVSPost2010Prop46
 90
       50
102
RTVSPost2010PropOp46
 70
     1
102
RTVSPost2010Prop47
 90
       50
102
RTVSPost2010PropOp47
 70
     1
102
RTVSPost2010Prop48
 90
       50
102
RTVSPost2010PropOp48
 70
     1
102
RTVSPost2010Prop49
280
     0
102
RTVSPost2010PropOp49
 70
     1
102
RTVSPost2010Prop50
 90
       50
102
RTVSPost2010PropOp50
 70
     1
102
RTVSPost2010Prop51ColorIndex
 90
      256
102
RTVSPost2010Prop51ColorRGB
 90
-16777216
102
RTVSPost2010PropOp51
 70
     0
102
RTVSPost2010Prop52
140
1.0
102
RTVSPost2010PropOp52
 70
     0
102
RTVSPost2010Prop53
 90
        2
102
RTVSPost2010PropOp53
 70
     1
102
RTVSPost2010Prop54
  1
strokes_ogs.tif
102
RTVSPost2010PropOp54
 70
     1
102
RTVSPost2010Prop55
280
     0
102
RTVSPost2010PropOp55
 70
     1
102
RTVSPost2010Prop56
140
1.0
102
RTVSPost2010PropOp56
 70
     1
102
RTVSPost2010Prop57
140
1.0
102
RTVSPost2010PropOp57
 70
     1
102
RTVSPropertyOp0
 70
     1
102
RTVSPropertyOp1
 70
     1
102
RTVSPropertyOp2
 70
     1
102
RTVSPropertyOp3
 70
     1
102
RTVSPropertyOp4
 70
     1
102
RTVSPropertyOp5
 70
     1
102
RTVSPropertyOp6
 70
     1
102
RTVSPropertyOp7
 70
     1
102
RTVSPropertyOp8
 70
     1
102
RTVSPropertyOp9
 70
     1
102
RTVSPropertyOp10
 70
     1
102
RTVSPropertyOp11
 70
     1
102
RTVSPropertyOp12
 70
     1
102
RTVSPropertyOp13
 70
     1
102
RTVSPropertyOp14
 70
     1
102
RTVSPropertyOp15
 70
     1
102
RTVSPropertyOp16
 70
     1
102
RTVSPropertyOp17
 70
     1
102
RTVSPropertyOp18
 70
     1
102
RTVSPropertyOp19
 70
     1
102
RTVSPropertyOp20
 70
     1
102
RTVSPropertyOp21
 70
     1
102
RTVSPropertyOp22
 70
     1
102
RTVSPropertyOp23
 70
     1
102
RTVSPropertyOp24
 70
     1
102
RTVSPropertyOp25
 70
     1
102
RTVSPropertyOp26
 70
     1
102
RTVSPropertyOp27
 70
     1
102
RTVSPropertyOp28
 70
     1
102
RTVSPropertyOp29
 70
     1
102
RTVSPropertyOp30
 70
     1
102
RTVSPropertyOp31
 70
     1
102
RTVSPropertyOp32
 70
     1
102
RTVSPropertyOp33
 70
     1
102
RTVSPropertyOp34
 70
     1
102
RTVSPropertyOp35
 70
     1
102
RTVSPropertyOp36
 70
     1
102
RTVSPropertyOp37
 70
     1
102
RTVSPropertyOp38
 70
     1
102
RTVSPropertyOp39
 70
     1
102
RTVSPropertyOp40
 70
     1
102
RTVSPropertyOp41
 70
     1
102
RTVSPropertyOp42
 70
     1
102
RTVSPropertyOp43
 70
     1
102
RTVSPropertyOp44
 70
     1
102
RTVSPropertyOp45
 70
     1
102
RTVSPropertyOp46
 70
     1
102
RTVSPropertyOp47
 70
     1
102
RTVSPropertyOp48
 70
     1
102
RTVSPropertyOp49
 70
     1
102
RTVSPropertyOp50
 70
     1
102
RTVSPropertyOp51
 70
     0
102
RTVSPropertyOp52
 70
     0
102
RTVSPropertyOp53
 70
     1
102
RTVSPropertyOp54
 70
     1
102
RTVSPropertyOp55
 70
     1
102
RTVSPropertyOp56
 70
     1
102
RTVSPropertyOp57
 70
     1
102
RTVSPropertyOp58
 70
     1
102
RTVSPropertyOp59
 70
     1
102
RTVSPropertyOp60
 70
     1
102
RTVSPropertyOp61
 70
     1
102
RTVSPropertyOp62
 70
     1
  0
XRECORD
  5
2CD19
102
{ACAD_REACTORS
330
2CD18
102
}
330
2CD18
100
AcDbXrecord
280
     1
102
RTVSPost2010Prop28
280
     0
102
RTVSPost2010PropOp28
 70
     0
102
RTVSPost2010Prop29
280
     1
102
RTVSPost2010PropOp29
 70
     0
102
RTVSPost2010Prop30
280
     1
102
RTVSPost2010PropOp30
 70
     0
102
RTVSPost2010Prop31
280
     0
102
RTVSPost2010PropOp31
 70
     0
102
RTVSPost2010Prop32
280
     0
102
RTVSPost2010PropOp32
 70
     0
102
RTVSPost2010Prop33
280
     0
102
RTVSPost2010PropOp33
 70
     0
102
RTVSPost2010Prop34
280
     0
102
RTVSPost2010PropOp34
 70
     0
102
RTVSPost2010Prop35
280
     0
102
RTVSPost2010PropOp35
 70
     0
102
RTVSPost2010Prop36
280
     0
102
RTVSPost2010PropOp36
 70
     0
102
RTVSPost2010Prop37
 90
       50
102
RTVSPost2010PropOp37
 70
     0
102
RTVSPost2010Prop38
140
0.0
102
RTVSPost2010PropOp38
 70
     0
102
RTVSPost2010Prop39
140
1.0
102
RTVSPost2010PropOp39
 70
     0
102
RTVSPost2010Prop40
 90
        0
102
RTVSPost2010PropOp40
 70
     0
102
RTVSPost2010Prop41ColorIndex
 90
       18
102
RTVSPost2010Prop41ColorRGB
 90
        0
102
RTVSPost2010PropOp41
 70
     0
102
RTVSPost2010Prop42
 90
       50
102
RTVSPost2010PropOp42
 70
     0
102
RTVSPost2010Prop43
 90
        3
102
RTVSPost2010PropOp43
 70
     0
102
RTVSPost2010Prop44ColorIndex
 90
        5
102
RTVSPost2010Prop44ColorRGB
 90
      255
102
RTVSPost2010PropOp44
 70
     0
102
RTVSPost2010Prop45
280
     0
102
RTVSPost2010PropOp45
 70
     0
102
RTVSPost2010Prop46
 90
       50
102
RTVSPost2010PropOp46
 70
     0
102
RTVSPost2010Prop47
 90
       50
102
RTVSPost2010PropOp47
 70
     0
102
RTVSPost2010Prop48
 90
       50
102
RTVSPost2010PropOp48
 70
     0
102
RTVSPost2010Prop49
280
     0
102
RTVSPost2010PropOp49
 70
     0
102
RTVSPost2010Prop50
 90
       50
102
RTVSPost2010PropOp50
 70
     0
102
RTVSPost2010Prop51ColorIndex
 90
      256
102
RTVSPost2010Prop51ColorRGB
 90
-16777216
102
RTVSPost2010PropOp51
 70
     0
102
RTVSPost2010Prop52
140
1.0
102
RTVSPost2010PropOp52
 70
     0
102
RTVSPost2010Prop53
 90
        2
102
RTVSPost2010PropOp53
 70
     0
102
RTVSPost2010Prop54
  1
strokes_ogs.tif
102
RTVSPost2010PropOp54
 70
     0
102
RTVSPost2010Prop55
280
     0
102
RTVSPost2010PropOp55
 70
     0
102
RTVSPost2010Prop56
140
1.0
102
RTVSPost2010PropOp56
 70
     0
102
RTVSPost2010Prop57
140
1.0
102
RTVSPost2010PropOp57
 70
     0
102
RTVSPropertyOp0
 70
     0
102
RTVSPropertyOp1
 70
     0
102
RTVSPropertyOp2
 70
     0
102
RTVSPropertyOp3
 70
     0
102
RTVSPropertyOp4
 70
     0
102
RTVSPropertyOp5
 70
     0
102
RTVSPropertyOp6
 70
     0
102
RTVSPropertyOp7
 70
     0
102
RTVSPropertyOp8
 70
     0
102
RTVSPropertyOp9
 70
     0
102
RTVSPropertyOp10
 70
     0
102
RTVSPropertyOp11
 70
     0
102
RTVSPropertyOp12
 70
     0
102
RTVSPropertyOp13
 70
     0
102
RTVSPropertyOp14
 70
     2
102
RTVSPropertyOp15
 70
     0
102
RTVSPropertyOp16
 70
     0
102
RTVSPropertyOp17
 70
     0
102
RTVSPropertyOp18
 70
     0
102
RTVSPropertyOp19
 70
     0
102
RTVSPropertyOp20
 70
     0
102
RTVSPropertyOp21
 70
     0
102
RTVSPropertyOp22
 70
     0
102
RTVSPropertyOp23
 70
     0
102
RTVSPropertyOp24
 70
     0
102
RTVSPropertyOp25
 70
     0
102
RTVSPropertyOp26
 70
     0
102
RTVSPropertyOp27
 70
     0
102
RTVSPropertyOp28
 70
     0
102
RTVSPropertyOp29
 70
     0
102
RTVSPropertyOp30
 70
     0
102
RTVSPropertyOp31
 70
     0
102
RTVSPropertyOp32
 70
     0
102
RTVSPropertyOp33
 70
     0
102
RTVSPropertyOp34
 70
     0
102
RTVSPropertyOp35
 70
     0
102
RTVSPropertyOp36
 70
     0
102
RTVSPropertyOp37
 70
     0
102
RTVSPropertyOp38
 70
     0
102
RTVSPropertyOp39
 70
     0
102
RTVSPropertyOp40
 70
     0
102
RTVSPropertyOp41
 70
     0
102
RTVSPropertyOp42
 70
     0
102
RTVSPropertyOp43
 70
     0
102
RTVSPropertyOp44
 70
     0
102
RTVSPropertyOp45
 70
     0
102
RTVSPropertyOp46
 70
     0
102
RTVSPropertyOp47
 70
     0
102
RTVSPropertyOp48
 70
     0
102
RTVSPropertyOp49
 70
     0
102
RTVSPropertyOp50
 70
     0
102
RTVSPropertyOp51
 70
     0
102
RTVSPropertyOp52
 70
     0
102
RTVSPropertyOp53
 70
     0
102
RTVSPropertyOp54
 70
     0
102
RTVSPropertyOp55
 70
     0
102
RTVSPropertyOp56
 70
     0
102
RTVSPropertyOp57
 70
     0
102
RTVSPropertyOp58
 70
     1
102
RTVSPropertyOp59
 70
     1
102
RTVSPropertyOp60
 70
     1
102
RTVSPropertyOp61
 70
     1
102
RTVSPropertyOp62
 70
     1
  0
XRECORD
  5
2CD13
102
{ACAD_REACTORS
330
2CD12
102
}
330
2CD12
100
AcDbXrecord
280
     1
102
RTVSPost2010Prop28
280
     0
102
RTVSPost2010PropOp28
 70
     1
102
RTVSPost2010Prop29
280
     1
102
RTVSPost2010PropOp29
 70
     1
102
RTVSPost2010Prop30
280
     1
102
RTVSPost2010PropOp30
 70
     1
102
RTVSPost2010Prop31
280
     0
102
RTVSPost2010PropOp31
 70
     1
102
RTVSPost2010Prop32
280
     0
102
RTVSPost2010PropOp32
 70
     1
102
RTVSPost2010Prop33
280
     0
102
RTVSPost2010PropOp33
 70
     1
102
RTVSPost2010Prop34
280
     0
102
RTVSPost2010PropOp34
 70
     1
102
RTVSPost2010Prop35
280
     0
102
RTVSPost2010PropOp35
 70
     1
102
RTVSPost2010Prop36
280
     0
102
RTVSPost2010PropOp36
 70
     1
102
RTVSPost2010Prop37
 90
       50
102
RTVSPost2010PropOp37
 70
     1
102
RTVSPost2010Prop38
140
0.0
102
RTVSPost2010PropOp38
 70
     1
102
RTVSPost2010Prop39
140
1.0
102
RTVSPost2010PropOp39
 70
     1
102
RTVSPost2010Prop40
 90
        0
102
RTVSPost2010PropOp40
 70
     1
102
RTVSPost2010Prop41ColorIndex
 90
       18
102
RTVSPost2010Prop41ColorRGB
 90
        0
102
RTVSPost2010PropOp41
 70
     1
102
RTVSPost2010Prop42
 90
       50
102
RTVSPost2010PropOp42
 70
     1
102
RTVSPost2010Prop43
 90
        3
102
RTVSPost2010PropOp43
 70
     1
102
RTVSPost2010Prop44ColorIndex
 90
        5
102
RTVSPost2010Prop44ColorRGB
 90
      255
102
RTVSPost2010PropOp44
 70
     1
102
RTVSPost2010Prop45
280
     0
102
RTVSPost2010PropOp45
 70
     1
102
RTVSPost2010Prop46
 90
       50
102
RTVSPost2010PropOp46
 70
     1
102
RTVSPost2010Prop47
 90
       50
102
RTVSPost2010PropOp47
 70
     1
102
RTVSPost2010Prop48
 90
       50
102
RTVSPost2010PropOp48
 70
     1
102
RTVSPost2010Prop49
280
     0
102
RTVSPost2010PropOp49
 70
     1
102
RTVSPost2010Prop50
 90
       50
102
RTVSPost2010PropOp50
 70
     1
102
RTVSPost2010Prop51ColorIndex
 90
      256
102
RTVSPost2010Prop51ColorRGB
 90
-16777216
102
RTVSPost2010PropOp51
 70
     0
102
RTVSPost2010Prop52
140
1.0
102
RTVSPost2010PropOp52
 70
     0
102
RTVSPost2010Prop53
 90
        2
102
RTVSPost2010PropOp53
 70
     1
102
RTVSPost2010Prop54
  1
strokes_ogs.tif
102
RTVSPost2010PropOp54
 70
     1
102
RTVSPost2010Prop55
280
     0
102
RTVSPost2010PropOp55
 70
     1
102
RTVSPost2010Prop56
140
1.0
102
RTVSPost2010PropOp56
 70
     1
102
RTVSPost2010Prop57
140
1.0
102
RTVSPost2010PropOp57
 70
     1
102
RTVSPropertyOp0
 70
     1
102
RTVSPropertyOp1
 70
     1
102
RTVSPropertyOp2
 70
     1
102
RTVSPropertyOp3
 70
     1
102
RTVSPropertyOp4
 70
     1
102
RTVSPropertyOp5
 70
     1
102
RTVSPropertyOp6
 70
     1
102
RTVSPropertyOp7
 70
     1
102
RTVSPropertyOp8
 70
     1
102
RTVSPropertyOp9
 70
     1
102
RTVSPropertyOp10
 70
     1
102
RTVSPropertyOp11
 70
     1
102
RTVSPropertyOp12
 70
     1
102
RTVSPropertyOp13
 70
     1
102
RTVSPropertyOp14
 70
     1
102
RTVSPropertyOp15
 70
     1
102
RTVSPropertyOp16
 70
     1
102
RTVSPropertyOp17
 70
     1
102
RTVSPropertyOp18
 70
     1
102
RTVSPropertyOp19
 70
     1
102
RTVSPropertyOp20
 70
     1
102
RTVSPropertyOp21
 70
     1
102
RTVSPropertyOp22
 70
     1
102
RTVSPropertyOp23
 70
     1
102
RTVSPropertyOp24
 70
     1
102
RTVSPropertyOp25
 70
     1
102
RTVSPropertyOp26
 70
     1
102
RTVSPropertyOp27
 70
     1
102
RTVSPropertyOp28
 70
     1
102
RTVSPropertyOp29
 70
     1
102
RTVSPropertyOp30
 70
     1
102
RTVSPropertyOp31
 70
     1
102
RTVSPropertyOp32
 70
     1
102
RTVSPropertyOp33
 70
     1
102
RTVSPropertyOp34
 70
     1
102
RTVSPropertyOp35
 70
     1
102
RTVSPropertyOp36
 70
     1
102
RTVSPropertyOp37
 70
     1
102
RTVSPropertyOp38
 70
     1
102
RTVSPropertyOp39
 70
     1
102
RTVSPropertyOp40
 70
     1
102
RTVSPropertyOp41
 70
     1
102
RTVSPropertyOp42
 70
     1
102
RTVSPropertyOp43
 70
     1
102
RTVSPropertyOp44
 70
     1
102
RTVSPropertyOp45
 70
     1
102
RTVSPropertyOp46
 70
     1
102
RTVSPropertyOp47
 70
     1
102
RTVSPropertyOp48
 70
     1
102
RTVSPropertyOp49
 70
     1
102
RTVSPropertyOp50
 70
     1
102
RTVSPropertyOp51
 70
     0
102
RTVSPropertyOp52
 70
     0
102
RTVSPropertyOp53
 70
     1
102
RTVSPropertyOp54
 70
     1
102
RTVSPropertyOp55
 70
     1
102
RTVSPropertyOp56
 70
     1
102
RTVSPropertyOp57
 70
     1
102
RTVSPropertyOp58
 70
     1
102
RTVSPropertyOp59
 70
     1
102
RTVSPropertyOp60
 70
     1
102
RTVSPropertyOp61
 70
     1
102
RTVSPropertyOp62
 70
     1
  0
XRECORD
  5
2CD1B
102
{ACAD_REACTORS
330
2CD1A
102
}
330
2CD1A
100
AcDbXrecord
280
     1
102
RTVSPost2010Prop28
280
     0
102
RTVSPost2010PropOp28
 70
     0
102
RTVSPost2010Prop29
280
     1
102
RTVSPost2010PropOp29
 70
     0
102
RTVSPost2010Prop30
280
     1
102
RTVSPost2010PropOp30
 70
     0
102
RTVSPost2010Prop31
280
     0
102
RTVSPost2010PropOp31
 70
     0
102
RTVSPost2010Prop32
280
     0
102
RTVSPost2010PropOp32
 70
     0
102
RTVSPost2010Prop33
280
     0
102
RTVSPost2010PropOp33
 70
     0
102
RTVSPost2010Prop34
280
     0
102
RTVSPost2010PropOp34
 70
     0
102
RTVSPost2010Prop35
280
     0
102
RTVSPost2010PropOp35
 70
     0
102
RTVSPost2010Prop36
280
     0
102
RTVSPost2010PropOp36
 70
     0
102
RTVSPost2010Prop37
 90
       50
102
RTVSPost2010PropOp37
 70
     0
102
RTVSPost2010Prop38
140
0.0
102
RTVSPost2010PropOp38
 70
     0
102
RTVSPost2010Prop39
140
1.0
102
RTVSPost2010PropOp39
 70
     0
102
RTVSPost2010Prop40
 90
        0
102
RTVSPost2010PropOp40
 70
     0
102
RTVSPost2010Prop41ColorIndex
 90
       18
102
RTVSPost2010Prop41ColorRGB
 90
        0
102
RTVSPost2010PropOp41
 70
     0
102
RTVSPost2010Prop42
 90
       50
102
RTVSPost2010PropOp42
 70
     0
102
RTVSPost2010Prop43
 90
        3
102
RTVSPost2010PropOp43
 70
     0
102
RTVSPost2010Prop44ColorIndex
 90
        5
102
RTVSPost2010Prop44ColorRGB
 90
      255
102
RTVSPost2010PropOp44
 70
     0
102
RTVSPost2010Prop45
280
     0
102
RTVSPost2010PropOp45
 70
     0
102
RTVSPost2010Prop46
 90
       50
102
RTVSPost2010PropOp46
 70
     0
102
RTVSPost2010Prop47
 90
       50
102
RTVSPost2010PropOp47
 70
     0
102
RTVSPost2010Prop48
 90
       50
102
RTVSPost2010PropOp48
 70
     0
102
RTVSPost2010Prop49
280
     0
102
RTVSPost2010PropOp49
 70
     0
102
RTVSPost2010Prop50
 90
       50
102
RTVSPost2010PropOp50
 70
     0
102
RTVSPost2010Prop51ColorIndex
 90
      256
102
RTVSPost2010Prop51ColorRGB
 90
-16777216
102
RTVSPost2010PropOp51
 70
     0
102
RTVSPost2010Prop52
140
1.0
102
RTVSPost2010PropOp52
 70
     0
102
RTVSPost2010Prop53
 90
        2
102
RTVSPost2010PropOp53
 70
     0
102
RTVSPost2010Prop54
  1
strokes_ogs.tif
102
RTVSPost2010PropOp54
 70
     0
102
RTVSPost2010Prop55
280
     0
102
RTVSPost2010PropOp55
 70
     0
102
RTVSPost2010Prop56
140
1.0
102
RTVSPost2010PropOp56
 70
     0
102
RTVSPost2010Prop57
140
1.0
102
RTVSPost2010PropOp57
 70
     0
102
RTVSPropertyOp0
 70
     0
102
RTVSPropertyOp1
 70
     0
102
RTVSPropertyOp2
 70
     0
102
RTVSPropertyOp3
 70
     0
102
RTVSPropertyOp4
 70
     0
102
RTVSPropertyOp5
 70
     0
102
RTVSPropertyOp6
 70
     0
102
RTVSPropertyOp7
 70
     0
102
RTVSPropertyOp8
 70
     0
102
RTVSPropertyOp9
 70
     0
102
RTVSPropertyOp10
 70
     0
102
RTVSPropertyOp11
 70
     0
102
RTVSPropertyOp12
 70
     0
102
RTVSPropertyOp13
 70
     0
102
RTVSPropertyOp14
 70
     2
102
RTVSPropertyOp15
 70
     0
102
RTVSPropertyOp16
 70
     0
102
RTVSPropertyOp17
 70
     0
102
RTVSPropertyOp18
 70
     0
102
RTVSPropertyOp19
 70
     0
102
RTVSPropertyOp20
 70
     0
102
RTVSPropertyOp21
 70
     0
102
RTVSPropertyOp22
 70
     0
102
RTVSPropertyOp23
 70
     0
102
RTVSPropertyOp24
 70
     0
102
RTVSPropertyOp25
 70
     0
102
RTVSPropertyOp26
 70
     0
102
RTVSPropertyOp27
 70
     0
102
RTVSPropertyOp28
 70
     0
102
RTVSPropertyOp29
 70
     0
102
RTVSPropertyOp30
 70
     0
102
RTVSPropertyOp31
 70
     0
102
RTVSPropertyOp32
 70
     0
102
RTVSPropertyOp33
 70
     0
102
RTVSPropertyOp34
 70
     0
102
RTVSPropertyOp35
 70
     0
102
RTVSPropertyOp36
 70
     0
102
RTVSPropertyOp37
 70
     0
102
RTVSPropertyOp38
 70
     0
102
RTVSPropertyOp39
 70
     0
102
RTVSPropertyOp40
 70
     0
102
RTVSPropertyOp41
 70
     0
102
RTVSPropertyOp42
 70
     0
102
RTVSPropertyOp43
 70
     0
102
RTVSPropertyOp44
 70
     0
102
RTVSPropertyOp45
 70
     0
102
RTVSPropertyOp46
 70
     0
102
RTVSPropertyOp47
 70
     0
102
RTVSPropertyOp48
 70
     0
102
RTVSPropertyOp49
 70
     0
102
RTVSPropertyOp50
 70
     0
102
RTVSPropertyOp51
 70
     0
102
RTVSPropertyOp52
 70
     0
102
RTVSPropertyOp53
 70
     0
102
RTVSPropertyOp54
 70
     0
102
RTVSPropertyOp55
 70
     0
102
RTVSPropertyOp56
 70
     0
102
RTVSPropertyOp57
 70
     0
102
RTVSPropertyOp58
 70
     1
102
RTVSPropertyOp59
 70
     1
102
RTVSPropertyOp60
 70
     1
102
RTVSPropertyOp61
 70
     1
102
RTVSPropertyOp62
 70
     1
  0
XRECORD
  5
2CD09
102
{ACAD_REACTORS
330
2CD08
102
}
330
2CD08
100
AcDbXrecord
280
     1
102
RTVSPost2010Prop28
280
     0
102
RTVSPost2010PropOp28
 70
     1
102
RTVSPost2010Prop29
280
     1
102
RTVSPost2010PropOp29
 70
     1
102
RTVSPost2010Prop30
280
     1
102
RTVSPost2010PropOp30
 70
     1
102
RTVSPost2010Prop31
280
     0
102
RTVSPost2010PropOp31
 70
     1
102
RTVSPost2010Prop32
280
     0
102
RTVSPost2010PropOp32
 70
     1
102
RTVSPost2010Prop33
280
     0
102
RTVSPost2010PropOp33
 70
     1
102
RTVSPost2010Prop34
280
     0
102
RTVSPost2010PropOp34
 70
     1
102
RTVSPost2010Prop35
280
     0
102
RTVSPost2010PropOp35
 70
     1
102
RTVSPost2010Prop36
280
     0
102
RTVSPost2010PropOp36
 70
     1
102
RTVSPost2010Prop37
 90
       50
102
RTVSPost2010PropOp37
 70
     1
102
RTVSPost2010Prop38
140
0.0
102
RTVSPost2010PropOp38
 70
     1
102
RTVSPost2010Prop39
140
1.0
102
RTVSPost2010PropOp39
 70
     1
102
RTVSPost2010Prop40
 90
        0
102
RTVSPost2010PropOp40
 70
     1
102
RTVSPost2010Prop41ColorIndex
 90
       18
102
RTVSPost2010Prop41ColorRGB
 90
        0
102
RTVSPost2010PropOp41
 70
     1
102
RTVSPost2010Prop42
 90
       50
102
RTVSPost2010PropOp42
 70
     1
102
RTVSPost2010Prop43
 90
        3
102
RTVSPost2010PropOp43
 70
     1
102
RTVSPost2010Prop44ColorIndex
 90
        5
102
RTVSPost2010Prop44ColorRGB
 90
      255
102
RTVSPost2010PropOp44
 70
     1
102
RTVSPost2010Prop45
280
     0
102
RTVSPost2010PropOp45
 70
     1
102
RTVSPost2010Prop46
 90
       50
102
RTVSPost2010PropOp46
 70
     1
102
RTVSPost2010Prop47
 90
       50
102
RTVSPost2010PropOp47
 70
     1
102
RTVSPost2010Prop48
 90
       50
102
RTVSPost2010PropOp48
 70
     1
102
RTVSPost2010Prop49
280
     0
102
RTVSPost2010PropOp49
 70
     1
102
RTVSPost2010Prop50
 90
       50
102
RTVSPost2010PropOp50
 70
     1
102
RTVSPost2010Prop51ColorIndex
 90
      256
102
RTVSPost2010Prop51ColorRGB
 90
-16777216
102
RTVSPost2010PropOp51
 70
     0
102
RTVSPost2010Prop52
140
1.0
102
RTVSPost2010PropOp52
 70
     0
102
RTVSPost2010Prop53
 90
        2
102
RTVSPost2010PropOp53
 70
     1
102
RTVSPost2010Prop54
  1
strokes_ogs.tif
102
RTVSPost2010PropOp54
 70
     1
102
RTVSPost2010Prop55
280
     0
102
RTVSPost2010PropOp55
 70
     1
102
RTVSPost2010Prop56
140
1.0
102
RTVSPost2010PropOp56
 70
     1
102
RTVSPost2010Prop57
140
1.0
102
RTVSPost2010PropOp57
 70
     1
102
RTVSPropertyOp0
 70
     1
102
RTVSPropertyOp1
 70
     1
102
RTVSPropertyOp2
 70
     1
102
RTVSPropertyOp3
 70
     1
102
RTVSPropertyOp4
 70
     1
102
RTVSPropertyOp5
 70
     1
102
RTVSPropertyOp6
 70
     1
102
RTVSPropertyOp7
 70
     1
102
RTVSPropertyOp8
 70
     1
102
RTVSPropertyOp9
 70
     1
102
RTVSPropertyOp10
 70
     1
102
RTVSPropertyOp11
 70
     1
102
RTVSPropertyOp12
 70
     1
102
RTVSPropertyOp13
 70
     1
102
RTVSPropertyOp14
 70
     1
102
RTVSPropertyOp15
 70
     1
102
RTVSPropertyOp16
 70
     1
102
RTVSPropertyOp17
 70
     1
102
RTVSPropertyOp18
 70
     1
102
RTVSPropertyOp19
 70
     1
102
RTVSPropertyOp20
 70
     1
102
RTVSPropertyOp21
 70
     1
102
RTVSPropertyOp22
 70
     1
102
RTVSPropertyOp23
 70
     1
102
RTVSPropertyOp24
 70
     1
102
RTVSPropertyOp25
 70
     1
102
RTVSPropertyOp26
 70
     1
102
RTVSPropertyOp27
 70
     1
102
RTVSPropertyOp28
 70
     1
102
RTVSPropertyOp29
 70
     1
102
RTVSPropertyOp30
 70
     1
102
RTVSPropertyOp31
 70
     1
102
RTVSPropertyOp32
 70
     1
102
RTVSPropertyOp33
 70
     1
102
RTVSPropertyOp34
 70
     1
102
RTVSPropertyOp35
 70
     1
102
RTVSPropertyOp36
 70
     1
102
RTVSPropertyOp37
 70
     1
102
RTVSPropertyOp38
 70
     1
102
RTVSPropertyOp39
 70
     1
102
RTVSPropertyOp40
 70
     1
102
RTVSPropertyOp41
 70
     1
102
RTVSPropertyOp42
 70
     1
102
RTVSPropertyOp43
 70
     1
102
RTVSPropertyOp44
 70
     1
102
RTVSPropertyOp45
 70
     1
102
RTVSPropertyOp46
 70
     1
102
RTVSPropertyOp47
 70
     1
102
RTVSPropertyOp48
 70
     1
102
RTVSPropertyOp49
 70
     1
102
RTVSPropertyOp50
 70
     1
102
RTVSPropertyOp51
 70
     0
102
RTVSPropertyOp52
 70
     0
102
RTVSPropertyOp53
 70
     1
102
RTVSPropertyOp54
 70
     1
102
RTVSPropertyOp55
 70
     1
102
RTVSPropertyOp56
 70
     1
102
RTVSPropertyOp57
 70
     1
102
RTVSPropertyOp58
 70
     1
102
RTVSPropertyOp59
 70
     1
102
RTVSPropertyOp60
 70
     1
102
RTVSPropertyOp61
 70
     1
102
RTVSPropertyOp62
 70
     1
  0
XRECORD
  5
2CD27
102
{ACAD_REACTORS
330
2CD26
102
}
330
2CD26
100
AcDbXrecord
280
     1
102
RTVSPost2010Prop28
280
     0
102
RTVSPost2010PropOp28
 70
     1
102
RTVSPost2010Prop29
280
     1
102
RTVSPost2010PropOp29
 70
     1
102
RTVSPost2010Prop30
280
     1
102
RTVSPost2010PropOp30
 70
     1
102
RTVSPost2010Prop31
280
     0
102
RTVSPost2010PropOp31
 70
     1
102
RTVSPost2010Prop32
280
     0
102
RTVSPost2010PropOp32
 70
     1
102
RTVSPost2010Prop33
280
     0
102
RTVSPost2010PropOp33
 70
     1
102
RTVSPost2010Prop34
280
     0
102
RTVSPost2010PropOp34
 70
     1
102
RTVSPost2010Prop35
280
     0
102
RTVSPost2010PropOp35
 70
     1
102
RTVSPost2010Prop36
280
     0
102
RTVSPost2010PropOp36
 70
     1
102
RTVSPost2010Prop37
 90
       50
102
RTVSPost2010PropOp37
 70
     1
102
RTVSPost2010Prop38
140
0.0
102
RTVSPost2010PropOp38
 70
     1
102
RTVSPost2010Prop39
140
1.0
102
RTVSPost2010PropOp39
 70
     1
102
RTVSPost2010Prop40
 90
        0
102
RTVSPost2010PropOp40
 70
     1
102
RTVSPost2010Prop41ColorIndex
 90
       18
102
RTVSPost2010Prop41ColorRGB
 90
        0
102
RTVSPost2010PropOp41
 70
     1
102
RTVSPost2010Prop42
 90
       50
102
RTVSPost2010PropOp42
 70
     1
102
RTVSPost2010Prop43
 90
        3
102
RTVSPost2010PropOp43
 70
     1
102
RTVSPost2010Prop44ColorIndex
 90
        5
102
RTVSPost2010Prop44ColorRGB
 90
      255
102
RTVSPost2010PropOp44
 70
     1
102
RTVSPost2010Prop45
280
     0
102
RTVSPost2010PropOp45
 70
     1
102
RTVSPost2010Prop46
 90
       50
102
RTVSPost2010PropOp46
 70
     1
102
RTVSPost2010Prop47
 90
       50
102
RTVSPost2010PropOp47
 70
     1
102
RTVSPost2010Prop48
 90
       50
102
RTVSPost2010PropOp48
 70
     1
102
RTVSPost2010Prop49
280
     0
102
RTVSPost2010PropOp49
 70
     1
102
RTVSPost2010Prop50
 90
       50
102
RTVSPost2010PropOp50
 70
     1
102
RTVSPost2010Prop51ColorIndex
 90
      256
102
RTVSPost2010Prop51ColorRGB
 90
-16777216
102
RTVSPost2010PropOp51
 70
     0
102
RTVSPost2010Prop52
140
1.0
102
RTVSPost2010PropOp52
 70
     0
102
RTVSPost2010Prop53
 90
        2
102
RTVSPost2010PropOp53
 70
     1
102
RTVSPost2010Prop54
  1
strokes_ogs.tif
102
RTVSPost2010PropOp54
 70
     1
102
RTVSPost2010Prop55
280
     0
102
RTVSPost2010PropOp55
 70
     1
102
RTVSPost2010Prop56
140
1.0
102
RTVSPost2010PropOp56
 70
     1
102
RTVSPost2010Prop57
140
1.0
102
RTVSPost2010PropOp57
 70
     1
102
RTVSPropertyOp0
 70
     1
102
RTVSPropertyOp1
 70
     1
102
RTVSPropertyOp2
 70
     1
102
RTVSPropertyOp3
 70
     1
102
RTVSPropertyOp4
 70
     1
102
RTVSPropertyOp5
 70
     1
102
RTVSPropertyOp6
 70
     1
102
RTVSPropertyOp7
 70
     1
102
RTVSPropertyOp8
 70
     1
102
RTVSPropertyOp9
 70
     1
102
RTVSPropertyOp10
 70
     1
102
RTVSPropertyOp11
 70
     1
102
RTVSPropertyOp12
 70
     1
102
RTVSPropertyOp13
 70
     1
102
RTVSPropertyOp14
 70
     1
102
RTVSPropertyOp15
 70
     1
102
RTVSPropertyOp16
 70
     1
102
RTVSPropertyOp17
 70
     1
102
RTVSPropertyOp18
 70
     1
102
RTVSPropertyOp19
 70
     1
102
RTVSPropertyOp20
 70
     1
102
RTVSPropertyOp21
 70
     1
102
RTVSPropertyOp22
 70
     1
102
RTVSPropertyOp23
 70
     1
102
RTVSPropertyOp24
 70
     1
102
RTVSPropertyOp25
 70
     1
102
RTVSPropertyOp26
 70
     1
102
RTVSPropertyOp27
 70
     1
102
RTVSPropertyOp28
 70
     1
102
RTVSPropertyOp29
 70
     1
102
RTVSPropertyOp30
 70
     1
102
RTVSPropertyOp31
 70
     1
102
RTVSPropertyOp32
 70
     1
102
RTVSPropertyOp33
 70
     1
102
RTVSPropertyOp34
 70
     1
102
RTVSPropertyOp35
 70
     1
102
RTVSPropertyOp36
 70
     1
102
RTVSPropertyOp37
 70
     1
102
RTVSPropertyOp38
 70
     1
102
RTVSPropertyOp39
 70
     1
102
RTVSPropertyOp40
 70
     1
102
RTVSPropertyOp41
 70
     1
102
RTVSPropertyOp42
 70
     1
102
RTVSPropertyOp43
 70
     1
102
RTVSPropertyOp44
 70
     1
102
RTVSPropertyOp45
 70
     1
102
RTVSPropertyOp46
 70
     1
102
RTVSPropertyOp47
 70
     1
102
RTVSPropertyOp48
 70
     1
102
RTVSPropertyOp49
 70
     1
102
RTVSPropertyOp50
 70
     1
102
RTVSPropertyOp51
 70
     0
102
RTVSPropertyOp52
 70
     0
102
RTVSPropertyOp53
 70
     1
102
RTVSPropertyOp54
 70
     1
102
RTVSPropertyOp55
 70
     1
102
RTVSPropertyOp56
 70
     1
102
RTVSPropertyOp57
 70
     1
102
RTVSPropertyOp58
 70
     1
102
RTVSPropertyOp59
 70
     1
102
RTVSPropertyOp60
 70
     1
102
RTVSPropertyOp61
 70
     1
102
RTVSPropertyOp62
 70
     1
  0
XRECORD
  5
2CD25
102
{ACAD_REACTORS
330
2CD24
102
}
330
2CD24
100
AcDbXrecord
280
     1
102
RTVSPost2010Prop28
280
     0
102
RTVSPost2010PropOp28
 70
     1
102
RTVSPost2010Prop29
280
     1
102
RTVSPost2010PropOp29
 70
     1
102
RTVSPost2010Prop30
280
     1
102
RTVSPost2010PropOp30
 70
     1
102
RTVSPost2010Prop31
280
     0
102
RTVSPost2010PropOp31
 70
     1
102
RTVSPost2010Prop32
280
     0
102
RTVSPost2010PropOp32
 70
     1
102
RTVSPost2010Prop33
280
     0
102
RTVSPost2010PropOp33
 70
     1
102
RTVSPost2010Prop34
280
     0
102
RTVSPost2010PropOp34
 70
     1
102
RTVSPost2010Prop35
280
     0
102
RTVSPost2010PropOp35
 70
     1
102
RTVSPost2010Prop36
280
     0
102
RTVSPost2010PropOp36
 70
     1
102
RTVSPost2010Prop37
 90
       50
102
RTVSPost2010PropOp37
 70
     1
102
RTVSPost2010Prop38
140
0.0
102
RTVSPost2010PropOp38
 70
     1
102
RTVSPost2010Prop39
140
1.0
102
RTVSPost2010PropOp39
 70
     1
102
RTVSPost2010Prop40
 90
        0
102
RTVSPost2010PropOp40
 70
     1
102
RTVSPost2010Prop41ColorIndex
 90
       18
102
RTVSPost2010Prop41ColorRGB
 90
        0
102
RTVSPost2010PropOp41
 70
     1
102
RTVSPost2010Prop42
 90
       50
102
RTVSPost2010PropOp42
 70
     1
102
RTVSPost2010Prop43
 90
        3
102
RTVSPost2010PropOp43
 70
     1
102
RTVSPost2010Prop44ColorIndex
 90
        5
102
RTVSPost2010Prop44ColorRGB
 90
      255
102
RTVSPost2010PropOp44
 70
     1
102
RTVSPost2010Prop45
280
     0
102
RTVSPost2010PropOp45
 70
     1
102
RTVSPost2010Prop46
 90
       50
102
RTVSPost2010PropOp46
 70
     1
102
RTVSPost2010Prop47
 90
       50
102
RTVSPost2010PropOp47
 70
     1
102
RTVSPost2010Prop48
 90
       50
102
RTVSPost2010PropOp48
 70
     1
102
RTVSPost2010Prop49
280
     0
102
RTVSPost2010PropOp49
 70
     1
102
RTVSPost2010Prop50
 90
       50
102
RTVSPost2010PropOp50
 70
     1
102
RTVSPost2010Prop51ColorIndex
 90
      256
102
RTVSPost2010Prop51ColorRGB
 90
-16777216
102
RTVSPost2010PropOp51
 70
     0
102
RTVSPost2010Prop52
140
1.0
102
RTVSPost2010PropOp52
 70
     0
102
RTVSPost2010Prop53
 90
        2
102
RTVSPost2010PropOp53
 70
     1
102
RTVSPost2010Prop54
  1
strokes_ogs.tif
102
RTVSPost2010PropOp54
 70
     1
102
RTVSPost2010Prop55
280
     0
102
RTVSPost2010PropOp55
 70
     1
102
RTVSPost2010Prop56
140
1.0
102
RTVSPost2010PropOp56
 70
     1
102
RTVSPost2010Prop57
140
1.0
102
RTVSPost2010PropOp57
 70
     1
102
RTVSPropertyOp0
 70
     1
102
RTVSPropertyOp1
 70
     1
102
RTVSPropertyOp2
 70
     1
102
RTVSPropertyOp3
 70
     1
102
RTVSPropertyOp4
 70
     1
102
RTVSPropertyOp5
 70
     1
102
RTVSPropertyOp6
 70
     1
102
RTVSPropertyOp7
 70
     1
102
RTVSPropertyOp8
 70
     1
102
RTVSPropertyOp9
 70
     1
102
RTVSPropertyOp10
 70
     1
102
RTVSPropertyOp11
 70
     1
102
RTVSPropertyOp12
 70
     1
102
RTVSPropertyOp13
 70
     1
102
RTVSPropertyOp14
 70
     1
102
RTVSPropertyOp15
 70
     1
102
RTVSPropertyOp16
 70
     1
102
RTVSPropertyOp17
 70
     1
102
RTVSPropertyOp18
 70
     1
102
RTVSPropertyOp19
 70
     1
102
RTVSPropertyOp20
 70
     1
102
RTVSPropertyOp21
 70
     1
102
RTVSPropertyOp22
 70
     1
102
RTVSPropertyOp23
 70
     1
102
RTVSPropertyOp24
 70
     1
102
RTVSPropertyOp25
 70
     1
102
RTVSPropertyOp26
 70
     1
102
RTVSPropertyOp27
 70
     1
102
RTVSPropertyOp28
 70
     1
102
RTVSPropertyOp29
 70
     1
102
RTVSPropertyOp30
 70
     1
102
RTVSPropertyOp31
 70
     1
102
RTVSPropertyOp32
 70
     1
102
RTVSPropertyOp33
 70
     1
102
RTVSPropertyOp34
 70
     1
102
RTVSPropertyOp35
 70
     1
102
RTVSPropertyOp36
 70
     1
102
RTVSPropertyOp37
 70
     1
102
RTVSPropertyOp38
 70
     1
102
RTVSPropertyOp39
 70
     1
102
RTVSPropertyOp40
 70
     1
102
RTVSPropertyOp41
 70
     1
102
RTVSPropertyOp42
 70
     1
102
RTVSPropertyOp43
 70
     1
102
RTVSPropertyOp44
 70
     1
102
RTVSPropertyOp45
 70
     1
102
RTVSPropertyOp46
 70
     1
102
RTVSPropertyOp47
 70
     1
102
RTVSPropertyOp48
 70
     1
102
RTVSPropertyOp49
 70
     1
102
RTVSPropertyOp50
 70
     1
102
RTVSPropertyOp51
 70
     0
102
RTVSPropertyOp52
 70
     0
102
RTVSPropertyOp53
 70
     1
102
RTVSPropertyOp54
 70
     1
102
RTVSPropertyOp55
 70
     1
102
RTVSPropertyOp56
 70
     1
102
RTVSPropertyOp57
 70
     1
102
RTVSPropertyOp58
 70
     1
102
RTVSPropertyOp59
 70
     1
102
RTVSPropertyOp60
 70
     1
102
RTVSPropertyOp61
 70
     1
102
RTVSPropertyOp62
 70
     1
  0
XRECORD
  5
2CD1F
102
{ACAD_REACTORS
330
2CD1E
102
}
330
2CD1E
100
AcDbXrecord
280
     1
102
RTVSPost2010Prop28
280
     0
102
RTVSPost2010PropOp28
 70
     1
102
RTVSPost2010Prop29
280
     1
102
RTVSPost2010PropOp29
 70
     1
102
RTVSPost2010Prop30
280
     1
102
RTVSPost2010PropOp30
 70
     1
102
RTVSPost2010Prop31
280
     0
102
RTVSPost2010PropOp31
 70
     1
102
RTVSPost2010Prop32
280
     0
102
RTVSPost2010PropOp32
 70
     1
102
RTVSPost2010Prop33
280
     0
102
RTVSPost2010PropOp33
 70
     1
102
RTVSPost2010Prop34
280
     0
102
RTVSPost2010PropOp34
 70
     1
102
RTVSPost2010Prop35
280
     0
102
RTVSPost2010PropOp35
 70
     1
102
RTVSPost2010Prop36
280
     0
102
RTVSPost2010PropOp36
 70
     1
102
RTVSPost2010Prop37
 90
       50
102
RTVSPost2010PropOp37
 70
     1
102
RTVSPost2010Prop38
140
0.0
102
RTVSPost2010PropOp38
 70
     1
102
RTVSPost2010Prop39
140
1.0
102
RTVSPost2010PropOp39
 70
     1
102
RTVSPost2010Prop40
 90
        0
102
RTVSPost2010PropOp40
 70
     1
102
RTVSPost2010Prop41ColorIndex
 90
       18
102
RTVSPost2010Prop41ColorRGB
 90
        0
102
RTVSPost2010PropOp41
 70
     1
102
RTVSPost2010Prop42
 90
       50
102
RTVSPost2010PropOp42
 70
     1
102
RTVSPost2010Prop43
 90
        3
102
RTVSPost2010PropOp43
 70
     1
102
RTVSPost2010Prop44ColorIndex
 90
        5
102
RTVSPost2010Prop44ColorRGB
 90
      255
102
RTVSPost2010PropOp44
 70
     1
102
RTVSPost2010Prop45
280
     0
102
RTVSPost2010PropOp45
 70
     1
102
RTVSPost2010Prop46
 90
       50
102
RTVSPost2010PropOp46
 70
     1
102
RTVSPost2010Prop47
 90
       50
102
RTVSPost2010PropOp47
 70
     1
102
RTVSPost2010Prop48
 90
       50
102
RTVSPost2010PropOp48
 70
     1
102
RTVSPost2010Prop49
280
     0
102
RTVSPost2010PropOp49
 70
     1
102
RTVSPost2010Prop50
 90
       50
102
RTVSPost2010PropOp50
 70
     1
102
RTVSPost2010Prop51ColorIndex
 90
      256
102
RTVSPost2010Prop51ColorRGB
 90
-16777216
102
RTVSPost2010PropOp51
 70
     0
102
RTVSPost2010Prop52
140
1.0
102
RTVSPost2010PropOp52
 70
     0
102
RTVSPost2010Prop53
 90
        2
102
RTVSPost2010PropOp53
 70
     1
102
RTVSPost2010Prop54
  1
strokes_ogs.tif
102
RTVSPost2010PropOp54
 70
     1
102
RTVSPost2010Prop55
280
     0
102
RTVSPost2010PropOp55
 70
     1
102
RTVSPost2010Prop56
140
1.0
102
RTVSPost2010PropOp56
 70
     1
102
RTVSPost2010Prop57
140
1.0
102
RTVSPost2010PropOp57
 70
     1
102
RTVSPropertyOp0
 70
     1
102
RTVSPropertyOp1
 70
     1
102
RTVSPropertyOp2
 70
     1
102
RTVSPropertyOp3
 70
     1
102
RTVSPropertyOp4
 70
     1
102
RTVSPropertyOp5
 70
     1
102
RTVSPropertyOp6
 70
     1
102
RTVSPropertyOp7
 70
     1
102
RTVSPropertyOp8
 70
     1
102
RTVSPropertyOp9
 70
     1
102
RTVSPropertyOp10
 70
     1
102
RTVSPropertyOp11
 70
     1
102
RTVSPropertyOp12
 70
     1
102
RTVSPropertyOp13
 70
     1
102
RTVSPropertyOp14
 70
     1
102
RTVSPropertyOp15
 70
     1
102
RTVSPropertyOp16
 70
     1
102
RTVSPropertyOp17
 70
     1
102
RTVSPropertyOp18
 70
     1
102
RTVSPropertyOp19
 70
     1
102
RTVSPropertyOp20
 70
     1
102
RTVSPropertyOp21
 70
     1
102
RTVSPropertyOp22
 70
     1
102
RTVSPropertyOp23
 70
     1
102
RTVSPropertyOp24
 70
     1
102
RTVSPropertyOp25
 70
     1
102
RTVSPropertyOp26
 70
     1
102
RTVSPropertyOp27
 70
     1
102
RTVSPropertyOp28
 70
     1
102
RTVSPropertyOp29
 70
     1
102
RTVSPropertyOp30
 70
     1
102
RTVSPropertyOp31
 70
     1
102
RTVSPropertyOp32
 70
     1
102
RTVSPropertyOp33
 70
     1
102
RTVSPropertyOp34
 70
     1
102
RTVSPropertyOp35
 70
     1
102
RTVSPropertyOp36
 70
     1
102
RTVSPropertyOp37
 70
     1
102
RTVSPropertyOp38
 70
     1
102
RTVSPropertyOp39
 70
     1
102
RTVSPropertyOp40
 70
     1
102
RTVSPropertyOp41
 70
     1
102
RTVSPropertyOp42
 70
     1
102
RTVSPropertyOp43
 70
     1
102
RTVSPropertyOp44
 70
     1
102
RTVSPropertyOp45
 70
     1
102
RTVSPropertyOp46
 70
     1
102
RTVSPropertyOp47
 70
     1
102
RTVSPropertyOp48
 70
     1
102
RTVSPropertyOp49
 70
     1
102
RTVSPropertyOp50
 70
     1
102
RTVSPropertyOp51
 70
     0
102
RTVSPropertyOp52
 70
     0
102
RTVSPropertyOp53
 70
     1
102
RTVSPropertyOp54
 70
     1
102
RTVSPropertyOp55
 70
     1
102
RTVSPropertyOp56
 70
     1
102
RTVSPropertyOp57
 70
     1
102
RTVSPropertyOp58
 70
     1
102
RTVSPropertyOp59
 70
     1
102
RTVSPropertyOp60
 70
     1
102
RTVSPropertyOp61
 70
     1
102
RTVSPropertyOp62
 70
     1
  0
XRECORD
  5
2CD21
102
{ACAD_REACTORS
330
2CD20
102
}
330
2CD20
100
AcDbXrecord
280
     1
102
RTVSPost2010Prop28
280
     0
102
RTVSPost2010PropOp28
 70
     1
102
RTVSPost2010Prop29
280
     1
102
RTVSPost2010PropOp29
 70
     1
102
RTVSPost2010Prop30
280
     1
102
RTVSPost2010PropOp30
 70
     1
102
RTVSPost2010Prop31
280
     0
102
RTVSPost2010PropOp31
 70
     1
102
RTVSPost2010Prop32
280
     0
102
RTVSPost2010PropOp32
 70
     1
102
RTVSPost2010Prop33
280
     0
102
RTVSPost2010PropOp33
 70
     1
102
RTVSPost2010Prop34
280
     0
102
RTVSPost2010PropOp34
 70
     1
102
RTVSPost2010Prop35
280
     0
102
RTVSPost2010PropOp35
 70
     1
102
RTVSPost2010Prop36
280
     0
102
RTVSPost2010PropOp36
 70
     1
102
RTVSPost2010Prop37
 90
       50
102
RTVSPost2010PropOp37
 70
     1
102
RTVSPost2010Prop38
140
0.0
102
RTVSPost2010PropOp38
 70
     1
102
RTVSPost2010Prop39
140
1.0
102
RTVSPost2010PropOp39
 70
     1
102
RTVSPost2010Prop40
 90
        0
102
RTVSPost2010PropOp40
 70
     1
102
RTVSPost2010Prop41ColorIndex
 90
       18
102
RTVSPost2010Prop41ColorRGB
 90
        0
102
RTVSPost2010PropOp41
 70
     1
102
RTVSPost2010Prop42
 90
       50
102
RTVSPost2010PropOp42
 70
     1
102
RTVSPost2010Prop43
 90
        3
102
RTVSPost2010PropOp43
 70
     1
102
RTVSPost2010Prop44ColorIndex
 90
        5
102
RTVSPost2010Prop44ColorRGB
 90
      255
102
RTVSPost2010PropOp44
 70
     1
102
RTVSPost2010Prop45
280
     0
102
RTVSPost2010PropOp45
 70
     1
102
RTVSPost2010Prop46
 90
       50
102
RTVSPost2010PropOp46
 70
     1
102
RTVSPost2010Prop47
 90
       50
102
RTVSPost2010PropOp47
 70
     1
102
RTVSPost2010Prop48
 90
       50
102
RTVSPost2010PropOp48
 70
     1
102
RTVSPost2010Prop49
280
     0
102
RTVSPost2010PropOp49
 70
     1
102
RTVSPost2010Prop50
 90
       50
102
RTVSPost2010PropOp50
 70
     1
102
RTVSPost2010Prop51ColorIndex
 90
      256
102
RTVSPost2010Prop51ColorRGB
 90
-16777216
102
RTVSPost2010PropOp51
 70
     0
102
RTVSPost2010Prop52
140
1.0
102
RTVSPost2010PropOp52
 70
     0
102
RTVSPost2010Prop53
 90
        2
102
RTVSPost2010PropOp53
 70
     1
102
RTVSPost2010Prop54
  1
strokes_ogs.tif
102
RTVSPost2010PropOp54
 70
     1
102
RTVSPost2010Prop55
280
     0
102
RTVSPost2010PropOp55
 70
     1
102
RTVSPost2010Prop56
140
1.0
102
RTVSPost2010PropOp56
 70
     1
102
RTVSPost2010Prop57
140
1.0
102
RTVSPost2010PropOp57
 70
     1
102
RTVSPropertyOp0
 70
     1
102
RTVSPropertyOp1
 70
     1
102
RTVSPropertyOp2
 70
     1
102
RTVSPropertyOp3
 70
     1
102
RTVSPropertyOp4
 70
     1
102
RTVSPropertyOp5
 70
     1
102
RTVSPropertyOp6
 70
     1
102
RTVSPropertyOp7
 70
     1
102
RTVSPropertyOp8
 70
     1
102
RTVSPropertyOp9
 70
     1
102
RTVSPropertyOp10
 70
     1
102
RTVSPropertyOp11
 70
     1
102
RTVSPropertyOp12
 70
     1
102
RTVSPropertyOp13
 70
     1
102
RTVSPropertyOp14
 70
     1
102
RTVSPropertyOp15
 70
     1
102
RTVSPropertyOp16
 70
     1
102
RTVSPropertyOp17
 70
     1
102
RTVSPropertyOp18
 70
     1
102
RTVSPropertyOp19
 70
     1
102
RTVSPropertyOp20
 70
     1
102
RTVSPropertyOp21
 70
     1
102
RTVSPropertyOp22
 70
     1
102
RTVSPropertyOp23
 70
     1
102
RTVSPropertyOp24
 70
     1
102
RTVSPropertyOp25
 70
     1
102
RTVSPropertyOp26
 70
     1
102
RTVSPropertyOp27
 70
     1
102
RTVSPropertyOp28
 70
     1
102
RTVSPropertyOp29
 70
     1
102
RTVSPropertyOp30
 70
     1
102
RTVSPropertyOp31
 70
     1
102
RTVSPropertyOp32
 70
     1
102
RTVSPropertyOp33
 70
     1
102
RTVSPropertyOp34
 70
     1
102
RTVSPropertyOp35
 70
     1
102
RTVSPropertyOp36
 70
     1
102
RTVSPropertyOp37
 70
     1
102
RTVSPropertyOp38
 70
     1
102
RTVSPropertyOp39
 70
     1
102
RTVSPropertyOp40
 70
     1
102
RTVSPropertyOp41
 70
     1
102
RTVSPropertyOp42
 70
     1
102
RTVSPropertyOp43
 70
     1
102
RTVSPropertyOp44
 70
     1
102
RTVSPropertyOp45
 70
     1
102
RTVSPropertyOp46
 70
     1
102
RTVSPropertyOp47
 70
     1
102
RTVSPropertyOp48
 70
     1
102
RTVSPropertyOp49
 70
     1
102
RTVSPropertyOp50
 70
     1
102
RTVSPropertyOp51
 70
     0
102
RTVSPropertyOp52
 70
     0
102
RTVSPropertyOp53
 70
     1
102
RTVSPropertyOp54
 70
     1
102
RTVSPropertyOp55
 70
     1
102
RTVSPropertyOp56
 70
     1
102
RTVSPropertyOp57
 70
     1
102
RTVSPropertyOp58
 70
     1
102
RTVSPropertyOp59
 70
     1
102
RTVSPropertyOp60
 70
     1
102
RTVSPropertyOp61
 70
     1
102
RTVSPropertyOp62
 70
     1
  0
XRECORD
  5
2CD11
102
{ACAD_REACTORS
330
2CD10
102
}
330
2CD10
100
AcDbXrecord
280
     1
102
RTVSPost2010Prop28
280
     0
102
RTVSPost2010PropOp28
 70
     1
102
RTVSPost2010Prop29
280
     1
102
RTVSPost2010PropOp29
 70
     1
102
RTVSPost2010Prop30
280
     1
102
RTVSPost2010PropOp30
 70
     1
102
RTVSPost2010Prop31
280
     0
102
RTVSPost2010PropOp31
 70
     1
102
RTVSPost2010Prop32
280
     0
102
RTVSPost2010PropOp32
 70
     1
102
RTVSPost2010Prop33
280
     0
102
RTVSPost2010PropOp33
 70
     1
102
RTVSPost2010Prop34
280
     0
102
RTVSPost2010PropOp34
 70
     1
102
RTVSPost2010Prop35
280
     0
102
RTVSPost2010PropOp35
 70
     1
102
RTVSPost2010Prop36
280
     0
102
RTVSPost2010PropOp36
 70
     1
102
RTVSPost2010Prop37
 90
       50
102
RTVSPost2010PropOp37
 70
     1
102
RTVSPost2010Prop38
140
0.0
102
RTVSPost2010PropOp38
 70
     1
102
RTVSPost2010Prop39
140
1.0
102
RTVSPost2010PropOp39
 70
     1
102
RTVSPost2010Prop40
 90
        0
102
RTVSPost2010PropOp40
 70
     1
102
RTVSPost2010Prop41ColorIndex
 90
       18
102
RTVSPost2010Prop41ColorRGB
 90
        0
102
RTVSPost2010PropOp41
 70
     1
102
RTVSPost2010Prop42
 90
       50
102
RTVSPost2010PropOp42
 70
     1
102
RTVSPost2010Prop43
 90
        3
102
RTVSPost2010PropOp43
 70
     1
102
RTVSPost2010Prop44ColorIndex
 90
        5
102
RTVSPost2010Prop44ColorRGB
 90
      255
102
RTVSPost2010PropOp44
 70
     1
102
RTVSPost2010Prop45
280
     0
102
RTVSPost2010PropOp45
 70
     1
102
RTVSPost2010Prop46
 90
       50
102
RTVSPost2010PropOp46
 70
     1
102
RTVSPost2010Prop47
 90
       50
102
RTVSPost2010PropOp47
 70
     1
102
RTVSPost2010Prop48
 90
       50
102
RTVSPost2010PropOp48
 70
     1
102
RTVSPost2010Prop49
280
     0
102
RTVSPost2010PropOp49
 70
     1
102
RTVSPost2010Prop50
 90
       50
102
RTVSPost2010PropOp50
 70
     1
102
RTVSPost2010Prop51ColorIndex
 90
      256
102
RTVSPost2010Prop51ColorRGB
 90
-16777216
102
RTVSPost2010PropOp51
 70
     0
102
RTVSPost2010Prop52
140
1.0
102
RTVSPost2010PropOp52
 70
     0
102
RTVSPost2010Prop53
 90
        2
102
RTVSPost2010PropOp53
 70
     1
102
RTVSPost2010Prop54
  1
strokes_ogs.tif
102
RTVSPost2010PropOp54
 70
     1
102
RTVSPost2010Prop55
280
     0
102
RTVSPost2010PropOp55
 70
     1
102
RTVSPost2010Prop56
140
1.0
102
RTVSPost2010PropOp56
 70
     1
102
RTVSPost2010Prop57
140
1.0
102
RTVSPost2010PropOp57
 70
     1
102
RTVSPropertyOp0
 70
     1
102
RTVSPropertyOp1
 70
     1
102
RTVSPropertyOp2
 70
     1
102
RTVSPropertyOp3
 70
     1
102
RTVSPropertyOp4
 70
     1
102
RTVSPropertyOp5
 70
     1
102
RTVSPropertyOp6
 70
     1
102
RTVSPropertyOp7
 70
     1
102
RTVSPropertyOp8
 70
     1
102
RTVSPropertyOp9
 70
     1
102
RTVSPropertyOp10
 70
     1
102
RTVSPropertyOp11
 70
     1
102
RTVSPropertyOp12
 70
     1
102
RTVSPropertyOp13
 70
     1
102
RTVSPropertyOp14
 70
     1
102
RTVSPropertyOp15
 70
     1
102
RTVSPropertyOp16
 70
     1
102
RTVSPropertyOp17
 70
     1
102
RTVSPropertyOp18
 70
     1
102
RTVSPropertyOp19
 70
     1
102
RTVSPropertyOp20
 70
     1
102
RTVSPropertyOp21
 70
     1
102
RTVSPropertyOp22
 70
     1
102
RTVSPropertyOp23
 70
     1
102
RTVSPropertyOp24
 70
     1
102
RTVSPropertyOp25
 70
     1
102
RTVSPropertyOp26
 70
     1
102
RTVSPropertyOp27
 70
     1
102
RTVSPropertyOp28
 70
     1
102
RTVSPropertyOp29
 70
     1
102
RTVSPropertyOp30
 70
     1
102
RTVSPropertyOp31
 70
     1
102
RTVSPropertyOp32
 70
     1
102
RTVSPropertyOp33
 70
     1
102
RTVSPropertyOp34
 70
     1
102
RTVSPropertyOp35
 70
     1
102
RTVSPropertyOp36
 70
     1
102
RTVSPropertyOp37
 70
     1
102
RTVSPropertyOp38
 70
     1
102
RTVSPropertyOp39
 70
     1
102
RTVSPropertyOp40
 70
     1
102
RTVSPropertyOp41
 70
     1
102
RTVSPropertyOp42
 70
     1
102
RTVSPropertyOp43
 70
     1
102
RTVSPropertyOp44
 70
     1
102
RTVSPropertyOp45
 70
     1
102
RTVSPropertyOp46
 70
     1
102
RTVSPropertyOp47
 70
     1
102
RTVSPropertyOp48
 70
     1
102
RTVSPropertyOp49
 70
     1
102
RTVSPropertyOp50
 70
     1
102
RTVSPropertyOp51
 70
     0
102
RTVSPropertyOp52
 70
     0
102
RTVSPropertyOp53
 70
     1
102
RTVSPropertyOp54
 70
     1
102
RTVSPropertyOp55
 70
     1
102
RTVSPropertyOp56
 70
     1
102
RTVSPropertyOp57
 70
     1
102
RTVSPropertyOp58
 70
     1
102
RTVSPropertyOp59
 70
     1
102
RTVSPropertyOp60
 70
     1
102
RTVSPropertyOp61
 70
     1
102
RTVSPropertyOp62
 70
     1
  0
XRECORD
  5
2CD03
102
{ACAD_REACTORS
330
2CD02
102
}
330
2CD02
100
AcDbXrecord
280
     1
102
RTVSPost2010Prop28
280
     0
102
RTVSPost2010PropOp28
 70
     1
102
RTVSPost2010Prop29
280
     1
102
RTVSPost2010PropOp29
 70
     1
102
RTVSPost2010Prop30
280
     1
102
RTVSPost2010PropOp30
 70
     1
102
RTVSPost2010Prop31
280
     0
102
RTVSPost2010PropOp31
 70
     1
102
RTVSPost2010Prop32
280
     0
102
RTVSPost2010PropOp32
 70
     1
102
RTVSPost2010Prop33
280
     0
102
RTVSPost2010PropOp33
 70
     1
102
RTVSPost2010Prop34
280
     0
102
RTVSPost2010PropOp34
 70
     1
102
RTVSPost2010Prop35
280
     0
102
RTVSPost2010PropOp35
 70
     1
102
RTVSPost2010Prop36
280
     0
102
RTVSPost2010PropOp36
 70
     1
102
RTVSPost2010Prop37
 90
       50
102
RTVSPost2010PropOp37
 70
     1
102
RTVSPost2010Prop38
140
0.0
102
RTVSPost2010PropOp38
 70
     1
102
RTVSPost2010Prop39
140
1.0
102
RTVSPost2010PropOp39
 70
     1
102
RTVSPost2010Prop40
 90
        0
102
RTVSPost2010PropOp40
 70
     1
102
RTVSPost2010Prop41ColorIndex
 90
       18
102
RTVSPost2010Prop41ColorRGB
 90
        0
102
RTVSPost2010PropOp41
 70
     1
102
RTVSPost2010Prop42
 90
       50
102
RTVSPost2010PropOp42
 70
     1
102
RTVSPost2010Prop43
 90
        3
102
RTVSPost2010PropOp43
 70
     1
102
RTVSPost2010Prop44ColorIndex
 90
        5
102
RTVSPost2010Prop44ColorRGB
 90
      255
102
RTVSPost2010PropOp44
 70
     1
102
RTVSPost2010Prop45
280
     0
102
RTVSPost2010PropOp45
 70
     1
102
RTVSPost2010Prop46
 90
       50
102
RTVSPost2010PropOp46
 70
     1
102
RTVSPost2010Prop47
 90
       50
102
RTVSPost2010PropOp47
 70
     1
102
RTVSPost2010Prop48
 90
       50
102
RTVSPost2010PropOp48
 70
     1
102
RTVSPost2010Prop49
280
     0
102
RTVSPost2010PropOp49
 70
     1
102
RTVSPost2010Prop50
 90
       50
102
RTVSPost2010PropOp50
 70
     1
102
RTVSPost2010Prop51ColorIndex
 90
      256
102
RTVSPost2010Prop51ColorRGB
 90
-16777216
102
RTVSPost2010PropOp51
 70
     0
102
RTVSPost2010Prop52
140
1.0
102
RTVSPost2010PropOp52
 70
     0
102
RTVSPost2010Prop53
 90
        2
102
RTVSPost2010PropOp53
 70
     1
102
RTVSPost2010Prop54
  1
strokes_ogs.tif
102
RTVSPost2010PropOp54
 70
     1
102
RTVSPost2010Prop55
280
     0
102
RTVSPost2010PropOp55
 70
     1
102
RTVSPost2010Prop56
140
1.0
102
RTVSPost2010PropOp56
 70
     1
102
RTVSPost2010Prop57
140
1.0
102
RTVSPost2010PropOp57
 70
     1
102
RTVSPropertyOp0
 70
     1
102
RTVSPropertyOp1
 70
     1
102
RTVSPropertyOp2
 70
     1
102
RTVSPropertyOp3
 70
     1
102
RTVSPropertyOp4
 70
     1
102
RTVSPropertyOp5
 70
     1
102
RTVSPropertyOp6
 70
     1
102
RTVSPropertyOp7
 70
     1
102
RTVSPropertyOp8
 70
     1
102
RTVSPropertyOp9
 70
     1
102
RTVSPropertyOp10
 70
     1
102
RTVSPropertyOp11
 70
     1
102
RTVSPropertyOp12
 70
     1
102
RTVSPropertyOp13
 70
     1
102
RTVSPropertyOp14
 70
     1
102
RTVSPropertyOp15
 70
     1
102
RTVSPropertyOp16
 70
     1
102
RTVSPropertyOp17
 70
     1
102
RTVSPropertyOp18
 70
     1
102
RTVSPropertyOp19
 70
     1
102
RTVSPropertyOp20
 70
     1
102
RTVSPropertyOp21
 70
     1
102
RTVSPropertyOp22
 70
     1
102
RTVSPropertyOp23
 70
     1
102
RTVSPropertyOp24
 70
     1
102
RTVSPropertyOp25
 70
     1
102
RTVSPropertyOp26
 70
     1
102
RTVSPropertyOp27
 70
     1
102
RTVSPropertyOp28
 70
     1
102
RTVSPropertyOp29
 70
     1
102
RTVSPropertyOp30
 70
     1
102
RTVSPropertyOp31
 70
     1
102
RTVSPropertyOp32
 70
     1
102
RTVSPropertyOp33
 70
     1
102
RTVSPropertyOp34
 70
     1
102
RTVSPropertyOp35
 70
     1
102
RTVSPropertyOp36
 70
     1
102
RTVSPropertyOp37
 70
     1
102
RTVSPropertyOp38
 70
     1
102
RTVSPropertyOp39
 70
     1
102
RTVSPropertyOp40
 70
     1
102
RTVSPropertyOp41
 70
     1
102
RTVSPropertyOp42
 70
     1
102
RTVSPropertyOp43
 70
     1
102
RTVSPropertyOp44
 70
     1
102
RTVSPropertyOp45
 70
     1
102
RTVSPropertyOp46
 70
     1
102
RTVSPropertyOp47
 70
     1
102
RTVSPropertyOp48
 70
     1
102
RTVSPropertyOp49
 70
     1
102
RTVSPropertyOp50
 70
     1
102
RTVSPropertyOp51
 70
     0
102
RTVSPropertyOp52
 70
     0
102
RTVSPropertyOp53
 70
     1
102
RTVSPropertyOp54
 70
     1
102
RTVSPropertyOp55
 70
     1
102
RTVSPropertyOp56
 70
     1
102
RTVSPropertyOp57
 70
     1
102
RTVSPropertyOp58
 70
     1
102
RTVSPropertyOp59
 70
     1
102
RTVSPropertyOp60
 70
     1
102
RTVSPropertyOp61
 70
     1
102
RTVSPropertyOp62
 70
     1
  0
XRECORD
  5
2CD23
102
{ACAD_REACTORS
330
2CD22
102
}
330
2CD22
100
AcDbXrecord
280
     1
102
RTVSPost2010Prop28
280
     0
102
RTVSPost2010PropOp28
 70
     1
102
RTVSPost2010Prop29
280
     1
102
RTVSPost2010PropOp29
 70
     1
102
RTVSPost2010Prop30
280
     1
102
RTVSPost2010PropOp30
 70
     1
102
RTVSPost2010Prop31
280
     0
102
RTVSPost2010PropOp31
 70
     1
102
RTVSPost2010Prop32
280
     0
102
RTVSPost2010PropOp32
 70
     1
102
RTVSPost2010Prop33
280
     0
102
RTVSPost2010PropOp33
 70
     1
102
RTVSPost2010Prop34
280
     0
102
RTVSPost2010PropOp34
 70
     1
102
RTVSPost2010Prop35
280
     0
102
RTVSPost2010PropOp35
 70
     1
102
RTVSPost2010Prop36
280
     0
102
RTVSPost2010PropOp36
 70
     1
102
RTVSPost2010Prop37
 90
       50
102
RTVSPost2010PropOp37
 70
     1
102
RTVSPost2010Prop38
140
0.0
102
RTVSPost2010PropOp38
 70
     1
102
RTVSPost2010Prop39
140
1.0
102
RTVSPost2010PropOp39
 70
     1
102
RTVSPost2010Prop40
 90
        0
102
RTVSPost2010PropOp40
 70
     1
102
RTVSPost2010Prop41ColorIndex
 90
       18
102
RTVSPost2010Prop41ColorRGB
 90
        0
102
RTVSPost2010PropOp41
 70
     1
102
RTVSPost2010Prop42
 90
       50
102
RTVSPost2010PropOp42
 70
     1
102
RTVSPost2010Prop43
 90
        3
102
RTVSPost2010PropOp43
 70
     1
102
RTVSPost2010Prop44ColorIndex
 90
        5
102
RTVSPost2010Prop44ColorRGB
 90
      255
102
RTVSPost2010PropOp44
 70
     1
102
RTVSPost2010Prop45
280
     0
102
RTVSPost2010PropOp45
 70
     1
102
RTVSPost2010Prop46
 90
       50
102
RTVSPost2010PropOp46
 70
     1
102
RTVSPost2010Prop47
 90
       50
102
RTVSPost2010PropOp47
 70
     1
102
RTVSPost2010Prop48
 90
       50
102
RTVSPost2010PropOp48
 70
     1
102
RTVSPost2010Prop49
280
     0
102
RTVSPost2010PropOp49
 70
     1
102
RTVSPost2010Prop50
 90
       50
102
RTVSPost2010PropOp50
 70
     1
102
RTVSPost2010Prop51ColorIndex
 90
      256
102
RTVSPost2010Prop51ColorRGB
 90
-16777216
102
RTVSPost2010PropOp51
 70
     0
102
RTVSPost2010Prop52
140
1.0
102
RTVSPost2010PropOp52
 70
     0
102
RTVSPost2010Prop53
 90
        2
102
RTVSPost2010PropOp53
 70
     1
102
RTVSPost2010Prop54
  1
strokes_ogs.tif
102
RTVSPost2010PropOp54
 70
     1
102
RTVSPost2010Prop55
280
     0
102
RTVSPost2010PropOp55
 70
     1
102
RTVSPost2010Prop56
140
1.0
102
RTVSPost2010PropOp56
 70
     1
102
RTVSPost2010Prop57
140
1.0
102
RTVSPost2010PropOp57
 70
     1
102
RTVSPropertyOp0
 70
     1
102
RTVSPropertyOp1
 70
     1
102
RTVSPropertyOp2
 70
     1
102
RTVSPropertyOp3
 70
     1
102
RTVSPropertyOp4
 70
     1
102
RTVSPropertyOp5
 70
     1
102
RTVSPropertyOp6
 70
     1
102
RTVSPropertyOp7
 70
     1
102
RTVSPropertyOp8
 70
     1
102
RTVSPropertyOp9
 70
     1
102
RTVSPropertyOp10
 70
     1
102
RTVSPropertyOp11
 70
     1
102
RTVSPropertyOp12
 70
     1
102
RTVSPropertyOp13
 70
     1
102
RTVSPropertyOp14
 70
     1
102
RTVSPropertyOp15
 70
     1
102
RTVSPropertyOp16
 70
     1
102
RTVSPropertyOp17
 70
     1
102
RTVSPropertyOp18
 70
     1
102
RTVSPropertyOp19
 70
     1
102
RTVSPropertyOp20
 70
     1
102
RTVSPropertyOp21
 70
     1
102
RTVSPropertyOp22
 70
     1
102
RTVSPropertyOp23
 70
     1
102
RTVSPropertyOp24
 70
     1
102
RTVSPropertyOp25
 70
     1
102
RTVSPropertyOp26
 70
     1
102
RTVSPropertyOp27
 70
     1
102
RTVSPropertyOp28
 70
     1
102
RTVSPropertyOp29
 70
     1
102
RTVSPropertyOp30
 70
     1
102
RTVSPropertyOp31
 70
     1
102
RTVSPropertyOp32
 70
     1
102
RTVSPropertyOp33
 70
     1
102
RTVSPropertyOp34
 70
     1
102
RTVSPropertyOp35
 70
     1
102
RTVSPropertyOp36
 70
     1
102
RTVSPropertyOp37
 70
     1
102
RTVSPropertyOp38
 70
     1
102
RTVSPropertyOp39
 70
     1
102
RTVSPropertyOp40
 70
     1
102
RTVSPropertyOp41
 70
     1
102
RTVSPropertyOp42
 70
     1
102
RTVSPropertyOp43
 70
     1
102
RTVSPropertyOp44
 70
     1
102
RTVSPropertyOp45
 70
     1
102
RTVSPropertyOp46
 70
     1
102
RTVSPropertyOp47
 70
     1
102
RTVSPropertyOp48
 70
     1
102
RTVSPropertyOp49
 70
     1
102
RTVSPropertyOp50
 70
     1
102
RTVSPropertyOp51
 70
     0
102
RTVSPropertyOp52
 70
     0
102
RTVSPropertyOp53
 70
     1
102
RTVSPropertyOp54
 70
     1
102
RTVSPropertyOp55
 70
     1
102
RTVSPropertyOp56
 70
     1
102
RTVSPropertyOp57
 70
     1
102
RTVSPropertyOp58
 70
     1
102
RTVSPropertyOp59
 70
     1
102
RTVSPropertyOp60
 70
     1
102
RTVSPropertyOp61
 70
     1
102
RTVSPropertyOp62
 70
     1
  0
ENDSEC
  0
EOF
