  0
SECTION
  2
HEADER
  9
$ACADVER
  1
AC1015
  9
$ACADMAINTVER
 70
    20
  9
$DWGCODEPAGE
  3
ANSI_932
  9
$INSBASE
 10
0.0
 20
0.0
 30
0.0
  9
$EXTMIN
 10
338.6636234085789
 20
-2509.294579512157
 30
0.0
  9
$EXTMAX
 10
1097.613782574873
 20
-2175.691602833293
 30
137.5
  9
$LIMMIN
 10
0.0
 20
0.0
  9
$LIMMAX
 10
420.0
 20
297.0
  9
$ORTHOMODE
 70
     1
  9
$REGENMODE
 70
     1
  9
$FILLMODE
 70
     1
  9
$QTEXTMODE
 70
     0
  9
$MIRRTEXT
 70
     0
  9
$LTSCALE
 40
20.0
  9
$ATTMODE
 70
     2
  9
$TEXTSIZE
 40
10.0
  9
$TRACEWID
 40
1.0
  9
$TEXTSTYLE
  7
\U+FF7D\U+FF80\U+FF72\U+FF993
  9
$CLAYER
  8
細線
  9
$CELTYPE
  6
BYLAYER
  9
$CECOLOR
 62
   256
  9
$CELTSCALE
 40
1.0
  9
$DISPSILH
 70
     0
  9
$DIMSCALE
 40
1.5
  9
$DIMASZ
 40
2.5
  9
$DIMEXO
 40
0.8
  9
$DIMDLI
 40
10.0
  9
$DIMRND
 40
0.0
  9
$DIMDLE
 40
0.0
  9
$DIMEXE
 40
0.18
  9
$DIMTP
 40
0.0
  9
$DIMTM
 40
0.0
  9
$DIMTXT
 40
3.0
  9
$DIMCEN
 40
0.0
  9
$DIMTSZ
 40
0.0
  9
$DIMTOL
 70
     0
  9
$DIMLIM
 70
     0
  9
$DIMTIH
 70
     0
  9
$DIMTOH
 70
     0
  9
$DIMSE1
 70
     0
  9
$DIMSE2
 70
     0
  9
$DIMTAD
 70
     3
  9
$DIMZIN
 70
     8
  9
$DIMBLK
  1
Open30
  9
$DIMASO
 70
     1
  9
$DIMSHO
 70
     1
  9
$DIMPOST
  1

  9
$DIMAPOST
  1

  9
$DIMALT
 70
     0
  9
$DIMALTD
 70
     2
  9
$DIMALTF
 40
25.4
  9
$DIMLFAC
 40
1.0
  9
$DIMTOFL
 70
     0
  9
$DIMTVP
 40
0.0
  9
$DIMTIX
 70
     0
  9
$DIMSOXD
 70
     0
  9
$DIMSAH
 70
     0
  9
$DIMBLK1
  1

  9
$DIMBLK2
  1

  9
$DIMSTYLE
  2
まこ
  9
$DIMCLRD
 70
     4
  9
$DIMCLRE
 70
     4
  9
$DIMCLRT
 70
   256
  9
$DIMTFAC
 40
1.0
  9
$DIMGAP
 40
0.5
  9
$DIMJUST
 70
     0
  9
$DIMSD1
 70
     0
  9
$DIMSD2
 70
     0
  9
$DIMTOLJ
 70
     1
  9
$DIMTZIN
 70
     0
  9
$DIMALTZ
 70
     0
  9
$DIMALTTZ
 70
     0
  9
$DIMUPT
 70
     0
  9
$DIMDEC
 70
     8
  9
$DIMTDEC
 70
     8
  9
$DIMALTU
 70
     2
  9
$DIMALTTD
 70
     2
  9
$DIMTXSTY
  7
まこ
  9
$DIMAUNIT
 70
     0
  9
$DIMADEC
 70
     0
  9
$DIMALTRND
 40
0.0
  9
$DIMAZIN
 70
     0
  9
$DIMDSEP
 70
    46
  9
$DIMATFIT
 70
     1
  9
$DIMFRAC
 70
     0
  9
$DIMLDRBLK
  1
Open30
  9
$DIMLUNIT
 70
     2
  9
$DIMLWD
 70
    13
  9
$DIMLWE
 70
    13
  9
$DIMTMOVE
 70
     0
  9
$LUNITS
 70
     2
  9
$LUPREC
 70
     4
  9
$SKETCHINC
 40
1.0
  9
$FILLETRAD
 40
0.0
  9
$AUNITS
 70
     0
  9
$AUPREC
 70
     0
  9
$MENU
  1
.
  9
$ELEVATION
 40
0.0
  9
$PELEVATION
 40
0.0
  9
$THICKNESS
 40
0.0
  9
$LIMCHECK
 70
     0
  9
$CHAMFERA
 40
0.5
  9
$CHAMFERB
 40
0.5
  9
$CHAMFERC
 40
20.0
  9
$CHAMFERD
 40
0.0
  9
$SKPOLY
 70
     0
  9
$TDCREATE
 40
2451224.660162037
  9
$TDUCREATE
 40
2451224.285162384
  9
$TDUPDATE
 40
2458549.471053241
  9
$TDUUPDATE
 40
2458549.096053241
  9
$TDINDWG
 40
0.0353573843
  9
$TDUSRTIMER
 40
2458228.097722072
  9
$USRTIMER
 70
     1
  9
$ANGBASE
 50
0.0
  9
$ANGDIR
 70
     0
  9
$PDMODE
 70
     0
  9
$PDSIZE
 40
0.0
  9
$PLINEWID
 40
0.0
  9
$SPLFRAME
 70
     0
  9
$SPLINETYPE
 70
     6
  9
$SPLINESEGS
 70
     8
  9
$HANDSEED
  5
2BED7
  9
$SURFTAB1
 70
     6
  9
$SURFTAB2
 70
     6
  9
$SURFTYPE
 70
     6
  9
$SURFU
 70
     6
  9
$SURFV
 70
     6
  9
$UCSBASE
  2

  9
$UCSNAME
  2

  9
$UCSORG
 10
0.0
 20
0.0
 30
0.0
  9
$UCSXDIR
 10
1.0
 20
0.0
 30
0.0
  9
$UCSYDIR
 10
0.0
 20
1.0
 30
0.0
  9
$UCSORTHOREF
  2

  9
$UCSORTHOVIEW
 70
     0
  9
$UCSORGTOP
 10
0.0
 20
0.0
 30
0.0
  9
$UCSORGBOTTOM
 10
0.0
 20
0.0
 30
0.0
  9
$UCSORGLEFT
 10
0.0
 20
0.0
 30
0.0
  9
$UCSORGRIGHT
 10
0.0
 20
0.0
 30
0.0
  9
$UCSORGFRONT
 10
0.0
 20
0.0
 30
0.0
  9
$UCSORGBACK
 10
0.0
 20
0.0
 30
0.0
  9
$PUCSBASE
  2

  9
$PUCSNAME
  2

  9
$PUCSORG
 10
0.0
 20
0.0
 30
0.0
  9
$PUCSXDIR
 10
1.0
 20
0.0
 30
0.0
  9
$PUCSYDIR
 10
0.0
 20
1.0
 30
0.0
  9
$PUCSORTHOREF
  2

  9
$PUCSORTHOVIEW
 70
     0
  9
$PUCSORGTOP
 10
0.0
 20
0.0
 30
0.0
  9
$PUCSORGBOTTOM
 10
0.0
 20
0.0
 30
0.0
  9
$PUCSORGLEFT
 10
0.0
 20
0.0
 30
0.0
  9
$PUCSORGRIGHT
 10
0.0
 20
0.0
 30
0.0
  9
$PUCSORGFRONT
 10
0.0
 20
0.0
 30
0.0
  9
$PUCSORGBACK
 10
0.0
 20
0.0
 30
0.0
  9
$USERI1
 70
     0
  9
$USERI2
 70
     0
  9
$USERI3
 70
     0
  9
$USERI4
 70
     0
  9
$USERI5
 70
     0
  9
$USERR1
 40
245.9999999999999
  9
$USERR2
 40
0.0
  9
$USERR3
 40
0.0
  9
$USERR4
 40
0.0
  9
$USERR5
 40
0.0
  9
$WORLDVIEW
 70
     1
  9
$SHADEDGE
 70
     3
  9
$SHADEDIF
 70
    70
  9
$TILEMODE
 70
     0
  9
$MAXACTVP
 70
    48
  9
$PINSBASE
 10
0.0
 20
0.0
 30
0.0
  9
$PLIMCHECK
 70
     0
  9
$PEXTMIN
 10
1.049999999999999
 20
0.6999999999999998
 30
0.0
  9
$PEXTMAX
 10
9.449999999999999
 20
6.3
 30
0.0
  9
$PLIMMIN
 10
0.0
 20
0.0
  9
$PLIMMAX
 10
0.0
 20
0.0
  9
$UNITMODE
 70
     0
  9
$VISRETAIN
 70
     1
  9
$PLINEGEN
 70
     0
  9
$PSLTSCALE
 70
     1
  9
$TREEDEPTH
 70
  3020
  9
$CMLSTYLE
  2
STANDARD
  9
$CMLJUST
 70
     0
  9
$CMLSCALE
 40
20.0
  9
$PROXYGRAPHICS
 70
     1
  9
$MEASUREMENT
 70
     0
  9
$CELWEIGHT
370
    -1
  9
$ENDCAPS
280
     0
  9
$JOINSTYLE
280
     0
  9
$LWDISPLAY
290
     0
  9
$INSUNITS
 70
     0
  9
$HYPERLINKBASE
  1

  9
$STYLESHEET
  1
monochrome.ctb
  9
$XEDIT
290
     1
  9
$CEPSNTYPE
380
     0
  9
$PSTYLEMODE
290
     1
  9
$FINGERPRINTGUID
  2
{D14EE3FF-941A-415A-9907-344E0A80D794}
  9
$VERSIONGUID
  2
{DE1FAACC-4F4D-4A07-B68E-06D5E6FC960D}
  9
$EXTNAMES
290
     1
  9
$PSVPSCALE
 40
0.0
  9
$OLESTARTUP
290
     0
  0
ENDSEC
  0
SECTION
  2
CLASSES
  0
CLASS
  1
ACDBDICTIONARYWDFLT
  2
AcDbDictionaryWithDefault
  3
ObjectDBX Classes
 90
        0
280
     0
281
     0
  0
CLASS
  1
ACDBPLACEHOLDER
  2
AcDbPlaceHolder
  3
ObjectDBX Classes
 90
        0
280
     0
281
     0
  0
CLASS
  1
LAYOUT
  2
AcDbLayout
  3
ObjectDBX Classes
 90
        0
280
     0
281
     0
  0
CLASS
  1
DICTIONARYVAR
  2
AcDbDictionaryVar
  3
ObjectDBX Classes
 90
        0
280
     0
281
     0
  0
CLASS
  1
VISUALSTYLE
  2
AcDbVisualStyle
  3
ObjectDBX Classes
 90
     4095
280
     0
281
     0
  0
CLASS
  1
SCALE
  2
AcDbScale
  3
ObjectDBX Classes
 90
     1153
280
     0
281
     0
  0
CLASS
  1
MATERIAL
  2
AcDbMaterial
  3
ObjectDBX Classes
 90
     1153
280
     0
281
     0
  0
CLASS
  1
TABLESTYLE
  2
AcDbTableStyle
  3
ObjectDBX Classes
 90
     4095
280
     0
281
     0
  0
CLASS
  1
MLEADERSTYLE
  2
AcDbMLeaderStyle
  3
ACDB_MLEADERSTYLE_CLASS
 90
     4095
280
     0
281
     0
  0
CLASS
  1
SUN
  2
AcDbSun
  3
SCENEOE
 90
     1153
280
     0
281
     0
  0
CLASS
  1
RASTERVARIABLES
  2
AcDbRasterVariables
  3
ISM
 90
        0
280
     0
281
     0
  0
CLASS
  1
DIMASSOC
  2
AcDbDimAssoc
  3
"AcDbDimAssoc|Product Desc:     AcDim ARX App For Dimension|Company:          Autodesk, Inc.|WEB Address:      www.autodesk.com"
 90
    32768
280
     0
281
     0
  0
CLASS
  1
SORTENTSTABLE
  2
AcDbSortentsTable
  3
ObjectDBX Classes
 90
        0
280
     0
281
     0
  0
CLASS
  1
ACDBSECTIONVIEWSTYLE
  2
AcDbSectionViewStyle
  3
ObjectDBX Classes
 90
     1025
280
     0
281
     0
  0
CLASS
  1
ACDBDETAILVIEWSTYLE
  2
AcDbDetailViewStyle
  3
ObjectDBX Classes
 90
     1025
280
     0
281
     0
  0
CLASS
  1
CELLSTYLEMAP
  2
AcDbCellStyleMap
  3
ObjectDBX Classes
 90
     1152
280
     0
281
     0
  0
ENDSEC
  0
SECTION
  2
TABLES
  0
TABLE
  2
VPORT
  5
8
102
{ACAD_XDICTIONARY
360
2BE35
102
}
330
0
100
AcDbSymbolTable
 70
     1
  0
VPORT
  5
2839E
330
8
100
AcDbSymbolTableRecord
100
AcDbViewportTableRecord
  2
*Active
 70
     0
 10
0.0
 20
0.0
 11
1.0
 21
1.0
 12
837.9372941462786
 22
-2498.003552009147
 13
0.0
 23
0.0
 14
10.0
 24
10.0
 15
10.0
 25
10.0
 16
0.0
 26
0.0
 36
1.0
 17
0.0
 27
0.0
 37
0.0
 40
100.3311880127128
 41
1.305479452054794
 42
50.0
 43
0.0
 44
0.0
 50
0.0
 51
0.0
 71
    16
 72
   100
 73
     1
 74
     0
 75
     0
 76
     0
 77
     0
 78
     0
281
     0
 65
     1
110
0.0
120
0.0
130
0.0
111
1.0
121
0.0
131
0.0
112
0.0
122
1.0
132
0.0
 79
     0
146
0.0
  0
ENDTAB
  0
TABLE
  2
LTYPE
  5
5
330
0
100
AcDbSymbolTable
 70
     5
  0
LTYPE
  5
12
330
5
100
AcDbSymbolTableRecord
100
AcDbLinetypeTableRecord
  2
BYBLOCK
 70
     0
  3

 72
    65
 73
     0
 40
0.0
  0
LTYPE
  5
13
330
5
100
AcDbSymbolTableRecord
100
AcDbLinetypeTableRecord
  2
BYLAYER
 70
     0
  3

 72
    65
 73
     0
 40
0.0
  0
LTYPE
  5
14
330
5
100
AcDbSymbolTableRecord
100
AcDbLinetypeTableRecord
  2
CONTINUOUS
 70
     0
  3
Solid line
 72
    65
 73
     0
 40
0.0
  0
LTYPE
  5
126C
330
5
100
AcDbSymbolTableRecord
100
AcDbLinetypeTableRecord
  2
CENTER
 70
     0
  3
____ _ ____ _ ____ _ ____ _ ____ _ ____ _ ____
 72
    65
 73
     4
 40
2.0
 49
1.25
 74
     0
 49
-0.25
 74
     0
 49
0.25
 74
     0
 49
-0.25
 74
     0
  0
LTYPE
  5
126E
330
5
100
AcDbSymbolTableRecord
100
AcDbLinetypeTableRecord
  2
DASHDOT
 70
     0
  3
__ . __ . __ . __ . __ . __ . __ . __ . __ . __
 72
    65
 73
     4
 40
1.0
 49
0.5
 74
     0
 49
-0.25
 74
     0
 49
0.0
 74
     0
 49
-0.25
 74
     0
  0
LTYPE
  5
15420
330
5
100
AcDbSymbolTableRecord
100
AcDbLinetypeTableRecord
  2
CENTER2
 70
     0
  3
Center (.5x) ___ _ ___ _ ___ _ ___ _ ___ _ ___
 72
    65
 73
     4
 40
1.125
 49
0.75
 74
     0
 49
-0.125
 74
     0
 49
0.125
 74
     0
 49
-0.125
 74
     0
  0
LTYPE
  5
2A77E
330
5
100
AcDbSymbolTableRecord
100
AcDbLinetypeTableRecord
  2
HIDDEN2
 70
     0
  3
Hidden (.5x) _ _ _ _ _ _ _ _ _ _ _ _ _ _ _ _ _
 72
    65
 73
     2
 40
4.762499999999999
 49
3.174999999999999
 74
     0
 49
-1.587499999999999
 74
     0
  0
ENDTAB
  0
TABLE
  2
LAYER
  5
2
102
{ACAD_XDICTIONARY
360
254EC
102
}
330
0
100
AcDbSymbolTable
 70
    10
  0
LAYER
  5
E
330
2
100
AcDbSymbolTableRecord
100
AcDbLayerTableRecord
  2
0
 70
     2
 62
     7
  6
CONTINUOUS
370
    35
390
FB5C
  0
LAYER
  5
30
330
2
100
AcDbSymbolTableRecord
100
AcDbLayerTableRecord
  2
FRAME025
 70
     0
 62
     7
  6
CONTINUOUS
370
    -3
390
FB5C
  0
LAYER
  5
651
330
2
100
AcDbSymbolTableRecord
100
AcDbLayerTableRecord
  2
FRAME020
 70
     0
 62
     7
  6
CONTINUOUS
370
    -3
390
FB5C
  0
LAYER
  5
1271
330
2
100
AcDbSymbolTableRecord
100
AcDbLayerTableRecord
  2
A
 70
     0
 62
     7
  6
CONTINUOUS
370
    -3
390
FB5C
  0
LAYER
  5
A9BB
330
2
100
AcDbSymbolTableRecord
100
AcDbLayerTableRecord
  2
文字
 70
     0
 62
     7
  6
CONTINUOUS
370
    13
390
FB5C
  0
LAYER
  5
122DE
330
2
100
AcDbSymbolTableRecord
100
AcDbLayerTableRecord
  2
dimension
 70
     0
 62
     7
  6
CONTINUOUS
370
    13
390
FB5C
  0
LAYER
  5
15422
330
2
100
AcDbSymbolTableRecord
100
AcDbLayerTableRecord
  2
細線
 70
     0
 62
     7
  6
CONTINUOUS
370
    13
390
FB5C
  0
LAYER
  5
15425
330
2
100
AcDbSymbolTableRecord
100
AcDbLayerTableRecord
  2
中心線
 70
     0
 62
     7
  6
CENTER2
370
    13
390
FB5C
  0
LAYER
  5
1A846
330
2
100
AcDbSymbolTableRecord
100
AcDbLayerTableRecord
  2
実線
 70
     0
 62
     7
  6
CONTINUOUS
370
    40
390
FB5C
  0
LAYER
  5
2A77B
102
{ACAD_XDICTIONARY
360
2A77C
102
}
330
2
100
AcDbSymbolTableRecord
100
AcDbLayerTableRecord
  2
破線
 70
     0
 62
     7
  6
HIDDEN2
370
    13
390
FB5C
  0
ENDTAB
  0
TABLE
  2
STYLE
  5
3
330
0
100
AcDbSymbolTable
 70
     7
  0
STYLE
  5
F
330
3
100
AcDbSymbolTableRecord
100
AcDbTextStyleTableRecord
  2
STANDARD
 70
     0
 40
0.0
 41
1.0
 50
0.0
 71
     0
 42
2.5
  3
isocp.shx
  4
bigfont.shx
  0
STYLE
  5
34
330
3
100
AcDbSymbolTableRecord
100
AcDbTextStyleTableRecord
  2
TIMESNR
 70
     0
 40
0.0
 41
1.0
 50
0.0
 71
     0
 42
2.0
  3
times.ttf
  4

1001
ACAD
1000
Times New Roman
1071
       18
  0
STYLE
  5
35
330
3
100
AcDbSymbolTableRecord
100
AcDbTextStyleTableRecord
  2
MS\U+FF7A\U+FF9E\U+FF7C\U+FF6F\U+FF78
 70
     0
 40
0.0
 41
1.0
 50
0.0
 71
     0
 42
5.0
  3

  4

1001
ACAD
1000
MS Gothic
1071
    32817
  0
STYLE
  5
1275
330
3
100
AcDbSymbolTableRecord
100
AcDbTextStyleTableRecord
  2
BIGFONT
 70
     0
 40
2.0
 41
1.0
 50
0.0
 71
     0
 42
2.0
  3
txt.shx
  4
bigfont.shx
  0
STYLE
  5
1A849
330
3
100
AcDbSymbolTableRecord
100
AcDbTextStyleTableRecord
  2
まこ
 70
     0
 40
0.0
 41
1.0
 50
0.0
 71
     0
 42
2.5
  3
simplex.shx
  4
bigfont.shx
  0
STYLE
  5
1A84A
330
3
100
AcDbSymbolTableRecord
100
AcDbTextStyleTableRecord
  2
\U+FF7D\U+FF80\U+FF72\U+FF993
 70
     0
 40
10.0
 41
1.0
 50
0.0
 71
     0
 42
10.0
  3
isocp.shx
  4
extfont.shx
  0
STYLE
  5
1F8B3
330
3
100
AcDbSymbolTableRecord
100
AcDbTextStyleTableRecord
  2
MS\U+FF7A\U+FF9E\U+FF7C\U+FF6F\U+FF78N
 70
     0
 40
0.0
 41
1.0
 50
0.0
 71
     0
 42
5.0
  3

  4

1001
ACAD
1000
MS Gothic
1071
    32817
  0
ENDTAB
  0
TABLE
  2
VIEW
  5
6
330
0
100
AcDbSymbolTable
 70
     0
  0
ENDTAB
  0
TABLE
  2
UCS
  5
7
330
0
100
AcDbSymbolTable
 70
     0
  0
ENDTAB
  0
TABLE
  2
APPID
  5
9
330
0
100
AcDbSymbolTable
 70
    12
  0
APPID
  5
10
330
9
100
AcDbSymbolTableRecord
100
AcDbRegAppTableRecord
  2
ACAD
 70
     0
  0
APPID
  5
F013
330
9
100
AcDbSymbolTableRecord
100
AcDbRegAppTableRecord
  2
CONTENTBLOCKDESCRIPTION
 70
     0
  0
APPID
  5
F014
330
9
100
AcDbSymbolTableRecord
100
AcDbRegAppTableRecord
  2
CONTENTBLOCKICON
 70
     0
  0
APPID
  5
1A9A0
330
9
100
AcDbSymbolTableRecord
100
AcDbRegAppTableRecord
  2
DCO15
 70
     0
  0
APPID
  5
28407
330
9
100
AcDbSymbolTableRecord
100
AcDbRegAppTableRecord
  2
PE_CLOUD
 70
     0
  0
APPID
  5
2895F
330
9
100
AcDbSymbolTableRecord
100
AcDbRegAppTableRecord
  2
PLOTTRANSPARENCY
 70
     0
  0
APPID
  5
2A789
330
9
100
AcDbSymbolTableRecord
100
AcDbRegAppTableRecord
  2
ACAD_DSTYLE_DIMJAG
 70
     0
  0
APPID
  5
2A78A
330
9
100
AcDbSymbolTableRecord
100
AcDbRegAppTableRecord
  2
ACAD_DSTYLE_DIMTALN
 70
     0
  0
APPID
  5
2A78B
330
9
100
AcDbSymbolTableRecord
100
AcDbRegAppTableRecord
  2
ACAD_DSTYLE_DIMRADIAL_EXTENSION
 70
     0
  0
APPID
  5
2B77E
330
9
100
AcDbSymbolTableRecord
100
AcDbRegAppTableRecord
  2
ACAD_DSTYLE_DIMFLIPARROW_SYMBOL
 70
     0
  0
APPID
  5
2B77F
330
9
100
AcDbSymbolTableRecord
100
AcDbRegAppTableRecord
  2
ACAD_DSTYLE_DIMFLIPARROW_WHICH_SYMBOL
 70
     0
  0
APPID
  5
2BE6E
330
9
100
AcDbSymbolTableRecord
100
AcDbRegAppTableRecord
  2
ACAD_MLEADERVER
 70
     0
  0
ENDTAB
  0
TABLE
  2
DIMSTYLE
  5
A
330
0
100
AcDbSymbolTable
 70
     2
100
AcDbDimStyleTable
 71
     0
  0
DIMSTYLE
105
1D
330
A
100
AcDbSymbolTableRecord
100
AcDbDimStyleTableRecord
  2
STANDARD
 70
     0
340
F
  0
DIMSTYLE
105
1A84D
330
A
100
AcDbSymbolTableRecord
100
AcDbDimStyleTableRecord
  2
まこ
 70
     0
 40
1.5
 41
2.5
 42
0.8
 43
10.0
 73
     0
 74
     0
 77
     3
 78
     8
140
3.0
141
0.0
147
0.5
176
     4
177
     4
178
   256
271
     8
272
     8
289
     1
340
1A849
341
1215D
342
1215D
371
    13
372
    13
  0
ENDTAB
  0
TABLE
  2
BLOCK_RECORD
  5
1
330
0
100
AcDbSymbolTable
 70
     2
  0
BLOCK_RECORD
  5
18
102
{ACAD_XDICTIONARY
360
2A634
102
}
330
1
100
AcDbSymbolTableRecord
100
AcDbBlockTableRecord
  2
*MODEL_SPACE
340
FB5D
  0
BLOCK_RECORD
  5
2BD14
330
1
100
AcDbSymbolTableRecord
100
AcDbBlockTableRecord
  2
*Paper_Space
340
2BD15
  0
BLOCK_RECORD
  5
115C
330
1
100
AcDbSymbolTableRecord
100
AcDbBlockTableRecord
  2
機械A4横_LBP
340
0
102
{BLKREFS
331
187D7
102
}
  0
BLOCK_RECORD
  5
1215D
330
1
100
AcDbSymbolTableRecord
100
AcDbBlockTableRecord
  2
_Open30
340
0
  0
ENDTAB
  0
ENDSEC
  0
SECTION
  2
BLOCKS
  0
BLOCK
  5
19
330
18
100
AcDbEntity
  8
0
100
AcDbBlockBegin
  2
*MODEL_SPACE
 70
     0
 10
0.0
 20
0.0
 30
0.0
  3
*MODEL_SPACE
  1

  0
ENDBLK
  5
1A
330
18
100
AcDbEntity
  8
0
100
AcDbBlockEnd
  0
BLOCK
  5
2BD16
330
2BD14
100
AcDbEntity
 67
     1
  8
0
100
AcDbBlockBegin
  2
*Paper_Space
 70
     0
 10
0.0
 20
0.0
 30
0.0
  3
*Paper_Space
  1

  0
ENDBLK
  5
2BD17
330
2BD14
100
AcDbEntity
 67
     1
  8
0
100
AcDbBlockEnd
  0
BLOCK
  5
115D
330
115C
100
AcDbEntity
  8
0
100
AcDbBlockBegin
  2
機械A4横_LBP
 70
     0
 10
0.0
 20
0.0
 30
0.0
  3
機械A4横_LBP
  1

  0
ENDBLK
  5
115E
330
115C
100
AcDbEntity
  8
0
100
AcDbBlockEnd
  0
BLOCK
  5
12161
330
1215D
100
AcDbEntity
  8
0
100
AcDbBlockBegin
  2
_Open30
 70
     0
 10
0.0
 20
0.0
 30
0.0
  3
_Open30
  1

  0
LINE
  5
1215E
330
1215D
100
AcDbEntity
  8
0
  6
ByBlock
 62
     0
370
    -2
100
AcDbLine
 10
-1.0
 20
0.26794919
 30
0.0
 11
0.0
 21
0.0
 31
0.0
  0
LINE
  5
1215F
330
1215D
100
AcDbEntity
  8
0
  6
ByBlock
 62
     0
370
    -2
100
AcDbLine
 10
0.0
 20
0.0
 30
0.0
 11
-1.0
 21
-0.26794919
 31
0.0
  0
LINE
  5
12160
330
1215D
100
AcDbEntity
  8
0
  6
ByBlock
 62
     0
370
    -2
100
AcDbLine
 10
0.0
 20
0.0
 30
0.0
 11
-1.0
 21
0.0
 31
0.0
  0
ENDBLK
  5
12162
330
1215D
100
AcDbEntity
  8
0
100
AcDbBlockEnd
  0
ENDSEC
  0
SECTION
  2
ENTITIES
  0
MTEXT
  5
176FC
330
18
100
AcDbEntity
  8
dimension
 62
     2
100
AcDbMText
 10
-100.7823601383244
 20
171.621314412839
 30
0.0
 40
8.0
 41
0.0
 71
     4
 72
     1
  1

 73
     1
 44
1.0
1001
ACAD
1000
MTEXTBEGIN
1070
    73
1070
     1
1070
    44
1040
1.0
1070
    74
1070
     0
1000
MTEXTEND
  0
TEXT
  5
187C8
330
18
100
AcDbEntity
  8
A
100
AcDbText
 10
27.08248755054501
 20
1784.547672862096
 30
0.0
 40
2.5
  1

  7
MS\U+FF7A\U+FF9E\U+FF7C\U+FF6F\U+FF78
100
AcDbText
  0
TEXT
  5
187C9
330
18
100
AcDbEntity
  8
A
100
AcDbText
 10
19.25748755054502
 20
1784.547672862096
 30
0.0
 40
2.5
  1

 41
0.5
  7
MS\U+FF7A\U+FF9E\U+FF7C\U+FF6F\U+FF78
100
AcDbText
  0
MTEXT
  5
187CB
330
18
100
AcDbEntity
  8
0
  6
ByBlock
100
AcDbMText
 10
325.4874764241681
 20
2232.511722574347
 30
0.0
 40
2.0
 41
0.0
 71
     4
 72
     5
  1

 11
-0.0000000000000002
 21
-1.0
 31
0.0
 73
     1
 44
1.0
1001
ACAD
1000
MTEXTBEGIN
1070
    73
1070
     1
1070
    44
1040
1.0
1070
    74
1070
     0
1000
MTEXTEND
  0
MTEXT
  5
187CC
330
18
100
AcDbEntity
  8
0
  6
ByBlock
100
AcDbMText
 10
360.9528647873209
 20
2221.71841421593
 30
0.0
 40
2.0
 41
0.0
 71
     7
 72
     5
  1

 11
0.0000000000000001
 21
1.0
 31
0.0
 73
     1
 44
1.0
1001
ACAD
1000
MTEXTBEGIN
1070
    73
1070
     1
1070
    44
1040
1.0
1070
    74
1070
     0
1000
MTEXTEND
  0
MTEXT
  5
187CD
330
18
100
AcDbEntity
  8
0
100
AcDbMText
 10
325.1733668026533
 20
2146.93890367364
 30
0.0
 40
2.0
 41
10.1453
 71
     1
 72
     5
  1

 11
-0.0000000000000002
 21
-1.0
 31
0.0
 73
     1
 44
1.0
1001
ACAD
1000
MTEXTBEGIN
1070
    73
1070
     1
1070
    44
1040
1.0
1070
    74
1070
     0
1000
MTEXTEND
  0
MTEXT
  5
187CE
330
18
100
AcDbEntity
  8
0
100
AcDbMText
 10
280.7738750495033
 20
2115.30742008065
 30
0.0
 40
2.0
 41
0.0
 71
     1
 72
     5
  1

 73
     1
 44
1.0
1001
ACAD
1000
MTEXTBEGIN
1070
    73
1070
     1
1070
    44
1040
1.0
1070
    74
1070
     0
1000
MTEXTEND
  0
MTEXT
  5
187CF
330
18
100
AcDbEntity
  8
0
  6
CENTER
100
AcDbMText
 10
606.3621522332663
 20
2216.239946825076
 30
0.0
 40
2.0
 41
15.6417
 71
     1
 72
     5
  1

  7
BIGFONT
 73
     1
 44
1.0
1001
ACAD
1000
MTEXTBEGIN
1070
    73
1070
     1
1070
    44
1040
1.0
1070
    74
1070
     0
1000
MTEXTEND
  0
MTEXT
  5
187D0
330
18
100
AcDbEntity
  8
0
  6
DASHDOT
100
AcDbMText
 10
368.6842112890945
 20
2323.029441652852
 30
0.0
 40
1.0
 41
2.0
 71
     1
 72
     5
  1

  7
BIGFONT
 73
     1
 44
1.0
1001
ACAD
1000
MTEXTBEGIN
1070
    73
1070
     1
1070
    44
1040
1.0
1070
    74
1070
     0
1000
MTEXTEND
  0
MTEXT
  5
187D1
330
18
100
AcDbEntity
  8
0
  6
ByBlock
100
AcDbMText
 10
325.4873894192178
 20
2232.511722574347
 30
0.0
 40
2.0
 41
0.0
 71
     4
 72
     5
  1

 11
-0.0000000000000002
 21
-1.0
 31
0.0
 73
     1
 44
1.0
1001
ACAD
1000
MTEXTBEGIN
1070
    73
1070
     1
1070
    44
1040
1.0
1070
    74
1070
     0
1000
MTEXTEND
  0
MTEXT
  5
187D2
330
18
100
AcDbEntity
  8
0
  6
ByBlock
100
AcDbMText
 10
360.9527777823708
 20
2221.71841421593
 30
0.0
 40
2.0
 41
0.0
 71
     7
 72
     5
  1

 11
0.0000000000000001
 21
1.0
 31
0.0
 73
     1
 44
1.0
1001
ACAD
1000
MTEXTBEGIN
1070
    73
1070
     1
1070
    44
1040
1.0
1070
    74
1070
     0
1000
MTEXTEND
  0
MTEXT
  5
187D3
330
18
100
AcDbEntity
  8
0
100
AcDbMText
 10
325.1732797977029
 20
2146.93890367364
 30
0.0
 40
2.0
 41
10.1453
 71
     1
 72
     5
  1

 11
-0.0000000000000002
 21
-1.0
 31
0.0
 73
     1
 44
1.0
1001
ACAD
1000
MTEXTBEGIN
1070
    73
1070
     1
1070
    44
1040
1.0
1070
    74
1070
     0
1000
MTEXTEND
  0
MTEXT
  5
187D4
330
18
100
AcDbEntity
  8
0
100
AcDbMText
 10
280.7737880445531
 20
2115.30742008065
 30
0.0
 40
2.0
 41
0.0
 71
     1
 72
     5
  1

 73
     1
 44
1.0
1001
ACAD
1000
MTEXTBEGIN
1070
    73
1070
     1
1070
    44
1040
1.0
1070
    74
1070
     0
1000
MTEXTEND
  0
MTEXT
  5
187D5
330
18
100
AcDbEntity
  8
0
  6
CENTER
100
AcDbMText
 10
606.3620652283159
 20
2216.239946825076
 30
0.0
 40
2.0
 41
15.6417
 71
     1
 72
     5
  1

  7
BIGFONT
 73
     1
 44
1.0
1001
ACAD
1000
MTEXTBEGIN
1070
    73
1070
     1
1070
    44
1040
1.0
1070
    74
1070
     0
1000
MTEXTEND
  0
MTEXT
  5
187D6
330
18
100
AcDbEntity
  8
0
  6
DASHDOT
100
AcDbMText
 10
368.6841242841443
 20
2323.029441652852
 30
0.0
 40
1.0
 41
2.0
 71
     1
 72
     5
  1

  7
BIGFONT
 73
     1
 44
1.0
1001
ACAD
1000
MTEXTBEGIN
1070
    73
1070
     1
1070
    44
1040
1.0
1070
    74
1070
     0
1000
MTEXTEND
  0
INSERT
  5
187D7
330
18
100
AcDbEntity
  8
FRAME025
100
AcDbBlockReference
  2
機械A4横_LBP
 10
271.0019941658661
 20
2006.888840564871
 30
0.0
  0
TEXT
  5
216E7
330
18
100
AcDbEntity
  8
FRAME020
  6
Continuous
100
AcDbText
 10
1272.84444499335
 20
-2736.187561819854
 30
0.0
 40
3.0
  1

 50
270.0
100
AcDbText
  0
MTEXT
  5
21ACC
330
18
100
AcDbEntity
  8
0
100
AcDbMText
 10
62.91095225984048
 20
-1280.130762802907
 30
0.0
 40
2.5
 41
0.625
 71
     9
 72
     1
  1

 73
     1
 44
1.0
1001
ACAD
1000
MTEXTBEGIN
1070
    73
1070
     1
1070
    44
1040
1.0
1070
    74
1070
     0
1000
MTEXTEND
  0
LINE
  5
27C69
330
18
100
AcDbEntity
  8
中心線
 48
0.5
100
AcDbLine
 10
521.431701924283
 20
-2183.191602833293
 30
0.0
 11
506.431701924283
 21
-2183.191602833293
 31
0.0
  0
LINE
  5
27C6A
330
18
100
AcDbEntity
  8
中心線
 48
0.5
100
AcDbLine
 10
506.431701924283
 20
-2298.191602833294
 30
0.0
 11
521.431701924283
 21
-2298.191602833294
 31
0.0
  0
LINE
  5
27C6C
330
18
100
AcDbEntity
  8
実線
100
AcDbLine
 10
482.1317019242832
 20
-2305.691602833293
 30
0.0
 11
801.7317019242831
 21
-2305.691602833293
 31
0.0
  0
LINE
  5
27C6D
330
18
100
AcDbEntity
  8
実線
100
AcDbLine
 10
482.1317019242832
 20
-2287.691602833294
 30
0.0
 11
801.7317019242831
 21
-2287.691602833294
 31
0.0
  0
LINE
  5
27C6E
330
18
100
AcDbEntity
  8
実線
100
AcDbLine
 10
801.7317019242831
 20
-2175.691602833293
 30
0.0
 11
482.1317019242832
 21
-2175.691602833293
 31
0.0
  0
LINE
  5
27C6F
330
18
100
AcDbEntity
  8
実線
100
AcDbLine
 10
801.7317019242829
 20
-2193.691602833293
 30
0.0
 11
482.131701924283
 21
-2193.691602833293
 31
0.0
  0
LINE
  5
27CE7
330
18
100
AcDbEntity
  8
中心線
 48
0.5
100
AcDbLine
 10
513.931701924283
 20
-2190.691602833294
 30
0.0
 11
513.931701924283
 21
-2175.691602833293
 31
0.0
  0
CIRCLE
  5
27CE8
330
18
100
AcDbEntity
  8
細線
100
AcDbCircle
 10
513.931701924283
 20
-2183.191602833293
 30
0.0
 40
2.5
  0
CIRCLE
  5
27CE9
330
18
100
AcDbEntity
  8
実線
100
AcDbCircle
 10
513.931701924283
 20
-2183.191602833293
 30
0.0
 40
2.066999999999999
  0
LINE
  5
27CEA
330
18
100
AcDbEntity
  8
実線
100
AcDbLine
 10
482.131701924283
 20
-2193.691602833293
 30
0.0
 11
482.1317019242832
 21
-2175.691602833293
 31
0.0
  0
LINE
  5
27CEB
330
18
100
AcDbEntity
  8
実線
100
AcDbLine
 10
481.931701924283
 20
-2301.691602833294
 30
0.0
 11
481.931701924283
 21
-2179.691602833293
 31
0.0
  0
LINE
  5
27CEC
330
18
100
AcDbEntity
  8
実線
100
AcDbLine
 10
467.931701924283
 20
-2179.691602833293
 30
0.0
 11
467.931701924283
 21
-2301.691602833294
 31
0.0
  0
LINE
  5
27CF8
330
18
100
AcDbEntity
  8
実線
100
AcDbLine
 10
467.931701924283
 20
-2301.691602833294
 30
0.0
 11
481.931701924283
 21
-2301.691602833294
 31
0.0
  0
LINE
  5
27CF9
330
18
100
AcDbEntity
  8
実線
100
AcDbLine
 10
482.1317019242832
 20
-2287.691602833294
 30
0.0
 11
482.1317019242832
 21
-2305.691602833293
 31
0.0
  0
LINE
  5
27CFA
330
18
100
AcDbEntity
  8
中心線
 48
0.5
100
AcDbLine
 10
513.931701924283
 20
-2290.691602833294
 30
0.0
 11
513.931701924283
 21
-2305.691602833293
 31
0.0
  0
CIRCLE
  5
27CFB
330
18
100
AcDbEntity
  8
実線
100
AcDbCircle
 10
513.931701924283
 20
-2298.191602833294
 30
0.0
 40
2.066999999999999
  0
CIRCLE
  5
27CFC
330
18
100
AcDbEntity
  8
細線
100
AcDbCircle
 10
513.931701924283
 20
-2298.191602833294
 30
0.0
 40
2.5
  0
LINE
  5
27CFD
330
18
100
AcDbEntity
  8
実線
100
AcDbLine
 10
481.931701924283
 20
-2179.691602833293
 30
0.0
 11
467.931701924283
 21
-2179.691602833293
 31
0.0
  0
LINE
  5
27D02
330
18
100
AcDbEntity
  8
中心線
 48
0.5
100
AcDbLine
 10
1090.343443020778
 20
-2240.691602833294
 30
0.0
 11
1032.343443020778
 21
-2240.691602833294
 31
0.0
  0
LWPOLYLINE
  5
27D03
330
18
100
AcDbEntity
  8
実線
100
AcDbPolyline
 90
        4
 70
     1
 43
0.0
 10
1054.343443020778
 20
-2290.691602833294
 10
1054.343443020778
 20
-2190.691602833294
 10
1080.343443020778
 20
-2190.691602833294
 10
1080.343443020778
 20
-2290.691602833294
  0
LINE
  5
27D04
330
18
100
AcDbEntity
  8
実線
100
AcDbLine
 10
1054.343443020778
 20
-2299.691602833294
 30
0.0
 11
1066.343443020778
 21
-2299.691602833294
 31
0.0
  0
LINE
  5
27D05
330
18
100
AcDbEntity
  8
実線
100
AcDbLine
 10
1040.343443020778
 20
-2305.691602833295
 30
0.0
 11
1066.343443020777
 21
-2305.691602833295
 31
0.0
  0
LINE
  5
27D06
330
18
100
AcDbEntity
  8
実線
100
AcDbLine
 10
1040.343443020778
 20
-2175.691602833293
 30
0.0
 11
1066.343443020777
 21
-2175.691602833293
 31
0.0
  0
LINE
  5
27D07
330
18
100
AcDbEntity
  8
実線
100
AcDbLine
 10
1054.343443020778
 20
-2181.691602833294
 30
0.0
 11
1066.343443020778
 21
-2181.691602833294
 31
0.0
  0
LINE
  5
27D08
102
{ACAD_REACTORS
330
27D0A
102
}
330
18
100
AcDbEntity
  8
中心線
 48
0.5
100
AcDbLine
 10
1077.843443020778
 20
-2299.691602833294
 30
0.0
 11
1063.843443020778
 21
-2299.691602833294
 31
0.0
  0
CIRCLE
  5
27D09
102
{ACAD_REACTORS
330
27D0A
102
}
330
18
100
AcDbEntity
  8
実線
 48
0.2
100
AcDbCircle
 10
1070.843443020778
 20
-2299.691602833294
 30
0.0
 40
4.5
  0
HATCH
  5
27D0A
330
18
100
AcDbEntity
  8
0
100
AcDbHatch
 10
0.0
 20
0.0
 30
0.0
210
0.0
220
0.0
230
1.0
  2
ANSI31
 70
     0
 71
     1
 91
        2
 92
        7
 72
     1
 73
     1
 93
        3
 10
1075.343443020778
 20
-2299.691602833294
 42
0.4142135623731316
 10
1070.843443020778
 20
-2295.191602833295
 42
0.0
 10
1070.843443020778
 20
-2299.691602833294
 42
0.0
 97
        3
330
27D09
330
27E04
330
27D08
 92
        7
 72
     1
 73
     1
 93
        3
 10
1070.843443020778
 20
-2304.191602833295
 42
0.0
 10
1070.843443020778
 20
-2299.691602833294
 42
0.0
 10
1066.343443020778
 20
-2299.691602833294
 42
0.4142135623731316
 97
        3
330
27E04
330
27D08
330
27D09
 75
     0
 76
     1
 52
0.0
 41
5.0
 77
     0
 78
     1
 53
45.0
 43
187.9213165620824
 44
-5.24174566782176
 45
-0.4419417382415922
 46
0.4419417382415923
 79
     0
 47
0.0648433176565354
 98
        2
 10
1073.725393967026
 20
-2298.220571519687
 10
1069.508654162638
 20
-2301.397894195675
  0
LWPOLYLINE
  5
27D0D
330
18
100
AcDbEntity
  8
実線
100
AcDbPolyline
 90
        4
 70
     1
 43
0.0
 10
815.9317019242831
 20
-2179.691602833293
 10
801.931701924283
 20
-2179.691602833293
 10
801.931701924283
 20
-2301.691602833294
 10
815.9317019242831
 20
-2301.691602833294
  0
LINE
  5
27D13
330
18
100
AcDbEntity
  8
中心線
 48
0.5
100
AcDbLine
 10
820.9317019242829
 20
-2264.691602833293
 30
0.0
 11
796.931701924283
 21
-2264.691602833293
 31
0.0
  0
LINE
  5
27D14
330
18
100
AcDbEntity
  8
中心線
 48
0.5
100
AcDbLine
 10
820.9317019242829
 20
-2288.691602833293
 30
0.0
 11
796.931701924283
 21
-2288.691602833293
 31
0.0
  0
LINE
  5
27D3D
330
18
100
AcDbEntity
  8
実線
100
AcDbLine
 10
801.7317019242829
 20
-2193.691602833293
 30
0.0
 11
801.7317019242831
 21
-2175.691602833293
 31
0.0
  0
LINE
  5
27D5A
330
18
100
AcDbEntity
  8
実線
100
AcDbLine
 10
801.7317019242831
 20
-2287.691602833294
 30
0.0
 11
801.7317019242831
 21
-2305.691602833293
 31
0.0
  0
CIRCLE
  5
27D9B
330
18
100
AcDbEntity
  8
実線
100
AcDbCircle
 10
1047.843443020778
 20
-2185.691602833294
 30
0.0
 40
4.75
  0
CIRCLE
  5
27D9C
330
18
100
AcDbEntity
  8
0
  6
Continuous
100
AcDbCircle
 10
1047.843443020778
 20
-2185.691602833294
 30
0.0
 40
4.25
  0
CIRCLE
  5
27D9D
330
18
100
AcDbEntity
  8
0
  6
Continuous
100
AcDbCircle
 10
1047.843443020778
 20
-2185.691602833294
 30
0.0
 40
3.749999999999991
  0
LWPOLYLINE
  5
27D9E
330
18
100
AcDbEntity
  8
実線
100
AcDbPolyline
 90
        4
 70
     1
 43
0.0
 10
1042.343443020778
 20
-2179.691602833294
 10
1054.343443020778
 20
-2179.691602833294
 10
1054.343443020778
 20
-2301.691602833294
 10
1042.343443020778
 20
-2301.691602833294
  0
LINE
  5
27D9F
330
18
100
AcDbEntity
  8
実線
100
AcDbLine
 10
1040.343443020778
 20
-2175.691602833293
 30
0.0
 11
1040.343443020778
 21
-2193.691602833293
 31
0.0
  0
LINE
  5
27DE3
330
18
100
AcDbEntity
  8
中心線
 48
0.5
100
AcDbLine
 10
1035.343443020778
 20
-2183.191602833293
 30
0.0
 11
1050.343443020778
 21
-2183.191602833293
 31
0.0
  0
LINE
  5
27DE4
330
18
100
AcDbEntity
  8
中心線
 48
0.5
100
AcDbLine
 10
1035.343443020778
 20
-2298.191602833294
 30
0.0
 11
1050.343443020778
 21
-2298.191602833294
 31
0.0
  0
LINE
  5
27DE7
330
18
100
AcDbEntity
  8
中心線
 48
0.5
100
AcDbLine
 10
1048.343443020778
 20
-2292.457602233294
 30
0.0
 11
1048.343443020778
 21
-2260.925603433293
 31
0.0
  0
LINE
  5
27DE8
330
18
100
AcDbEntity
  8
実線
100
AcDbLine
 10
1040.743443020778
 20
-2193.691602833293
 30
0.0
 11
1040.743443020778
 21
-2287.691602833294
 31
0.0
  0
CIRCLE
  5
27DE9
330
18
100
AcDbEntity
  8
細線
 48
2.0
100
AcDbCircle
 10
1048.343443020778
 20
-2288.691602833294
 30
0.0
 40
2.0
  0
CIRCLE
  5
27DEA
330
18
100
AcDbEntity
  8
実線
100
AcDbCircle
 10
1048.343443020778
 20
-2288.691602833294
 30
0.0
 40
1.75
  0
LINE
  5
27DEB
330
18
100
AcDbEntity
  8
0
  6
Continuous
100
AcDbLine
 10
1047.843443020778
 20
-2293.382201333293
 30
0.0
 11
1049.843443020778
 21
-2294.536902233294
 31
0.0
  0
LINE
  5
27DEC
330
18
100
AcDbEntity
  8
0
  6
Continuous
100
AcDbLine
 10
1049.843443020778
 20
-2296.846303433294
 30
0.0
 11
1047.843443020778
 21
-2298.001004333295
 31
0.0
  0
CIRCLE
  5
27DED
330
18
100
AcDbEntity
  8
実線
100
AcDbCircle
 10
1047.843443020778
 20
-2295.691602833294
 30
0.0
 40
4.75
  0
LINE
  5
27DEE
330
18
100
AcDbEntity
  8
中心線
 48
0.2
100
AcDbLine
 10
1044.577443020778
 20
-2288.691602833294
 30
0.0
 11
1052.109442420778
 21
-2288.691602833294
 31
0.0
  0
CIRCLE
  5
27DEF
330
18
100
AcDbEntity
  8
0
  6
Continuous
100
AcDbCircle
 10
1047.843443020778
 20
-2295.691602833294
 30
0.0
 40
4.25
  0
CIRCLE
  5
27DF0
330
18
100
AcDbEntity
  8
0
  6
Continuous
100
AcDbCircle
 10
1047.843443020778
 20
-2295.691602833294
 30
0.0
 40
3.749999999999991
  0
LINE
  5
27DF1
330
18
100
AcDbEntity
  8
0
  6
Continuous
100
AcDbLine
 10
1047.843443020778
 20
-2293.382201833294
 30
0.0
 11
1045.843442020771
 21
-2294.536902633293
 31
0.0
  0
LINE
  5
27DF2
330
18
100
AcDbEntity
  8
0
  6
Continuous
100
AcDbLine
 10
1047.843443020778
 20
-2298.001003833295
 30
0.0
 11
1045.843442020771
 21
-2296.846303033293
 31
0.0
  0
LINE
  5
27DF3
330
18
100
AcDbEntity
  8
0
  6
Continuous
100
AcDbLine
 10
1045.843443020778
 20
-2294.536902333293
 30
0.0
 11
1045.843443020778
 21
-2296.846303333293
 31
0.0
  0
LINE
  5
27DF4
330
18
100
AcDbEntity
  8
実線
100
AcDbLine
 10
1040.343443020778
 20
-2287.691602833294
 30
0.0
 11
1042.343443020778
 21
-2287.691602833294
 31
0.0
  0
LINE
  5
27DF5
330
18
100
AcDbEntity
  8
実線
100
AcDbLine
 10
1040.343443020778
 20
-2305.691602833295
 30
0.0
 11
1040.343443020778
 21
-2287.691602833294
 31
0.0
  0
LINE
  5
27DF6
330
18
100
AcDbEntity
  8
0
  6
Continuous
100
AcDbLine
 10
1049.843443020778
 20
-2294.536902333293
 30
0.0
 11
1049.843443020778
 21
-2296.846303333293
 31
0.0
  0
LINE
  5
27DF7
330
18
100
AcDbEntity
  8
0
  6
Continuous
100
AcDbLine
 10
1049.843443020778
 20
-2186.846303433294
 30
0.0
 11
1047.843443020778
 21
-2188.001004333294
 31
0.0
  0
LINE
  5
27DF8
330
18
100
AcDbEntity
  8
0
  6
Continuous
100
AcDbLine
 10
1047.843443020778
 20
-2183.382201333293
 30
0.0
 11
1049.843443020778
 21
-2184.536902233294
 31
0.0
  0
CIRCLE
  5
27DF9
330
18
100
AcDbEntity
  8
実線
100
AcDbCircle
 10
1048.343443020778
 20
-2264.691602833294
 30
0.0
 40
1.75
  0
CIRCLE
  5
27DFA
330
18
100
AcDbEntity
  8
細線
 48
2.0
100
AcDbCircle
 10
1048.343443020778
 20
-2264.691602833294
 30
0.0
 40
2.0
  0
LINE
  5
27DFB
330
18
100
AcDbEntity
  8
中心線
 48
0.2
100
AcDbLine
 10
1044.577443020778
 20
-2264.691602833294
 30
0.0
 11
1052.109442420778
 21
-2264.691602833294
 31
0.0
  0
LINE
  5
27DFC
330
18
100
AcDbEntity
  8
0
  6
Continuous
100
AcDbLine
 10
1047.843443020778
 20
-2183.382201833294
 30
0.0
 11
1045.843442020771
 21
-2184.536902633293
 31
0.0
  0
LINE
  5
27DFD
330
18
100
AcDbEntity
  8
0
  6
Continuous
100
AcDbLine
 10
1047.843443020778
 20
-2188.001003833294
 30
0.0
 11
1045.843442020771
 21
-2186.846303033293
 31
0.0
  0
LINE
  5
27DFE
330
18
100
AcDbEntity
  8
0
  6
Continuous
100
AcDbLine
 10
1045.843443020778
 20
-2184.536902333293
 30
0.0
 11
1045.843443020778
 21
-2186.846303333293
 31
0.0
  0
LINE
  5
27DFF
330
18
100
AcDbEntity
  8
実線
100
AcDbLine
 10
1040.343443020778
 20
-2193.691602833293
 30
0.0
 11
1042.343443020778
 21
-2193.691602833293
 31
0.0
  0
LINE
  5
27E00
330
18
100
AcDbEntity
  8
0
  6
Continuous
100
AcDbLine
 10
1049.843443020778
 20
-2184.536902333293
 30
0.0
 11
1049.843443020778
 21
-2186.846303333293
 31
0.0
  0
LINE
  5
27E02
330
18
100
AcDbEntity
  8
実線
100
AcDbLine
 10
1080.343443020778
 20
-2190.691602833294
 30
0.0
 11
1080.343443020778
 21
-2175.691602833293
 31
0.0
  0
LINE
  5
27E03
330
18
100
AcDbEntity
  8
実線
100
AcDbLine
 10
1066.343443020778
 20
-2305.691602833295
 30
0.0
 11
1080.343443020778
 21
-2305.691602833295
 31
0.0
  0
LINE
  5
27E04
102
{ACAD_REACTORS
330
27D0A
102
}
330
18
100
AcDbEntity
  8
中心線
 48
0.5
100
AcDbLine
 10
1070.843443020778
 20
-2292.691602833294
 30
0.0
 11
1070.843443020778
 21
-2306.691602833295
 31
0.0
  0
LINE
  5
27E05
330
18
100
AcDbEntity
  8
実線
100
AcDbLine
 10
1066.343443020778
 20
-2305.691602833295
 30
0.0
 11
1066.343443020779
 21
-2299.691602833294
 31
0.0
  0
LINE
  5
27E06
330
18
100
AcDbEntity
  8
実線
100
AcDbLine
 10
1080.343443020778
 20
-2290.691602833294
 30
0.0
 11
1080.343443020778
 21
-2305.691602833295
 31
0.0
  0
LINE
  5
27E07
330
18
100
AcDbEntity
  8
実線
100
AcDbLine
 10
1066.343443020778
 20
-2175.691602833293
 30
0.0
 11
1080.343443020778
 21
-2175.691602833293
 31
0.0
  0
LINE
  5
27E08
330
18
100
AcDbEntity
  8
実線
100
AcDbLine
 10
1066.343443020778
 20
-2175.691602833293
 30
0.0
 11
1066.343443020779
 21
-2181.691602833294
 31
0.0
  0
LINE
  5
29D0B
330
18
100
AcDbEntity
  8
中心線
 48
0.5
100
AcDbLine
 10
585.431701924283
 20
-2183.191602833293
 30
0.0
 11
570.431701924283
 21
-2183.191602833293
 31
0.0
  0
LINE
  5
29D0C
330
18
100
AcDbEntity
  8
中心線
 48
0.5
100
AcDbLine
 10
570.431701924283
 20
-2298.191602833294
 30
0.0
 11
585.431701924283
 21
-2298.191602833294
 31
0.0
  0
LINE
  5
29D0D
330
18
100
AcDbEntity
  8
中心線
 48
0.5
100
AcDbLine
 10
577.9317019242831
 20
-2190.691602833294
 30
0.0
 11
577.9317019242831
 21
-2175.691602833293
 31
0.0
  0
CIRCLE
  5
29D0E
330
18
100
AcDbEntity
  8
細線
100
AcDbCircle
 10
577.9317019242831
 20
-2183.191602833293
 30
0.0
 40
2.5
  0
CIRCLE
  5
29D0F
330
18
100
AcDbEntity
  8
実線
100
AcDbCircle
 10
577.9317019242831
 20
-2183.191602833293
 30
0.0
 40
2.066999999999999
  0
LINE
  5
29D10
330
18
100
AcDbEntity
  8
中心線
 48
0.5
100
AcDbLine
 10
577.9317019242831
 20
-2290.691602833294
 30
0.0
 11
577.9317019242831
 21
-2305.691602833293
 31
0.0
  0
CIRCLE
  5
29D11
330
18
100
AcDbEntity
  8
実線
100
AcDbCircle
 10
577.9317019242831
 20
-2298.191602833294
 30
0.0
 40
2.066999999999999
  0
CIRCLE
  5
29D12
330
18
100
AcDbEntity
  8
細線
100
AcDbCircle
 10
577.9317019242831
 20
-2298.191602833294
 30
0.0
 40
2.5
  0
LINE
  5
29D13
330
18
100
AcDbEntity
  8
中心線
 48
0.5
100
AcDbLine
 10
649.4317019242831
 20
-2183.191602833293
 30
0.0
 11
634.431701924283
 21
-2183.191602833293
 31
0.0
  0
LINE
  5
29D14
330
18
100
AcDbEntity
  8
中心線
 48
0.5
100
AcDbLine
 10
634.431701924283
 20
-2298.191602833294
 30
0.0
 11
649.4317019242831
 21
-2298.191602833294
 31
0.0
  0
LINE
  5
29D15
330
18
100
AcDbEntity
  8
中心線
 48
0.5
100
AcDbLine
 10
641.931701924283
 20
-2190.691602833294
 30
0.0
 11
641.931701924283
 21
-2175.691602833293
 31
0.0
  0
CIRCLE
  5
29D16
330
18
100
AcDbEntity
  8
細線
100
AcDbCircle
 10
641.931701924283
 20
-2183.191602833293
 30
0.0
 40
2.5
  0
CIRCLE
  5
29D17
330
18
100
AcDbEntity
  8
実線
100
AcDbCircle
 10
641.931701924283
 20
-2183.191602833293
 30
0.0
 40
2.066999999999999
  0
LINE
  5
29D18
330
18
100
AcDbEntity
  8
中心線
 48
0.5
100
AcDbLine
 10
641.931701924283
 20
-2290.691602833294
 30
0.0
 11
641.931701924283
 21
-2305.691602833293
 31
0.0
  0
CIRCLE
  5
29D19
330
18
100
AcDbEntity
  8
実線
100
AcDbCircle
 10
641.931701924283
 20
-2298.191602833294
 30
0.0
 40
2.066999999999999
  0
CIRCLE
  5
29D1A
330
18
100
AcDbEntity
  8
細線
100
AcDbCircle
 10
641.931701924283
 20
-2298.191602833294
 30
0.0
 40
2.5
  0
LINE
  5
29D1B
330
18
100
AcDbEntity
  8
中心線
 48
0.5
100
AcDbLine
 10
713.431701924283
 20
-2183.191602833293
 30
0.0
 11
698.431701924283
 21
-2183.191602833293
 31
0.0
  0
LINE
  5
29D1C
330
18
100
AcDbEntity
  8
中心線
 48
0.5
100
AcDbLine
 10
698.431701924283
 20
-2298.191602833294
 30
0.0
 11
713.431701924283
 21
-2298.191602833294
 31
0.0
  0
LINE
  5
29D1D
330
18
100
AcDbEntity
  8
中心線
 48
0.5
100
AcDbLine
 10
705.931701924283
 20
-2190.691602833294
 30
0.0
 11
705.931701924283
 21
-2175.691602833293
 31
0.0
  0
CIRCLE
  5
29D1E
330
18
100
AcDbEntity
  8
細線
100
AcDbCircle
 10
705.931701924283
 20
-2183.191602833293
 30
0.0
 40
2.5
  0
CIRCLE
  5
29D1F
330
18
100
AcDbEntity
  8
実線
100
AcDbCircle
 10
705.931701924283
 20
-2183.191602833293
 30
0.0
 40
2.066999999999999
  0
LINE
  5
29D20
330
18
100
AcDbEntity
  8
中心線
 48
0.5
100
AcDbLine
 10
705.931701924283
 20
-2290.691602833294
 30
0.0
 11
705.931701924283
 21
-2305.691602833293
 31
0.0
  0
CIRCLE
  5
29D21
330
18
100
AcDbEntity
  8
実線
100
AcDbCircle
 10
705.931701924283
 20
-2298.191602833294
 30
0.0
 40
2.066999999999999
  0
CIRCLE
  5
29D22
330
18
100
AcDbEntity
  8
細線
100
AcDbCircle
 10
705.931701924283
 20
-2298.191602833294
 30
0.0
 40
2.5
  0
LINE
  5
29D23
330
18
100
AcDbEntity
  8
中心線
 48
0.5
100
AcDbLine
 10
777.431701924283
 20
-2183.191602833293
 30
0.0
 11
762.431701924283
 21
-2183.191602833293
 31
0.0
  0
LINE
  5
29D24
330
18
100
AcDbEntity
  8
中心線
 48
0.5
100
AcDbLine
 10
762.431701924283
 20
-2298.191602833294
 30
0.0
 11
777.431701924283
 21
-2298.191602833294
 31
0.0
  0
LINE
  5
29D25
330
18
100
AcDbEntity
  8
中心線
 48
0.5
100
AcDbLine
 10
769.9317019242831
 20
-2190.691602833294
 30
0.0
 11
769.9317019242831
 21
-2175.691602833293
 31
0.0
  0
CIRCLE
  5
29D26
330
18
100
AcDbEntity
  8
細線
100
AcDbCircle
 10
769.9317019242831
 20
-2183.191602833293
 30
0.0
 40
2.5
  0
CIRCLE
  5
29D27
330
18
100
AcDbEntity
  8
実線
100
AcDbCircle
 10
769.9317019242831
 20
-2183.191602833293
 30
0.0
 40
2.066999999999999
  0
LINE
  5
29D28
330
18
100
AcDbEntity
  8
中心線
 48
0.5
100
AcDbLine
 10
769.9317019242831
 20
-2290.691602833294
 30
0.0
 11
769.9317019242831
 21
-2305.691602833293
 31
0.0
  0
CIRCLE
  5
29D29
330
18
100
AcDbEntity
  8
実線
100
AcDbCircle
 10
769.9317019242831
 20
-2298.191602833294
 30
0.0
 40
2.066999999999999
  0
CIRCLE
  5
29D2A
330
18
100
AcDbEntity
  8
細線
100
AcDbCircle
 10
769.9317019242831
 20
-2298.191602833294
 30
0.0
 40
2.5
  0
LINE
  5
29F9A
330
18
100
AcDbEntity
  8
実線
100
AcDbLine
 10
374.6636234085789
 20
-2181.691602833294
 30
0.0
 11
362.6636234085789
 21
-2181.691602833294
 31
0.0
  0
LINE
  5
29F9B
330
18
100
AcDbEntity
  8
実線
100
AcDbLine
 10
374.6636234085789
 20
-2299.691602833294
 30
0.0
 11
362.6636234085789
 21
-2299.691602833294
 31
0.0
  0
LWPOLYLINE
  5
29F9C
330
18
100
AcDbEntity
  8
実線
100
AcDbPolyline
 90
        4
 70
     1
 43
0.0
 10
374.6636234085789
 20
-2290.691602833294
 10
374.6636234085789
 20
-2190.691602833294
 10
348.6636234085789
 20
-2190.691602833294
 10
348.6636234085789
 20
-2290.691602833294
  0
LINE
  5
29F9D
330
18
100
AcDbEntity
  8
中心線
 48
0.5
100
AcDbLine
 10
338.6636234085789
 20
-2240.691602833294
 30
0.0
 11
396.6636234085789
 21
-2240.691602833294
 31
0.0
  0
LINE
  5
29F9E
330
18
100
AcDbEntity
  8
実線
100
AcDbLine
 10
388.6636234085789
 20
-2305.691602833295
 30
0.0
 11
362.6636234085798
 21
-2305.691602833295
 31
0.0
  0
LINE
  5
29F9F
330
18
100
AcDbEntity
  8
実線
100
AcDbLine
 10
388.6636234085789
 20
-2175.691602833293
 30
0.0
 11
362.6636234085798
 21
-2175.691602833293
 31
0.0
  0
LINE
  5
29FA0
330
18
100
AcDbEntity
  8
実線
100
AcDbLine
 10
348.6636234085789
 20
-2190.691602833294
 30
0.0
 11
348.6636234085789
 21
-2175.691602833293
 31
0.0
  0
LINE
  5
29FA3
330
18
100
AcDbEntity
  8
実線
100
AcDbLine
 10
362.6636234085789
 20
-2305.691602833295
 30
0.0
 11
348.6636234085789
 21
-2305.691602833295
 31
0.0
  0
LINE
  5
29FA4
330
18
100
AcDbEntity
  8
実線
100
AcDbLine
 10
348.6636234085789
 20
-2290.691602833294
 30
0.0
 11
348.6636234085789
 21
-2305.691602833295
 31
0.0
  0
LINE
  5
29FA5
330
18
100
AcDbEntity
  8
実線
100
AcDbLine
 10
362.6636234085789
 20
-2305.691602833295
 30
0.0
 11
362.663623408578
 21
-2299.691602833294
 31
0.0
  0
LINE
  5
29FA6
330
18
100
AcDbEntity
  8
実線
100
AcDbLine
 10
362.6636234085789
 20
-2175.691602833293
 30
0.0
 11
348.6636234085789
 21
-2175.691602833293
 31
0.0
  0
LINE
  5
29FA7
330
18
100
AcDbEntity
  8
実線
100
AcDbLine
 10
362.6636234085789
 20
-2175.691602833293
 30
0.0
 11
362.663623408578
 21
-2181.691602833294
 31
0.0
  0
LINE
  5
29FA9
330
18
100
AcDbEntity
  8
実線
100
AcDbLine
 10
388.6636234085789
 20
-2175.691602833293
 30
0.0
 11
388.6636234085789
 21
-2193.691602833293
 31
0.0
  0
CIRCLE
  5
29FAA
330
18
100
AcDbEntity
  8
0
  6
Continuous
100
AcDbCircle
 10
381.1636234085788
 20
-2185.691602833294
 30
0.0
 40
3.749999999999991
  0
CIRCLE
  5
29FAB
330
18
100
AcDbEntity
  8
0
  6
Continuous
100
AcDbCircle
 10
381.1636234085788
 20
-2185.691602833294
 30
0.0
 40
4.25
  0
CIRCLE
  5
29FAC
330
18
100
AcDbEntity
  8
実線
100
AcDbCircle
 10
381.1636234085788
 20
-2185.691602833294
 30
0.0
 40
4.75
  0
LWPOLYLINE
  5
29FAD
330
18
100
AcDbEntity
  8
実線
100
AcDbPolyline
 90
        4
 70
     1
 43
0.0
 10
386.6636234085789
 20
-2179.691602833294
 10
374.6636234085789
 20
-2179.691602833294
 10
374.6636234085789
 20
-2301.691602833294
 10
386.6636234085789
 20
-2301.691602833294
  0
CIRCLE
  5
29FAE
330
18
100
AcDbEntity
  8
0
  6
Continuous
100
AcDbCircle
 10
381.1636234085788
 20
-2295.691602833294
 30
0.0
 40
4.25
  0
CIRCLE
  5
29FAF
330
18
100
AcDbEntity
  8
実線
100
AcDbCircle
 10
381.1636234085788
 20
-2295.691602833294
 30
0.0
 40
4.75
  0
LINE
  5
29FB0
330
18
100
AcDbEntity
  8
0
  6
Continuous
100
AcDbLine
 10
381.1636234085788
 20
-2293.382201833294
 30
0.0
 11
383.1636244085864
 21
-2294.536902633293
 31
0.0
  0
LINE
  5
29FB1
330
18
100
AcDbEntity
  8
0
  6
Continuous
100
AcDbLine
 10
381.1636234085788
 20
-2293.382201333293
 30
0.0
 11
379.1636234085788
 21
-2294.536902233294
 31
0.0
  0
LINE
  5
29FB2
330
18
100
AcDbEntity
  8
0
  6
Continuous
100
AcDbLine
 10
381.1636234085788
 20
-2298.001003833295
 30
0.0
 11
383.1636244085864
 21
-2296.846303033293
 31
0.0
  0
LINE
  5
29FB3
330
18
100
AcDbEntity
  8
0
  6
Continuous
100
AcDbLine
 10
379.1636234085788
 20
-2296.846303433294
 30
0.0
 11
381.1636234085788
 21
-2298.001004333295
 31
0.0
  0
LINE
  5
29FB4
330
18
100
AcDbEntity
  8
0
  6
Continuous
100
AcDbLine
 10
379.1636234085788
 20
-2294.536902333293
 30
0.0
 11
379.1636234085788
 21
-2296.846303333293
 31
0.0
  0
LINE
  5
29FB5
330
18
100
AcDbEntity
  8
0
  6
Continuous
100
AcDbLine
 10
383.1636234085788
 20
-2294.536902333293
 30
0.0
 11
383.1636234085788
 21
-2296.846303333293
 31
0.0
  0
CIRCLE
  5
29FB6
330
18
100
AcDbEntity
  8
0
  6
Continuous
100
AcDbCircle
 10
381.1636234085788
 20
-2295.691602833294
 30
0.0
 40
3.749999999999991
  0
LINE
  5
29FB7
330
18
100
AcDbEntity
  8
0
  6
Continuous
100
AcDbLine
 10
381.1636234085788
 20
-2183.382201833294
 30
0.0
 11
383.1636244085864
 21
-2184.536902633293
 31
0.0
  0
LINE
  5
29FB8
330
18
100
AcDbEntity
  8
0
  6
Continuous
100
AcDbLine
 10
381.1636234085788
 20
-2183.382201333293
 30
0.0
 11
379.1636234085788
 21
-2184.536902233294
 31
0.0
  0
LINE
  5
29FB9
330
18
100
AcDbEntity
  8
0
  6
Continuous
100
AcDbLine
 10
379.1636234085788
 20
-2184.536902333293
 30
0.0
 11
379.1636234085788
 21
-2186.846303333293
 31
0.0
  0
LINE
  5
29FBA
330
18
100
AcDbEntity
  8
0
  6
Continuous
100
AcDbLine
 10
383.1636234085788
 20
-2184.536902333293
 30
0.0
 11
383.1636234085788
 21
-2186.846303333293
 31
0.0
  0
LINE
  5
29FBB
330
18
100
AcDbEntity
  8
0
  6
Continuous
100
AcDbLine
 10
381.1636234085788
 20
-2188.001003833294
 30
0.0
 11
383.1636244085864
 21
-2186.846303033293
 31
0.0
  0
LINE
  5
29FBC
330
18
100
AcDbEntity
  8
0
  6
Continuous
100
AcDbLine
 10
379.1636234085788
 20
-2186.846303433294
 30
0.0
 11
381.1636234085788
 21
-2188.001004333294
 31
0.0
  0
LINE
  5
29FBD
330
18
100
AcDbEntity
  8
実線
100
AcDbLine
 10
388.2636234085789
 20
-2193.691602833293
 30
0.0
 11
388.2636234085789
 21
-2287.691602833294
 31
0.0
  0
LINE
  5
29FBE
330
18
100
AcDbEntity
  8
実線
100
AcDbLine
 10
388.6636234085789
 20
-2287.691602833294
 30
0.0
 11
386.6636234085789
 21
-2287.691602833294
 31
0.0
  0
LINE
  5
29FBF
330
18
100
AcDbEntity
  8
実線
100
AcDbLine
 10
388.6636234085789
 20
-2305.691602833295
 30
0.0
 11
388.6636234085789
 21
-2287.691602833294
 31
0.0
  0
LINE
  5
29FC0
330
18
100
AcDbEntity
  8
実線
100
AcDbLine
 10
388.6636234085789
 20
-2193.691602833293
 30
0.0
 11
386.6636234085789
 21
-2193.691602833293
 31
0.0
  0
TEXT
  5
2A065
330
18
100
AcDbEntity
  8
0
100
AcDbText
 10
359.2223637243234
 20
-2224.988446291348
 30
0.0
 40
2.0
  1
SER No.******
 50
270.0
 41
1.199999999999999
  7
MS\U+FF7A\U+FF9E\U+FF7C\U+FF6F\U+FF78N
 11
358.8570199743234
 21
-2224.988446291348
 31
0.0
100
AcDbText
 73
     1
  0
TEXT
  5
2A066
330
18
100
AcDbEntity
  8
0
100
AcDbText
 10
362.0463555277039
 20
-2225.01557286416
 30
0.0
 40
2.6
  1
MODEL:CLNA1000MA
 50
270.0
 41
1.199999999999999
  7
MS\U+FF7A\U+FF9E\U+FF7C\U+FF6F\U+FF78N
 11
361.5714086527039
 21
-2225.01557286416
 31
0.0
100
AcDbText
 73
     1
  0
HATCH
  5
2A067
330
18
100
AcDbEntity
  8
0
100
AcDbHatch
 10
0.0
 20
0.0
 30
0.0
210
0.0
220
0.0
230
1.0
  2
SOLID
 70
     1
 71
     1
 91
        2
 92
       17
 93
        1
 72
     2
 10
355.9188968265806
 20
-2228.140649334372
 40
0.6007500000000002
 50
0.0
 51
360.0
 73
     1
 97
        1
330
2A06E
 92
        1
 93
        8
 72
     2
 10
355.9207596172781
 20
-2228.141580729721
 40
1.00311322310025
 50
23.58977727260604
 51
179.9468005913668
 73
     1
 72
     2
 10
355.7186468265807
 20
-2228.140649334372
 40
0.8009999999999999
 50
180.0
 51
360.0
 73
     1
 72
     1
 10
356.5196468265811
 20
-2228.140649334372
 11
356.5196468265811
 21
-2230.383449334372
 72
     1
 10
356.5196468265811
 20
-2230.383449334372
 11
354.5171468265806
 21
-2230.143149334372
 72
     1
 10
354.5171468265806
 20
-2230.143149334372
 11
354.5171468265806
 21
-2225.737649334372
 72
     1
 10
354.5171468265806
 20
-2225.737649334372
 11
357.7211468265803
 21
-2226.138149334372
 72
     1
 10
357.7211468265803
 20
-2226.138149334372
 11
357.7211468265803
 21
-2230.543649334372
 72
     1
 10
357.7211468265803
 20
-2230.543649334372
 11
356.8400468265807
 21
-2227.740149334373
 97
        8
330
2A074
330
2A06F
330
2A073
330
2A071
330
2A069
330
2A079
330
2A068
330
2A072
 75
     0
 76
     1
 98
        1
 10
358.3983716423407
 20
-2026.662939240137
  0
LINE
  5
2A068
102
{ACAD_REACTORS
330
2A067
102
}
330
18
100
AcDbEntity
  8
0
100
AcDbLine
 10
357.7211468265803
 20
-2226.138149334372
 30
0.0
 11
357.7211468265803
 21
-2230.543649334372
 31
0.0
  0
LINE
  5
2A069
102
{ACAD_REACTORS
330
2A067
102
}
330
18
100
AcDbEntity
  8
0
100
AcDbLine
 10
354.5171468265806
 20
-2225.737649334372
 30
0.0
 11
354.5171468265806
 21
-2230.143149334372
 31
0.0
  0
LINE
  5
2A06A
330
18
100
AcDbEntity
  8
0
100
AcDbLine
 10
365.6636234085789
 20
-2257.691602833293
 30
0.0
 11
365.6636234085789
 21
-2223.691602833294
 31
0.0
  0
LINE
  5
2A06B
330
18
100
AcDbEntity
  8
0
100
AcDbLine
 10
358.6636234085789
 20
-2223.191602833294
 30
0.0
 11
358.6636234085789
 21
-2258.191602833294
 31
0.0
  0
LINE
  5
2A06C
330
18
100
AcDbEntity
  8
0
100
AcDbLine
 10
353.6636234085789
 20
-2223.691602833294
 30
0.0
 11
353.6636234085789
 21
-2257.691602833293
 31
0.0
  0
TEXT
  5
2A06D
330
18
100
AcDbEntity
  8
0
100
AcDbText
 10
354.5648809651646
 20
-2231.359748558759
 30
0.0
 40
1.44
  1
DENSO
 50
270.0
 41
1.3
  7
TIMESNR
100
AcDbText
  0
CIRCLE
  5
2A06E
102
{ACAD_REACTORS
330
2A067
102
}
330
18
100
AcDbEntity
  8
0
100
AcDbCircle
 10
355.9188968265806
 20
-2228.140649334372
 30
0.0
 40
0.6007500000000002
  0
ARC
  5
2A06F
102
{ACAD_REACTORS
330
2A067
102
}
330
18
100
AcDbEntity
  8
0
100
AcDbCircle
 10
355.7186468265807
 20
-2228.140649334372
 30
0.0
 40
0.8009999999999999
100
AcDbArc
 50
180.0
 51
0.0
  0
TEXT
  5
2A070
330
18
100
AcDbEntity
  8
0
100
AcDbText
 10
356.2616433741503
 20
-2231.4811616689
 30
0.0
 40
1.44
  1
NIKKI
 50
270.0
 41
1.25
  7
TIMESNR
100
AcDbText
  0
LINE
  5
2A071
102
{ACAD_REACTORS
330
2A067
102
}
330
18
100
AcDbEntity
  8
0
100
AcDbLine
 10
354.5171468265806
 20
-2230.143149334372
 30
0.0
 11
356.5196468265811
 21
-2230.383449334372
 31
0.0
  0
LINE
  5
2A072
102
{ACAD_REACTORS
330
2A067
102
}
330
18
100
AcDbEntity
  8
0
100
AcDbLine
 10
357.7211468265803
 20
-2230.543649334372
 30
0.0
 11
356.8400468265807
 21
-2227.740149334373
 31
0.0
  0
LINE
  5
2A073
102
{ACAD_REACTORS
330
2A067
102
}
330
18
100
AcDbEntity
  8
0
100
AcDbLine
 10
356.5196468265811
 20
-2228.140649334372
 30
0.0
 11
356.5196468265811
 21
-2230.383449334372
 31
0.0
  0
ARC
  5
2A074
102
{ACAD_REACTORS
330
2A067
102
}
330
18
100
AcDbEntity
  8
0
100
AcDbCircle
 10
355.9207596172781
 20
-2228.141580729721
 30
0.0
 40
1.00311322310025
100
AcDbArc
 50
23.58977727260604
 51
179.9468005913668
  0
LINE
  5
2A075
330
18
100
AcDbEntity
  8
0
100
AcDbLine
 10
354.1636234085789
 20
-2258.191602833294
 30
0.0
 11
365.1636234085789
 21
-2258.191602833294
 31
0.0
  0
ARC
  5
2A076
330
18
100
AcDbEntity
  8
0
100
AcDbCircle
 10
365.1636234085789
 20
-2257.691602833293
 30
0.0
 40
0.5
100
AcDbArc
 50
270.0
 51
0.0
  0
ARC
  5
2A077
330
18
100
AcDbEntity
  8
0
100
AcDbCircle
 10
354.1636234085789
 20
-2257.691602833293
 30
0.0
 40
0.5
100
AcDbArc
 50
180.0
 51
270.0
  0
LINE
  5
2A078
330
18
100
AcDbEntity
  8
0
100
AcDbLine
 10
365.1636234085789
 20
-2223.191602833294
 30
0.0
 11
354.1636234085789
 21
-2223.191602833294
 31
0.0
  0
LINE
  5
2A079
102
{ACAD_REACTORS
330
2A067
102
}
330
18
100
AcDbEntity
  8
0
100
AcDbLine
 10
354.5171468265806
 20
-2225.737649334372
 30
0.0
 11
357.7211468265803
 21
-2226.138149334372
 31
0.0
  0
ARC
  5
2A07A
330
18
100
AcDbEntity
  8
0
100
AcDbCircle
 10
365.1636234085789
 20
-2223.691602833294
 30
0.0
 40
0.5
100
AcDbArc
 50
0.0
 51
90.0
  0
ARC
  5
2A07B
330
18
100
AcDbEntity
  8
0
100
AcDbCircle
 10
354.1636234085789
 20
-2223.691602833294
 30
0.0
 40
0.5
100
AcDbArc
 50
90.0
 51
180.0
  0
TEXT
  5
2A07C
330
18
100
AcDbEntity
  8
0
100
AcDbText
 10
356.1681148223897
 20
-2242.813263227846
 30
137.5
 40
1.5
  1
SN-16140
 50
270.0
  7
MS\U+FF7A\U+FF9E\U+FF7C\U+FF6F\U+FF78N
 11
355.8941070098898
 21
-2242.813263227846
 31
137.5
100
AcDbText
 73
     1
  0
TEXT
  5
2A07D
330
18
100
AcDbEntity
  8
0
100
AcDbText
 10
354.2983287720035
 20
-2242.813263227846
 30
137.5
 40
1.5
  1
MADE IN JAPAN
 50
270.0
  7
MS\U+FF7A\U+FF9E\U+FF7C\U+FF6F\U+FF78N
 11
354.0243209595035
 21
-2242.813263227846
 31
137.5
100
AcDbText
 73
     1
  0
HATCH
  5
2A07E
330
18
100
AcDbEntity
  8
細線
100
AcDbHatch
 10
0.0
 20
0.0
 30
0.0
210
0.0
220
0.0
230
1.0
  2
ANSI31
 70
     0
 71
     0
 91
        2
 92
        7
 72
     1
 73
     1
 93
        8
 10
362.8527811105267
 20
-2220.162445131347
 42
0.8256926312273156
 10
361.6636234085789
 20
-2213.991602833294
 42
0.0
 10
361.6636234085789
 20
-2213.458269499961
 42
0.0
 10
360.5969567419123
 20
-2214.524936166627
 42
0.0
 10
361.6636234085789
 20
-2215.591602833294
 42
0.0
 10
361.6636234085789
 20
-2215.05826949996
 42
-0.8235057969380607
 10
362.4666969254639
 20
-2219.168009683512
 42
0.0
 10
363.1569567419127
 20
-2219.85826949996
 42
0.0
 97
        0
 92
        7
 72
     1
 73
     1
 93
        8
 10
360.474465706632
 20
-2214.220760535241
 42
0.8256926312273465
 10
361.6636234085789
 20
-2220.391602833294
 42
0.0
 10
361.6636234085789
 20
-2220.924936166627
 42
0.0
 10
362.7302900752455
 20
-2219.85826949996
 42
0.0
 10
361.6636234085789
 20
-2218.791602833294
 42
0.0
 10
361.6636234085789
 20
-2219.324936166628
 42
-0.8235057969380607
 10
360.860549891694
 20
-2215.215195983075
 42
0.0
 10
360.1702900752461
 20
-2214.524936166627
 42
0.0
 97
        0
 75
     0
 76
     1
 52
270.0
 41
0.0106666666666667
 77
     0
 78
     1
 53
314.9999999999999
 43
251.1445003475281
 44
-1835.053043621028
 45
0.0239473496561844
 46
0.0239473496561844
 79
     0
 47
0.0
 98
        2
 10
363.9423965592413
 20
-2218.524496796897
 10
360.9809469725586
 20
-2219.834368729468
1001
ACAD
1010
0.0
1020
0.0
1030
0.0
  0
LINE
  5
2A07F
102
{ACAD_REACTORS
330
2A07E
102
}
330
18
100
AcDbEntity
  8
細線
100
AcDbLine
 10
361.6636234085789
 20
-2218.791602833294
 30
0.0
 11
361.6636234085789
 21
-2219.324936166628
 31
0.0
  0
LINE
  5
2A080
102
{ACAD_REACTORS
330
2A07E
102
}
330
18
100
AcDbEntity
  8
細線
100
AcDbLine
 10
362.7302900752455
 20
-2219.85826949996
 30
0.0
 11
361.6636234085789
 21
-2218.791602833294
 31
0.0
  0
LINE
  5
2A081
102
{ACAD_REACTORS
330
2A07E
102
}
330
18
100
AcDbEntity
  8
細線
100
AcDbLine
 10
362.7302900752455
 20
-2219.85826949996
 30
0.0
 11
361.6636234085789
 21
-2220.924936166627
 31
0.0
  0
LINE
  5
2A082
102
{ACAD_REACTORS
330
2A07E
102
}
330
18
100
AcDbEntity
  8
細線
100
AcDbLine
 10
361.6636234085789
 20
-2215.591602833294
 30
0.0
 11
361.6636234085789
 21
-2215.05826949996
 31
0.0
  0
LINE
  5
2A083
102
{ACAD_REACTORS
330
2A07E
102
}
330
18
100
AcDbEntity
  8
細線
100
AcDbLine
 10
360.5969567419123
 20
-2214.524936166627
 30
0.0
 11
361.6636234085789
 21
-2215.591602833294
 31
0.0
  0
LINE
  5
2A084
102
{ACAD_REACTORS
330
2A07E
102
}
330
18
100
AcDbEntity
  8
細線
100
AcDbLine
 10
360.5969567419123
 20
-2214.524936166627
 30
0.0
 11
361.6636234085789
 21
-2213.458269499961
 31
0.0
  0
MTEXT
  5
2A085
330
18
100
AcDbEntity
  8
細線
100
AcDbMText
 10
363.1175694323037
 20
-2215.449195088238
 30
0.0
 40
2.933333333333333
 41
4.005499725684842
 71
     1
 72
     5
  1
{\fImpact|b0|i0|c128|p49;15}
  7
MS\U+FF7A\U+FF9E\U+FF7C\U+FF6F\U+FF78
 11
-0.0000000000000002
 21
-1.0
 31
0.0
 73
     1
 44
1.0
1001
ACAD
1000
MTEXTBEGIN
1070
    73
1070
     1
1070
    44
1040
1.0
1070
    74
1070
     0
1000
MTEXTEND
1000
ACAD_MTEXT_DEFINED_HEIGHT_BEGIN
1070
    46
1040
224.1841841841842
1000
ACAD_MTEXT_DEFINED_HEIGHT_END
  0
ARC
  5
2A086
102
{ACAD_REACTORS
330
2A07E
102
}
330
18
100
AcDbEntity
  8
細線
100
AcDbCircle
 10
361.6636234085789
 20
-2217.191602833294
 30
0.0
 40
2.133333333333333
100
AcDbArc
 50
112.1133855977474
 51
270.0
  0
ARC
  5
2A087
102
{ACAD_REACTORS
330
2A07E
102
}
330
18
100
AcDbEntity
  8
細線
100
AcDbCircle
 10
361.6636234085789
 20
-2217.191602833294
 30
0.0
 40
3.2
100
AcDbArc
 50
111.8150544339211
 51
270.0
  0
LINE
  5
2A088
102
{ACAD_REACTORS
330
2A07E
102
}
330
18
100
AcDbEntity
  8
細線
100
AcDbLine
 10
360.1702900752461
 20
-2214.524936166627
 30
0.0
 11
360.860549891694
 21
-2215.215195983075
 31
0.0
  0
LINE
  5
2A089
102
{ACAD_REACTORS
330
2A07E
102
}
330
18
100
AcDbEntity
  8
細線
100
AcDbLine
 10
360.1702900752461
 20
-2214.524936166627
 30
0.0
 11
360.474465706632
 21
-2214.220760535241
 31
0.0
  0
LINE
  5
2A08A
102
{ACAD_REACTORS
330
2A07E
102
}
330
18
100
AcDbEntity
  8
細線
100
AcDbLine
 10
363.1569567419127
 20
-2219.85826949996
 30
0.0
 11
362.4666969254639
 21
-2219.168009683512
 31
0.0
  0
LINE
  5
2A08B
102
{ACAD_REACTORS
330
2A07E
102
}
330
18
100
AcDbEntity
  8
細線
100
AcDbLine
 10
363.1569567419127
 20
-2219.85826949996
 30
0.0
 11
362.8527811105267
 21
-2220.162445131347
 31
0.0
  0
ARC
  5
2A08C
102
{ACAD_REACTORS
330
2A07E
102
}
330
18
100
AcDbEntity
  8
細線
100
AcDbCircle
 10
361.6636234085789
 20
-2217.191602833294
 30
0.0
 40
2.133333333333333
100
AcDbArc
 50
292.1133855977474
 51
90.0
  0
ARC
  5
2A08D
102
{ACAD_REACTORS
330
2A07E
102
}
330
18
100
AcDbEntity
  8
細線
100
AcDbCircle
 10
361.6636234085789
 20
-2217.191602833294
 30
0.0
 40
3.2
100
AcDbArc
 50
291.8150544339212
 51
90.0
  0
LINE
  5
2A08E
102
{ACAD_REACTORS
330
2A07E
102
}
330
18
100
AcDbEntity
  8
細線
100
AcDbLine
 10
361.6636234085789
 20
-2213.991602833294
 30
0.0
 11
361.6636234085789
 21
-2213.458269499961
 31
0.0
  0
LINE
  5
2A08F
102
{ACAD_REACTORS
330
2A07E
102
}
330
18
100
AcDbEntity
  8
細線
100
AcDbLine
 10
361.6636234085789
 20
-2220.391602833294
 30
0.0
 11
361.6636234085789
 21
-2220.924936166627
 31
0.0
  0
CIRCLE
  5
2A090
330
18
100
AcDbEntity
  8
細線
100
AcDbCircle
 10
361.6636234085789
 20
-2217.191602833294
 30
0.0
 40
4.0
  0
LINE
  5
2A091
102
{ACAD_REACTORS
330
2A0A8
102
}
330
18
100
AcDbEntity
  8
細線
100
AcDbLine
 10
357.663623408579
 20
-2260.691602833293
 30
0.0
 11
357.663623408579
 21
-2272.691602833293
 31
0.0
  0
LINE
  5
2A092
102
{ACAD_REACTORS
330
2A0A8
102
}
330
18
100
AcDbEntity
  8
細線
100
AcDbLine
 10
362.1636234085789
 20
-2260.191602833293
 30
0.0
 11
362.1636234085789
 21
-2273.191602833294
 31
0.0
  0
LINE
  5
2A093
330
18
100
AcDbEntity
  8
細線
100
AcDbLine
 10
365.6636234085789
 20
-2272.691602833293
 30
0.0
 11
365.6636234085789
 21
-2260.691602833293
 31
0.0
  0
LINE
  5
2A094
102
{ACAD_REACTORS
330
2A0A8
102
}
330
18
100
AcDbEntity
  8
細線
100
AcDbLine
 10
365.1636234085789
 20
-2260.191602833293
 30
0.0
 11
358.1636234085789
 21
-2260.191602833293
 31
0.0
  0
LINE
  5
2A095
102
{ACAD_REACTORS
330
2A0A8
102
}
330
18
100
AcDbEntity
  8
細線
100
AcDbLine
 10
358.1636234085789
 20
-2273.191602833294
 30
0.0
 11
365.1636234085789
 21
-2273.191602833294
 31
0.0
  0
TEXT
  5
2A096
102
{ACAD_REACTORS
330
2A0A8
102
}
330
18
100
AcDbEntity
  8
細線
100
AcDbText
 10
360.4380835889605
 20
-2265.291539938429
 30
0.0
 40
1.08
  1
NIKKI
 50
270.0
 41
1.354166666666666
  7
TIMESNR
100
AcDbText
  0
LINE
  5
2A097
102
{ACAD_REACTORS
330
2A0A8
102
}
330
18
100
AcDbEntity
  8
細線
100
AcDbLine
 10
361.5327111782834
 20
-2264.529811166626
 30
0.0
 11
360.8718861782835
 21
-2262.251967416626
 31
0.0
  0
LINE
  5
2A098
102
{ACAD_REACTORS
330
2A0A8
102
}
330
18
100
AcDbEntity
  8
細線
100
AcDbLine
 10
359.1297111782832
 20
-2260.624936166626
 30
0.0
 11
361.5327111782834
 21
-2260.950342416627
 31
0.0
  0
TEXT
  5
2A099
102
{ACAD_REACTORS
330
2A0A8
102
}
330
18
100
AcDbEntity
  8
細線
100
AcDbText
 10
359.165511782221
 20
-2265.192891786442
 30
0.0
 40
1.08
  1
DENSO
 50
270.0
 41
1.408333333333333
  7
TIMESNR
100
AcDbText
  0
LINE
  5
2A09A
102
{ACAD_REACTORS
330
2A0A8
102
}
330
18
100
AcDbEntity
  8
細線
100
AcDbLine
 10
360.6315861782831
 20
-2262.577373666626
 30
0.0
 11
360.6315861782831
 21
-2264.399648666627
 31
0.0
  0
LINE
  5
2A09B
102
{ACAD_REACTORS
330
2A0A8
102
}
330
18
100
AcDbEntity
  8
細線
100
AcDbLine
 10
359.1297111782832
 20
-2260.624936166626
 30
0.0
 11
359.1297111782832
 21
-2264.204404916626
 31
0.0
  0
ELLIPSE
  5
2A09C
102
{ACAD_REACTORS
330
2A0A8
102
}
330
18
100
AcDbEntity
  8
細線
100
AcDbEllipse
 10
360.1810236782829
 20
-2262.577373666626
 30
0.0
 11
-0.0000000000000001
 21
-0.488109375
 31
0.0
210
0.0
220
0.0
230
1.0
 40
0.9230769230769231
 41
0.0
 42
6.283185307179586
  0
ELLIPSE
  5
2A09D
102
{ACAD_REACTORS
330
2A0A8
102
}
330
18
100
AcDbEntity
  8
細線
100
AcDbEllipse
 10
360.1824207713061
 20
-2262.578130425348
 30
0.0
 11
-0.0000000000000001
 21
-0.8150294937689535
 31
0.0
210
0.0
220
0.0
230
1.0
 40
0.9230769230769231
 41
1.982515610014399
 42
4.711460475544681
  0
ELLIPSE
  5
2A09E
102
{ACAD_REACTORS
330
2A0A8
102
}
330
18
100
AcDbEntity
  8
細線
100
AcDbEllipse
 10
360.0308361782835
 20
-2262.577373666626
 30
0.0
 11
-0.0000000000000001
 21
-0.6508125000000002
 31
0.0
210
0.0
220
0.0
230
1.0
 40
0.9230769230769231
 41
4.712388980384689
 42
7.853981633974482
  0
LINE
  5
2A09F
102
{ACAD_REACTORS
330
2A0A8
102
}
330
18
100
AcDbEntity
  8
細線
100
AcDbLine
 10
359.1297111782832
 20
-2264.204404916626
 30
0.0
 11
360.6315861782831
 21
-2264.399648666627
 31
0.0
  0
LINE
  5
2A0A0
102
{ACAD_REACTORS
330
2A0A8
102
}
330
18
100
AcDbEntity
  8
細線
100
AcDbLine
 10
361.5327111782834
 20
-2260.950342416627
 30
0.0
 11
361.5327111782834
 21
-2264.529811166626
 31
0.0
  0
TEXT
  5
2A0A1
330
18
100
AcDbEntity
  8
細線
100
AcDbText
 10
362.9292135068498
 20
-2261.088180396942
 30
0.0
 40
2.0
  1
Certificate
 50
270.0
 41
0.8
  7
MS\U+FF7A\U+FF9E\U+FF7C\U+FF6F\U+FF78
100
AcDbText
  0
TEXT
  5
2A0A2
102
{ACAD_REACTORS
330
2A0A8
102
}
330
18
100
AcDbEntity
  8
細線
100
AcDbText
 10
358.0872651442195
 20
-2267.526422248384
 30
0.0
 40
0.8
  1
S20-0010A
 50
270.0
100
AcDbText
  0
LINE
  5
2A0A3
102
{ACAD_REACTORS
330
2A0A8
102
}
330
18
100
AcDbEntity
  8
細線
100
AcDbLine
 10
360.6729931192848
 20
-2261.960206171242
 30
0.0
 11
360.7528123904821
 21
-2262.046677048371
 31
0.0
  0
ARC
  5
2A0A4
102
{ACAD_REACTORS
330
2A0A8
102
}
330
18
100
AcDbEntity
  8
細線
100
AcDbCircle
 10
358.1636234085789
 20
-2260.691602833293
 30
0.0
 40
0.5
100
AcDbArc
 50
90.0
 51
180.0
  0
ARC
  5
2A0A5
102
{ACAD_REACTORS
330
2A0A8
102
}
330
18
100
AcDbEntity
  8
細線
100
AcDbCircle
 10
358.1636234085789
 20
-2272.691602833293
 30
0.0
 40
0.5
100
AcDbArc
 50
180.0
 51
270.0
  0
ARC
  5
2A0A6
330
18
100
AcDbEntity
  8
細線
100
AcDbCircle
 10
365.1636234085789
 20
-2272.691602833293
 30
0.0
 40
0.4999999999999999
100
AcDbArc
 50
270.0
 51
0.0
  0
ARC
  5
2A0A7
330
18
100
AcDbEntity
  8
細線
100
AcDbCircle
 10
365.1636234085789
 20
-2260.691602833293
 30
0.0
 40
0.5
100
AcDbArc
 50
0.0
 51
90.0
  0
HATCH
  5
2A0A8
330
18
100
AcDbEntity
  8
細線
100
AcDbHatch
 10
0.0
 20
0.0
 30
0.0
210
0.0
220
0.0
230
1.0
  2
ANSI31
 70
     0
 71
     1
 91
        5
 92
        1
 93
        6
 72
     1
 10
358.1636234085789
 20
-2273.191602833294
 11
365.1636234085789
 21
-2273.191602833294
 72
     1
 10
362.1636234085789
 20
-2260.191602833293
 11
362.1636234085789
 21
-2273.191602833294
 72
     1
 10
365.1636234085789
 20
-2260.191602833293
 11
358.1636234085789
 21
-2260.191602833293
 72
     2
 10
358.1636234085789
 20
-2260.691602833293
 40
0.5
 50
90.0
 51
180.0
 73
     1
 72
     1
 10
357.663623408579
 20
-2260.691602833293
 11
357.663623408579
 21
-2272.691602833293
 72
     2
 10
358.1636234085789
 20
-2272.691602833293
 40
0.5
 50
180.0
 51
270.0
 73
     1
 97
        6
330
2A095
330
2A092
330
2A094
330
2A0A4
330
2A091
330
2A0A5
 92
        9
 93
        4
 72
     1
 10
357.8622651442195
 20
-2267.376422248384
 11
359.1122651442195
 21
-2267.376422248384
 72
     1
 10
359.1122651442195
 20
-2267.376422248384
 11
359.1122651442195
 21
-2272.79308891505
 72
     1
 10
359.1122651442195
 20
-2272.793088915051
 11
357.8622651442194
 21
-2272.793088915051
 72
     1
 10
357.8622651442195
 20
-2272.793088915051
 11
357.8622651442195
 21
-2267.376422248384
 97
        1
330
2A0A2
 92
       16
 93
       10
 72
     1
 10
359.1297111782832
 20
-2260.624936166626
 11
361.5327111782834
 21
-2260.950342416627
 72
     1
 10
361.5327111782834
 20
-2260.950342416627
 11
361.5327111782834
 21
-2264.529811166626
 72
     1
 10
361.5327111782834
 20
-2264.529811166626
 11
360.8718861782835
 21
-2262.251967416626
 72
     3
 10
360.1824207713061
 20
-2262.578130425348
 11
-0.0000000000000001
 21
-0.8150294937689535
 40
0.9230769230769231
 50
115.3172642090603
 51
269.9423673102363
 73
     1
 72
     1
 10
360.6729931192848
 20
-2261.960206171242
 11
360.7528123904821
 21
-2262.046677048371
 72
     3
 10
360.0308361782835
 20
-2262.577373666626
 11
-0.0000000000000001
 21
-0.6508125000000002
 40
0.9230769230769231
 50
270.0
 51
450.0
 73
     1
 72
     3
 10
360.1810236782829
 20
-2262.577373666626
 11
-0.0000000000000001
 21
-0.488109375
 40
0.9230769230769231
 50
0.0
 51
360.0
 73
     1
 72
     1
 10
360.6315861782831
 20
-2262.577373666626
 11
360.6315861782831
 21
-2264.399648666627
 72
     1
 10
359.1297111782832
 20
-2264.204404916626
 11
360.6315861782831
 21
-2264.399648666627
 72
     1
 10
359.1297111782832
 20
-2260.624936166626
 11
359.1297111782832
 21
-2264.204404916626
 97
       10
330
2A098
330
2A0A0
330
2A097
330
2A09D
330
2A0A3
330
2A09E
330
2A09C
330
2A09A
330
2A09F
330
2A09B
 92
       24
 93
        4
 72
     1
 10
360.0607862916632
 20
-2264.903724623114
 11
361.854299805177
 21
-2264.903724623114
 72
     1
 10
361.854299805177
 20
-2264.903724623114
 11
361.854299805177
 21
-2271.719670569059
 72
     1
 10
361.854299805177
 20
-2271.71967056906
 11
360.0607862916632
 21
-2271.71967056906
 72
     1
 10
360.0607862916632
 20
-2271.71967056906
 11
360.0607862916632
 21
-2264.903724623114
 97
        1
330
2A096
 92
       24
 93
        4
 72
     1
 10
358.7817279984371
 20
-2264.872477372027
 11
360.605511782221
 21
-2264.872477372027
 72
     1
 10
360.605511782221
 20
-2264.872477372027
 11
360.605511782221
 21
-2272.958441335991
 72
     1
 10
360.605511782221
 20
-2272.958441335991
 11
358.7817279984371
 21
-2272.958441335991
 72
     1
 10
358.7817279984371
 20
-2272.958441335991
 11
358.7817279984371
 21
-2264.872477372028
 97
        1
330
2A099
 75
     0
 76
     1
 52
270.0
 41
5.0
 77
     0
 78
     1
 53
314.9999999999999
 43
186.345013992024
 44
-2351.226121865318
 45
0.4419417382415923
 46
0.4419417382415922
 79
     0
 98
        2
 10
361.7089021212249
 20
-2263.739779994735
 10
361.7089021212249
 20
-2263.739779994735
1001
ACAD
1010
0.0
1020
0.0
1030
0.0
  0
LINE
  5
2B0D8
330
18
100
AcDbEntity
  8
実線
100
AcDbLine
 10
482.1317019242824
 20
-2453.482086375944
 30
0.0
 11
801.7317019242815
 21
-2453.482086375944
 31
0.0
  0
LINE
  5
2B0D9
330
18
100
AcDbEntity
  8
実線
100
AcDbLine
 10
482.1317019242824
 20
-2479.482086375944
 30
0.0
 11
801.7317019242815
 21
-2479.482086375944
 31
0.0
  0
LINE
  5
2B0DA
330
18
100
AcDbEntity
  8
実線
100
AcDbLine
 10
481.9317019242824
 20
-2493.482086375943
 30
0.0
 11
801.9317019242816
 21
-2493.482086375944
 31
0.0
  0
LINE
  5
2B0DB
330
18
100
AcDbEntity
  8
実線
100
AcDbLine
 10
467.9317019242823
 20
-2467.482086375943
 30
0.0
 11
481.9317019242824
 21
-2467.482086375943
 31
0.0
  0
LINE
  5
2B0DC
330
18
100
AcDbEntity
  8
実線
100
AcDbLine
 10
481.9317019242824
 20
-2493.482086375943
 30
0.0
 11
467.9317019242823
 21
-2493.482086375943
 31
0.0
  0
LINE
  5
2B0DD
330
18
100
AcDbEntity
  8
実線
100
AcDbLine
 10
467.9317019242823
 20
-2455.482086375943
 30
0.0
 11
481.9317019242824
 21
-2455.482086375943
 31
0.0
  0
LINE
  5
2B0DE
330
18
100
AcDbEntity
  8
実線
100
AcDbLine
 10
467.9317019242823
 20
-2493.482086375943
 30
0.0
 11
467.9317019242823
 21
-2455.482086375943
 31
0.0
  0
LINE
  5
2B0DF
330
18
100
AcDbEntity
  8
実線
100
AcDbLine
 10
481.9317019242824
 20
-2455.482086375945
 30
0.0
 11
481.9317019242824
 21
-2493.482086375943
 31
0.0
  0
LINE
  5
2B0E0
330
18
100
AcDbEntity
  8
実線
100
AcDbLine
 10
482.1317019242824
 20
-2453.482086375943
 30
0.0
 11
482.1317019242824
 21
-2479.482086375944
 31
0.0
  0
LINE
  5
2B0E1
330
18
100
AcDbEntity
  8
実線
100
AcDbLine
 10
801.9317019242816
 20
-2455.482086375945
 30
0.0
 11
815.9317019242831
 21
-2455.482086375945
 31
0.0
  0
LINE
  5
2B0E2
330
18
100
AcDbEntity
  8
実線
100
AcDbLine
 10
815.9317019242816
 20
-2493.482086375944
 30
0.0
 11
801.9317019242816
 21
-2493.482086375944
 31
0.0
  0
LINE
  5
2B0E3
330
18
100
AcDbEntity
  8
実線
100
AcDbLine
 10
801.9317019242816
 20
-2467.482086375945
 30
0.0
 11
815.9317019242816
 21
-2467.482086375945
 31
0.0
  0
LINE
  5
2B0EE
330
18
100
AcDbEntity
  8
実線
100
AcDbLine
 10
801.7317019242815
 20
-2453.482086375944
 30
0.0
 11
801.7317019242815
 21
-2479.482086375944
 31
0.0
  0
LINE
  5
2B0EF
330
18
100
AcDbEntity
  8
実線
100
AcDbLine
 10
801.9317019242816
 20
-2493.482086375944
 30
0.0
 11
801.9317019242816
 21
-2455.482086375945
 31
0.0
  0
LINE
  5
2B0F0
330
18
100
AcDbEntity
  8
実線
100
AcDbLine
 10
815.9317019242831
 20
-2455.482086375945
 30
0.0
 11
815.931701924282
 21
-2479.982086375943
 31
0.0
  0
LINE
  5
2B0F1
330
18
100
AcDbEntity
  8
実線
100
AcDbLine
 10
815.9317019242818
 20
-2487.982086375943
 30
0.0
 11
815.9317019242816
 21
-2493.482086375944
 31
0.0
  0
LINE
  5
2B156
330
18
100
AcDbEntity
  8
実線
100
AcDbLine
 10
801.9317019242814
 20
-2467.482086375945
 30
0.0
 11
815.9317019242815
 21
-2467.482086375945
 31
0.0
  0
LINE
  5
2B15A
330
18
100
AcDbEntity
  8
破線
 48
0.03
100
AcDbLine
 10
815.9317019242831
 20
-2459.732086375945
 30
0.0
 11
803.931701924283
 21
-2459.732086375945
 31
0.0
  0
LINE
  5
2B15B
330
18
100
AcDbEntity
  8
破線
 48
0.03
100
AcDbLine
 10
815.9317019242831
 20
-2459.482086375945
 30
0.0
 11
805.9317019242831
 21
-2459.482086375945
 31
0.0
  0
LINE
  5
2B15C
330
18
100
AcDbEntity
  8
破線
 48
0.03
100
AcDbLine
 10
802.9213389531964
 20
-2461.482086375945
 30
0.0
 11
803.931701924283
 21
-2459.732086375945
 31
0.0
  0
LINE
  5
2B15D
330
18
100
AcDbEntity
  8
破線
 48
0.03
100
AcDbLine
 10
803.931701924283
 20
-2463.232086375945
 30
0.0
 11
803.931701924283
 21
-2459.732086375945
 31
0.0
  0
LINE
  5
2B15E
330
18
100
AcDbEntity
  8
破線
 48
0.03
100
AcDbLine
 10
805.9317019242831
 20
-2459.482086375945
 30
0.0
 11
805.4986892223846
 21
-2459.732086375945
 31
0.0
  0
LINE
  5
2B15F
330
18
100
AcDbEntity
  8
破線
 48
0.03
100
AcDbLine
 10
805.9317019242831
 20
-2463.482086375945
 30
0.0
 11
805.9317019242831
 21
-2459.482086375945
 31
0.0
  0
LINE
  5
2B160
330
18
100
AcDbEntity
  8
破線
 48
0.03
100
AcDbLine
 10
802.9213389531964
 20
-2461.482086375945
 30
0.0
 11
803.931701924283
 21
-2463.232086375945
 31
0.0
  0
LINE
  5
2B161
330
18
100
AcDbEntity
  8
破線
 48
0.03
100
AcDbLine
 10
815.9317019242831
 20
-2463.482086375945
 30
0.0
 11
805.9317019242831
 21
-2463.482086375945
 31
0.0
  0
LINE
  5
2B162
330
18
100
AcDbEntity
  8
破線
 48
0.03
100
AcDbLine
 10
815.9317019242831
 20
-2463.232086375945
 30
0.0
 11
803.931701924283
 21
-2463.232086375945
 31
0.0
  0
LINE
  5
2B163
330
18
100
AcDbEntity
  8
破線
 48
0.03
100
AcDbLine
 10
805.9317019242831
 20
-2463.482086375945
 30
0.0
 11
805.4986892223846
 21
-2463.232086375945
 31
0.0
  0
LINE
  5
2B164
330
18
100
AcDbEntity
  8
中心線
 48
0.5
100
AcDbLine
 10
817.8242954744954
 20
-2461.482086375945
 30
0.0
 11
799.8809200067722
 21
-2461.482086375945
 31
0.0
  0
LINE
  5
2B1B4
330
18
100
AcDbEntity
  8
破線
 48
0.03
100
AcDbLine
 10
511.831701924282
 20
-2466.482086375944
 30
0.0
 11
516.0317019242827
 21
-2466.482086375944
 31
0.0
  0
LINE
  5
2B1B5
330
18
100
AcDbEntity
  8
破線
 48
0.03
100
AcDbLine
 10
516.4317019242806
 20
-2463.482086375945
 30
0.0
 11
511.4317019242824
 21
-2463.482086375945
 31
0.0
  0
LINE
  5
2B1B6
330
18
100
AcDbEntity
  8
破線
 48
0.03
100
AcDbLine
 10
516.4317019242823
 20
-2463.482086375945
 30
0.0
 11
516.0317019242827
 21
-2464.174906698979
 31
0.0
  0
LINE
  5
2B1B7
330
18
100
AcDbEntity
  8
破線
 48
0.03
100
AcDbLine
 10
516.0317019242827
 20
-2453.482086375944
 30
0.0
 11
516.0317019242827
 21
-2466.482086375944
 31
0.0
  0
LINE
  5
2B1B8
330
18
100
AcDbEntity
  8
破線
 48
0.03
100
AcDbLine
 10
516.4317019242823
 20
-2453.482086375944
 30
0.0
 11
516.4317019242823
 21
-2463.482086375945
 31
0.0
  0
LINE
  5
2B1B9
330
18
100
AcDbEntity
  8
破線
 48
0.03
100
AcDbLine
 10
511.4317019242824
 20
-2463.482086375945
 30
0.0
 11
511.831701924282
 21
-2464.174906698979
 31
0.0
  0
LINE
  5
2B1BA
330
18
100
AcDbEntity
  8
破線
 48
0.03
100
AcDbLine
 10
511.831701924282
 20
-2453.482086375944
 30
0.0
 11
511.831701924282
 21
-2466.482086375944
 31
0.0
  0
LINE
  5
2B1BB
330
18
100
AcDbEntity
  8
中心線
 48
0.5
100
AcDbLine
 10
513.9317019242823
 20
-2451.458346755576
 30
0.0
 11
513.9317019242823
 21
-2469.279970176721
 31
0.0
  0
LINE
  5
2B1BC
330
18
100
AcDbEntity
  8
破線
 48
0.03
100
AcDbLine
 10
511.4317019242824
 20
-2453.482086375944
 30
0.0
 11
511.4317019242824
 21
-2463.482086375945
 31
0.0
  0
LINE
  5
2B1BD
330
18
100
AcDbEntity
  8
破線
 48
0.03
100
AcDbLine
 10
516.4317019242823
 20
-2453.482086375944
 30
0.0
 11
511.4317019242824
 21
-2453.482086375944
 31
0.0
  0
LINE
  5
2B1BE
330
18
100
AcDbEntity
  8
破線
 48
0.03
100
AcDbLine
 10
513.9317019242823
 20
-2467.694521941251
 30
0.0
 11
516.0317019242827
 21
-2466.482086375944
 31
0.0
  0
LINE
  5
2B1BF
330
18
100
AcDbEntity
  8
破線
 48
0.03
100
AcDbLine
 10
513.9317019242823
 20
-2467.694521941251
 30
0.0
 11
511.831701924282
 21
-2466.482086375944
 31
0.0
  0
LINE
  5
2B1C0
330
18
100
AcDbEntity
  8
破線
 48
0.03
100
AcDbLine
 10
575.831701924282
 20
-2466.482086375944
 30
0.0
 11
580.0317019242827
 21
-2466.482086375944
 31
0.0
  0
LINE
  5
2B1C1
330
18
100
AcDbEntity
  8
破線
 48
0.03
100
AcDbLine
 10
580.4317019242805
 20
-2463.482086375945
 30
0.0
 11
575.4317019242823
 21
-2463.482086375945
 31
0.0
  0
LINE
  5
2B1C2
330
18
100
AcDbEntity
  8
破線
 48
0.03
100
AcDbLine
 10
580.4317019242823
 20
-2463.482086375945
 30
0.0
 11
580.0317019242827
 21
-2464.174906698979
 31
0.0
  0
LINE
  5
2B1C3
330
18
100
AcDbEntity
  8
破線
 48
0.03
100
AcDbLine
 10
580.0317019242827
 20
-2453.482086375944
 30
0.0
 11
580.0317019242827
 21
-2466.482086375944
 31
0.0
  0
LINE
  5
2B1C4
330
18
100
AcDbEntity
  8
破線
 48
0.03
100
AcDbLine
 10
580.4317019242823
 20
-2453.482086375944
 30
0.0
 11
580.4317019242823
 21
-2463.482086375945
 31
0.0
  0
LINE
  5
2B1C5
330
18
100
AcDbEntity
  8
破線
 48
0.03
100
AcDbLine
 10
575.4317019242823
 20
-2463.482086375945
 30
0.0
 11
575.831701924282
 21
-2464.174906698979
 31
0.0
  0
LINE
  5
2B1C6
330
18
100
AcDbEntity
  8
破線
 48
0.03
100
AcDbLine
 10
575.831701924282
 20
-2453.482086375944
 30
0.0
 11
575.831701924282
 21
-2466.482086375944
 31
0.0
  0
LINE
  5
2B1C7
330
18
100
AcDbEntity
  8
中心線
 48
0.5
100
AcDbLine
 10
577.9317019242824
 20
-2451.458346755576
 30
0.0
 11
577.9317019242824
 21
-2469.279970176721
 31
0.0
  0
LINE
  5
2B1C8
330
18
100
AcDbEntity
  8
破線
 48
0.03
100
AcDbLine
 10
575.4317019242823
 20
-2453.482086375944
 30
0.0
 11
575.4317019242823
 21
-2463.482086375945
 31
0.0
  0
LINE
  5
2B1C9
330
18
100
AcDbEntity
  8
破線
 48
0.03
100
AcDbLine
 10
580.4317019242823
 20
-2453.482086375944
 30
0.0
 11
575.4317019242823
 21
-2453.482086375944
 31
0.0
  0
LINE
  5
2B1CA
330
18
100
AcDbEntity
  8
破線
 48
0.03
100
AcDbLine
 10
577.9317019242824
 20
-2467.694521941251
 30
0.0
 11
580.0317019242827
 21
-2466.482086375944
 31
0.0
  0
LINE
  5
2B1CB
330
18
100
AcDbEntity
  8
破線
 48
0.03
100
AcDbLine
 10
577.9317019242824
 20
-2467.694521941251
 30
0.0
 11
575.831701924282
 21
-2466.482086375944
 31
0.0
  0
LINE
  5
2B1CC
330
18
100
AcDbEntity
  8
破線
 48
0.03
100
AcDbLine
 10
639.831701924282
 20
-2466.482086375944
 30
0.0
 11
644.0317019242827
 21
-2466.482086375944
 31
0.0
  0
LINE
  5
2B1CD
330
18
100
AcDbEntity
  8
破線
 48
0.03
100
AcDbLine
 10
644.4317019242805
 20
-2463.482086375945
 30
0.0
 11
639.4317019242824
 21
-2463.482086375945
 31
0.0
  0
LINE
  5
2B1CE
330
18
100
AcDbEntity
  8
破線
 48
0.03
100
AcDbLine
 10
644.4317019242824
 20
-2463.482086375945
 30
0.0
 11
644.0317019242827
 21
-2464.174906698979
 31
0.0
  0
LINE
  5
2B1CF
330
18
100
AcDbEntity
  8
破線
 48
0.03
100
AcDbLine
 10
644.0317019242827
 20
-2453.482086375944
 30
0.0
 11
644.0317019242827
 21
-2466.482086375944
 31
0.0
  0
LINE
  5
2B1D0
330
18
100
AcDbEntity
  8
破線
 48
0.03
100
AcDbLine
 10
644.4317019242824
 20
-2453.482086375944
 30
0.0
 11
644.4317019242824
 21
-2463.482086375945
 31
0.0
  0
LINE
  5
2B1D1
330
18
100
AcDbEntity
  8
破線
 48
0.03
100
AcDbLine
 10
639.4317019242824
 20
-2463.482086375945
 30
0.0
 11
639.831701924282
 21
-2464.174906698979
 31
0.0
  0
LINE
  5
2B1D2
330
18
100
AcDbEntity
  8
破線
 48
0.03
100
AcDbLine
 10
639.831701924282
 20
-2453.482086375944
 30
0.0
 11
639.831701924282
 21
-2466.482086375944
 31
0.0
  0
LINE
  5
2B1D3
330
18
100
AcDbEntity
  8
中心線
 48
0.5
100
AcDbLine
 10
641.9317019242823
 20
-2451.458346755576
 30
0.0
 11
641.9317019242823
 21
-2469.279970176721
 31
0.0
  0
LINE
  5
2B1D4
330
18
100
AcDbEntity
  8
破線
 48
0.03
100
AcDbLine
 10
639.4317019242824
 20
-2453.482086375944
 30
0.0
 11
639.4317019242824
 21
-2463.482086375945
 31
0.0
  0
LINE
  5
2B1D5
330
18
100
AcDbEntity
  8
破線
 48
0.03
100
AcDbLine
 10
644.4317019242824
 20
-2453.482086375944
 30
0.0
 11
639.4317019242824
 21
-2453.482086375944
 31
0.0
  0
LINE
  5
2B1D6
330
18
100
AcDbEntity
  8
破線
 48
0.03
100
AcDbLine
 10
641.9317019242823
 20
-2467.694521941251
 30
0.0
 11
644.0317019242827
 21
-2466.482086375944
 31
0.0
  0
LINE
  5
2B1D7
330
18
100
AcDbEntity
  8
破線
 48
0.03
100
AcDbLine
 10
641.9317019242823
 20
-2467.694521941251
 30
0.0
 11
639.831701924282
 21
-2466.482086375944
 31
0.0
  0
LINE
  5
2B1D8
330
18
100
AcDbEntity
  8
破線
 48
0.03
100
AcDbLine
 10
703.8317019242819
 20
-2466.482086375944
 30
0.0
 11
708.0317019242827
 21
-2466.482086375944
 31
0.0
  0
LINE
  5
2B1D9
330
18
100
AcDbEntity
  8
破線
 48
0.03
100
AcDbLine
 10
708.4317019242805
 20
-2463.482086375945
 30
0.0
 11
703.4317019242823
 21
-2463.482086375945
 31
0.0
  0
LINE
  5
2B1DA
330
18
100
AcDbEntity
  8
破線
 48
0.03
100
AcDbLine
 10
708.4317019242823
 20
-2463.482086375945
 30
0.0
 11
708.0317019242827
 21
-2464.174906698979
 31
0.0
  0
LINE
  5
2B1DB
330
18
100
AcDbEntity
  8
破線
 48
0.03
100
AcDbLine
 10
708.0317019242827
 20
-2453.482086375944
 30
0.0
 11
708.0317019242827
 21
-2466.482086375944
 31
0.0
  0
LINE
  5
2B1DC
330
18
100
AcDbEntity
  8
破線
 48
0.03
100
AcDbLine
 10
708.4317019242823
 20
-2453.482086375944
 30
0.0
 11
708.4317019242823
 21
-2463.482086375945
 31
0.0
  0
LINE
  5
2B1DD
330
18
100
AcDbEntity
  8
破線
 48
0.03
100
AcDbLine
 10
703.4317019242823
 20
-2463.482086375945
 30
0.0
 11
703.8317019242819
 21
-2464.174906698979
 31
0.0
  0
LINE
  5
2B1DE
330
18
100
AcDbEntity
  8
破線
 48
0.03
100
AcDbLine
 10
703.8317019242819
 20
-2453.482086375944
 30
0.0
 11
703.8317019242819
 21
-2466.482086375944
 31
0.0
  0
LINE
  5
2B1DF
330
18
100
AcDbEntity
  8
中心線
 48
0.5
100
AcDbLine
 10
705.9317019242824
 20
-2451.458346755576
 30
0.0
 11
705.9317019242824
 21
-2469.279970176721
 31
0.0
  0
LINE
  5
2B1E0
330
18
100
AcDbEntity
  8
破線
 48
0.03
100
AcDbLine
 10
703.4317019242823
 20
-2453.482086375944
 30
0.0
 11
703.4317019242823
 21
-2463.482086375945
 31
0.0
  0
LINE
  5
2B1E1
330
18
100
AcDbEntity
  8
破線
 48
0.03
100
AcDbLine
 10
708.4317019242823
 20
-2453.482086375944
 30
0.0
 11
703.4317019242823
 21
-2453.482086375944
 31
0.0
  0
LINE
  5
2B1E2
330
18
100
AcDbEntity
  8
破線
 48
0.03
100
AcDbLine
 10
705.9317019242824
 20
-2467.694521941251
 30
0.0
 11
708.0317019242827
 21
-2466.482086375944
 31
0.0
  0
LINE
  5
2B1E3
330
18
100
AcDbEntity
  8
破線
 48
0.03
100
AcDbLine
 10
705.9317019242824
 20
-2467.694521941251
 30
0.0
 11
703.8317019242819
 21
-2466.482086375944
 31
0.0
  0
LINE
  5
2B1E4
330
18
100
AcDbEntity
  8
破線
 48
0.03
100
AcDbLine
 10
767.831701924282
 20
-2466.482086375944
 30
0.0
 11
772.0317019242827
 21
-2466.482086375944
 31
0.0
  0
LINE
  5
2B1E5
330
18
100
AcDbEntity
  8
破線
 48
0.03
100
AcDbLine
 10
772.4317019242805
 20
-2463.482086375945
 30
0.0
 11
767.4317019242823
 21
-2463.482086375945
 31
0.0
  0
LINE
  5
2B1E6
330
18
100
AcDbEntity
  8
破線
 48
0.03
100
AcDbLine
 10
772.4317019242824
 20
-2463.482086375945
 30
0.0
 11
772.0317019242827
 21
-2464.174906698979
 31
0.0
  0
LINE
  5
2B1E7
330
18
100
AcDbEntity
  8
破線
 48
0.03
100
AcDbLine
 10
772.0317019242827
 20
-2453.482086375944
 30
0.0
 11
772.0317019242827
 21
-2466.482086375944
 31
0.0
  0
LINE
  5
2B1E8
330
18
100
AcDbEntity
  8
破線
 48
0.03
100
AcDbLine
 10
772.4317019242824
 20
-2453.482086375944
 30
0.0
 11
772.4317019242824
 21
-2463.482086375945
 31
0.0
  0
LINE
  5
2B1E9
330
18
100
AcDbEntity
  8
破線
 48
0.03
100
AcDbLine
 10
767.4317019242823
 20
-2463.482086375945
 30
0.0
 11
767.831701924282
 21
-2464.174906698979
 31
0.0
  0
LINE
  5
2B1EA
330
18
100
AcDbEntity
  8
破線
 48
0.03
100
AcDbLine
 10
767.831701924282
 20
-2453.482086375944
 30
0.0
 11
767.831701924282
 21
-2466.482086375944
 31
0.0
  0
LINE
  5
2B1EB
330
18
100
AcDbEntity
  8
中心線
 48
0.5
100
AcDbLine
 10
769.9317019242823
 20
-2451.458346755576
 30
0.0
 11
769.9317019242823
 21
-2469.279970176721
 31
0.0
  0
LINE
  5
2B1EC
330
18
100
AcDbEntity
  8
破線
 48
0.03
100
AcDbLine
 10
767.4317019242823
 20
-2453.482086375944
 30
0.0
 11
767.4317019242823
 21
-2463.482086375945
 31
0.0
  0
LINE
  5
2B1ED
330
18
100
AcDbEntity
  8
破線
 48
0.03
100
AcDbLine
 10
772.4317019242824
 20
-2453.482086375944
 30
0.0
 11
767.4317019242823
 21
-2453.482086375944
 31
0.0
  0
LINE
  5
2B1EE
330
18
100
AcDbEntity
  8
破線
 48
0.03
100
AcDbLine
 10
769.9317019242823
 20
-2467.694521941251
 30
0.0
 11
772.0317019242827
 21
-2466.482086375944
 31
0.0
  0
LINE
  5
2B1EF
330
18
100
AcDbEntity
  8
破線
 48
0.03
100
AcDbLine
 10
769.9317019242823
 20
-2467.694521941251
 30
0.0
 11
767.831701924282
 21
-2466.482086375944
 31
0.0
  0
LINE
  5
2B559
330
18
100
AcDbEntity
  8
中心線
100
AcDbLine
 10
835.9317019242826
 20
-2483.982086375943
 30
0.0
 11
793.1156428010999
 21
-2483.982086375943
 31
0.0
  0
LINE
  5
2B55C
330
18
100
AcDbEntity
  8
中心線
 48
0.5
100
AcDbLine
 10
889.1756340412735
 20
-2427.758178202091
 30
0.0
 11
891.9179036281061
 21
-2412.205994549796
 31
0.0
  0
LINE
  5
2B55D
330
18
100
AcDbEntity
  8
中心線
 48
0.5
100
AcDbLine
 10
891.1756340412734
 20
-2427.758178202091
 30
0.0
 11
893.9179036281061
 21
-2412.205994549796
 31
0.0
  0
LINE
  5
2B55E
330
18
100
AcDbEntity
  8
中心線
100
AcDbLine
 10
879.9317019242826
 20
-2419.982086375944
 30
0.0
 11
980.313034039336
 21
-2419.982086375944
 31
0.0
  0
LINE
  5
2B55F
330
18
100
AcDbEntity
  8
実線
100
AcDbLine
 10
954.131701924285
 20
-2427.608885956433
 30
0.0
 11
930.1317019242851
 21
-2427.608885956433
 31
0.0
  0
LINE
  5
2B560
330
18
100
AcDbEntity
  8
実線
100
AcDbLine
 10
954.131701924285
 20
-2412.483885956432
 30
0.0
 11
930.1317019242851
 21
-2412.483885956432
 31
0.0
  0
LINE
  5
2B561
330
18
100
AcDbEntity
  8
実線
100
AcDbLine
 10
908.2317019242855
 20
-2417.708885956433
 30
0.0
 11
930.1317019242851
 21
-2421.408885956433
 31
0.0
  0
LINE
  5
2B562
330
18
100
AcDbEntity
  8
実線
100
AcDbLine
 10
908.2317019242855
 20
-2420.108885956433
 30
0.0
 11
930.1317019242851
 21
-2423.808885956434
 31
0.0
  0
LINE
  5
2B563
330
18
100
AcDbEntity
  8
実線
100
AcDbLine
 10
908.2317019242855
 20
-2419.708885956433
 30
0.0
 11
930.1317019242851
 21
-2423.408885956432
 31
0.0
  0
LINE
  5
2B564
330
18
100
AcDbEntity
  8
実線
100
AcDbLine
 10
908.2317019242855
 20
-2422.108885956433
 30
0.0
 11
930.1317019242851
 21
-2425.808885956434
 31
0.0
  0
LINE
  5
2B565
330
18
100
AcDbEntity
  8
実線
100
AcDbLine
 10
908.823593816176
 20
-2417.808885956434
 30
0.0
 11
930.1317019242851
 21
-2414.208885956433
 31
0.0
  0
LINE
  5
2B566
330
18
100
AcDbEntity
  8
実線
100
AcDbLine
 10
921.9008294410633
 20
-2420.018281929588
 30
0.0
 11
930.1317019242851
 21
-2418.608885956433
 31
0.0
  0
LINE
  5
2B567
330
18
100
AcDbEntity
  8
実線
100
AcDbLine
 10
915.9262965188808
 20
-2419.008885956433
 30
0.0
 11
930.1317019242851
 21
-2416.608885956433
 31
0.0
  0
LINE
  5
2B568
330
18
100
AcDbEntity
  8
実線
100
AcDbLine
 10
914.8457958840172
 20
-2418.826335620862
 30
0.0
 11
930.1317019242851
 21
-2416.208885956434
 31
0.0
  0
LINE
  5
2B569
330
18
100
AcDbEntity
  8
実線
100
AcDbLine
 10
914.8457958840172
 20
-2421.226335620862
 30
0.0
 11
916.0216348101911
 21
-2421.024993338984
 31
0.0
  0
LINE
  5
2B56A
330
18
100
AcDbEntity
  8
実線
100
AcDbLine
 10
930.1317019242851
 20
-2412.733885956433
 30
0.0
 11
930.1317019242851
 21
-2427.483885956433
 31
0.0
  0
LINE
  5
2B56B
330
18
100
AcDbEntity
  8
実線
100
AcDbLine
 10
930.1317019242851
 20
-2412.483885956432
 30
0.0
 11
930.1317019242851
 21
-2427.608885956433
 31
0.0
  0
LINE
  5
2B56C
330
18
100
AcDbEntity
  8
実線
100
AcDbLine
 10
955.131701924285
 20
-2421.608885956433
 30
0.0
 11
968.1317019242849
 21
-2421.608885956433
 31
0.0
  0
LINE
  5
2B56D
330
18
100
AcDbEntity
  8
実線
100
AcDbLine
 10
955.131701924285
 20
-2418.608885956433
 30
0.0
 11
968.1317019242849
 21
-2418.608885956433
 31
0.0
  0
LINE
  5
2B56E
330
18
100
AcDbEntity
  8
実線
100
AcDbLine
 10
968.1317019242849
 20
-2431.358885956433
 30
0.0
 11
955.131701924285
 21
-2431.358885956433
 31
0.0
  0
LINE
  5
2B56F
330
18
100
AcDbEntity
  8
実線
100
AcDbLine
 10
955.131701924285
 20
-2427.608885956433
 30
0.0
 11
968.1317019242849
 21
-2427.608885956433
 31
0.0
  0
LINE
  5
2B570
330
18
100
AcDbEntity
  8
実線
100
AcDbLine
 10
955.131701924285
 20
-2430.608885956433
 30
0.0
 11
968.1317019242849
 21
-2430.608885956433
 31
0.0
  0
LINE
  5
2B571
330
18
100
AcDbEntity
  8
実線
100
AcDbLine
 10
955.131701924285
 20
-2424.608885956433
 30
0.0
 11
968.1317019242849
 21
-2424.608885956433
 31
0.0
  0
LINE
  5
2B572
330
18
100
AcDbEntity
  8
実線
100
AcDbLine
 10
955.131701924285
 20
-2415.608885956433
 30
0.0
 11
968.1317019242849
 21
-2415.608885956433
 31
0.0
  0
LINE
  5
2B573
330
18
100
AcDbEntity
  8
実線
100
AcDbLine
 10
955.131701924285
 20
-2412.608885956433
 30
0.0
 11
968.1317019242849
 21
-2412.608885956433
 31
0.0
  0
LINE
  5
2B574
330
18
100
AcDbEntity
  8
実線
100
AcDbLine
 10
955.131701924285
 20
-2409.608885956433
 30
0.0
 11
968.1317019242849
 21
-2409.608885956433
 31
0.0
  0
LINE
  5
2B575
330
18
100
AcDbEntity
  8
実線
100
AcDbLine
 10
955.131701924285
 20
-2408.858885956433
 30
0.0
 11
968.1317019242849
 21
-2408.858885956433
 31
0.0
  0
LINE
  5
2B576
330
18
100
AcDbEntity
  8
実線
100
AcDbLine
 10
955.131701924285
 20
-2418.608885956433
 30
0.0
 11
955.131701924285
 21
-2421.608885956433
 31
0.0
  0
LINE
  5
2B577
330
18
100
AcDbEntity
  8
実線
100
AcDbLine
 10
955.131701924285
 20
-2427.108885956433
 30
0.0
 11
955.131701924285
 21
-2431.358885956433
 31
0.0
  0
LINE
  5
2B578
330
18
100
AcDbEntity
  8
実線
100
AcDbLine
 10
954.131701924285
 20
-2427.608885956433
 30
0.0
 11
955.131701924285
 21
-2427.108885956433
 31
0.0
  0
LINE
  5
2B579
330
18
100
AcDbEntity
  8
実線
100
AcDbLine
 10
955.131701924285
 20
-2431.358885956433
 30
0.0
 11
954.131701924285
 21
-2427.608885956433
 31
0.0
  0
LINE
  5
2B57A
330
18
100
AcDbEntity
  8
実線
100
AcDbLine
 10
955.131701924285
 20
-2424.608885956433
 30
0.0
 11
955.131701924285
 21
-2427.608885956433
 31
0.0
  0
LINE
  5
2B57B
330
18
100
AcDbEntity
  8
実線
100
AcDbLine
 10
955.131701924285
 20
-2412.608885956433
 30
0.0
 11
955.131701924285
 21
-2415.608885956433
 31
0.0
  0
LINE
  5
2B57C
330
18
100
AcDbEntity
  8
実線
100
AcDbLine
 10
955.131701924285
 20
-2408.858885956433
 30
0.0
 11
955.131701924285
 21
-2413.108885956433
 31
0.0
  0
LINE
  5
2B57D
330
18
100
AcDbEntity
  8
実線
100
AcDbLine
 10
955.131701924285
 20
-2408.858885956433
 30
0.0
 11
954.131701924285
 21
-2412.483885956432
 31
0.0
  0
LINE
  5
2B57E
330
18
100
AcDbEntity
  8
実線
100
AcDbLine
 10
954.131701924285
 20
-2412.483885956432
 30
0.0
 11
955.131701924285
 21
-2413.108885956433
 31
0.0
  0
LINE
  5
2B57F
330
18
100
AcDbEntity
  8
実線
 48
10.0
100
AcDbLine
 10
853.9317019242826
 20
-2441.982086375944
 30
0.0
 11
853.9317019242826
 21
-2461.982086375944
 31
0.0
  0
LINE
  5
2B580
330
18
100
AcDbEntity
  8
実線
 48
10.0
100
AcDbLine
 10
879.9317019242826
 20
-2423.982086375943
 30
0.0
 11
889.8414609118558
 21
-2423.982086375943
 31
0.0
  0
LINE
  5
2B581
330
18
100
AcDbEntity
  8
実線
 48
10.0
100
AcDbLine
 10
879.9317019242826
 20
-2415.982086375943
 30
0.0
 11
891.2520767575237
 21
-2415.982086375943
 31
0.0
  0
LINE
  5
2B582
330
18
100
AcDbEntity
  8
実線
 48
10.0
100
AcDbLine
 10
835.9317019242826
 20
-2479.982086375943
 30
0.0
 11
814.9317019242822
 21
-2479.982086375943
 31
0.0
  0
LINE
  5
2B583
330
18
100
AcDbEntity
  8
実線
 48
10.0
100
AcDbLine
 10
835.9317019242826
 20
-2487.982086375943
 30
0.0
 11
814.9317019242817
 21
-2487.982086375943
 31
0.0
  0
LINE
  5
2B584
330
18
100
AcDbEntity
  8
実線
100
AcDbLine
 10
908.2317019242832
 20
-2415.982086375943
 30
0.0
 11
908.2317019242836
 21
-2423.982086375943
 31
0.0
  0
ARC
  5
2B585
330
18
100
AcDbEntity
  8
実線
 48
10.0
100
AcDbCircle
 10
835.9317019242826
 20
-2461.982086375944
 30
0.0
 40
18.0
100
AcDbArc
 50
270.0
 51
0.0
  0
LINE
  5
2B586
330
18
100
AcDbEntity
  8
実線
 48
10.0
100
AcDbLine
 10
861.9317019242826
 20
-2441.982086375944
 30
0.0
 11
861.9317019242826
 21
-2461.982086375944
 31
0.0
  0
ARC
  5
2B587
330
18
100
AcDbEntity
  8
実線
 48
10.0
100
AcDbCircle
 10
879.9317019242826
 20
-2441.982086375944
 30
0.0
 40
18.0
100
AcDbArc
 50
90.0
 51
180.0
  0
ARC
  5
2B588
330
18
100
AcDbEntity
  8
実線
 48
10.0
100
AcDbCircle
 10
835.9317019242826
 20
-2461.982086375944
 30
0.0
 40
26.0
100
AcDbArc
 50
270.0
 51
2.795537696517015
  0
ARC
  5
2B589
330
18
100
AcDbEntity
  8
中心線
100
AcDbCircle
 10
879.9317019242826
 20
-2441.982086375944
 30
0.0
 40
22.0
100
AcDbArc
 50
90.0
 51
180.0
  0
ARC
  5
2B58A
330
18
100
AcDbEntity
  8
実線
 48
10.0
100
AcDbCircle
 10
879.9317019242826
 20
-2441.982086375944
 30
0.0
 40
26.0
100
AcDbArc
 50
90.0
 51
180.0
  0
LINE
  5
2B58B
330
18
100
AcDbEntity
  8
中心線
100
AcDbLine
 10
857.9317019242825
 20
-2441.982086375944
 30
0.0
 11
857.9317019242825
 21
-2461.982086375944
 31
0.0
  0
ARC
  5
2B58C
330
18
100
AcDbEntity
  8
中心線
100
AcDbCircle
 10
835.9317019242826
 20
-2461.982086375944
 30
0.0
 40
22.0
100
AcDbArc
 50
270.0
 51
0.0
  0
LINE
  5
2B590
330
18
100
AcDbEntity
  8
実線
 48
10.0
100
AcDbLine
 10
893.2520767575237
 20
-2415.982086375943
 30
0.0
 11
908.2317019242836
 21
-2415.982086375943
 31
0.0
  0
LINE
  5
2B591
330
18
100
AcDbEntity
  8
実線
 48
10.0
100
AcDbLine
 10
891.841460911856
 20
-2423.982086375943
 30
0.0
 11
908.2317019242836
 21
-2423.982086375943
 31
0.0
  0
LINE
  5
2B594
330
18
100
AcDbEntity
  8
実線
100
AcDbLine
 10
968.1317019242849
 20
-2433.458885956433
 30
0.0
 11
972.1317019242849
 21
-2433.458885956433
 31
0.0
  0
LINE
  5
2B595
330
18
100
AcDbEntity
  8
実線
100
AcDbLine
 10
968.1317019242849
 20
-2406.758885956432
 30
0.0
 11
968.1317019242849
 21
-2433.458885956433
 31
0.0
  0
LINE
  5
2B596
330
18
100
AcDbEntity
  8
実線
100
AcDbLine
 10
972.1317019242849
 20
-2431.358885956433
 30
0.0
 11
977.1317019242848
 21
-2431.358885956433
 31
0.0
  0
LINE
  5
2B597
330
18
100
AcDbEntity
  8
実線
100
AcDbLine
 10
972.1317019242849
 20
-2406.758885956432
 30
0.0
 11
972.1317019242849
 21
-2433.458885956433
 31
0.0
  0
LINE
  5
2B598
330
18
100
AcDbEntity
  8
実線
100
AcDbLine
 10
977.1317019242848
 20
-2408.858885956433
 30
0.0
 11
972.1317019242849
 21
-2408.858885956433
 31
0.0
  0
LINE
  5
2B599
330
18
100
AcDbEntity
  8
実線
100
AcDbLine
 10
972.1317019242849
 20
-2433.458885956433
 30
0.0
 11
972.1317019242849
 21
-2406.758885956432
 31
0.0
  0
LINE
  5
2B59A
330
18
100
AcDbEntity
  8
実線
100
AcDbLine
 10
972.1317019242849
 20
-2406.758885956432
 30
0.0
 11
968.1317019242849
 21
-2406.758885956432
 31
0.0
  0
LINE
  5
2B59B
330
18
100
AcDbEntity
  8
実線
100
AcDbLine
 10
977.131701924284
 20
-2431.358885956433
 30
0.0
 11
977.1317019242848
 21
-2408.858885956433
 31
0.0
  0
LINE
  5
2B59C
330
18
100
AcDbEntity
  8
実線
 48
10.0
100
AcDbLine
 10
814.9317019242822
 20
-2479.482086375944
 30
0.0
 11
801.9317019242816
 21
-2479.482086375944
 31
0.0
  0
LINE
  5
2B59D
330
18
100
AcDbEntity
  8
実線
 48
10.0
100
AcDbLine
 10
814.9317019242822
 20
-2479.482086375944
 30
0.0
 11
814.9317019242817
 21
-2488.482086375944
 31
0.0
  0
LINE
  5
2B59E
330
18
100
AcDbEntity
  8
実線
 48
10.0
100
AcDbLine
 10
814.9317019242817
 20
-2488.482086375944
 30
0.0
 11
801.9317019242816
 21
-2488.482086375944
 31
0.0
  0
LINE
  5
2B6AB
330
18
100
AcDbEntity
  8
中心線
 48
0.5
100
AcDbLine
 10
891.7605671308688
 20
-2307.817694659442
 30
0.0
 11
894.5028367177014
 21
-2292.265511007148
 31
0.0
  0
LINE
  5
2B6AC
330
18
100
AcDbEntity
  8
中心線
 48
0.5
100
AcDbLine
 10
893.7605671308688
 20
-2307.817694659442
 30
0.0
 11
896.5028367177014
 21
-2292.265511007148
 31
0.0
  0
LINE
  5
2B6AD
330
18
100
AcDbEntity
  8
実線
100
AcDbLine
 10
955.1317019242857
 20
-2288.958586518905
 30
0.0
 11
968.1317019242856
 21
-2288.958586518905
 31
0.0
  0
LINE
  5
2B6AE
330
18
100
AcDbEntity
  8
実線
100
AcDbLine
 10
955.1317019242857
 20
-2291.958586518906
 30
0.0
 11
968.1317019242856
 21
-2291.958586518906
 31
0.0
  0
LINE
  5
2B6AF
330
18
100
AcDbEntity
  8
実線
100
AcDbLine
 10
955.1317019242857
 20
-2294.958586518906
 30
0.0
 11
968.1317019242856
 21
-2294.958586518906
 31
0.0
  0
LINE
  5
2B6B0
330
18
100
AcDbEntity
  8
実線
100
AcDbLine
 10
955.1317019242857
 20
-2297.958586518905
 30
0.0
 11
968.1317019242856
 21
-2297.958586518905
 31
0.0
  0
LINE
  5
2B6B1
330
18
100
AcDbEntity
  8
実線
100
AcDbLine
 10
968.1317019242856
 20
-2284.708586518906
 30
0.0
 11
955.1317019242857
 21
-2284.708586518906
 31
0.0
  0
LINE
  5
2B6B2
330
18
100
AcDbEntity
  8
実線
100
AcDbLine
 10
955.1317019242857
 20
-2314.208586518906
 30
0.0
 11
968.1317019242856
 21
-2314.208586518906
 31
0.0
  0
LINE
  5
2B6B3
330
18
100
AcDbEntity
  8
実線
100
AcDbLine
 10
955.1317019242857
 20
-2303.958586518906
 30
0.0
 11
968.1317019242856
 21
-2303.958586518906
 31
0.0
  0
LINE
  5
2B6B4
330
18
100
AcDbEntity
  8
実線
100
AcDbLine
 10
955.1317019242857
 20
-2300.958586518905
 30
0.0
 11
968.1317019242856
 21
-2300.958586518905
 31
0.0
  0
LINE
  5
2B6B5
330
18
100
AcDbEntity
  8
実線
100
AcDbLine
 10
955.1317019242857
 20
-2306.958586518906
 30
0.0
 11
968.1317019242856
 21
-2306.958586518906
 31
0.0
  0
LINE
  5
2B6B6
330
18
100
AcDbEntity
  8
実線
100
AcDbLine
 10
955.1317019242857
 20
-2309.958586518906
 30
0.0
 11
968.1317019242856
 21
-2309.958586518906
 31
0.0
  0
LINE
  5
2B6B7
330
18
100
AcDbEntity
  8
実線
100
AcDbLine
 10
955.1317019242857
 20
-2294.958586518906
 30
0.0
 11
955.1317019242857
 21
-2291.958586518906
 31
0.0
  0
LINE
  5
2B6B8
330
18
100
AcDbEntity
  8
実線
100
AcDbLine
 10
954.1317019242855
 20
-2288.458586518906
 30
0.0
 11
955.1317019242857
 21
-2288.958586518905
 31
0.0
  0
LINE
  5
2B6B9
330
18
100
AcDbEntity
  8
実線
100
AcDbLine
 10
955.1317019242857
 20
-2284.708586518906
 30
0.0
 11
954.1317019242855
 21
-2288.458586518906
 31
0.0
  0
LINE
  5
2B6BA
330
18
100
AcDbEntity
  8
実線
100
AcDbLine
 10
955.1317019242857
 20
-2288.958586518905
 30
0.0
 11
955.1317019242857
 21
-2284.708586518906
 31
0.0
  0
LINE
  5
2B6BB
330
18
100
AcDbEntity
  8
実線
100
AcDbLine
 10
954.1317019242855
 20
-2288.458586518906
 30
0.0
 11
930.1317019242857
 21
-2288.458586518906
 31
0.0
  0
LINE
  5
2B6BC
330
18
100
AcDbEntity
  8
実線
100
AcDbLine
 10
955.1317019242857
 20
-2314.208586518906
 30
0.0
 11
955.1317019242857
 21
-2309.958586518906
 31
0.0
  0
LINE
  5
2B6BD
330
18
100
AcDbEntity
  8
実線
100
AcDbLine
 10
954.1317019242855
 20
-2310.458586518906
 30
0.0
 11
955.1317019242857
 21
-2309.958586518906
 31
0.0
  0
LINE
  5
2B6BE
330
18
100
AcDbEntity
  8
実線
100
AcDbLine
 10
955.1317019242857
 20
-2314.208586518906
 30
0.0
 11
954.1317019242855
 21
-2310.458586518906
 31
0.0
  0
LINE
  5
2B6BF
330
18
100
AcDbEntity
  8
実線
100
AcDbLine
 10
954.1317019242855
 20
-2310.458586518906
 30
0.0
 11
930.1317019242857
 21
-2310.458586518906
 31
0.0
  0
LINE
  5
2B6C0
330
18
100
AcDbEntity
  8
実線
100
AcDbLine
 10
955.1317019242857
 20
-2306.958586518906
 30
0.0
 11
955.1317019242857
 21
-2303.958586518906
 31
0.0
  0
LINE
  5
2B6C1
330
18
100
AcDbEntity
  8
実線
100
AcDbLine
 10
955.1317019242857
 20
-2300.958586518905
 30
0.0
 11
955.1317019242857
 21
-2297.958586518905
 31
0.0
  0
LWPOLYLINE
  5
2B6C2
330
18
100
AcDbEntity
  8
実線
100
AcDbPolyline
 90
        4
 70
   129
 43
0.0
 10
977.1317019242856
 20
-2314.208586518906
 10
972.1317019242857
 20
-2314.208586518906
 10
972.1317019242857
 20
-2284.708586518906
 10
977.1317019242856
 20
-2284.708586518906
  0
LWPOLYLINE
  5
2B6C3
330
18
100
AcDbEntity
  8
実線
100
AcDbPolyline
 90
        4
 70
   129
 43
0.0
 10
972.1317019242857
 20
-2316.308586518905
 10
968.1317019242856
 20
-2316.308586518905
 10
968.1317019242856
 20
-2282.608586518906
 10
972.1317019242857
 20
-2282.608586518906
  0
LINE
  5
2B6C4
330
18
100
AcDbEntity
  8
実線
100
AcDbLine
 10
930.1317019242857
 20
-2310.458586518906
 30
0.0
 11
930.1317019242857
 21
-2288.458586518906
 31
0.0
  0
LINE
  5
2B6C5
330
18
100
AcDbEntity
  8
実線
100
AcDbLine
 10
930.1317019242857
 20
-2306.833586518906
 30
0.0
 11
930.1317019242857
 21
-2292.083586518906
 31
0.0
  0
LINE
  5
2B6C6
330
18
100
AcDbEntity
  8
実線
100
AcDbLine
 10
909.9914650632982
 20
-2297.441602833294
 30
0.0
 11
930.1317019242857
 21
-2300.783586518905
 31
0.0
  0
LINE
  5
2B6C7
330
18
100
AcDbEntity
  8
実線
100
AcDbLine
 10
909.9914650632982
 20
-2299.441602833295
 30
0.0
 11
930.1317019242857
 21
-2302.783586518904
 31
0.0
  0
LINE
  5
2B6C8
330
18
100
AcDbEntity
  8
実線
100
AcDbLine
 10
910.5833569551901
 20
-2297.541602833294
 30
0.0
 11
930.1317019242857
 21
-2293.583586518906
 31
0.0
  0
LINE
  5
2B6C9
330
18
100
AcDbEntity
  8
実線
100
AcDbLine
 10
909.9914650632982
 20
-2301.841602833294
 30
0.0
 11
930.1317019242857
 21
-2305.183586518905
 31
0.0
  0
LINE
  5
2B6CA
330
18
100
AcDbEntity
  8
実線
100
AcDbLine
 10
909.9914650632982
 20
-2299.841602833294
 30
0.0
 11
930.1317019242857
 21
-2303.183586518905
 31
0.0
  0
LINE
  5
2B6CB
330
18
100
AcDbEntity
  8
実線
100
AcDbLine
 10
919.7985062135161
 20
-2299.068940771491
 30
0.0
 11
930.1317019242857
 21
-2297.983586518905
 31
0.0
  0
LINE
  5
2B6CC
330
18
100
AcDbEntity
  8
実線
100
AcDbLine
 10
913.4008032872415
 20
-2298.00733365373
 30
0.0
 11
930.1317019242857
 21
-2295.983586518905
 31
0.0
  0
LINE
  5
2B6CD
330
18
100
AcDbEntity
  8
実線
100
AcDbLine
 10
912.2331909512768
 20
-2297.813585119151
 30
0.0
 11
930.1317019242857
 21
-2295.583586518906
 31
0.0
  0
LINE
  5
2B6CE
330
18
100
AcDbEntity
  8
実線
100
AcDbLine
 10
909.9914650632982
 20
-2295.691602833294
 30
0.0
 11
909.9914650632982
 21
-2303.691602833294
 31
0.0
  0
LINE
  5
2B6CF
330
18
100
AcDbEntity
  8
実線
100
AcDbLine
 10
909.9914650632982
 20
-2302.091602833294
 30
0.0
 11
910.7263643921569
 21
-2301.965763907119
 31
0.0
  0
LINE
  5
2B6D0
330
18
100
AcDbEntity
  8
実線
100
AcDbLine
 10
909.9914896684877
 20
-2296.691602833294
 30
0.0
 11
909.9914650632982
 21
-2297.341602836594
 31
0.0
  0
LINE
  5
2B6D1
330
18
100
AcDbEntity
  8
実線
100
AcDbLine
 10
909.9914650632982
 20
-2302.341602829995
 30
0.0
 11
909.9914650632982
 21
-2302.691602833295
 31
0.0
  0
LINE
  5
2B6D2
330
18
100
AcDbEntity
  8
実線
 48
10.0
100
AcDbLine
 10
895.898724290367
 20
-2295.691602833294
 30
0.0
 11
909.9914650632983
 21
-2295.691602833294
 31
0.0
  0
LINE
  5
2B6D3
330
18
100
AcDbEntity
  8
実線
 48
10.0
100
AcDbLine
 10
894.4881084446992
 20
-2303.691602833294
 30
0.0
 11
909.9914650632983
 21
-2303.691602833294
 31
0.0
  0
LINE
  5
2B6D4
330
18
100
AcDbEntity
  8
実線
 48
10.0
100
AcDbLine
 10
814.9317019242824
 20
-2303.691602833294
 30
0.0
 11
892.4881084446992
 21
-2303.691602833294
 31
0.0
  0
LINE
  5
2B6D5
330
18
100
AcDbEntity
  8
実線
 48
10.0
100
AcDbLine
 10
815.9317019242831
 20
-2295.691602833294
 30
0.0
 11
893.8987242903669
 21
-2295.691602833294
 31
0.0
  0
LINE
  5
2B6D6
330
18
100
AcDbEntity
  8
実線
100
AcDbLine
 10
801.7317019242831
 20
-2304.191602833295
 30
0.0
 11
814.9317019242824
 21
-2304.191602833295
 31
0.0
  0
LINE
  5
2B6D7
330
18
100
AcDbEntity
  8
実線
100
AcDbLine
 10
814.9317019242824
 20
-2304.191602833295
 30
0.0
 11
814.9317019242824
 21
-2301.691602833294
 31
0.0
  0
LINE
  5
2B6FA
330
18
100
AcDbEntity
  8
破線
 48
0.03
100
AcDbLine
 10
815.9317019242834
 20
-2286.941602833294
 30
0.0
 11
803.9317019242833
 21
-2286.941602833294
 31
0.0
  0
LINE
  5
2B6FB
330
18
100
AcDbEntity
  8
破線
 48
0.03
100
AcDbLine
 10
815.9317019242834
 20
-2286.691602833293
 30
0.0
 11
805.9317019242834
 21
-2286.691602833293
 31
0.0
  0
LINE
  5
2B6FC
330
18
100
AcDbEntity
  8
破線
 48
0.03
100
AcDbLine
 10
802.9213389531967
 20
-2288.691602833293
 30
0.0
 11
803.9317019242833
 21
-2286.941602833294
 31
0.0
  0
LINE
  5
2B6FD
330
18
100
AcDbEntity
  8
破線
 48
0.03
100
AcDbLine
 10
803.9317019242833
 20
-2290.441602833293
 30
0.0
 11
803.9317019242833
 21
-2286.941602833294
 31
0.0
  0
LINE
  5
2B6FE
330
18
100
AcDbEntity
  8
破線
 48
0.03
100
AcDbLine
 10
805.9317019242834
 20
-2286.691602833293
 30
0.0
 11
805.4986892223849
 21
-2286.941602833294
 31
0.0
  0
LINE
  5
2B6FF
330
18
100
AcDbEntity
  8
破線
 48
0.03
100
AcDbLine
 10
805.9317019242834
 20
-2290.691602833294
 30
0.0
 11
805.9317019242834
 21
-2286.691602833293
 31
0.0
  0
LINE
  5
2B700
330
18
100
AcDbEntity
  8
破線
 48
0.03
100
AcDbLine
 10
802.9213389531967
 20
-2288.691602833293
 30
0.0
 11
803.9317019242833
 21
-2290.441602833293
 31
0.0
  0
LINE
  5
2B701
330
18
100
AcDbEntity
  8
破線
 48
0.03
100
AcDbLine
 10
815.9317019242834
 20
-2290.691602833294
 30
0.0
 11
805.9317019242834
 21
-2290.691602833294
 31
0.0
  0
LINE
  5
2B702
330
18
100
AcDbEntity
  8
破線
 48
0.03
100
AcDbLine
 10
815.9317019242834
 20
-2290.441602833293
 30
0.0
 11
803.9317019242833
 21
-2290.441602833293
 31
0.0
  0
LINE
  5
2B703
330
18
100
AcDbEntity
  8
破線
 48
0.03
100
AcDbLine
 10
805.9317019242834
 20
-2290.691602833294
 30
0.0
 11
805.4986892223849
 21
-2290.441602833293
 31
0.0
  0
LINE
  5
2B704
330
18
100
AcDbEntity
  8
破線
 48
0.03
100
AcDbLine
 10
815.9317019242834
 20
-2262.941602833294
 30
0.0
 11
803.9317019242833
 21
-2262.941602833294
 31
0.0
  0
LINE
  5
2B705
330
18
100
AcDbEntity
  8
破線
 48
0.03
100
AcDbLine
 10
815.9317019242834
 20
-2262.691602833294
 30
0.0
 11
805.9317019242834
 21
-2262.691602833294
 31
0.0
  0
LINE
  5
2B706
330
18
100
AcDbEntity
  8
破線
 48
0.03
100
AcDbLine
 10
802.9213389531967
 20
-2264.691602833293
 30
0.0
 11
803.9317019242833
 21
-2262.941602833294
 31
0.0
  0
LINE
  5
2B707
330
18
100
AcDbEntity
  8
破線
 48
0.03
100
AcDbLine
 10
803.9317019242833
 20
-2266.441602833293
 30
0.0
 11
803.9317019242833
 21
-2262.941602833294
 31
0.0
  0
LINE
  5
2B708
330
18
100
AcDbEntity
  8
破線
 48
0.03
100
AcDbLine
 10
805.9317019242834
 20
-2262.691602833294
 30
0.0
 11
805.4986892223849
 21
-2262.941602833294
 31
0.0
  0
LINE
  5
2B709
330
18
100
AcDbEntity
  8
破線
 48
0.03
100
AcDbLine
 10
805.9317019242834
 20
-2266.691602833294
 30
0.0
 11
805.9317019242834
 21
-2262.691602833294
 31
0.0
  0
LINE
  5
2B70A
330
18
100
AcDbEntity
  8
破線
 48
0.03
100
AcDbLine
 10
802.9213389531967
 20
-2264.691602833293
 30
0.0
 11
803.9317019242833
 21
-2266.441602833293
 31
0.0
  0
LINE
  5
2B70B
330
18
100
AcDbEntity
  8
破線
 48
0.03
100
AcDbLine
 10
815.9317019242834
 20
-2266.691602833294
 30
0.0
 11
805.9317019242834
 21
-2266.691602833294
 31
0.0
  0
LINE
  5
2B70C
330
18
100
AcDbEntity
  8
破線
 48
0.03
100
AcDbLine
 10
815.9317019242834
 20
-2266.441602833293
 30
0.0
 11
803.9317019242833
 21
-2266.441602833293
 31
0.0
  0
LINE
  5
2B70D
330
18
100
AcDbEntity
  8
破線
 48
0.03
100
AcDbLine
 10
805.9317019242834
 20
-2266.691602833294
 30
0.0
 11
805.4986892223849
 21
-2266.441602833293
 31
0.0
  0
LINE
  5
2B71E
330
18
100
AcDbEntity
  8
中心線
100
AcDbLine
 10
831.2098464825929
 20
-2240.691602833294
 30
0.0
 11
458.3210382807427
 21
-2240.691602833294
 31
0.0
  0
TEXT
  5
2BD11
330
18
100
AcDbEntity
  8
文字
  6
Continuous
100
AcDbText
 10
1033.702401226811
 20
-2487.399692995371
 30
0.0
 40
3.2
  1
CLNA1000MA
100
AcDbText
  0
TEXT
  5
2BD12
330
18
100
AcDbEntity
  8
文字
100
AcDbText
 10
1029.063782574872
 20
-2497.948931998486
 30
0.0
 40
5.0
  1
外形図_コイルユニット単体
 41
0.9
100
AcDbText
  0
TEXT
  5
2BD13
330
18
100
AcDbEntity
  8
文字
100
AcDbText
 10
1029.177342793049
 20
-2509.694579512157
 30
0.0
 40
6.0
  1
ＳＥ－８７３３０
 41
1.1
100
AcDbText
  0
VIEWPORT
  5
2BD18
102
{ACAD_XDICTIONARY
360
2BECE
102
}
330
2BD14
100
AcDbEntity
 67
     1
  8
0
100
AcDbViewport
 10
8.420300975294018
 20
3.5
 30
0.0
 40
12.8035190474548
 41
8.207384004778715
 68
     1
 69
     1
 12
8.420300975294018
 22
3.5
 13
0.0
 23
0.0
 14
0.5
 24
0.5
 15
0.0
 25
0.0
 16
0.0
 26
0.0
 36
1.0
 17
0.0
 27
0.0
 37
0.0
 42
50.0
 43
0.0
 44
0.0
 45
8.207384004778715
 50
0.0
 51
0.0
 72
   100
 90
   557152
  1

281
     0
 71
     1
 74
     0
110
0.0
120
0.0
130
0.0
111
1.0
121
0.0
131
0.0
112
0.0
122
1.0
132
0.0
 79
     0
146
0.0
  0
VIEWPORT
  5
2BD19
102
{ACAD_XDICTIONARY
360
2BD1A
102
}
330
2BD14
100
AcDbEntity
 67
     1
  8
0
100
AcDbViewport
 10
5.25
 20
3.5
 30
0.0
 40
8.4
 41
5.6
 68
     2
 69
     2
 12
719.4738584317569
 22
-2335.942457044178
 13
0.0
 23
0.0
 14
0.5
 24
0.5
 15
0.0
 25
0.0
 16
0.0
 26
0.0
 36
1.0
 17
0.0
 27
0.0
 37
0.0
 42
50.0
 43
0.0
 44
0.0
 45
517.9019196315222
 50
0.0
 51
0.0
 72
   100
341
E
 90
   557152
  1

281
     0
 71
     1
 74
     0
110
0.0
120
0.0
130
0.0
111
1.0
121
0.0
131
0.0
112
0.0
122
1.0
132
0.0
 79
     0
146
0.0
  0
ENDSEC
  0
SECTION
  2
OBJECTS
  0
DICTIONARY
  5
C
330
0
100
AcDbDictionary
281
     1
  3
ACAD_2007HEADERVARS_RT
350
2BE93
  3
ACAD_CIP_PREVIOUS_PRODUCT_INFO
350
2BD69
  3
ACAD_COLOR
350
2BD59
  3
ACAD_DETAILVIEWSTYLE
350
28920
  3
ACAD_GROUP
350
D
  3
ACAD_IMAGE_VARS
350
283ED
  3
ACAD_LAYOUT
350
DB2
  3
ACAD_MATERIAL
350
2BCCD
  3
ACAD_MLEADERSTYLE
350
2BCD3
  3
ACAD_MLINESTYLE
350
1B
  3
ACAD_PLOTSETTINGS
350
DB3
  3
ACAD_PLOTSTYLENAME
350
FB5B
  3
ACAD_SCALELIST
350
283C1
  3
ACAD_SECTIONVIEWSTYLE
350
28921
  3
ACAD_TABLESTYLE
350
2BCD1
  3
ACAD_VISUALSTYLE
350
2BCB4
  3
AcadDim
350
264CA
  3
ACDB_RECOMPOSE_DATA
350
2BE91
  3
AcDbVariableDictionary
350
106A6
  3
APPDATA
350
283EB
  3
ASE_INDEX_DICTIONARY
350
1A99F
  3
DWGPROPS
350
2BE92
  3
FX_DICT_DIMENSION_PALETTE
350
28918
  3
FX_DICT_DIMENSION_PALETTE_RECENTLIST
350
28919
  0
DICTIONARY
  5
2BE35
330
8
100
AcDbDictionary
280
     1
281
     1
  0
DICTIONARY
  5
254EC
330
2
100
AcDbDictionary
280
     1
281
     1
  3
ACAD_LAYERSTATES
360
254F9
  3
ACLYDICTIONARY
360
2BD4B
  0
DICTIONARY
  5
2A77C
330
2A77B
100
AcDbDictionary
280
     1
281
     1
  3
ADSK_XREC_LAYER_RECONCILED
360
2A77D
  0
DICTIONARY
  5
2A634
330
18
100
AcDbDictionary
280
     1
281
     1
  3
ACAD_SORTENTS
360
2A635
  0
DICTIONARY
  5
2BECE
330
2BD18
100
AcDbDictionary
280
     1
281
     1
  3
ACAD_XREC_ROUNDTRIP
360
2BECF
  0
DICTIONARY
  5
2BD1A
330
2BD19
100
AcDbDictionary
280
     1
281
     1
  3
ACAD_XREC_ROUNDTRIP
360
2BED0
  3
ASDK_XREC_ANNOTATION_SCALE_INFO
360
2BD1B
  0
DICTIONARY
  5
2BE93
102
{ACAD_REACTORS
330
C
102
}
330
C
100
AcDbDictionary
281
     1
  3
INTERFERECOLOR
350
2BE94
  0
XRECORD
  5
2BD69
102
{ACAD_REACTORS
330
C
102
}
330
C
100
AcDbXrecord
280
     1
300
ACDLT
300
2019
300
87085ACDLT_2019_0F
  0
DICTIONARY
  5
2BD59
102
{ACAD_REACTORS
330
C
102
}
330
C
100
AcDbDictionary
281
     1
  0
DICTIONARY
  5
28920
102
{ACAD_REACTORS
330
C
102
}
330
C
100
AcDbDictionary
281
     1
  3
Imperial24
350
2BD5B
  0
DICTIONARY
  5
D
102
{ACAD_REACTORS
330
C
102
}
330
C
100
AcDbDictionary
281
     1
  0
RASTERVARIABLES
  5
283ED
102
{ACAD_REACTORS
330
C
102
}
330
C
100
AcDbRasterVariables
 90
        0
 70
     1
 71
     1
 72
     0
  0
DICTIONARY
  5
DB2
102
{ACAD_REACTORS
330
C
102
}
330
C
100
AcDbDictionary
281
     1
  3
Model
350
FB5D
  3
Sheet1
350
2BD15
  0
DICTIONARY
  5
2BCCD
102
{ACAD_REACTORS
330
C
102
}
330
C
100
AcDbDictionary
281
     1
  3
ByBlock
350
2BD57
  3
ByLayer
350
2BCCE
  3
Global
350
2BCD0
  0
DICTIONARY
  5
2BCD3
102
{ACAD_REACTORS
330
C
102
}
330
C
100
AcDbDictionary
281
     1
  3
Standard
350
2BCD4
  0
DICTIONARY
  5
1B
102
{ACAD_REACTORS
330
C
102
}
330
C
100
AcDbDictionary
281
     1
  3
STANDARD
350
1C
  0
DICTIONARY
  5
DB3
102
{ACAD_REACTORS
330
C
102
}
330
C
100
AcDbDictionary
281
     1
  0
ACDBDICTIONARYWDFLT
  5
FB5B
102
{ACAD_REACTORS
330
C
102
}
330
C
100
AcDbDictionary
281
     1
  3
Normal
350
FB5C
100
AcDbDictionaryWithDefault
340
FB5C
  0
DICTIONARY
  5
283C1
102
{ACAD_REACTORS
330
C
102
}
330
C
100
AcDbDictionary
281
     1
  3
A0
350
283C2
  3
A1
350
283C3
  3
A2
350
283C4
  3
A3
350
283C5
  3
A4
350
283C6
  3
A5
350
283C7
  3
A6
350
283C8
  3
A7
350
283C9
  3
A8
350
283CA
  3
A9
350
283CB
  3
B0
350
283CC
  3
B1
350
283CD
  3
B2
350
283CE
  3
B3
350
283CF
  3
B4
350
283D0
  3
B5
350
283D1
  3
B6
350
283D2
  3
B7
350
283D3
  3
B8
350
283D4
  3
B9
350
283D5
  3
C0
350
283D6
  3
C1
350
283D7
  3
C2
350
283D8
  3
C3
350
283D9
  3
C4
350
283DA
  3
C5
350
283DB
  3
C6
350
283DC
  3
C7
350
283DD
  3
C8
350
283DE
  3
C9
350
283DF
  3
D0
350
283E0
  3
D1
350
283E1
  3
D2
350
283E2
  0
DICTIONARY
  5
28921
102
{ACAD_REACTORS
330
C
102
}
330
C
100
AcDbDictionary
281
     1
  3
Imperial24
350
2BD5A
  0
DICTIONARY
  5
2BCD1
102
{ACAD_REACTORS
330
C
102
}
330
C
100
AcDbDictionary
281
     1
  3
Standard
350
2BCD2
  0
DICTIONARY
  5
2BCB4
102
{ACAD_REACTORS
330
C
102
}
330
C
100
AcDbDictionary
281
     1
  3
2dWireframe
350
2BCB9
  3
Basic
350
2BCBC
  3
Brighten
350
2BCC0
  3
ColorChange
350
2BCC4
  3
Conceptual
350
2BCBE
  3
Dim
350
2BCBF
  3
EdgeColorOff
350
2BCC7
  3
Facepattern
350
2BCC3
  3
Flat
350
2BCB5
  3
FlatWithEdges
350
2BCB6
  3
Gouraud
350
2BCB7
  3
GouraudWithEdges
350
2BCB8
  3
Hidden
350
2BCBB
  3
JitterOff
350
2BCC5
  3
Linepattern
350
2BCC2
  3
OverhangOff
350
2BCC6
  3
Realistic
350
2BCBD
  3
Shaded
350
2BCCC
  3
Shaded with edges
350
2BCCB
  3
Shades of Gray
350
2BCC8
  3
Sketchy
350
2BCC9
  3
Thicken
350
2BCC1
  3
Wireframe
350
2BCBA
  3
X-Ray
350
2BCCA
  0
XRECORD
  5
264CA
102
{ACAD_REACTORS
330
C
102
}
330
C
100
AcDbXrecord
280
     1
 90
   990106
  3

 60
     0
 61
     0
 62
     4
 63
     4
 64
     1
 65
     0
 66
     0
 67
     3
 68
     1
 69
     0
 70
     0
 71
     0
 72
     0
 40
0.0
170
     2
340
0
  0
XRECORD
  5
2BE91
102
{ACAD_REACTORS
330
C
102
}
330
C
100
AcDbXrecord
280
     1
 90
        1
330
2BCD2
  0
DICTIONARY
  5
106A6
102
{ACAD_REACTORS
330
C
102
}
330
C
100
AcDbDictionary
281
     1
  3
CANNOSCALE
350
2BCD7
  3
CMLEADERSTYLE
350
2BCD9
  3
CTABLESTYLE
350
2BCD8
  3
CVIEWDETAILSTYLE
350
2BE7A
  3
CVIEWSECTIONSTYLE
350
2BE7B
  3
DGNFRAME
350
2BE82
  3
DIMASSOC
350
2BE81
  3
HIDETEXT
350
2BE80
  3
INDEXCTL
350
2BE7F
  3
LAYEREVAL
350
2BE7D
  3
LAYERNOTIFY
350
2BE7E
  3
LIGHTINGUNITS
350
2BE7C
  3
MSLTSCALE
350
2BCDA
  3
SORTENTS
350
106A7
  3
XCLIPFRAME
350
2BE8F
  0
DICTIONARY
  5
283EB
102
{ACAD_REACTORS
330
C
102
}
330
C
100
AcDbDictionary
281
     1
  0
DICTIONARY
  5
1A99F
102
{ACAD_REACTORS
330
C
102
}
330
C
100
AcDbDictionary
281
     1
  3
ASEBlockHierarchyIndexRecord
350
1A9A1
1001
DCO15
1040
1464612067.17
  0
XRECORD
  5
2BE92
102
{ACAD_REACTORS
330
C
102
}
330
C
100
AcDbXrecord
280
     1
  1
DWGPROPS COOKIE
  2

  3

  4

  6

  7

  8
NI0949
  9

300
=
301
=
302
=
303
=
304
=
305
=
306
=
307
=
308
=
309
=
 40
0.0353573842592593
 41
2451224.660162037
 42
2458549.471053241
  1

 90
        0
  0
DICTIONARY
  5
28918
102
{ACAD_REACTORS
330
C
102
}
330
C
100
AcDbDictionary
281
     1
  0
DICTIONARY
  5
28919
102
{ACAD_REACTORS
330
C
102
}
330
C
100
AcDbDictionary
281
     1
  3
10
350
29D4F
  3
11
350
2B6E8
  3
12
350
2B6E9
  3
13
350
2B86D
  3
14
350
2B86E
  3
15
350
2B86F
  3
6
350
28949
  3
7
350
2894A
  3
8
350
29D3F
  3
9
350
29D4B
  0
DICTIONARY
  5
254F9
102
{ACAD_REACTORS
330
254EC
102
}
330
254EC
100
AcDbDictionary
281
     1
  0
DICTIONARY
  5
2BD4B
102
{ACAD_REACTORS
330
254EC
102
}
330
254EC
100
AcDbDictionary
281
     1
  3
*A1
350
2BD4C
  3
*A10
350
2BD53
  3
*A11
350
2BD54
  3
*A2
350
2BD55
  3
*A3
350
2BD56
  3
*A4
350
2BD4D
  3
*A5
350
2BD4E
  3
*A6
350
2BD4F
  3
*A7
350
2BD50
  3
*A8
350
2BD51
  3
*A9
350
2BD52
1001
ACAD
1000
<All
  0
XRECORD
  5
2A77D
102
{ACAD_REACTORS
330
2A77C
102
}
330
2A77C
100
AcDbXrecord
280
     1
290
     1
  0
SORTENTSTABLE
  5
2A635
102
{ACAD_REACTORS
330
2A634
102
}
330
2A634
100
AcDbSortentsTable
330
18
331
176FC
  5
187CB
331
187C8
  5
187CC
331
187C9
  5
187CD
331
187CB
  5
187CE
331
187CC
  5
187CF
331
187CD
  5
187D0
331
187CE
  5
187D1
331
187CF
  5
187D2
331
187D0
  5
187D3
331
187D1
  5
187D4
331
187D2
  5
187D5
331
187D3
  5
187D6
331
187D4
  5
187D7
331
187D5
  5
216E7
331
187D6
  5
21ACC
331
187D7
  5
27C69
331
216E7
  5
27C6A
331
21ACC
  5
27C6B
331
27C69
  5
27C6C
331
27C6A
  5
27C6E
331
27C6C
  5
27C6F
331
27C6D
  5
27C70
331
27C6E
  5
27C71
331
27C6F
  5
27CCC
331
27CE7
  5
27CEA
331
27CE8
  5
27CEB
331
27CE9
  5
27CEC
331
27CEA
  5
27CED
331
27CEB
  5
27CEE
331
27CEC
  5
27CEF
331
27CF8
  5
27CFB
331
27CF9
  5
27CFC
331
27CFA
  5
27CFD
331
27CFB
  5
27D02
331
27CFC
  5
27D03
331
27CFD
  5
27D04
331
27D02
  5
27D05
331
27D03
  5
27D06
331
27D04
  5
27D07
331
27D05
  5
27D08
331
27D06
  5
27D09
331
27D07
  5
27D0A
331
27D08
  5
27D0B
331
27D09
  5
27D0C
331
27D0A
  5
27D0D
331
27D0D
  5
27D15
331
27D13
  5
27D16
331
27D14
  5
27D1F
331
27D3D
  5
27D9B
331
27D5A
  5
27D9C
331
27D9B
  5
27D9E
331
27D9C
  5
27D9F
331
27D9D
  5
27DA0
331
27D9E
  5
27DA1
331
27D9F
  5
27DA2
331
27DE3
  5
27DE6
331
27DE4
  5
27DE7
331
27DE7
  5
27DEA
331
27DE8
  5
27DEB
331
27DE9
  5
27DEC
331
27DEA
  5
27DED
331
27DEB
  5
27DEE
331
27DEC
  5
27DEF
331
27DED
  5
27DF0
331
27DEE
  5
27DF1
331
27DEF
  5
27DF2
331
27DF0
  5
27DF3
331
27DF1
  5
27DF4
331
27DF2
  5
27DF5
331
27DF3
  5
27DF6
331
27DF4
  5
27DF7
331
27DF5
  5
27DF8
331
27DF6
  5
27DF9
331
27DF7
  5
27DFA
331
27DF8
  5
27DFB
331
27DF9
  5
27DFC
331
27DFA
  5
27DFD
331
27DFB
  5
27DFE
331
27DFC
  5
27DFF
331
27DFD
  5
27E00
331
27DFE
  5
27E02
331
27DFF
  5
27E03
331
27E00
  5
27E04
331
27E02
  5
27E05
331
27E03
  5
27E06
331
27E04
  5
27E07
331
27E05
  5
27E08
331
27E06
  5
27FE0
331
27E07
  5
27FE1
331
27E08
  5
29BC4
331
29D0B
  5
29D0E
331
29D0C
  5
29D0F
331
29D0D
  5
29D10
331
29D0E
  5
29D11
331
29D0F
  5
29D12
331
29D10
  5
29D13
331
29D11
  5
29D14
331
29D12
  5
29D15
331
29D13
  5
29D16
331
29D14
  5
29D17
331
29D15
  5
29D18
331
29D16
  5
29D19
331
29D17
  5
29D1A
331
29D18
  5
29D1B
331
29D19
  5
29D1C
331
29D1A
  5
29D1D
331
29D1B
  5
29D1E
331
29D1C
  5
29D1F
331
29D1D
  5
29D20
331
29D1E
  5
29D21
331
29D1F
  5
29D22
331
29D20
  5
29D23
331
29D21
  5
29D24
331
29D22
  5
29D25
331
29D23
  5
29D26
331
29D24
  5
29D27
331
29D25
  5
29D28
331
29D26
  5
29D29
331
29D27
  5
29D2A
331
29D28
  5
29D2C
331
29D29
  5
29D2D
331
29D2A
  5
29F9C
331
29F9A
  5
29F9D
331
29F9B
  5
29F9E
331
29F9C
  5
29F9F
331
29F9D
  5
29FA0
331
29F9E
  5
29FA1
331
29F9F
  5
29FA2
331
29FA0
  5
29FA3
331
29FA3
  5
29FA6
331
29FA4
  5
29FA7
331
29FA5
  5
29FA9
331
29FA6
  5
29FAA
331
29FA7
  5
29FAB
331
29FA9
  5
29FAC
331
29FAA
  5
29FAD
331
29FAB
  5
29FAE
331
29FAC
  5
29FAF
331
29FAD
  5
29FB0
331
29FAE
  5
29FB1
331
29FAF
  5
29FB2
331
29FB0
  5
29FB3
331
29FB1
  5
29FB4
331
29FB2
  5
29FB5
331
29FB3
  5
29FB6
331
29FB4
  5
29FB7
331
29FB5
  5
29FB8
331
29FB6
  5
29FB9
331
29FB7
  5
29FBA
331
29FB8
  5
29FBB
331
29FB9
  5
29FBC
331
29FBA
  5
29FBD
331
29FBB
  5
29FBE
331
29FBC
  5
29FBF
331
29FBD
  5
29FC0
331
29FBE
  5
2A063
331
29FBF
  5
2A064
331
29FC0
  5
2A065
331
2A065
  5
2A068
331
2A066
  5
2A069
331
2A067
  5
2A06A
331
2A068
  5
2A06B
331
2A069
  5
2A06C
331
2A06A
  5
2A06D
331
2A06B
  5
2A06E
331
2A06C
  5
2A06F
331
2A06D
  5
2A070
331
2A06E
  5
2A071
331
2A06F
  5
2A072
331
2A070
  5
2A073
331
2A071
  5
2A074
331
2A072
  5
2A075
331
2A073
  5
2A076
331
2A074
  5
2A077
331
2A075
  5
2A078
331
2A076
  5
2A079
331
2A077
  5
2A07A
331
2A078
  5
2A07B
331
2A079
  5
2A07C
331
2A07A
  5
2A07D
331
2A07B
  5
2A07E
331
2A07C
  5
2A07F
331
2A07D
  5
2A080
331
2A07E
  5
2A081
331
2A07F
  5
2A082
331
2A080
  5
2A083
331
2A081
  5
2A084
331
2A082
  5
2A085
331
2A083
  5
2A086
331
2A084
  5
2A087
331
2A085
  5
2A088
331
2A086
  5
2A089
331
2A087
  5
2A08A
331
2A088
  5
2A08B
331
2A089
  5
2A08C
331
2A08A
  5
2A08D
331
2A08B
  5
2A08E
331
2A08C
  5
2A08F
331
2A08D
  5
2A090
331
2A08E
  5
2A091
331
2A08F
  5
2A092
331
2A090
  5
2A093
331
2A091
  5
2A094
331
2A092
  5
2A095
331
2A093
  5
2A096
331
2A094
  5
2A097
331
2A095
  5
2A098
331
2A096
  5
2A099
331
2A097
  5
2A09A
331
2A098
  5
2A09B
331
2A099
  5
2A09C
331
2A09A
  5
2A09D
331
2A09B
  5
2A09E
331
2A09C
  5
2A09F
331
2A09D
  5
2A0A0
331
2A09E
  5
2A0A1
331
2A09F
  5
2A0A2
331
2A0A0
  5
2A0A3
331
2A0A1
  5
2A0A4
331
2A0A2
  5
2A0A5
331
2A0A3
  5
2A0A6
331
2A0A4
  5
2A0A7
331
2A0A5
  5
2A0A8
331
2A0A6
  5
2A0A9
331
2A0A7
  5
2A0AA
331
2A0A8
  5
2A50C
331
2B0D8
  5
2B0DA
331
2B0D9
  5
2B0DB
331
2B0DA
  5
2B0DC
331
2B0DB
  5
2B0DD
331
2B0DC
  5
2B0DE
331
2B0DD
  5
2B0DF
331
2B0DE
  5
2B0E0
331
2B0DF
  5
2B0E1
331
2B0E0
  5
2B0E2
331
2B0E1
  5
2B0E3
331
2B0E2
  5
2B0E4
331
2B0E3
  5
2B0EF
331
2B0EE
  5
2B0F0
331
2B0EF
  5
2B0F1
331
2B0F0
  5
2B0F2
331
2B0F1
  5
2B157
331
2B156
  5
2B15B
331
2B15A
  5
2B15C
331
2B15B
  5
2B15D
331
2B15C
  5
2B15E
331
2B15D
  5
2B15F
331
2B15E
  5
2B160
331
2B15F
  5
2B161
331
2B160
  5
2B162
331
2B161
  5
2B163
331
2B162
  5
2B164
331
2B163
  5
2B165
331
2B164
  5
2B1B5
331
2B1B4
  5
2B1B6
331
2B1B5
  5
2B1B7
331
2B1B6
  5
2B1B8
331
2B1B7
  5
2B1B9
331
2B1B8
  5
2B1BA
331
2B1B9
  5
2B1BB
331
2B1BA
  5
2B1BC
331
2B1BB
  5
2B1BD
331
2B1BC
  5
2B1BE
331
2B1BD
  5
2B1BF
331
2B1BE
  5
2B1C0
331
2B1BF
  5
2B1C1
331
2B1C0
  5
2B1C2
331
2B1C1
  5
2B1C3
331
2B1C2
  5
2B1C4
331
2B1C3
  5
2B1C5
331
2B1C4
  5
2B1C6
331
2B1C5
  5
2B1C7
331
2B1C6
  5
2B1C8
331
2B1C7
  5
2B1C9
331
2B1C8
  5
2B1CA
331
2B1C9
  5
2B1CB
331
2B1CA
  5
2B1CC
331
2B1CB
  5
2B1CD
331
2B1CC
  5
2B1CE
331
2B1CD
  5
2B1CF
331
2B1CE
  5
2B1D0
331
2B1CF
  5
2B1D1
331
2B1D0
  5
2B1D2
331
2B1D1
  5
2B1D3
331
2B1D2
  5
2B1D4
331
2B1D3
  5
2B1D5
331
2B1D4
  5
2B1D6
331
2B1D5
  5
2B1D7
331
2B1D6
  5
2B1D8
331
2B1D7
  5
2B1D9
331
2B1D8
  5
2B1DA
331
2B1D9
  5
2B1DB
331
2B1DA
  5
2B1DC
331
2B1DB
  5
2B1DD
331
2B1DC
  5
2B1DE
331
2B1DD
  5
2B1DF
331
2B1DE
  5
2B1E0
331
2B1DF
  5
2B1E1
331
2B1E0
  5
2B1E2
331
2B1E1
  5
2B1E3
331
2B1E2
  5
2B1E4
331
2B1E3
  5
2B1E5
331
2B1E4
  5
2B1E6
331
2B1E5
  5
2B1E7
331
2B1E6
  5
2B1E8
331
2B1E7
  5
2B1E9
331
2B1E8
  5
2B1EA
331
2B1E9
  5
2B1EB
331
2B1EA
  5
2B1EC
331
2B1EB
  5
2B1ED
331
2B1EC
  5
2B1EE
331
2B1ED
  5
2B1EF
331
2B1EE
  5
2B3D7
331
2B1EF
  5
2B55A
331
2B559
  5
2B55B
331
2B55C
  5
2B55E
331
2B55D
  5
2B55F
331
2B55E
  5
2B560
331
2B55F
  5
2B561
331
2B560
  5
2B562
331
2B561
  5
2B563
331
2B562
  5
2B564
331
2B563
  5
2B565
331
2B564
  5
2B566
331
2B565
  5
2B567
331
2B566
  5
2B568
331
2B567
  5
2B569
331
2B568
  5
2B56A
331
2B569
  5
2B56B
331
2B56A
  5
2B56C
331
2B56B
  5
2B56D
331
2B56C
  5
2B56E
331
2B56D
  5
2B56F
331
2B56E
  5
2B570
331
2B56F
  5
2B571
331
2B570
  5
2B572
331
2B571
  5
2B573
331
2B572
  5
2B574
331
2B573
  5
2B575
331
2B574
  5
2B576
331
2B575
  5
2B577
331
2B576
  5
2B578
331
2B577
  5
2B579
331
2B578
  5
2B57A
331
2B579
  5
2B57B
331
2B57A
  5
2B57C
331
2B57B
  5
2B57D
331
2B57C
  5
2B57E
331
2B57D
  5
2B57F
331
2B57E
  5
2B580
331
2B57F
  5
2B581
331
2B580
  5
2B582
331
2B581
  5
2B583
331
2B582
  5
2B584
331
2B583
  5
2B585
331
2B584
  5
2B586
331
2B585
  5
2B587
331
2B586
  5
2B588
331
2B587
  5
2B589
331
2B588
  5
2B58A
331
2B589
  5
2B58B
331
2B58A
  5
2B58C
331
2B58B
  5
2B58D
331
2B58C
  5
2B58E
331
2B590
  5
2B592
331
2B591
  5
2B594
331
2B594
  5
2B596
331
2B595
  5
2B597
331
2B596
  5
2B598
331
2B597
  5
2B599
331
2B598
  5
2B59A
331
2B599
  5
2B59B
331
2B59A
  5
2B59C
331
2B59B
  5
2B59D
331
2B59C
  5
2B59E
331
2B59D
  5
2B6A6
331
2B59E
  5
2B6AB
331
2B6AB
  5
2B6AC
331
2B6AC
  5
2B6AD
331
2B6AD
  5
2B6AE
331
2B6AE
  5
2B6AF
331
2B6AF
  5
2B6B0
331
2B6B0
  5
2B6B1
331
2B6B1
  5
2B6B2
331
2B6B2
  5
2B6B3
331
2B6B3
  5
2B6B4
331
2B6B4
  5
2B6B5
331
2B6B5
  5
2B6B6
331
2B6B6
  5
2B6B7
331
2B6B7
  5
2B6B8
331
2B6B8
  5
2B6B9
331
2B6B9
  5
2B6BA
331
2B6BA
  5
2B6BB
331
2B6BB
  5
2B6BC
331
2B6BC
  5
2B6BD
331
2B6BD
  5
2B6BE
331
2B6BE
  5
2B6BF
331
2B6BF
  5
2B6C0
331
2B6C0
  5
2B6C1
331
2B6C1
  5
2B6C2
331
2B6C2
  5
2B6C3
331
2B6C3
  5
2B6C4
331
2B6C4
  5
2B6C5
331
2B6C5
  5
2B6C6
331
2B6C6
  5
2B6C7
331
2B6C7
  5
2B6C8
331
2B6C8
  5
2B6C9
331
2B6C9
  5
2B6CA
331
2B6CA
  5
2B6CB
331
2B6CB
  5
2B6CC
331
2B6CC
  5
2B6CD
331
2B6CD
  5
2B6CE
331
2B6CE
  5
2B6CF
331
2B6CF
  5
2B6D0
331
2B6D0
  5
2B6D1
331
2B6D1
  5
2B6D2
331
2B6D2
  5
2B6D3
331
2B6D3
  5
2B6D4
331
2B6D4
  5
2B6D5
331
2B6D5
  5
2B6D6
331
2B6D6
  5
2B6D7
331
2B6D7
  5
2B6FA
331
2B6FA
  5
2B6FB
331
2B6FB
  5
2B6FC
331
2B6FC
  5
2B6FD
331
2B6FD
  5
2B6FE
331
2B6FE
  5
2B6FF
331
2B6FF
  5
2B700
331
2B700
  5
2B701
331
2B701
  5
2B702
331
2B702
  5
2B703
331
2B703
  5
2B704
331
2B704
  5
2B705
331
2B705
  5
2B706
331
2B706
  5
2B707
331
2B707
  5
2B708
331
2B708
  5
2B709
331
2B709
  5
2B70A
331
2B70A
  5
2B70B
331
2B70B
  5
2B70C
331
2B70C
  5
2B70D
331
2B70D
  5
2B71E
331
2B71E
  5
2B71F
  0
XRECORD
  5
2BECF
102
{ACAD_REACTORS
330
2BECE
102
}
330
2BECE
100
AcDbXrecord
280
     1
102
SHADEPLOT
 70
     0
  0
XRECORD
  5
2BED0
102
{ACAD_REACTORS
330
2BD1A
102
}
330
2BD1A
100
AcDbXrecord
280
     1
102
SHADEPLOT
 70
     0
  0
XRECORD
  5
2BD1B
102
{ACAD_REACTORS
330
2BD1A
102
}
330
2BD1A
100
AcDbXrecord
280
     1
 90
        1
340
283C2
  0
XRECORD
  5
2BE94
102
{ACAD_REACTORS
330
2BE93
102
}
330
2BE93
100
AcDbXrecord
280
     1
1004
1800000001000000000000C0000000000000000000000000
  0
ACDBDETAILVIEWSTYLE
  5
2BD5B
102
{ACAD_XDICTIONARY
360
2BED5
102
}
102
{ACAD_REACTORS
330
28920
102
}
330
28920
100
AcDbModelDocViewStyle
 70
     0
  3
Imperial24
290
     0
100
AcDbDetailViewStyle
 70
     0
 71
     0
 90
        3
 71
     1
340
F
 40
0.24
340
0
 40
0.24
300

 40
0.36
280
     3
 71
     2
340
14
 90
       25
 71
     3
340
F
 40
0.24
 90
        1
 40
0.75
 90
        1
300
%<\AcVar ViewType \f "%tc1">% %<\AcVar ViewDetailId>%\PSCALE %<\AcVar ViewScale \f "%sn">%
 71
     4
340
14
 90
       25
340
14
 90
       25
280
     0
  0
LAYOUT
  5
FB5D
102
{ACAD_XDICTIONARY
360
2BE95
102
}
102
{ACAD_REACTORS
330
DB2
102
}
330
DB2
100
AcDbPlotSettings
  1

  2
\\HONAMI\LBP-910
  4
A3
  6

 40
5.873749732971191
 41
5.873747825622558
 42
5.873748779296875
 43
5.873748779296875
 44
296.9259948730469
 45
419.9466552734374
 46
0.0
 47
0.0
 48
-134.0496161171158
 49
-116.2294073187233
140
1105.745250909008
141
633.2284101676227
142
1.0
143
2.866823569012708
 70
 11952
 72
     1
 73
     1
 74
     1
  7
monochrome.ctb
 75
     0
147
0.3488181173089717
148
98.7130430422485
149
74.96499340265336
100
AcDbLayout
  1
Model
 70
     1
 71
     0
 10
0.0
 20
0.0
 11
12.0
 21
9.0
 12
0.0
 22
0.0
 32
0.0
 14
338.6636234085789
 24
-2508.894579512157
 34
0.0
 15
1097.313782574872
 25
-2175.691602833293
 35
137.5
146
0.0
 13
0.0
 23
0.0
 33
0.0
 16
1.0
 26
0.0
 36
0.0
 17
0.0
 27
1.0
 37
0.0
 76
     0
330
18
  0
LAYOUT
  5
2BD15
102
{ACAD_XDICTIONARY
360
2BECC
102
}
102
{ACAD_REACTORS
330
DB2
102
}
330
DB2
100
AcDbPlotSettings
  1

  2
none_device
  4
ANSI_A_(11.00_x_8.50_Inches)
  6

 40
6.349999999999999
 41
19.05
 42
6.349999999999999
 43
19.05
 44
279.4
 45
215.9
 46
0.0
 47
0.0
 48
0.0
 49
0.0
140
0.0
141
0.0
142
1.0
143
1.0
 70
   688
 72
     0
 73
     0
 74
     5
  7

 75
    16
147
1.0
148
0.0
149
0.0
100
AcDbLayout
  1
Sheet1
 70
     1
 71
     1
 10
0.0
 20
0.0
 11
0.0
 21
0.0
 12
0.0
 22
0.0
 32
0.0
 14
1.049999999999999
 24
0.6999999999999998
 34
0.0
 15
9.449999999999999
 25
6.3
 35
0.0
146
0.0
 13
0.0
 23
0.0
 33
0.0
 16
1.0
 26
0.0
 36
0.0
 17
0.0
 27
1.0
 37
0.0
 76
     0
330
2BD14
331
2BD18
  0
MATERIAL
  5
2BD57
102
{ACAD_XDICTIONARY
360
2BED1
102
}
102
{ACAD_REACTORS
330
2BCCD
102
}
330
2BCCD
100
AcDbMaterial
  1
ByBlock
 73
     1
 78
     1
172
     1
176
     1
270
     1
274
     1
  0
MATERIAL
  5
2BCCE
102
{ACAD_XDICTIONARY
360
2BEC7
102
}
102
{ACAD_REACTORS
330
2BCCD
102
}
330
2BCCD
100
AcDbMaterial
  1
ByLayer
 73
     1
 78
     1
172
     1
176
     1
270
     1
274
     1
  0
MATERIAL
  5
2BCD0
102
{ACAD_XDICTIONARY
360
2BEC9
102
}
102
{ACAD_REACTORS
330
2BCCD
102
}
330
2BCCD
100
AcDbMaterial
  1
Global
 73
     1
 78
     1
172
     1
176
     1
270
     1
274
     1
  0
MLEADERSTYLE
  5
2BCD4
102
{ACAD_REACTORS
330
2BCD3
102
}
330
2BCD3
100
AcDbMLeaderStyle
170
     2
171
     1
172
     0
 90
        2
 40
0.0
 41
0.0
173
     1
 91
-1056964608
340
12
 92
       -2
290
     1
 42
0.09
291
     1
 43
0.36
  3
Standard
 44
0.18
300

342
F
174
     1
178
     6
175
     1
176
     0
 93
-1056964608
 45
0.18
292
     0
297
     0
 46
0.18
 94
-1056964608
 47
1.0
 49
1.0
140
1.0
293
     1
141
0.0
294
     1
177
     0
142
1.0
295
     0
296
     0
143
0.125
1001
ACAD_MLEADERVER
1070
     2
  0
MLINESTYLE
  5
1C
102
{ACAD_REACTORS
330
1B
102
}
330
1B
100
AcDbMlineStyle
  2
STANDARD
 70
     0
  3

 62
   256
 51
90.0
 52
90.0
 71
     2
 49
0.5
 62
   256
  6
BYLAYER
 49
-0.5
 62
   256
  6
BYLAYER
  0
ACDBPLACEHOLDER
  5
FB5C
102
{ACAD_REACTORS
330
FB5B
102
}
330
FB5B
  0
SCALE
  5
283C2
102
{ACAD_REACTORS
330
283C1
102
}
330
283C1
100
AcDbScale
 70
     0
300
1:1
140
1.0
141
1.0
290
     1
  0
SCALE
  5
283C3
102
{ACAD_REACTORS
330
283C1
102
}
330
283C1
100
AcDbScale
 70
     0
300
1:2
140
1.0
141
2.0
290
     0
  0
SCALE
  5
283C4
102
{ACAD_REACTORS
330
283C1
102
}
330
283C1
100
AcDbScale
 70
     0
300
1:4
140
1.0
141
4.0
290
     0
  0
SCALE
  5
283C5
102
{ACAD_REACTORS
330
283C1
102
}
330
283C1
100
AcDbScale
 70
     0
300
1:5
140
1.0
141
5.0
290
     0
  0
SCALE
  5
283C6
102
{ACAD_REACTORS
330
283C1
102
}
330
283C1
100
AcDbScale
 70
     0
300
1:8
140
1.0
141
8.0
290
     0
  0
SCALE
  5
283C7
102
{ACAD_REACTORS
330
283C1
102
}
330
283C1
100
AcDbScale
 70
     0
300
1:10
140
1.0
141
10.0
290
     0
  0
SCALE
  5
283C8
102
{ACAD_REACTORS
330
283C1
102
}
330
283C1
100
AcDbScale
 70
     0
300
1:16
140
1.0
141
16.0
290
     0
  0
SCALE
  5
283C9
102
{ACAD_REACTORS
330
283C1
102
}
330
283C1
100
AcDbScale
 70
     0
300
1:20
140
1.0
141
20.0
290
     0
  0
SCALE
  5
283CA
102
{ACAD_REACTORS
330
283C1
102
}
330
283C1
100
AcDbScale
 70
     0
300
1:30
140
1.0
141
30.0
290
     0
  0
SCALE
  5
283CB
102
{ACAD_REACTORS
330
283C1
102
}
330
283C1
100
AcDbScale
 70
     0
300
1:40
140
1.0
141
40.0
290
     0
  0
SCALE
  5
283CC
102
{ACAD_REACTORS
330
283C1
102
}
330
283C1
100
AcDbScale
 70
     0
300
1:50
140
1.0
141
50.0
290
     0
  0
SCALE
  5
283CD
102
{ACAD_REACTORS
330
283C1
102
}
330
283C1
100
AcDbScale
 70
     0
300
1:100
140
1.0
141
100.0
290
     0
  0
SCALE
  5
283CE
102
{ACAD_REACTORS
330
283C1
102
}
330
283C1
100
AcDbScale
 70
     0
300
2:1
140
2.0
141
1.0
290
     0
  0
SCALE
  5
283CF
102
{ACAD_REACTORS
330
283C1
102
}
330
283C1
100
AcDbScale
 70
     0
300
4:1
140
4.0
141
1.0
290
     0
  0
SCALE
  5
283D0
102
{ACAD_REACTORS
330
283C1
102
}
330
283C1
100
AcDbScale
 70
     0
300
8:1
140
8.0
141
1.0
290
     0
  0
SCALE
  5
283D1
102
{ACAD_REACTORS
330
283C1
102
}
330
283C1
100
AcDbScale
 70
     0
300
10:1
140
10.0
141
1.0
290
     0
  0
SCALE
  5
283D2
102
{ACAD_REACTORS
330
283C1
102
}
330
283C1
100
AcDbScale
 70
     0
300
100:1
140
100.0
141
1.0
290
     0
  0
SCALE
  5
283D3
102
{ACAD_REACTORS
330
283C1
102
}
330
283C1
100
AcDbScale
 70
     0
300
1/128" = 1'-0"
140
0.0078125
141
12.0
290
     0
  0
SCALE
  5
283D4
102
{ACAD_REACTORS
330
283C1
102
}
330
283C1
100
AcDbScale
 70
     0
300
1/64" = 1'-0"
140
0.015625
141
12.0
290
     0
  0
SCALE
  5
283D5
102
{ACAD_REACTORS
330
283C1
102
}
330
283C1
100
AcDbScale
 70
     0
300
1/32" = 1'-0"
140
0.03125
141
12.0
290
     0
  0
SCALE
  5
283D6
102
{ACAD_REACTORS
330
283C1
102
}
330
283C1
100
AcDbScale
 70
     0
300
1/16" = 1'-0"
140
0.0625
141
12.0
290
     0
  0
SCALE
  5
283D7
102
{ACAD_REACTORS
330
283C1
102
}
330
283C1
100
AcDbScale
 70
     0
300
3/32" = 1'-0"
140
0.09375
141
12.0
290
     0
  0
SCALE
  5
283D8
102
{ACAD_REACTORS
330
283C1
102
}
330
283C1
100
AcDbScale
 70
     0
300
1/8" = 1'-0"
140
0.125
141
12.0
290
     0
  0
SCALE
  5
283D9
102
{ACAD_REACTORS
330
283C1
102
}
330
283C1
100
AcDbScale
 70
     0
300
3/16" = 1'-0"
140
0.1875
141
12.0
290
     0
  0
SCALE
  5
283DA
102
{ACAD_REACTORS
330
283C1
102
}
330
283C1
100
AcDbScale
 70
     0
300
1/4" = 1'-0"
140
0.25
141
12.0
290
     0
  0
SCALE
  5
283DB
102
{ACAD_REACTORS
330
283C1
102
}
330
283C1
100
AcDbScale
 70
     0
300
3/8" = 1'-0"
140
0.375
141
12.0
290
     0
  0
SCALE
  5
283DC
102
{ACAD_REACTORS
330
283C1
102
}
330
283C1
100
AcDbScale
 70
     0
300
1/2" = 1'-0"
140
0.5
141
12.0
290
     0
  0
SCALE
  5
283DD
102
{ACAD_REACTORS
330
283C1
102
}
330
283C1
100
AcDbScale
 70
     0
300
3/4" = 1'-0"
140
0.75
141
12.0
290
     0
  0
SCALE
  5
283DE
102
{ACAD_REACTORS
330
283C1
102
}
330
283C1
100
AcDbScale
 70
     0
300
1" = 1'-0"
140
1.0
141
12.0
290
     0
  0
SCALE
  5
283DF
102
{ACAD_REACTORS
330
283C1
102
}
330
283C1
100
AcDbScale
 70
     0
300
1-1/2" = 1'-0"
140
1.5
141
12.0
290
     0
  0
SCALE
  5
283E0
102
{ACAD_REACTORS
330
283C1
102
}
330
283C1
100
AcDbScale
 70
     0
300
3" = 1'-0"
140
3.0
141
12.0
290
     0
  0
SCALE
  5
283E1
102
{ACAD_REACTORS
330
283C1
102
}
330
283C1
100
AcDbScale
 70
     0
300
6" = 1'-0"
140
6.0
141
12.0
290
     0
  0
SCALE
  5
283E2
102
{ACAD_REACTORS
330
283C1
102
}
330
283C1
100
AcDbScale
 70
     0
300
1'-0" = 1'-0"
140
12.0
141
12.0
290
     0
  0
ACDBSECTIONVIEWSTYLE
  5
2BD5A
102
{ACAD_XDICTIONARY
360
2BED3
102
}
102
{ACAD_REACTORS
330
28921
102
}
330
28921
100
AcDbModelDocViewStyle
 70
     0
  3
Imperial24
290
     0
100
AcDbSectionViewStyle
 70
     0
 71
     0
 90
       78
 71
     1
340
F
 40
0.24
340
0
340
0
 40
0.24
300
I, O, Q, S, X, Z
 40
0.48
 90
        3
 40
0.18
 90
        1
 71
     2
340
14
 90
       25
340
14
 90
       50
 40
0.24
 40
0.0
 40
0.24
 71
     3
340
F
 40
0.24
 90
        1
 40
0.75
 90
        1
300
%<\AcVar ViewType \f "%tc1">% %<\AcVar ViewSectionStartId>%-%<\AcVar ViewSectionEndId>%\PSCALE %<\AcVar ViewScale \f "%sn">%
 71
     4
300
ANSI31
 40
1.0
 90
        0
290
     0
290
     0
 90
        6
 40
0.0
 40
1.570796326794896
 40
0.2617993877991494
 40
1.308996938995747
 40
-0.2617993877991494
 40
1.832595714594046
  0
TABLESTYLE
  5
2BCD2
102
{ACAD_XDICTIONARY
360
2BE26
102
}
102
{ACAD_REACTORS
330
2BCD1
102
}
330
2BCD1
100
AcDbTableStyle
  3
Standard
 70
     0
 71
     0
 40
0.06
 41
0.06
280
     0
281
     0
  7
STANDARD
140
0.18
170
     2
 62
     0
 63
     7
283
     0
274
    -2
284
     1
 64
     0
275
    -2
285
     1
 65
     0
276
    -2
286
     1
 66
     0
277
    -2
287
     1
 67
     0
278
    -2
288
     1
 68
     0
279
    -2
289
     1
 69
     0
  7
STANDARD
140
0.25
170
     5
 62
     0
 63
     7
283
     0
274
    -2
284
     1
 64
     0
275
    -2
285
     1
 65
     0
276
    -2
286
     1
 66
     0
277
    -2
287
     1
 67
     0
278
    -2
288
     1
 68
     0
279
    -2
289
     1
 69
     0
  7
STANDARD
140
0.18
170
     5
 62
     0
 63
     7
283
     0
274
    -2
284
     1
 64
     0
275
    -2
285
     1
 65
     0
276
    -2
286
     1
 66
     0
277
    -2
287
     1
 67
     0
278
    -2
288
     1
 68
     0
279
    -2
289
     1
 69
     0
  0
VISUALSTYLE
  5
2BCB9
102
{ACAD_XDICTIONARY
360
2BE9F
102
}
102
{ACAD_REACTORS
330
2BCB4
102
}
330
2BCB4
100
AcDbVisualStyle
  2
2dWireframe
 70
     4
 71
     0
 72
     2
 73
     0
 90
        0
 40
-0.6
 41
-30.0
 62
     5
 63
     7
 74
     1
 91
        4
 64
     7
 65
   257
 75
     1
175
     1
 42
1.0
 92
        0
 66
   257
 43
1.0
 76
     1
 77
     6
 78
     2
 67
     7
 79
     5
170
     0
171
     0
290
     0
174
     0
 93
        1
 44
0.0
173
     0
291
     0
 45
0.0
1001
ACAD
1000
AcDbSavedByObjectVersion
1070
     0
  0
VISUALSTYLE
  5
2BCBC
102
{ACAD_XDICTIONARY
360
2BEA5
102
}
102
{ACAD_REACTORS
330
2BCB4
102
}
330
2BCB4
100
AcDbVisualStyle
  2
Basic
 70
     7
 71
     1
 72
     0
 73
     1
 90
        0
 40
-0.6
 41
-30.0
 62
     5
 63
     7
 74
     0
 91
        4
 64
     7
 65
   257
 75
     1
175
     1
 42
1.0
 92
        8
 66
     7
 43
1.0
 76
     1
 77
     6
 78
     2
 67
     7
 79
     5
170
     0
171
     0
290
     0
174
     0
 93
        1
 44
0.0
173
     0
291
     1
 45
0.0
1001
ACAD
1000
AcDbSavedByObjectVersion
1070
     0
  0
VISUALSTYLE
  5
2BCC0
102
{ACAD_XDICTIONARY
360
2BEAD
102
}
102
{ACAD_REACTORS
330
2BCB4
102
}
330
2BCB4
100
AcDbVisualStyle
  2
Brighten
 70
    12
 71
     2
 72
     2
 73
     0
 90
        0
 40
-0.6
 41
-30.0
 62
     5
 63
     7
 74
     1
 91
        4
 64
     7
 65
   257
 75
     1
175
     1
 42
1.0
 92
        8
 66
     7
 43
1.0
 76
     1
 77
     6
 78
     2
 67
     7
 79
     5
170
     0
171
     0
290
     0
174
     0
 93
        1
 44
50.0
173
     0
291
     1
 45
0.0
1001
ACAD
1000
AcDbSavedByObjectVersion
1070
     0
  0
VISUALSTYLE
  5
2BCC4
102
{ACAD_XDICTIONARY
360
2BEB5
102
}
102
{ACAD_REACTORS
330
2BCB4
102
}
330
2BCB4
100
AcDbVisualStyle
  2
ColorChange
 70
    16
 71
     2
 72
     2
 73
     3
 90
        0
 40
-0.6
 41
-30.0
 62
     5
 63
     8
 74
     1
 91
        4
 64
     7
 65
   257
 75
     1
175
     1
 42
1.0
 92
        8
 66
     8
 43
1.0
 76
     1
 77
     6
 78
     2
 67
     7
 79
     5
170
     0
171
     0
290
     0
174
     0
 93
        1
 44
0.0
173
     0
291
     1
 45
0.0
1001
ACAD
1000
AcDbSavedByObjectVersion
1070
     0
  0
VISUALSTYLE
  5
2BCBE
102
{ACAD_XDICTIONARY
360
2BEA9
102
}
102
{ACAD_REACTORS
330
2BCB4
102
}
330
2BCB4
100
AcDbVisualStyle
  2
Conceptual
 70
     9
 71
     3
 72
     2
 73
     0
 90
        0
 40
-0.6
 41
-30.0
 62
     5
 63
     7
 74
     2
 91
        2
 64
     7
 65
   257
 75
     1
175
     1
 42
179.0
 92
        8
 66
     7
 43
1.0
 76
     1
 77
     6
 78
     2
 67
     7
 79
     3
170
     0
171
     0
290
     0
174
     0
 93
        1
 44
0.0
173
     0
291
     0
 45
0.0
1001
ACAD
1000
AcDbSavedByObjectVersion
1070
     0
  0
VISUALSTYLE
  5
2BCBF
102
{ACAD_XDICTIONARY
360
2BEAB
102
}
102
{ACAD_REACTORS
330
2BCB4
102
}
330
2BCB4
100
AcDbVisualStyle
  2
Dim
 70
    11
 71
     2
 72
     2
 73
     0
 90
        0
 40
-0.6
 41
-30.0
 62
     5
 63
     7
 74
     1
 91
        4
 64
     7
 65
   257
 75
     1
175
     1
 42
1.0
 92
        8
 66
     7
 43
1.0
 76
     1
 77
     6
 78
     2
 67
     7
 79
     5
170
     0
171
     0
290
     0
174
     0
 93
        1
 44
-50.0
173
     0
291
     1
 45
0.0
1001
ACAD
1000
AcDbSavedByObjectVersion
1070
     0
  0
VISUALSTYLE
  5
2BCC7
102
{ACAD_XDICTIONARY
360
2BEBB
102
}
102
{ACAD_REACTORS
330
2BCB4
102
}
330
2BCB4
100
AcDbVisualStyle
  2
EdgeColorOff
 70
    22
 71
     2
 72
     2
 73
     0
 90
        0
 40
-0.6
 41
-30.0
 62
     5
 63
     7
 74
     1
 91
        4
 64
     7
 65
   257
 75
     1
175
     1
 42
1.0
 92
        8
 66
     7
 43
1.0
 76
     1
 77
     6
 78
     2
 67
     7
 79
     5
170
     0
171
     0
290
     0
174
     0
 93
        1
 44
0.0
173
     0
291
     1
 45
0.0
1001
ACAD
1000
AcDbSavedByObjectVersion
1070
     0
  0
VISUALSTYLE
  5
2BCC3
102
{ACAD_XDICTIONARY
360
2BEB3
102
}
102
{ACAD_REACTORS
330
2BCB4
102
}
330
2BCB4
100
AcDbVisualStyle
  2
Facepattern
 70
    15
 71
     2
 72
     2
 73
     0
 90
        0
 40
-0.6
 41
-30.0
 62
     5
 63
     7
 74
     1
 91
        4
 64
     7
 65
   257
 75
     1
175
     1
 42
1.0
 92
        8
 66
     7
 43
1.0
 76
     1
 77
     6
 78
     2
 67
     7
 79
     5
170
     0
171
     0
290
     0
174
     0
 93
        1
 44
0.0
173
     0
291
     1
 45
0.0
1001
ACAD
1000
AcDbSavedByObjectVersion
1070
     0
  0
VISUALSTYLE
  5
2BCB5
102
{ACAD_XDICTIONARY
360
2BE97
102
}
102
{ACAD_REACTORS
330
2BCB4
102
}
330
2BCB4
100
AcDbVisualStyle
  2
Flat
 70
     0
 71
     2
 72
     1
 73
     1
 90
        2
 40
-0.6
 41
30.0
 62
     5
 63
     7
 74
     0
 91
        0
 64
     7
 65
   257
 75
     1
175
     1
 42
1.0
 92
        8
 66
     7
 43
1.0
 76
     1
 77
     6
 78
     2
 67
     7
 79
     5
170
     0
171
     0
290
     0
174
     0
 93
       13
 44
0.0
173
     0
291
     1
 45
0.0
1001
ACAD
1000
AcDbSavedByObjectVersion
1070
     0
  0
VISUALSTYLE
  5
2BCB6
102
{ACAD_XDICTIONARY
360
2BE99
102
}
102
{ACAD_REACTORS
330
2BCB4
102
}
330
2BCB4
100
AcDbVisualStyle
  2
FlatWithEdges
 70
     1
 71
     2
 72
     1
 73
     1
 90
        2
 40
-0.6
 41
30.0
 62
     5
 63
     7
 74
     1
 91
        0
 64
     7
 65
   257
 75
     1
175
     1
 42
1.0
 92
        0
 66
   257
 43
1.0
 76
     1
 77
     6
 78
     2
 67
     7
 79
     5
170
     0
171
     0
290
     0
174
     0
 93
       13
 44
0.0
173
     0
291
     1
 45
0.0
1001
ACAD
1000
AcDbSavedByObjectVersion
1070
     0
  0
VISUALSTYLE
  5
2BCB7
102
{ACAD_XDICTIONARY
360
2BE9B
102
}
102
{ACAD_REACTORS
330
2BCB4
102
}
330
2BCB4
100
AcDbVisualStyle
  2
Gouraud
 70
     2
 71
     2
 72
     2
 73
     1
 90
        2
 40
-0.6
 41
30.0
 62
     5
 63
     7
 74
     0
 91
        0
 64
     7
 65
   257
 75
     1
175
     1
 42
1.0
 92
        0
 66
     7
 43
1.0
 76
     1
 77
     6
 78
     2
 67
     7
 79
     5
170
     0
171
     0
290
     0
174
     0
 93
       13
 44
0.0
173
     0
291
     1
 45
0.0
1001
ACAD
1000
AcDbSavedByObjectVersion
1070
     0
  0
VISUALSTYLE
  5
2BCB8
102
{ACAD_XDICTIONARY
360
2BE9D
102
}
102
{ACAD_REACTORS
330
2BCB4
102
}
330
2BCB4
100
AcDbVisualStyle
  2
GouraudWithEdges
 70
     3
 71
     2
 72
     2
 73
     1
 90
        2
 40
-0.6
 41
30.0
 62
     5
 63
     7
 74
     1
 91
        0
 64
     7
 65
   257
 75
     1
175
     1
 42
1.0
 92
        0
 66
   257
 43
1.0
 76
     1
 77
     6
 78
     2
 67
     7
 79
     5
170
     0
171
     0
290
     0
174
     0
 93
       13
 44
0.0
173
     0
291
     1
 45
0.0
1001
ACAD
1000
AcDbSavedByObjectVersion
1070
     0
  0
VISUALSTYLE
  5
2BCBB
102
{ACAD_XDICTIONARY
360
2BEA3
102
}
102
{ACAD_REACTORS
330
2BCB4
102
}
330
2BCB4
100
AcDbVisualStyle
  2
Hidden
 70
     6
 71
     1
 72
     2
 73
     2
 90
        0
 40
-0.6
 41
-30.0
 62
     5
 63
     7
 74
     2
 91
        2
 64
     7
 65
   257
 75
     2
175
     1
 42
40.0
 92
        0
 66
   257
 43
1.0
 76
     1
 77
     6
 78
     2
 67
     7
 79
     3
170
     0
171
     0
290
     0
174
     0
 93
        1
 44
0.0
173
     0
291
     0
 45
0.0
1001
ACAD
1000
AcDbSavedByObjectVersion
1070
     0
  0
VISUALSTYLE
  5
2BCC5
102
{ACAD_XDICTIONARY
360
2BEB7
102
}
102
{ACAD_REACTORS
330
2BCB4
102
}
330
2BCB4
100
AcDbVisualStyle
  2
JitterOff
 70
    20
 71
     2
 72
     2
 73
     0
 90
        0
 40
-0.6
 41
-30.0
 62
     5
 63
     7
 74
     1
 91
        4
 64
     7
 65
   257
 75
     1
175
     1
 42
1.0
 92
       10
 66
     7
 43
1.0
 76
     1
 77
     6
 78
     2
 67
     7
 79
     5
170
     0
171
     0
290
     0
174
     0
 93
        1
 44
0.0
173
     0
291
     1
 45
0.0
1001
ACAD
1000
AcDbSavedByObjectVersion
1070
     0
  0
VISUALSTYLE
  5
2BCC2
102
{ACAD_XDICTIONARY
360
2BEB1
102
}
102
{ACAD_REACTORS
330
2BCB4
102
}
330
2BCB4
100
AcDbVisualStyle
  2
Linepattern
 70
    14
 71
     2
 72
     2
 73
     0
 90
        0
 40
-0.6
 41
-30.0
 62
     5
 63
     7
 74
     1
 91
        4
 64
     7
 65
   257
 75
     7
175
     7
 42
1.0
 92
        8
 66
     7
 43
1.0
 76
     1
 77
     6
 78
     2
 67
     7
 79
     5
170
     0
171
     0
290
     0
174
     0
 93
        1
 44
0.0
173
     0
291
     1
 45
0.0
1001
ACAD
1000
AcDbSavedByObjectVersion
1070
     0
  0
VISUALSTYLE
  5
2BCC6
102
{ACAD_XDICTIONARY
360
2BEB9
102
}
102
{ACAD_REACTORS
330
2BCB4
102
}
330
2BCB4
100
AcDbVisualStyle
  2
OverhangOff
 70
    21
 71
     2
 72
     2
 73
     0
 90
        0
 40
-0.6
 41
-30.0
 62
     5
 63
     7
 74
     1
 91
        4
 64
     7
 65
   257
 75
     1
175
     1
 42
1.0
 92
        9
 66
     7
 43
1.0
 76
     1
 77
     6
 78
     2
 67
     7
 79
     5
170
     0
171
     0
290
     0
174
     0
 93
        1
 44
0.0
173
     0
291
     1
 45
0.0
1001
ACAD
1000
AcDbSavedByObjectVersion
1070
     0
  0
VISUALSTYLE
  5
2BCBD
102
{ACAD_XDICTIONARY
360
2BEA7
102
}
102
{ACAD_REACTORS
330
2BCB4
102
}
330
2BCB4
100
AcDbVisualStyle
  2
Realistic
 70
     8
 71
     2
 72
     2
 73
     0
 90
        2
 40
-0.6
 41
30.0
 62
     5
 63
     7
 74
     0
 91
        0
 64
     7
 65
   257
 75
     1
175
     1
 42
1.0
 92
        8
 66
   257
 43
1.0
 76
     1
 77
     6
 78
     2
 67
     7
 79
     3
170
     0
171
     0
290
     0
174
     0
 93
       13
 44
0.0
173
     0
291
     0
 45
0.0
1001
ACAD
1000
AcDbSavedByObjectVersion
1070
     0
  0
VISUALSTYLE
  5
2BCCC
102
{ACAD_XDICTIONARY
360
2BEC5
102
}
102
{ACAD_REACTORS
330
2BCB4
102
}
330
2BCB4
100
AcDbVisualStyle
  2
Shaded
 70
    27
 71
     2
 72
     2
 73
     1
 90
        2
 40
-0.6
 41
30.0
 62
     5
 63
     7
 74
     0
 91
        4
 64
     7
 65
   257
 75
     1
175
     1
 42
1.0
 92
        8
 66
   257
 43
1.0
 76
     1
 77
     6
 78
     2
 67
     8
 79
     3
170
     0
171
     0
290
     0
174
     0
 93
        5
 44
0.0
173
     0
291
     0
 45
0.0
1001
ACAD
1000
AcDbSavedByObjectVersion
1070
     0
  0
VISUALSTYLE
  5
2BCCB
102
{ACAD_XDICTIONARY
360
2BEC3
102
}
102
{ACAD_REACTORS
330
2BCB4
102
}
330
2BCB4
100
AcDbVisualStyle
  2
Shaded with edges
 70
    26
 71
     2
 72
     2
 73
     1
 90
        2
 40
-0.6
 41
30.0
 62
     5
 63
     7
 74
     1
 91
        2
 64
     7
 65
   257
 75
     2
175
     1
 42
1.0
 92
        8
 66
   257
 43
1.0
 76
     1
 77
     6
 78
     2
 67
     7
 79
     3
170
     0
171
     0
290
     0
174
     0
 93
        5
 44
0.0
173
     0
291
     0
 45
0.0
1001
ACAD
1000
AcDbSavedByObjectVersion
1070
     0
  0
VISUALSTYLE
  5
2BCC8
102
{ACAD_XDICTIONARY
360
2BEBD
102
}
102
{ACAD_REACTORS
330
2BCB4
102
}
330
2BCB4
100
AcDbVisualStyle
  2
Shades of Gray
 70
    23
 71
     2
 72
     2
 73
     3
 90
        0
 40
-0.6
 41
-30.0
 62
     5
 63
     7
 74
     2
 91
        2
 64
     7
 65
     7
 75
     1
175
     1
 42
40.0
 92
        8
 66
     7
 43
1.0
 76
     1
 77
     6
 78
     2
 67
     7
 79
     3
170
     0
171
     0
290
     0
174
     0
 93
        1
 44
0.0
173
     0
291
     0
 45
0.0
1001
ACAD
1000
AcDbSavedByObjectVersion
1070
     0
  0
VISUALSTYLE
  5
2BCC9
102
{ACAD_XDICTIONARY
360
2BEBF
102
}
102
{ACAD_REACTORS
330
2BCB4
102
}
330
2BCB4
100
AcDbVisualStyle
  2
Sketchy
 70
    24
 71
     1
 72
     2
 73
     2
 90
        0
 40
-0.6
 41
-30.0
 62
     5
 63
     7
 74
     2
 91
        2
 64
     7
 65
     7
 75
     1
175
     1
 42
40.0
 92
       11
 66
     7
 43
1.0
 76
     1
 77
     6
 78
     2
 67
     7
 79
     6
170
     0
171
     0
290
     0
174
     0
 93
        1
 44
0.0
173
     0
291
     0
 45
0.0
1001
ACAD
1000
AcDbSavedByObjectVersion
1070
     0
  0
VISUALSTYLE
  5
2BCC1
102
{ACAD_XDICTIONARY
360
2BEAF
102
}
102
{ACAD_REACTORS
330
2BCB4
102
}
330
2BCB4
100
AcDbVisualStyle
  2
Thicken
 70
    13
 71
     2
 72
     2
 73
     0
 90
        0
 40
-0.6
 41
-30.0
 62
     5
 63
     7
 74
     1
 91
        4
 64
     7
 65
   257
 75
     1
175
     1
 42
1.0
 92
       12
 66
     7
 43
1.0
 76
     1
 77
     6
 78
     2
 67
     7
 79
     5
170
     0
171
     0
290
     0
174
     0
 93
        1
 44
0.0
173
     0
291
     1
 45
0.0
1001
ACAD
1000
AcDbSavedByObjectVersion
1070
     0
  0
VISUALSTYLE
  5
2BCBA
102
{ACAD_XDICTIONARY
360
2BEA1
102
}
102
{ACAD_REACTORS
330
2BCB4
102
}
330
2BCB4
100
AcDbVisualStyle
  2
Wireframe
 70
     5
 71
     0
 72
     2
 73
     0
 90
        0
 40
-0.6
 41
-30.0
 62
     5
 63
     7
 74
     1
 91
        4
 64
     7
 65
   257
 75
     1
175
     1
 42
1.0
 92
        0
 66
   257
 43
1.0
 76
     1
 77
     6
 78
     2
 67
     7
 79
     3
170
     0
171
     0
290
     0
174
     0
 93
        1
 44
0.0
173
     0
291
     0
 45
0.0
1001
ACAD
1000
AcDbSavedByObjectVersion
1070
     0
  0
VISUALSTYLE
  5
2BCCA
102
{ACAD_XDICTIONARY
360
2BEC1
102
}
102
{ACAD_REACTORS
330
2BCB4
102
}
330
2BCB4
100
AcDbVisualStyle
  2
X-Ray
 70
    25
 71
     2
 72
     2
 73
     1
 90
        1
 40
0.5
 41
-30.0
 62
     5
 63
     7
 74
     1
 91
        0
 64
     7
 65
   257
 75
     1
175
     1
 42
1.0
 92
        8
 66
     7
 43
1.0
 76
     1
 77
     6
 78
     2
 67
     7
 79
     3
170
     0
171
     0
290
     0
174
     0
 93
       13
 44
0.0
173
     0
291
     0
 45
0.0
1001
ACAD
1000
AcDbSavedByObjectVersion
1070
     0
  0
DICTIONARYVAR
  5
2BCD7
102
{ACAD_REACTORS
330
106A6
102
}
330
106A6
100
DictionaryVariables
280
     0
  1
1:1
  0
DICTIONARYVAR
  5
2BCD9
102
{ACAD_REACTORS
330
106A6
102
}
330
106A6
100
DictionaryVariables
280
     0
  1
STANDARD
  0
DICTIONARYVAR
  5
2BCD8
102
{ACAD_REACTORS
330
106A6
102
}
330
106A6
100
DictionaryVariables
280
     0
  1
STANDARD
  0
DICTIONARYVAR
  5
2BE7A
102
{ACAD_REACTORS
330
106A6
102
}
330
106A6
100
DictionaryVariables
280
     0
  1
Imperial24
  0
DICTIONARYVAR
  5
2BE7B
102
{ACAD_REACTORS
330
106A6
102
}
330
106A6
100
DictionaryVariables
280
     0
  1
Imperial24
  0
DICTIONARYVAR
  5
2BE82
102
{ACAD_REACTORS
330
106A6
102
}
330
106A6
100
DictionaryVariables
280
     0
  1
2
  0
DICTIONARYVAR
  5
2BE81
102
{ACAD_REACTORS
330
106A6
102
}
330
106A6
100
DictionaryVariables
280
     0
  1
2
  0
DICTIONARYVAR
  5
2BE80
102
{ACAD_REACTORS
330
106A6
102
}
330
106A6
100
DictionaryVariables
280
     0
  1
1
  0
DICTIONARYVAR
  5
2BE7F
102
{ACAD_REACTORS
330
106A6
102
}
330
106A6
100
DictionaryVariables
280
     0
  1
0
  0
DICTIONARYVAR
  5
2BE7D
102
{ACAD_REACTORS
330
106A6
102
}
330
106A6
100
DictionaryVariables
280
     0
  1
0
  0
DICTIONARYVAR
  5
2BE7E
102
{ACAD_REACTORS
330
106A6
102
}
330
106A6
100
DictionaryVariables
280
     0
  1
0
  0
DICTIONARYVAR
  5
2BE7C
102
{ACAD_REACTORS
330
106A6
102
}
330
106A6
100
DictionaryVariables
280
     0
  1
2
  0
DICTIONARYVAR
  5
2BCDA
102
{ACAD_REACTORS
330
106A6
102
}
330
106A6
100
DictionaryVariables
280
     0
  1
0
  0
DICTIONARYVAR
  5
106A7
102
{ACAD_REACTORS
330
106A6
102
}
330
106A6
100
DictionaryVariables
280
     0
  1
96
  0
DICTIONARYVAR
  5
2BE8F
102
{ACAD_REACTORS
330
106A6
102
}
330
106A6
100
DictionaryVariables
280
     0
  1
2
  0
XRECORD
  5
1A9A1
102
{ACAD_REACTORS
330
1A99F
102
}
330
1A99F
100
AcDbXrecord
280
     1
330
187D7
330
0
330
0
330
0
330
0
330
0
330
0
330
0
330
0
330
0
330
0
330
0
330
0
330
0
330
0
330
0
330
0
330
0
330
0
330
0
330
0
330
0
330
0
330
0
330
0
330
0
330
0
330
0
330
0
330
0
330
0
330
0
330
0
330
0
330
0
330
0
330
0
330
0
330
0
330
0
330
0
330
0
330
0
330
0
  0
XRECORD
  5
29D4F
102
{ACAD_REACTORS
330
28919
102
}
330
28919
100
AcDbXrecord
280
     1
290
     0
290
     0
  0
XRECORD
  5
2B6E8
102
{ACAD_REACTORS
330
28919
102
}
330
28919
100
AcDbXrecord
280
     1
290
     1
290
     0
  0
XRECORD
  5
2B6E9
102
{ACAD_REACTORS
330
28919
102
}
330
28919
100
AcDbXrecord
280
     1
290
     1
290
     1
  0
XRECORD
  5
2B86D
102
{ACAD_REACTORS
330
28919
102
}
330
28919
100
AcDbXrecord
280
     1
290
     1
290
     1
  0
XRECORD
  5
2B86E
102
{ACAD_REACTORS
330
28919
102
}
330
28919
100
AcDbXrecord
280
     1
290
     1
290
     1
  0
XRECORD
  5
2B86F
102
{ACAD_REACTORS
330
28919
102
}
330
28919
100
AcDbXrecord
280
     1
290
     0
290
     0
  0
XRECORD
  5
28949
102
{ACAD_REACTORS
330
28919
102
}
330
28919
100
AcDbXrecord
280
     1
290
     1
290
     0
  0
XRECORD
  5
2894A
102
{ACAD_REACTORS
330
28919
102
}
330
28919
100
AcDbXrecord
280
     1
290
     1
290
     1
  0
XRECORD
  5
29D3F
102
{ACAD_REACTORS
330
28919
102
}
330
28919
100
AcDbXrecord
280
     1
290
     1
290
     0
  0
XRECORD
  5
29D4B
102
{ACAD_REACTORS
330
28919
102
}
330
28919
100
AcDbXrecord
280
     1
290
     1
290
     0
  0
XRECORD
  5
2BD4C
102
{ACAD_REACTORS
330
2BD4B
102
}
330
2BD4B
100
AcDbXrecord
280
     1
  1
AcLyLayerFilter
 90
        1
300
0
301
NAME=="*0"
  0
XRECORD
  5
2BD53
102
{ACAD_REACTORS
330
2BD4B
102
}
330
2BD4B
100
AcDbXrecord
280
     1
  1
AcLyLayerFilter
 90
        1
300
4
301
NAME=="*4"
  0
XRECORD
  5
2BD54
102
{ACAD_REACTORS
330
2BD4B
102
}
330
2BD4B
100
AcDbXrecord
280
     1
  1
AcLyLayerFilter
 90
        1
300
5
301
NAME=="*5"
  0
XRECORD
  5
2BD55
102
{ACAD_REACTORS
330
2BD4B
102
}
330
2BD4B
100
AcDbXrecord
280
     1
  1
AcLyLayerFilter
 90
        1
300
7
301
NAME=="*7"
  0
XRECORD
  5
2BD56
102
{ACAD_REACTORS
330
2BD4B
102
}
330
2BD4B
100
AcDbXrecord
280
     1
  1
AcLyLayerFilter
 90
        1
300
kiseki
301
NAME=="kiseki*"
  0
XRECORD
  5
2BD4D
102
{ACAD_REACTORS
330
2BD4B
102
}
330
2BD4B
100
AcDbXrecord
280
     1
  1
AcLyLayerFilter
 90
        1
300
11
301
NAME=="*11"
  0
XRECORD
  5
2BD4E
102
{ACAD_REACTORS
330
2BD4B
102
}
330
2BD4B
100
AcDbXrecord
280
     1
  1
AcLyLayerFilter
 90
        1
300
150_
301
NAME=="150_*"
  0
XRECORD
  5
2BD4F
102
{ACAD_REACTORS
330
2BD4B
102
}
330
2BD4B
100
AcDbXrecord
280
     1
  1
AcLyLayerFilter
 90
        1
300
160_
301
NAME=="160_*"
  0
XRECORD
  5
2BD50
102
{ACAD_REACTORS
330
2BD4B
102
}
330
2BD4B
100
AcDbXrecord
280
     1
  1
AcLyLayerFilter
 90
        1
300
170_
301
NAME=="170_*"
  0
XRECORD
  5
2BD51
102
{ACAD_REACTORS
330
2BD4B
102
}
330
2BD4B
100
AcDbXrecord
280
     1
  1
AcLyLayerFilter
 90
        1
300
171_
301
NAME=="171_*"
  0
XRECORD
  5
2BD52
102
{ACAD_REACTORS
330
2BD4B
102
}
330
2BD4B
100
AcDbXrecord
280
     1
  1
AcLyLayerFilter
 90
        1
300
350_
301
NAME=="350_*"
  0
DICTIONARY
  5
2BED5
330
2BD5B
100
AcDbDictionary
280
     1
281
     1
  3
ACAD_XREC_ROUNDTRIP
360
2BED6
  0
DICTIONARY
  5
2BE95
330
FB5D
100
AcDbDictionary
280
     1
281
     1
  3
ACAD_XREC_ROUNDTRIP
360
2BE96
  0
DICTIONARY
  5
2BECC
330
2BD15
100
AcDbDictionary
280
     1
281
     1
  3
ACAD_XREC_ROUNDTRIP
360
2BECD
  0
DICTIONARY
  5
2BED1
330
2BD57
100
AcDbDictionary
280
     1
281
     1
  3
ACAD_XREC_ROUNDTRIP
360
2BED2
  0
DICTIONARY
  5
2BEC7
330
2BCCE
100
AcDbDictionary
280
     1
281
     1
  3
ACAD_XREC_ROUNDTRIP
360
2BEC8
  0
DICTIONARY
  5
2BEC9
330
2BCD0
100
AcDbDictionary
280
     1
281
     1
  3
ACAD_XREC_ROUNDTRIP
360
2BECA
  0
DICTIONARY
  5
2BED3
330
2BD5A
100
AcDbDictionary
280
     1
281
     1
  3
ACAD_XREC_ROUNDTRIP
360
2BED4
  0
DICTIONARY
  5
2BE26
330
2BCD2
100
AcDbDictionary
280
     1
281
     1
  3
ACAD_ROUNDTRIP_2008_TABLESTYLE_CELLSTYLEMAP
360
2BE90
  3
ACAD_XREC_ROUNDTRIP
360
2BECB
  0
DICTIONARY
  5
2BE9F
330
2BCB9
100
AcDbDictionary
280
     1
281
     1
  3
ACAD_XREC_ROUNDTRIP
360
2BEA0
  0
DICTIONARY
  5
2BEA5
330
2BCBC
100
AcDbDictionary
280
     1
281
     1
  3
ACAD_XREC_ROUNDTRIP
360
2BEA6
  0
DICTIONARY
  5
2BEAD
330
2BCC0
100
AcDbDictionary
280
     1
281
     1
  3
ACAD_XREC_ROUNDTRIP
360
2BEAE
  0
DICTIONARY
  5
2BEB5
330
2BCC4
100
AcDbDictionary
280
     1
281
     1
  3
ACAD_XREC_ROUNDTRIP
360
2BEB6
  0
DICTIONARY
  5
2BEA9
330
2BCBE
100
AcDbDictionary
280
     1
281
     1
  3
ACAD_XREC_ROUNDTRIP
360
2BEAA
  0
DICTIONARY
  5
2BEAB
330
2BCBF
100
AcDbDictionary
280
     1
281
     1
  3
ACAD_XREC_ROUNDTRIP
360
2BEAC
  0
DICTIONARY
  5
2BEBB
330
2BCC7
100
AcDbDictionary
280
     1
281
     1
  3
ACAD_XREC_ROUNDTRIP
360
2BEBC
  0
DICTIONARY
  5
2BEB3
330
2BCC3
100
AcDbDictionary
280
     1
281
     1
  3
ACAD_XREC_ROUNDTRIP
360
2BEB4
  0
DICTIONARY
  5
2BE97
330
2BCB5
100
AcDbDictionary
280
     1
281
     1
  3
ACAD_XREC_ROUNDTRIP
360
2BE98
  0
DICTIONARY
  5
2BE99
330
2BCB6
100
AcDbDictionary
280
     1
281
     1
  3
ACAD_XREC_ROUNDTRIP
360
2BE9A
  0
DICTIONARY
  5
2BE9B
330
2BCB7
100
AcDbDictionary
280
     1
281
     1
  3
ACAD_XREC_ROUNDTRIP
360
2BE9C
  0
DICTIONARY
  5
2BE9D
330
2BCB8
100
AcDbDictionary
280
     1
281
     1
  3
ACAD_XREC_ROUNDTRIP
360
2BE9E
  0
DICTIONARY
  5
2BEA3
330
2BCBB
100
AcDbDictionary
280
     1
281
     1
  3
ACAD_XREC_ROUNDTRIP
360
2BEA4
  0
DICTIONARY
  5
2BEB7
330
2BCC5
100
AcDbDictionary
280
     1
281
     1
  3
ACAD_XREC_ROUNDTRIP
360
2BEB8
  0
DICTIONARY
  5
2BEB1
330
2BCC2
100
AcDbDictionary
280
     1
281
     1
  3
ACAD_XREC_ROUNDTRIP
360
2BEB2
  0
DICTIONARY
  5
2BEB9
330
2BCC6
100
AcDbDictionary
280
     1
281
     1
  3
ACAD_XREC_ROUNDTRIP
360
2BEBA
  0
DICTIONARY
  5
2BEA7
330
2BCBD
100
AcDbDictionary
280
     1
281
     1
  3
ACAD_XREC_ROUNDTRIP
360
2BEA8
  0
DICTIONARY
  5
2BEC5
330
2BCCC
100
AcDbDictionary
280
     1
281
     1
  3
ACAD_XREC_ROUNDTRIP
360
2BEC6
  0
DICTIONARY
  5
2BEC3
330
2BCCB
100
AcDbDictionary
280
     1
281
     1
  3
ACAD_XREC_ROUNDTRIP
360
2BEC4
  0
DICTIONARY
  5
2BEBD
330
2BCC8
100
AcDbDictionary
280
     1
281
     1
  3
ACAD_XREC_ROUNDTRIP
360
2BEBE
  0
DICTIONARY
  5
2BEBF
330
2BCC9
100
AcDbDictionary
280
     1
281
     1
  3
ACAD_XREC_ROUNDTRIP
360
2BEC0
  0
DICTIONARY
  5
2BEAF
330
2BCC1
100
AcDbDictionary
280
     1
281
     1
  3
ACAD_XREC_ROUNDTRIP
360
2BEB0
  0
DICTIONARY
  5
2BEA1
330
2BCBA
100
AcDbDictionary
280
     1
281
     1
  3
ACAD_XREC_ROUNDTRIP
360
2BEA2
  0
DICTIONARY
  5
2BEC1
330
2BCCA
100
AcDbDictionary
280
     1
281
     1
  3
ACAD_XREC_ROUNDTRIP
360
2BEC2
  0
XRECORD
  5
2BED6
102
{ACAD_REACTORS
330
2BED5
102
}
330
2BED5
100
AcDbXrecord
280
     1
102
DISPLAYNAME
  1
Imperial24
102
FLAGS
 90
        0
  0
XRECORD
  5
2BE96
102
{ACAD_REACTORS
330
2BE95
102
}
330
2BE95
100
AcDbXrecord
280
     1
102
SHADEPLOT
 70
     0
102
SHADEPLOTRESLEVEL
 70
     2
102
SHADEPLOTCUSTOMDPI
 70
   300
  0
XRECORD
  5
2BECD
102
{ACAD_REACTORS
330
2BECC
102
}
330
2BECC
100
AcDbXrecord
280
     1
102
SHADEPLOT
 70
     0
102
SHADEPLOTRESLEVEL
 70
     2
102
SHADEPLOTCUSTOMDPI
 70
   300
  0
XRECORD
  5
2BED2
102
{ACAD_REACTORS
330
2BED1
102
}
330
2BED1
100
AcDbXrecord
280
     1
102
MATERIAL
148
0.0
149
0.0
149
0.0
 93
        0
 94
      127
282
     0
 72
     1
 77
     1
171
     1
175
     1
179
     1
273
     0
  0
XRECORD
  5
2BEC8
102
{ACAD_REACTORS
330
2BEC7
102
}
330
2BEC7
100
AcDbXrecord
280
     1
102
MATERIAL
148
0.0
149
0.0
149
0.0
 93
        0
 94
      127
282
     0
 72
     1
 77
     1
171
     1
175
     1
179
     1
273
     0
  0
XRECORD
  5
2BECA
102
{ACAD_REACTORS
330
2BEC9
102
}
330
2BEC9
100
AcDbXrecord
280
     1
102
MATERIAL
148
0.0
149
0.0
149
0.0
 93
        0
 94
      127
282
     0
 72
     1
 77
     1
171
     1
175
     1
179
     1
273
     0
  0
XRECORD
  5
2BED4
102
{ACAD_REACTORS
330
2BED3
102
}
330
2BED3
100
AcDbXrecord
280
     1
102
DISPLAYNAME
  1
Imperial24
102
FLAGS
 90
        0
  0
CELLSTYLEMAP
  5
2BE90
102
{ACAD_REACTORS
330
2BE26
102
}
330
2BE26
100
AcDbCellStyleMap
 90
        3
300
CELLSTYLE
  1
TABLEFORMAT_BEGIN
 90
        5
170
     1
 91
        0
 92
    32768
 62
   257
 93
        1
300
CONTENTFORMAT
  1
CONTENTFORMAT_BEGIN
 90
        0
 91
        0
 92
        4
 93
        0
300

 40
0.0
140
1.0
 94
        5
 62
     0
340
F
144
0.25
309
CONTENTFORMAT_END
171
     1
301
MARGIN
  1
CELLMARGIN_BEGIN
 40
0.06
 40
0.06
 40
0.06
 40
0.06
 40
0.06
 40
0.06
309
CELLMARGIN_END
 94
        6
 95
        1
302
GRIDFORMAT
  1
GRIDFORMAT_BEGIN
 90
        0
 91
        1
 62
     0
 92
       -2
340
12
 93
        0
 40
0.045
309
GRIDFORMAT_END
 95
        2
302
GRIDFORMAT
  1
GRIDFORMAT_BEGIN
 90
        0
 91
        1
 62
     0
 92
       -2
340
12
 93
        0
 40
0.045
309
GRIDFORMAT_END
 95
        4
302
GRIDFORMAT
  1
GRIDFORMAT_BEGIN
 90
        0
 91
        1
 62
     0
 92
       -2
340
12
 93
        0
 40
0.045
309
GRIDFORMAT_END
 95
        8
302
GRIDFORMAT
  1
GRIDFORMAT_BEGIN
 90
        0
 91
        1
 62
     0
 92
       -2
340
12
 93
        0
 40
0.045
309
GRIDFORMAT_END
 95
       16
302
GRIDFORMAT
  1
GRIDFORMAT_BEGIN
 90
        0
 91
        1
 62
     0
 92
       -2
340
12
 93
        0
 40
0.045
309
GRIDFORMAT_END
 95
       32
302
GRIDFORMAT
  1
GRIDFORMAT_BEGIN
 90
        0
 91
        1
 62
     0
 92
       -2
340
12
 93
        0
 40
0.045
309
GRIDFORMAT_END
309
TABLEFORMAT_END
  1
CELLSTYLE_BEGIN
 90
        1
 91
        1
300
_TITLE
309
CELLSTYLE_END
300
CELLSTYLE
  1
TABLEFORMAT_BEGIN
 90
        5
170
     1
 91
        0
 92
        0
 62
   257
 93
        1
300
CONTENTFORMAT
  1
CONTENTFORMAT_BEGIN
 90
        0
 91
        0
 92
        4
 93
        0
300

 40
0.0
140
1.0
 94
        5
 62
     0
340
F
144
0.18
309
CONTENTFORMAT_END
171
     1
301
MARGIN
  1
CELLMARGIN_BEGIN
 40
0.06
 40
0.06
 40
0.06
 40
0.06
 40
0.06
 40
0.06
309
CELLMARGIN_END
 94
        6
 95
        1
302
GRIDFORMAT
  1
GRIDFORMAT_BEGIN
 90
        0
 91
        1
 62
     0
 92
       -2
340
12
 93
        0
 40
0.045
309
GRIDFORMAT_END
 95
        2
302
GRIDFORMAT
  1
GRIDFORMAT_BEGIN
 90
        0
 91
        1
 62
     0
 92
       -2
340
12
 93
        0
 40
0.045
309
GRIDFORMAT_END
 95
        4
302
GRIDFORMAT
  1
GRIDFORMAT_BEGIN
 90
        0
 91
        1
 62
     0
 92
       -2
340
12
 93
        0
 40
0.045
309
GRIDFORMAT_END
 95
        8
302
GRIDFORMAT
  1
GRIDFORMAT_BEGIN
 90
        0
 91
        1
 62
     0
 92
       -2
340
12
 93
        0
 40
0.045
309
GRIDFORMAT_END
 95
       16
302
GRIDFORMAT
  1
GRIDFORMAT_BEGIN
 90
        0
 91
        1
 62
     0
 92
       -2
340
12
 93
        0
 40
0.045
309
GRIDFORMAT_END
 95
       32
302
GRIDFORMAT
  1
GRIDFORMAT_BEGIN
 90
        0
 91
        1
 62
     0
 92
       -2
340
12
 93
        0
 40
0.045
309
GRIDFORMAT_END
309
TABLEFORMAT_END
  1
CELLSTYLE_BEGIN
 90
        2
 91
        1
300
_HEADER
309
CELLSTYLE_END
300
CELLSTYLE
  1
TABLEFORMAT_BEGIN
 90
        5
170
     1
 91
        0
 92
        0
 62
   257
 93
        1
300
CONTENTFORMAT
  1
CONTENTFORMAT_BEGIN
 90
        0
 91
        0
 92
        4
 93
        0
300

 40
0.0
140
1.0
 94
        2
 62
     0
340
F
144
0.18
309
CONTENTFORMAT_END
171
     1
301
MARGIN
  1
CELLMARGIN_BEGIN
 40
0.06
 40
0.06
 40
0.06
 40
0.06
 40
0.06
 40
0.06
309
CELLMARGIN_END
 94
        6
 95
        1
302
GRIDFORMAT
  1
GRIDFORMAT_BEGIN
 90
        0
 91
        1
 62
     0
 92
       -2
340
12
 93
        0
 40
0.045
309
GRIDFORMAT_END
 95
        2
302
GRIDFORMAT
  1
GRIDFORMAT_BEGIN
 90
        0
 91
        1
 62
     0
 92
       -2
340
12
 93
        0
 40
0.045
309
GRIDFORMAT_END
 95
        4
302
GRIDFORMAT
  1
GRIDFORMAT_BEGIN
 90
        0
 91
        1
 62
     0
 92
       -2
340
12
 93
        0
 40
0.045
309
GRIDFORMAT_END
 95
        8
302
GRIDFORMAT
  1
GRIDFORMAT_BEGIN
 90
        0
 91
        1
 62
     0
 92
       -2
340
12
 93
        0
 40
0.045
309
GRIDFORMAT_END
 95
       16
302
GRIDFORMAT
  1
GRIDFORMAT_BEGIN
 90
        0
 91
        1
 62
     0
 92
       -2
340
12
 93
        0
 40
0.045
309
GRIDFORMAT_END
 95
       32
302
GRIDFORMAT
  1
GRIDFORMAT_BEGIN
 90
        0
 91
        1
 62
     0
 92
       -2
340
12
 93
        0
 40
0.045
309
GRIDFORMAT_END
309
TABLEFORMAT_END
  1
CELLSTYLE_BEGIN
 90
        3
 91
        2
300
_DATA
309
CELLSTYLE_END
  0
XRECORD
  5
2BECB
102
{ACAD_REACTORS
330
2BE26
102
}
330
2BE26
100
AcDbXrecord
280
     1
102
ACAD_ROUNDTRIP_PRE2007_TABLESTYLE
 90
        4
 91
        0
  1

 92
        4
 93
        0
  2

 94
        4
 95
        0
  3

  0
XRECORD
  5
2BEA0
102
{ACAD_REACTORS
330
2BE9F
102
}
330
2BE9F
100
AcDbXrecord
280
     1
102
RTVSPost2010Prop28
280
     1
102
RTVSPost2010PropOp28
 70
     1
102
RTVSPost2010Prop29
280
     1
102
RTVSPost2010PropOp29
 70
     1
102
RTVSPost2010Prop30
280
     0
102
RTVSPost2010PropOp30
 70
     1
102
RTVSPost2010Prop31
280
     0
102
RTVSPost2010PropOp31
 70
     1
102
RTVSPost2010Prop32
280
     0
102
RTVSPost2010PropOp32
 70
     1
102
RTVSPost2010Prop33
280
     0
102
RTVSPost2010PropOp33
 70
     1
102
RTVSPost2010Prop34
280
     0
102
RTVSPost2010PropOp34
 70
     1
102
RTVSPost2010Prop35
280
     0
102
RTVSPost2010PropOp35
 70
     1
102
RTVSPost2010Prop36
280
     0
102
RTVSPost2010PropOp36
 70
     1
102
RTVSPost2010Prop37
 90
       50
102
RTVSPost2010PropOp37
 70
     1
102
RTVSPost2010Prop38
140
0.0
102
RTVSPost2010PropOp38
 70
     1
102
RTVSPost2010Prop39
140
1.0
102
RTVSPost2010PropOp39
 70
     1
102
RTVSPost2010Prop40
 90
        0
102
RTVSPost2010PropOp40
 70
     1
102
RTVSPost2010Prop41ColorIndex
 90
       18
102
RTVSPost2010Prop41ColorRGB
 90
        0
102
RTVSPost2010PropOp41
 70
     1
102
RTVSPost2010Prop42
 90
       50
102
RTVSPost2010PropOp42
 70
     1
102
RTVSPost2010Prop43
 90
        3
102
RTVSPost2010PropOp43
 70
     1
102
RTVSPost2010Prop44ColorIndex
 90
        5
102
RTVSPost2010Prop44ColorRGB
 90
      255
102
RTVSPost2010PropOp44
 70
     1
102
RTVSPost2010Prop45
280
     0
102
RTVSPost2010PropOp45
 70
     1
102
RTVSPost2010Prop46
 90
       50
102
RTVSPost2010PropOp46
 70
     1
102
RTVSPost2010Prop47
 90
       50
102
RTVSPost2010PropOp47
 70
     1
102
RTVSPost2010Prop48
 90
       50
102
RTVSPost2010PropOp48
 70
     1
102
RTVSPost2010Prop49
280
     0
102
RTVSPost2010PropOp49
 70
     1
102
RTVSPost2010Prop50
 90
       50
102
RTVSPost2010PropOp50
 70
     1
102
RTVSPost2010Prop51ColorIndex
 90
      256
102
RTVSPost2010Prop51ColorRGB
 90
-16777216
102
RTVSPost2010PropOp51
 70
     0
102
RTVSPost2010Prop52
140
1.0
102
RTVSPost2010PropOp52
 70
     0
102
RTVSPost2010Prop53
 90
        2
102
RTVSPost2010PropOp53
 70
     1
102
RTVSPost2010Prop54
  1
strokes_ogs.tif
102
RTVSPost2010PropOp54
 70
     1
102
RTVSPost2010Prop55
280
     0
102
RTVSPost2010PropOp55
 70
     1
102
RTVSPost2010Prop56
140
1.0
102
RTVSPost2010PropOp56
 70
     1
102
RTVSPost2010Prop57
140
1.0
102
RTVSPost2010PropOp57
 70
     1
102
RTVSPropertyOp0
 70
     1
102
RTVSPropertyOp1
 70
     1
102
RTVSPropertyOp2
 70
     1
102
RTVSPropertyOp3
 70
     1
102
RTVSPropertyOp4
 70
     1
102
RTVSPropertyOp5
 70
     1
102
RTVSPropertyOp6
 70
     1
102
RTVSPropertyOp7
 70
     1
102
RTVSPropertyOp8
 70
     1
102
RTVSPropertyOp9
 70
     1
102
RTVSPropertyOp10
 70
     1
102
RTVSPropertyOp11
 70
     1
102
RTVSPropertyOp12
 70
     1
102
RTVSPropertyOp13
 70
     1
102
RTVSPropertyOp14
 70
     1
102
RTVSPropertyOp15
 70
     1
102
RTVSPropertyOp16
 70
     1
102
RTVSPropertyOp17
 70
     1
102
RTVSPropertyOp18
 70
     1
102
RTVSPropertyOp19
 70
     1
102
RTVSPropertyOp20
 70
     1
102
RTVSPropertyOp21
 70
     1
102
RTVSPropertyOp22
 70
     1
102
RTVSPropertyOp23
 70
     1
102
RTVSPropertyOp24
 70
     1
102
RTVSPropertyOp25
 70
     1
102
RTVSPropertyOp26
 70
     1
102
RTVSPropertyOp27
 70
     1
102
RTVSPropertyOp28
 70
     1
102
RTVSPropertyOp29
 70
     1
102
RTVSPropertyOp30
 70
     1
102
RTVSPropertyOp31
 70
     1
102
RTVSPropertyOp32
 70
     1
102
RTVSPropertyOp33
 70
     1
102
RTVSPropertyOp34
 70
     1
102
RTVSPropertyOp35
 70
     1
102
RTVSPropertyOp36
 70
     1
102
RTVSPropertyOp37
 70
     1
102
RTVSPropertyOp38
 70
     1
102
RTVSPropertyOp39
 70
     1
102
RTVSPropertyOp40
 70
     1
102
RTVSPropertyOp41
 70
     1
102
RTVSPropertyOp42
 70
     1
102
RTVSPropertyOp43
 70
     1
102
RTVSPropertyOp44
 70
     1
102
RTVSPropertyOp45
 70
     1
102
RTVSPropertyOp46
 70
     1
102
RTVSPropertyOp47
 70
     1
102
RTVSPropertyOp48
 70
     1
102
RTVSPropertyOp49
 70
     1
102
RTVSPropertyOp50
 70
     1
102
RTVSPropertyOp51
 70
     0
102
RTVSPropertyOp52
 70
     0
102
RTVSPropertyOp53
 70
     1
102
RTVSPropertyOp54
 70
     1
102
RTVSPropertyOp55
 70
     1
102
RTVSPropertyOp56
 70
     1
102
RTVSPropertyOp57
 70
     1
102
RTVSPropertyOp58
 70
     1
102
RTVSPropertyOp59
 70
     1
102
RTVSPropertyOp60
 70
     1
102
RTVSPropertyOp61
 70
     1
102
RTVSPropertyOp62
 70
     1
  0
XRECORD
  5
2BEA6
102
{ACAD_REACTORS
330
2BEA5
102
}
330
2BEA5
100
AcDbXrecord
280
     1
102
RTVSPost2010Prop28
280
     0
102
RTVSPost2010PropOp28
 70
     1
102
RTVSPost2010Prop29
280
     1
102
RTVSPost2010PropOp29
 70
     1
102
RTVSPost2010Prop30
280
     1
102
RTVSPost2010PropOp30
 70
     1
102
RTVSPost2010Prop31
280
     0
102
RTVSPost2010PropOp31
 70
     1
102
RTVSPost2010Prop32
280
     0
102
RTVSPost2010PropOp32
 70
     1
102
RTVSPost2010Prop33
280
     0
102
RTVSPost2010PropOp33
 70
     1
102
RTVSPost2010Prop34
280
     0
102
RTVSPost2010PropOp34
 70
     1
102
RTVSPost2010Prop35
280
     0
102
RTVSPost2010PropOp35
 70
     1
102
RTVSPost2010Prop36
280
     0
102
RTVSPost2010PropOp36
 70
     1
102
RTVSPost2010Prop37
 90
       50
102
RTVSPost2010PropOp37
 70
     1
102
RTVSPost2010Prop38
140
0.0
102
RTVSPost2010PropOp38
 70
     1
102
RTVSPost2010Prop39
140
1.0
102
RTVSPost2010PropOp39
 70
     1
102
RTVSPost2010Prop40
 90
        0
102
RTVSPost2010PropOp40
 70
     1
102
RTVSPost2010Prop41ColorIndex
 90
       18
102
RTVSPost2010Prop41ColorRGB
 90
        0
102
RTVSPost2010PropOp41
 70
     1
102
RTVSPost2010Prop42
 90
       50
102
RTVSPost2010PropOp42
 70
     1
102
RTVSPost2010Prop43
 90
        3
102
RTVSPost2010PropOp43
 70
     1
102
RTVSPost2010Prop44ColorIndex
 90
        5
102
RTVSPost2010Prop44ColorRGB
 90
      255
102
RTVSPost2010PropOp44
 70
     1
102
RTVSPost2010Prop45
280
     0
102
RTVSPost2010PropOp45
 70
     1
102
RTVSPost2010Prop46
 90
       50
102
RTVSPost2010PropOp46
 70
     1
102
RTVSPost2010Prop47
 90
       50
102
RTVSPost2010PropOp47
 70
     1
102
RTVSPost2010Prop48
 90
       50
102
RTVSPost2010PropOp48
 70
     1
102
RTVSPost2010Prop49
280
     0
102
RTVSPost2010PropOp49
 70
     1
102
RTVSPost2010Prop50
 90
       50
102
RTVSPost2010PropOp50
 70
     1
102
RTVSPost2010Prop51ColorIndex
 90
      256
102
RTVSPost2010Prop51ColorRGB
 90
-16777216
102
RTVSPost2010PropOp51
 70
     0
102
RTVSPost2010Prop52
140
1.0
102
RTVSPost2010PropOp52
 70
     0
102
RTVSPost2010Prop53
 90
        2
102
RTVSPost2010PropOp53
 70
     1
102
RTVSPost2010Prop54
  1
strokes_ogs.tif
102
RTVSPost2010PropOp54
 70
     1
102
RTVSPost2010Prop55
280
     0
102
RTVSPost2010PropOp55
 70
     1
102
RTVSPost2010Prop56
140
1.0
102
RTVSPost2010PropOp56
 70
     1
102
RTVSPost2010Prop57
140
1.0
102
RTVSPost2010PropOp57
 70
     1
102
RTVSPropertyOp0
 70
     1
102
RTVSPropertyOp1
 70
     1
102
RTVSPropertyOp2
 70
     1
102
RTVSPropertyOp3
 70
     1
102
RTVSPropertyOp4
 70
     1
102
RTVSPropertyOp5
 70
     1
102
RTVSPropertyOp6
 70
     1
102
RTVSPropertyOp7
 70
     1
102
RTVSPropertyOp8
 70
     1
102
RTVSPropertyOp9
 70
     1
102
RTVSPropertyOp10
 70
     1
102
RTVSPropertyOp11
 70
     1
102
RTVSPropertyOp12
 70
     1
102
RTVSPropertyOp13
 70
     1
102
RTVSPropertyOp14
 70
     1
102
RTVSPropertyOp15
 70
     1
102
RTVSPropertyOp16
 70
     1
102
RTVSPropertyOp17
 70
     1
102
RTVSPropertyOp18
 70
     1
102
RTVSPropertyOp19
 70
     1
102
RTVSPropertyOp20
 70
     1
102
RTVSPropertyOp21
 70
     1
102
RTVSPropertyOp22
 70
     1
102
RTVSPropertyOp23
 70
     1
102
RTVSPropertyOp24
 70
     1
102
RTVSPropertyOp25
 70
     1
102
RTVSPropertyOp26
 70
     1
102
RTVSPropertyOp27
 70
     1
102
RTVSPropertyOp28
 70
     1
102
RTVSPropertyOp29
 70
     1
102
RTVSPropertyOp30
 70
     1
102
RTVSPropertyOp31
 70
     1
102
RTVSPropertyOp32
 70
     1
102
RTVSPropertyOp33
 70
     1
102
RTVSPropertyOp34
 70
     1
102
RTVSPropertyOp35
 70
     1
102
RTVSPropertyOp36
 70
     1
102
RTVSPropertyOp37
 70
     1
102
RTVSPropertyOp38
 70
     1
102
RTVSPropertyOp39
 70
     1
102
RTVSPropertyOp40
 70
     1
102
RTVSPropertyOp41
 70
     1
102
RTVSPropertyOp42
 70
     1
102
RTVSPropertyOp43
 70
     1
102
RTVSPropertyOp44
 70
     1
102
RTVSPropertyOp45
 70
     1
102
RTVSPropertyOp46
 70
     1
102
RTVSPropertyOp47
 70
     1
102
RTVSPropertyOp48
 70
     1
102
RTVSPropertyOp49
 70
     1
102
RTVSPropertyOp50
 70
     1
102
RTVSPropertyOp51
 70
     0
102
RTVSPropertyOp52
 70
     0
102
RTVSPropertyOp53
 70
     1
102
RTVSPropertyOp54
 70
     1
102
RTVSPropertyOp55
 70
     1
102
RTVSPropertyOp56
 70
     1
102
RTVSPropertyOp57
 70
     1
102
RTVSPropertyOp58
 70
     1
102
RTVSPropertyOp59
 70
     1
102
RTVSPropertyOp60
 70
     1
102
RTVSPropertyOp61
 70
     1
102
RTVSPropertyOp62
 70
     1
  0
XRECORD
  5
2BEAE
102
{ACAD_REACTORS
330
2BEAD
102
}
330
2BEAD
100
AcDbXrecord
280
     1
102
RTVSPost2010Prop28
280
     0
102
RTVSPost2010PropOp28
 70
     1
102
RTVSPost2010Prop29
280
     1
102
RTVSPost2010PropOp29
 70
     1
102
RTVSPost2010Prop30
280
     1
102
RTVSPost2010PropOp30
 70
     1
102
RTVSPost2010Prop31
280
     0
102
RTVSPost2010PropOp31
 70
     1
102
RTVSPost2010Prop32
280
     0
102
RTVSPost2010PropOp32
 70
     1
102
RTVSPost2010Prop33
280
     0
102
RTVSPost2010PropOp33
 70
     1
102
RTVSPost2010Prop34
280
     0
102
RTVSPost2010PropOp34
 70
     1
102
RTVSPost2010Prop35
280
     0
102
RTVSPost2010PropOp35
 70
     1
102
RTVSPost2010Prop36
280
     0
102
RTVSPost2010PropOp36
 70
     1
102
RTVSPost2010Prop37
 90
       50
102
RTVSPost2010PropOp37
 70
     1
102
RTVSPost2010Prop38
140
0.0
102
RTVSPost2010PropOp38
 70
     1
102
RTVSPost2010Prop39
140
1.0
102
RTVSPost2010PropOp39
 70
     1
102
RTVSPost2010Prop40
 90
        0
102
RTVSPost2010PropOp40
 70
     1
102
RTVSPost2010Prop41ColorIndex
 90
       18
102
RTVSPost2010Prop41ColorRGB
 90
        0
102
RTVSPost2010PropOp41
 70
     1
102
RTVSPost2010Prop42
 90
       50
102
RTVSPost2010PropOp42
 70
     1
102
RTVSPost2010Prop43
 90
        3
102
RTVSPost2010PropOp43
 70
     1
102
RTVSPost2010Prop44ColorIndex
 90
        5
102
RTVSPost2010Prop44ColorRGB
 90
      255
102
RTVSPost2010PropOp44
 70
     1
102
RTVSPost2010Prop45
280
     0
102
RTVSPost2010PropOp45
 70
     1
102
RTVSPost2010Prop46
 90
       50
102
RTVSPost2010PropOp46
 70
     1
102
RTVSPost2010Prop47
 90
       50
102
RTVSPost2010PropOp47
 70
     1
102
RTVSPost2010Prop48
 90
       50
102
RTVSPost2010PropOp48
 70
     1
102
RTVSPost2010Prop49
280
     0
102
RTVSPost2010PropOp49
 70
     1
102
RTVSPost2010Prop50
 90
       50
102
RTVSPost2010PropOp50
 70
     1
102
RTVSPost2010Prop51ColorIndex
 90
      256
102
RTVSPost2010Prop51ColorRGB
 90
-16777216
102
RTVSPost2010PropOp51
 70
     0
102
RTVSPost2010Prop52
140
1.0
102
RTVSPost2010PropOp52
 70
     0
102
RTVSPost2010Prop53
 90
        2
102
RTVSPost2010PropOp53
 70
     1
102
RTVSPost2010Prop54
  1
strokes_ogs.tif
102
RTVSPost2010PropOp54
 70
     1
102
RTVSPost2010Prop55
280
     0
102
RTVSPost2010PropOp55
 70
     1
102
RTVSPost2010Prop56
140
1.0
102
RTVSPost2010PropOp56
 70
     1
102
RTVSPost2010Prop57
140
1.0
102
RTVSPost2010PropOp57
 70
     1
102
RTVSPropertyOp0
 70
     1
102
RTVSPropertyOp1
 70
     1
102
RTVSPropertyOp2
 70
     1
102
RTVSPropertyOp3
 70
     1
102
RTVSPropertyOp4
 70
     1
102
RTVSPropertyOp5
 70
     1
102
RTVSPropertyOp6
 70
     1
102
RTVSPropertyOp7
 70
     1
102
RTVSPropertyOp8
 70
     1
102
RTVSPropertyOp9
 70
     1
102
RTVSPropertyOp10
 70
     1
102
RTVSPropertyOp11
 70
     1
102
RTVSPropertyOp12
 70
     1
102
RTVSPropertyOp13
 70
     1
102
RTVSPropertyOp14
 70
     1
102
RTVSPropertyOp15
 70
     1
102
RTVSPropertyOp16
 70
     1
102
RTVSPropertyOp17
 70
     1
102
RTVSPropertyOp18
 70
     1
102
RTVSPropertyOp19
 70
     1
102
RTVSPropertyOp20
 70
     1
102
RTVSPropertyOp21
 70
     1
102
RTVSPropertyOp22
 70
     1
102
RTVSPropertyOp23
 70
     1
102
RTVSPropertyOp24
 70
     1
102
RTVSPropertyOp25
 70
     1
102
RTVSPropertyOp26
 70
     1
102
RTVSPropertyOp27
 70
     1
102
RTVSPropertyOp28
 70
     1
102
RTVSPropertyOp29
 70
     1
102
RTVSPropertyOp30
 70
     1
102
RTVSPropertyOp31
 70
     1
102
RTVSPropertyOp32
 70
     1
102
RTVSPropertyOp33
 70
     1
102
RTVSPropertyOp34
 70
     1
102
RTVSPropertyOp35
 70
     1
102
RTVSPropertyOp36
 70
     1
102
RTVSPropertyOp37
 70
     1
102
RTVSPropertyOp38
 70
     1
102
RTVSPropertyOp39
 70
     1
102
RTVSPropertyOp40
 70
     1
102
RTVSPropertyOp41
 70
     1
102
RTVSPropertyOp42
 70
     1
102
RTVSPropertyOp43
 70
     1
102
RTVSPropertyOp44
 70
     1
102
RTVSPropertyOp45
 70
     1
102
RTVSPropertyOp46
 70
     1
102
RTVSPropertyOp47
 70
     1
102
RTVSPropertyOp48
 70
     1
102
RTVSPropertyOp49
 70
     1
102
RTVSPropertyOp50
 70
     1
102
RTVSPropertyOp51
 70
     0
102
RTVSPropertyOp52
 70
     0
102
RTVSPropertyOp53
 70
     1
102
RTVSPropertyOp54
 70
     1
102
RTVSPropertyOp55
 70
     1
102
RTVSPropertyOp56
 70
     1
102
RTVSPropertyOp57
 70
     1
102
RTVSPropertyOp58
 70
     1
102
RTVSPropertyOp59
 70
     1
102
RTVSPropertyOp60
 70
     1
102
RTVSPropertyOp61
 70
     1
102
RTVSPropertyOp62
 70
     1
  0
XRECORD
  5
2BEB6
102
{ACAD_REACTORS
330
2BEB5
102
}
330
2BEB5
100
AcDbXrecord
280
     1
102
RTVSPost2010Prop28
280
     0
102
RTVSPost2010PropOp28
 70
     1
102
RTVSPost2010Prop29
280
     1
102
RTVSPost2010PropOp29
 70
     1
102
RTVSPost2010Prop30
280
     1
102
RTVSPost2010PropOp30
 70
     1
102
RTVSPost2010Prop31
280
     0
102
RTVSPost2010PropOp31
 70
     1
102
RTVSPost2010Prop32
280
     0
102
RTVSPost2010PropOp32
 70
     1
102
RTVSPost2010Prop33
280
     0
102
RTVSPost2010PropOp33
 70
     1
102
RTVSPost2010Prop34
280
     0
102
RTVSPost2010PropOp34
 70
     1
102
RTVSPost2010Prop35
280
     0
102
RTVSPost2010PropOp35
 70
     1
102
RTVSPost2010Prop36
280
     0
102
RTVSPost2010PropOp36
 70
     1
102
RTVSPost2010Prop37
 90
       50
102
RTVSPost2010PropOp37
 70
     1
102
RTVSPost2010Prop38
140
0.0
102
RTVSPost2010PropOp38
 70
     1
102
RTVSPost2010Prop39
140
1.0
102
RTVSPost2010PropOp39
 70
     1
102
RTVSPost2010Prop40
 90
        0
102
RTVSPost2010PropOp40
 70
     1
102
RTVSPost2010Prop41ColorIndex
 90
       18
102
RTVSPost2010Prop41ColorRGB
 90
        0
102
RTVSPost2010PropOp41
 70
     1
102
RTVSPost2010Prop42
 90
       50
102
RTVSPost2010PropOp42
 70
     1
102
RTVSPost2010Prop43
 90
        3
102
RTVSPost2010PropOp43
 70
     1
102
RTVSPost2010Prop44ColorIndex
 90
        5
102
RTVSPost2010Prop44ColorRGB
 90
      255
102
RTVSPost2010PropOp44
 70
     1
102
RTVSPost2010Prop45
280
     0
102
RTVSPost2010PropOp45
 70
     1
102
RTVSPost2010Prop46
 90
       50
102
RTVSPost2010PropOp46
 70
     1
102
RTVSPost2010Prop47
 90
       50
102
RTVSPost2010PropOp47
 70
     1
102
RTVSPost2010Prop48
 90
       50
102
RTVSPost2010PropOp48
 70
     1
102
RTVSPost2010Prop49
280
     0
102
RTVSPost2010PropOp49
 70
     1
102
RTVSPost2010Prop50
 90
       50
102
RTVSPost2010PropOp50
 70
     1
102
RTVSPost2010Prop51ColorIndex
 90
      256
102
RTVSPost2010Prop51ColorRGB
 90
-16777216
102
RTVSPost2010PropOp51
 70
     0
102
RTVSPost2010Prop52
140
1.0
102
RTVSPost2010PropOp52
 70
     0
102
RTVSPost2010Prop53
 90
        2
102
RTVSPost2010PropOp53
 70
     1
102
RTVSPost2010Prop54
  1
strokes_ogs.tif
102
RTVSPost2010PropOp54
 70
     1
102
RTVSPost2010Prop55
280
     0
102
RTVSPost2010PropOp55
 70
     1
102
RTVSPost2010Prop56
140
1.0
102
RTVSPost2010PropOp56
 70
     1
102
RTVSPost2010Prop57
140
1.0
102
RTVSPost2010PropOp57
 70
     1
102
RTVSPropertyOp0
 70
     1
102
RTVSPropertyOp1
 70
     1
102
RTVSPropertyOp2
 70
     1
102
RTVSPropertyOp3
 70
     1
102
RTVSPropertyOp4
 70
     1
102
RTVSPropertyOp5
 70
     1
102
RTVSPropertyOp6
 70
     1
102
RTVSPropertyOp7
 70
     1
102
RTVSPropertyOp8
 70
     1
102
RTVSPropertyOp9
 70
     1
102
RTVSPropertyOp10
 70
     1
102
RTVSPropertyOp11
 70
     1
102
RTVSPropertyOp12
 70
     1
102
RTVSPropertyOp13
 70
     1
102
RTVSPropertyOp14
 70
     1
102
RTVSPropertyOp15
 70
     1
102
RTVSPropertyOp16
 70
     1
102
RTVSPropertyOp17
 70
     1
102
RTVSPropertyOp18
 70
     1
102
RTVSPropertyOp19
 70
     1
102
RTVSPropertyOp20
 70
     1
102
RTVSPropertyOp21
 70
     1
102
RTVSPropertyOp22
 70
     1
102
RTVSPropertyOp23
 70
     1
102
RTVSPropertyOp24
 70
     1
102
RTVSPropertyOp25
 70
     1
102
RTVSPropertyOp26
 70
     1
102
RTVSPropertyOp27
 70
     1
102
RTVSPropertyOp28
 70
     1
102
RTVSPropertyOp29
 70
     1
102
RTVSPropertyOp30
 70
     1
102
RTVSPropertyOp31
 70
     1
102
RTVSPropertyOp32
 70
     1
102
RTVSPropertyOp33
 70
     1
102
RTVSPropertyOp34
 70
     1
102
RTVSPropertyOp35
 70
     1
102
RTVSPropertyOp36
 70
     1
102
RTVSPropertyOp37
 70
     1
102
RTVSPropertyOp38
 70
     1
102
RTVSPropertyOp39
 70
     1
102
RTVSPropertyOp40
 70
     1
102
RTVSPropertyOp41
 70
     1
102
RTVSPropertyOp42
 70
     1
102
RTVSPropertyOp43
 70
     1
102
RTVSPropertyOp44
 70
     1
102
RTVSPropertyOp45
 70
     1
102
RTVSPropertyOp46
 70
     1
102
RTVSPropertyOp47
 70
     1
102
RTVSPropertyOp48
 70
     1
102
RTVSPropertyOp49
 70
     1
102
RTVSPropertyOp50
 70
     1
102
RTVSPropertyOp51
 70
     0
102
RTVSPropertyOp52
 70
     0
102
RTVSPropertyOp53
 70
     1
102
RTVSPropertyOp54
 70
     1
102
RTVSPropertyOp55
 70
     1
102
RTVSPropertyOp56
 70
     1
102
RTVSPropertyOp57
 70
     1
102
RTVSPropertyOp58
 70
     1
102
RTVSPropertyOp59
 70
     1
102
RTVSPropertyOp60
 70
     1
102
RTVSPropertyOp61
 70
     1
102
RTVSPropertyOp62
 70
     1
  0
XRECORD
  5
2BEAA
102
{ACAD_REACTORS
330
2BEA9
102
}
330
2BEA9
100
AcDbXrecord
280
     1
102
RTVSPost2010Prop28
280
     0
102
RTVSPost2010PropOp28
 70
     1
102
RTVSPost2010Prop29
280
     1
102
RTVSPost2010PropOp29
 70
     1
102
RTVSPost2010Prop30
280
     1
102
RTVSPost2010PropOp30
 70
     1
102
RTVSPost2010Prop31
280
     0
102
RTVSPost2010PropOp31
 70
     1
102
RTVSPost2010Prop32
280
     0
102
RTVSPost2010PropOp32
 70
     1
102
RTVSPost2010Prop33
280
     0
102
RTVSPost2010PropOp33
 70
     1
102
RTVSPost2010Prop34
280
     0
102
RTVSPost2010PropOp34
 70
     1
102
RTVSPost2010Prop35
280
     0
102
RTVSPost2010PropOp35
 70
     1
102
RTVSPost2010Prop36
280
     0
102
RTVSPost2010PropOp36
 70
     1
102
RTVSPost2010Prop37
 90
       50
102
RTVSPost2010PropOp37
 70
     1
102
RTVSPost2010Prop38
140
0.0
102
RTVSPost2010PropOp38
 70
     1
102
RTVSPost2010Prop39
140
1.0
102
RTVSPost2010PropOp39
 70
     1
102
RTVSPost2010Prop40
 90
        0
102
RTVSPost2010PropOp40
 70
     1
102
RTVSPost2010Prop41ColorIndex
 90
       18
102
RTVSPost2010Prop41ColorRGB
 90
        0
102
RTVSPost2010PropOp41
 70
     1
102
RTVSPost2010Prop42
 90
       50
102
RTVSPost2010PropOp42
 70
     1
102
RTVSPost2010Prop43
 90
        3
102
RTVSPost2010PropOp43
 70
     1
102
RTVSPost2010Prop44ColorIndex
 90
        5
102
RTVSPost2010Prop44ColorRGB
 90
      255
102
RTVSPost2010PropOp44
 70
     1
102
RTVSPost2010Prop45
280
     0
102
RTVSPost2010PropOp45
 70
     1
102
RTVSPost2010Prop46
 90
       50
102
RTVSPost2010PropOp46
 70
     1
102
RTVSPost2010Prop47
 90
       50
102
RTVSPost2010PropOp47
 70
     1
102
RTVSPost2010Prop48
 90
       50
102
RTVSPost2010PropOp48
 70
     1
102
RTVSPost2010Prop49
280
     0
102
RTVSPost2010PropOp49
 70
     1
102
RTVSPost2010Prop50
 90
       50
102
RTVSPost2010PropOp50
 70
     1
102
RTVSPost2010Prop51ColorIndex
 90
      256
102
RTVSPost2010Prop51ColorRGB
 90
-16777216
102
RTVSPost2010PropOp51
 70
     0
102
RTVSPost2010Prop52
140
1.0
102
RTVSPost2010PropOp52
 70
     0
102
RTVSPost2010Prop53
 90
        2
102
RTVSPost2010PropOp53
 70
     1
102
RTVSPost2010Prop54
  1
strokes_ogs.tif
102
RTVSPost2010PropOp54
 70
     1
102
RTVSPost2010Prop55
280
     0
102
RTVSPost2010PropOp55
 70
     1
102
RTVSPost2010Prop56
140
1.0
102
RTVSPost2010PropOp56
 70
     1
102
RTVSPost2010Prop57
140
1.0
102
RTVSPost2010PropOp57
 70
     1
102
RTVSPropertyOp0
 70
     1
102
RTVSPropertyOp1
 70
     1
102
RTVSPropertyOp2
 70
     1
102
RTVSPropertyOp3
 70
     1
102
RTVSPropertyOp4
 70
     1
102
RTVSPropertyOp5
 70
     1
102
RTVSPropertyOp6
 70
     1
102
RTVSPropertyOp7
 70
     1
102
RTVSPropertyOp8
 70
     1
102
RTVSPropertyOp9
 70
     1
102
RTVSPropertyOp10
 70
     1
102
RTVSPropertyOp11
 70
     1
102
RTVSPropertyOp12
 70
     1
102
RTVSPropertyOp13
 70
     1
102
RTVSPropertyOp14
 70
     1
102
RTVSPropertyOp15
 70
     1
102
RTVSPropertyOp16
 70
     1
102
RTVSPropertyOp17
 70
     1
102
RTVSPropertyOp18
 70
     1
102
RTVSPropertyOp19
 70
     1
102
RTVSPropertyOp20
 70
     1
102
RTVSPropertyOp21
 70
     1
102
RTVSPropertyOp22
 70
     1
102
RTVSPropertyOp23
 70
     1
102
RTVSPropertyOp24
 70
     1
102
RTVSPropertyOp25
 70
     1
102
RTVSPropertyOp26
 70
     1
102
RTVSPropertyOp27
 70
     1
102
RTVSPropertyOp28
 70
     1
102
RTVSPropertyOp29
 70
     1
102
RTVSPropertyOp30
 70
     1
102
RTVSPropertyOp31
 70
     1
102
RTVSPropertyOp32
 70
     1
102
RTVSPropertyOp33
 70
     1
102
RTVSPropertyOp34
 70
     1
102
RTVSPropertyOp35
 70
     1
102
RTVSPropertyOp36
 70
     1
102
RTVSPropertyOp37
 70
     1
102
RTVSPropertyOp38
 70
     1
102
RTVSPropertyOp39
 70
     1
102
RTVSPropertyOp40
 70
     1
102
RTVSPropertyOp41
 70
     1
102
RTVSPropertyOp42
 70
     1
102
RTVSPropertyOp43
 70
     1
102
RTVSPropertyOp44
 70
     1
102
RTVSPropertyOp45
 70
     1
102
RTVSPropertyOp46
 70
     1
102
RTVSPropertyOp47
 70
     1
102
RTVSPropertyOp48
 70
     1
102
RTVSPropertyOp49
 70
     1
102
RTVSPropertyOp50
 70
     1
102
RTVSPropertyOp51
 70
     0
102
RTVSPropertyOp52
 70
     0
102
RTVSPropertyOp53
 70
     1
102
RTVSPropertyOp54
 70
     1
102
RTVSPropertyOp55
 70
     1
102
RTVSPropertyOp56
 70
     1
102
RTVSPropertyOp57
 70
     1
102
RTVSPropertyOp58
 70
     1
102
RTVSPropertyOp59
 70
     1
102
RTVSPropertyOp60
 70
     1
102
RTVSPropertyOp61
 70
     1
102
RTVSPropertyOp62
 70
     1
  0
XRECORD
  5
2BEAC
102
{ACAD_REACTORS
330
2BEAB
102
}
330
2BEAB
100
AcDbXrecord
280
     1
102
RTVSPost2010Prop28
280
     0
102
RTVSPost2010PropOp28
 70
     1
102
RTVSPost2010Prop29
280
     1
102
RTVSPost2010PropOp29
 70
     1
102
RTVSPost2010Prop30
280
     1
102
RTVSPost2010PropOp30
 70
     1
102
RTVSPost2010Prop31
280
     0
102
RTVSPost2010PropOp31
 70
     1
102
RTVSPost2010Prop32
280
     0
102
RTVSPost2010PropOp32
 70
     1
102
RTVSPost2010Prop33
280
     0
102
RTVSPost2010PropOp33
 70
     1
102
RTVSPost2010Prop34
280
     0
102
RTVSPost2010PropOp34
 70
     1
102
RTVSPost2010Prop35
280
     0
102
RTVSPost2010PropOp35
 70
     1
102
RTVSPost2010Prop36
280
     0
102
RTVSPost2010PropOp36
 70
     1
102
RTVSPost2010Prop37
 90
       50
102
RTVSPost2010PropOp37
 70
     1
102
RTVSPost2010Prop38
140
0.0
102
RTVSPost2010PropOp38
 70
     1
102
RTVSPost2010Prop39
140
1.0
102
RTVSPost2010PropOp39
 70
     1
102
RTVSPost2010Prop40
 90
        0
102
RTVSPost2010PropOp40
 70
     1
102
RTVSPost2010Prop41ColorIndex
 90
       18
102
RTVSPost2010Prop41ColorRGB
 90
        0
102
RTVSPost2010PropOp41
 70
     1
102
RTVSPost2010Prop42
 90
       50
102
RTVSPost2010PropOp42
 70
     1
102
RTVSPost2010Prop43
 90
        3
102
RTVSPost2010PropOp43
 70
     1
102
RTVSPost2010Prop44ColorIndex
 90
        5
102
RTVSPost2010Prop44ColorRGB
 90
      255
102
RTVSPost2010PropOp44
 70
     1
102
RTVSPost2010Prop45
280
     0
102
RTVSPost2010PropOp45
 70
     1
102
RTVSPost2010Prop46
 90
       50
102
RTVSPost2010PropOp46
 70
     1
102
RTVSPost2010Prop47
 90
       50
102
RTVSPost2010PropOp47
 70
     1
102
RTVSPost2010Prop48
 90
       50
102
RTVSPost2010PropOp48
 70
     1
102
RTVSPost2010Prop49
280
     0
102
RTVSPost2010PropOp49
 70
     1
102
RTVSPost2010Prop50
 90
       50
102
RTVSPost2010PropOp50
 70
     1
102
RTVSPost2010Prop51ColorIndex
 90
      256
102
RTVSPost2010Prop51ColorRGB
 90
-16777216
102
RTVSPost2010PropOp51
 70
     0
102
RTVSPost2010Prop52
140
1.0
102
RTVSPost2010PropOp52
 70
     0
102
RTVSPost2010Prop53
 90
        2
102
RTVSPost2010PropOp53
 70
     1
102
RTVSPost2010Prop54
  1
strokes_ogs.tif
102
RTVSPost2010PropOp54
 70
     1
102
RTVSPost2010Prop55
280
     0
102
RTVSPost2010PropOp55
 70
     1
102
RTVSPost2010Prop56
140
1.0
102
RTVSPost2010PropOp56
 70
     1
102
RTVSPost2010Prop57
140
1.0
102
RTVSPost2010PropOp57
 70
     1
102
RTVSPropertyOp0
 70
     1
102
RTVSPropertyOp1
 70
     1
102
RTVSPropertyOp2
 70
     1
102
RTVSPropertyOp3
 70
     1
102
RTVSPropertyOp4
 70
     1
102
RTVSPropertyOp5
 70
     1
102
RTVSPropertyOp6
 70
     1
102
RTVSPropertyOp7
 70
     1
102
RTVSPropertyOp8
 70
     1
102
RTVSPropertyOp9
 70
     1
102
RTVSPropertyOp10
 70
     1
102
RTVSPropertyOp11
 70
     1
102
RTVSPropertyOp12
 70
     1
102
RTVSPropertyOp13
 70
     1
102
RTVSPropertyOp14
 70
     1
102
RTVSPropertyOp15
 70
     1
102
RTVSPropertyOp16
 70
     1
102
RTVSPropertyOp17
 70
     1
102
RTVSPropertyOp18
 70
     1
102
RTVSPropertyOp19
 70
     1
102
RTVSPropertyOp20
 70
     1
102
RTVSPropertyOp21
 70
     1
102
RTVSPropertyOp22
 70
     1
102
RTVSPropertyOp23
 70
     1
102
RTVSPropertyOp24
 70
     1
102
RTVSPropertyOp25
 70
     1
102
RTVSPropertyOp26
 70
     1
102
RTVSPropertyOp27
 70
     1
102
RTVSPropertyOp28
 70
     1
102
RTVSPropertyOp29
 70
     1
102
RTVSPropertyOp30
 70
     1
102
RTVSPropertyOp31
 70
     1
102
RTVSPropertyOp32
 70
     1
102
RTVSPropertyOp33
 70
     1
102
RTVSPropertyOp34
 70
     1
102
RTVSPropertyOp35
 70
     1
102
RTVSPropertyOp36
 70
     1
102
RTVSPropertyOp37
 70
     1
102
RTVSPropertyOp38
 70
     1
102
RTVSPropertyOp39
 70
     1
102
RTVSPropertyOp40
 70
     1
102
RTVSPropertyOp41
 70
     1
102
RTVSPropertyOp42
 70
     1
102
RTVSPropertyOp43
 70
     1
102
RTVSPropertyOp44
 70
     1
102
RTVSPropertyOp45
 70
     1
102
RTVSPropertyOp46
 70
     1
102
RTVSPropertyOp47
 70
     1
102
RTVSPropertyOp48
 70
     1
102
RTVSPropertyOp49
 70
     1
102
RTVSPropertyOp50
 70
     1
102
RTVSPropertyOp51
 70
     0
102
RTVSPropertyOp52
 70
     0
102
RTVSPropertyOp53
 70
     1
102
RTVSPropertyOp54
 70
     1
102
RTVSPropertyOp55
 70
     1
102
RTVSPropertyOp56
 70
     1
102
RTVSPropertyOp57
 70
     1
102
RTVSPropertyOp58
 70
     1
102
RTVSPropertyOp59
 70
     1
102
RTVSPropertyOp60
 70
     1
102
RTVSPropertyOp61
 70
     1
102
RTVSPropertyOp62
 70
     1
  0
XRECORD
  5
2BEBC
102
{ACAD_REACTORS
330
2BEBB
102
}
330
2BEBB
100
AcDbXrecord
280
     1
102
RTVSPost2010Prop28
280
     0
102
RTVSPost2010PropOp28
 70
     0
102
RTVSPost2010Prop29
280
     1
102
RTVSPost2010PropOp29
 70
     0
102
RTVSPost2010Prop30
280
     1
102
RTVSPost2010PropOp30
 70
     0
102
RTVSPost2010Prop31
280
     0
102
RTVSPost2010PropOp31
 70
     0
102
RTVSPost2010Prop32
280
     0
102
RTVSPost2010PropOp32
 70
     0
102
RTVSPost2010Prop33
280
     0
102
RTVSPost2010PropOp33
 70
     0
102
RTVSPost2010Prop34
280
     0
102
RTVSPost2010PropOp34
 70
     0
102
RTVSPost2010Prop35
280
     0
102
RTVSPost2010PropOp35
 70
     0
102
RTVSPost2010Prop36
280
     0
102
RTVSPost2010PropOp36
 70
     0
102
RTVSPost2010Prop37
 90
       50
102
RTVSPost2010PropOp37
 70
     0
102
RTVSPost2010Prop38
140
0.0
102
RTVSPost2010PropOp38
 70
     0
102
RTVSPost2010Prop39
140
1.0
102
RTVSPost2010PropOp39
 70
     0
102
RTVSPost2010Prop40
 90
        0
102
RTVSPost2010PropOp40
 70
     0
102
RTVSPost2010Prop41ColorIndex
 90
       18
102
RTVSPost2010Prop41ColorRGB
 90
        0
102
RTVSPost2010PropOp41
 70
     0
102
RTVSPost2010Prop42
 90
       50
102
RTVSPost2010PropOp42
 70
     0
102
RTVSPost2010Prop43
 90
        3
102
RTVSPost2010PropOp43
 70
     0
102
RTVSPost2010Prop44ColorIndex
 90
        5
102
RTVSPost2010Prop44ColorRGB
 90
      255
102
RTVSPost2010PropOp44
 70
     0
102
RTVSPost2010Prop45
280
     0
102
RTVSPost2010PropOp45
 70
     0
102
RTVSPost2010Prop46
 90
       50
102
RTVSPost2010PropOp46
 70
     0
102
RTVSPost2010Prop47
 90
       50
102
RTVSPost2010PropOp47
 70
     0
102
RTVSPost2010Prop48
 90
       50
102
RTVSPost2010PropOp48
 70
     0
102
RTVSPost2010Prop49
280
     0
102
RTVSPost2010PropOp49
 70
     0
102
RTVSPost2010Prop50
 90
       50
102
RTVSPost2010PropOp50
 70
     0
102
RTVSPost2010Prop51ColorIndex
 90
      256
102
RTVSPost2010Prop51ColorRGB
 90
-16777216
102
RTVSPost2010PropOp51
 70
     0
102
RTVSPost2010Prop52
140
1.0
102
RTVSPost2010PropOp52
 70
     0
102
RTVSPost2010Prop53
 90
        2
102
RTVSPost2010PropOp53
 70
     0
102
RTVSPost2010Prop54
  1
strokes_ogs.tif
102
RTVSPost2010PropOp54
 70
     0
102
RTVSPost2010Prop55
280
     0
102
RTVSPost2010PropOp55
 70
     0
102
RTVSPost2010Prop56
140
1.0
102
RTVSPost2010PropOp56
 70
     0
102
RTVSPost2010Prop57
140
1.0
102
RTVSPost2010PropOp57
 70
     0
102
RTVSPropertyOp0
 70
     0
102
RTVSPropertyOp1
 70
     0
102
RTVSPropertyOp2
 70
     0
102
RTVSPropertyOp3
 70
     0
102
RTVSPropertyOp4
 70
     0
102
RTVSPropertyOp5
 70
     0
102
RTVSPropertyOp6
 70
     0
102
RTVSPropertyOp7
 70
     0
102
RTVSPropertyOp8
 70
     0
102
RTVSPropertyOp9
 70
     0
102
RTVSPropertyOp10
 70
     0
102
RTVSPropertyOp11
 70
     0
102
RTVSPropertyOp12
 70
     0
102
RTVSPropertyOp13
 70
     0
102
RTVSPropertyOp14
 70
     2
102
RTVSPropertyOp15
 70
     0
102
RTVSPropertyOp16
 70
     0
102
RTVSPropertyOp17
 70
     0
102
RTVSPropertyOp18
 70
     0
102
RTVSPropertyOp19
 70
     0
102
RTVSPropertyOp20
 70
     0
102
RTVSPropertyOp21
 70
     0
102
RTVSPropertyOp22
 70
     0
102
RTVSPropertyOp23
 70
     0
102
RTVSPropertyOp24
 70
     0
102
RTVSPropertyOp25
 70
     0
102
RTVSPropertyOp26
 70
     0
102
RTVSPropertyOp27
 70
     0
102
RTVSPropertyOp28
 70
     0
102
RTVSPropertyOp29
 70
     0
102
RTVSPropertyOp30
 70
     0
102
RTVSPropertyOp31
 70
     0
102
RTVSPropertyOp32
 70
     0
102
RTVSPropertyOp33
 70
     0
102
RTVSPropertyOp34
 70
     0
102
RTVSPropertyOp35
 70
     0
102
RTVSPropertyOp36
 70
     0
102
RTVSPropertyOp37
 70
     0
102
RTVSPropertyOp38
 70
     0
102
RTVSPropertyOp39
 70
     0
102
RTVSPropertyOp40
 70
     0
102
RTVSPropertyOp41
 70
     0
102
RTVSPropertyOp42
 70
     0
102
RTVSPropertyOp43
 70
     0
102
RTVSPropertyOp44
 70
     0
102
RTVSPropertyOp45
 70
     0
102
RTVSPropertyOp46
 70
     0
102
RTVSPropertyOp47
 70
     0
102
RTVSPropertyOp48
 70
     0
102
RTVSPropertyOp49
 70
     0
102
RTVSPropertyOp50
 70
     0
102
RTVSPropertyOp51
 70
     0
102
RTVSPropertyOp52
 70
     0
102
RTVSPropertyOp53
 70
     0
102
RTVSPropertyOp54
 70
     0
102
RTVSPropertyOp55
 70
     0
102
RTVSPropertyOp56
 70
     0
102
RTVSPropertyOp57
 70
     0
102
RTVSPropertyOp58
 70
     1
102
RTVSPropertyOp59
 70
     1
102
RTVSPropertyOp60
 70
     1
102
RTVSPropertyOp61
 70
     1
102
RTVSPropertyOp62
 70
     1
  0
XRECORD
  5
2BEB4
102
{ACAD_REACTORS
330
2BEB3
102
}
330
2BEB3
100
AcDbXrecord
280
     1
102
RTVSPost2010Prop28
280
     0
102
RTVSPost2010PropOp28
 70
     1
102
RTVSPost2010Prop29
280
     1
102
RTVSPost2010PropOp29
 70
     1
102
RTVSPost2010Prop30
280
     1
102
RTVSPost2010PropOp30
 70
     1
102
RTVSPost2010Prop31
280
     0
102
RTVSPost2010PropOp31
 70
     1
102
RTVSPost2010Prop32
280
     0
102
RTVSPost2010PropOp32
 70
     1
102
RTVSPost2010Prop33
280
     0
102
RTVSPost2010PropOp33
 70
     1
102
RTVSPost2010Prop34
280
     0
102
RTVSPost2010PropOp34
 70
     1
102
RTVSPost2010Prop35
280
     0
102
RTVSPost2010PropOp35
 70
     1
102
RTVSPost2010Prop36
280
     0
102
RTVSPost2010PropOp36
 70
     1
102
RTVSPost2010Prop37
 90
       50
102
RTVSPost2010PropOp37
 70
     1
102
RTVSPost2010Prop38
140
0.0
102
RTVSPost2010PropOp38
 70
     1
102
RTVSPost2010Prop39
140
1.0
102
RTVSPost2010PropOp39
 70
     1
102
RTVSPost2010Prop40
 90
        0
102
RTVSPost2010PropOp40
 70
     1
102
RTVSPost2010Prop41ColorIndex
 90
       18
102
RTVSPost2010Prop41ColorRGB
 90
        0
102
RTVSPost2010PropOp41
 70
     1
102
RTVSPost2010Prop42
 90
       50
102
RTVSPost2010PropOp42
 70
     1
102
RTVSPost2010Prop43
 90
        3
102
RTVSPost2010PropOp43
 70
     1
102
RTVSPost2010Prop44ColorIndex
 90
        5
102
RTVSPost2010Prop44ColorRGB
 90
      255
102
RTVSPost2010PropOp44
 70
     1
102
RTVSPost2010Prop45
280
     0
102
RTVSPost2010PropOp45
 70
     1
102
RTVSPost2010Prop46
 90
       50
102
RTVSPost2010PropOp46
 70
     1
102
RTVSPost2010Prop47
 90
       50
102
RTVSPost2010PropOp47
 70
     1
102
RTVSPost2010Prop48
 90
       50
102
RTVSPost2010PropOp48
 70
     1
102
RTVSPost2010Prop49
280
     0
102
RTVSPost2010PropOp49
 70
     1
102
RTVSPost2010Prop50
 90
       50
102
RTVSPost2010PropOp50
 70
     1
102
RTVSPost2010Prop51ColorIndex
 90
      256
102
RTVSPost2010Prop51ColorRGB
 90
-16777216
102
RTVSPost2010PropOp51
 70
     0
102
RTVSPost2010Prop52
140
1.0
102
RTVSPost2010PropOp52
 70
     0
102
RTVSPost2010Prop53
 90
        2
102
RTVSPost2010PropOp53
 70
     1
102
RTVSPost2010Prop54
  1
strokes_ogs.tif
102
RTVSPost2010PropOp54
 70
     1
102
RTVSPost2010Prop55
280
     0
102
RTVSPost2010PropOp55
 70
     1
102
RTVSPost2010Prop56
140
1.0
102
RTVSPost2010PropOp56
 70
     1
102
RTVSPost2010Prop57
140
1.0
102
RTVSPost2010PropOp57
 70
     1
102
RTVSPropertyOp0
 70
     1
102
RTVSPropertyOp1
 70
     1
102
RTVSPropertyOp2
 70
     1
102
RTVSPropertyOp3
 70
     1
102
RTVSPropertyOp4
 70
     1
102
RTVSPropertyOp5
 70
     1
102
RTVSPropertyOp6
 70
     1
102
RTVSPropertyOp7
 70
     1
102
RTVSPropertyOp8
 70
     1
102
RTVSPropertyOp9
 70
     1
102
RTVSPropertyOp10
 70
     1
102
RTVSPropertyOp11
 70
     1
102
RTVSPropertyOp12
 70
     1
102
RTVSPropertyOp13
 70
     1
102
RTVSPropertyOp14
 70
     1
102
RTVSPropertyOp15
 70
     1
102
RTVSPropertyOp16
 70
     1
102
RTVSPropertyOp17
 70
     1
102
RTVSPropertyOp18
 70
     1
102
RTVSPropertyOp19
 70
     1
102
RTVSPropertyOp20
 70
     1
102
RTVSPropertyOp21
 70
     1
102
RTVSPropertyOp22
 70
     1
102
RTVSPropertyOp23
 70
     1
102
RTVSPropertyOp24
 70
     1
102
RTVSPropertyOp25
 70
     1
102
RTVSPropertyOp26
 70
     1
102
RTVSPropertyOp27
 70
     1
102
RTVSPropertyOp28
 70
     1
102
RTVSPropertyOp29
 70
     1
102
RTVSPropertyOp30
 70
     1
102
RTVSPropertyOp31
 70
     1
102
RTVSPropertyOp32
 70
     1
102
RTVSPropertyOp33
 70
     1
102
RTVSPropertyOp34
 70
     1
102
RTVSPropertyOp35
 70
     1
102
RTVSPropertyOp36
 70
     1
102
RTVSPropertyOp37
 70
     1
102
RTVSPropertyOp38
 70
     1
102
RTVSPropertyOp39
 70
     1
102
RTVSPropertyOp40
 70
     1
102
RTVSPropertyOp41
 70
     1
102
RTVSPropertyOp42
 70
     1
102
RTVSPropertyOp43
 70
     1
102
RTVSPropertyOp44
 70
     1
102
RTVSPropertyOp45
 70
     1
102
RTVSPropertyOp46
 70
     1
102
RTVSPropertyOp47
 70
     1
102
RTVSPropertyOp48
 70
     1
102
RTVSPropertyOp49
 70
     1
102
RTVSPropertyOp50
 70
     1
102
RTVSPropertyOp51
 70
     0
102
RTVSPropertyOp52
 70
     0
102
RTVSPropertyOp53
 70
     1
102
RTVSPropertyOp54
 70
     1
102
RTVSPropertyOp55
 70
     1
102
RTVSPropertyOp56
 70
     1
102
RTVSPropertyOp57
 70
     1
102
RTVSPropertyOp58
 70
     1
102
RTVSPropertyOp59
 70
     1
102
RTVSPropertyOp60
 70
     1
102
RTVSPropertyOp61
 70
     1
102
RTVSPropertyOp62
 70
     1
  0
XRECORD
  5
2BE98
102
{ACAD_REACTORS
330
2BE97
102
}
330
2BE97
100
AcDbXrecord
280
     1
102
RTVSPost2010Prop28
280
     0
102
RTVSPost2010PropOp28
 70
     1
102
RTVSPost2010Prop29
280
     1
102
RTVSPost2010PropOp29
 70
     1
102
RTVSPost2010Prop30
280
     1
102
RTVSPost2010PropOp30
 70
     1
102
RTVSPost2010Prop31
280
     0
102
RTVSPost2010PropOp31
 70
     1
102
RTVSPost2010Prop32
280
     0
102
RTVSPost2010PropOp32
 70
     1
102
RTVSPost2010Prop33
280
     0
102
RTVSPost2010PropOp33
 70
     1
102
RTVSPost2010Prop34
280
     0
102
RTVSPost2010PropOp34
 70
     1
102
RTVSPost2010Prop35
280
     0
102
RTVSPost2010PropOp35
 70
     1
102
RTVSPost2010Prop36
280
     0
102
RTVSPost2010PropOp36
 70
     1
102
RTVSPost2010Prop37
 90
       50
102
RTVSPost2010PropOp37
 70
     1
102
RTVSPost2010Prop38
140
0.0
102
RTVSPost2010PropOp38
 70
     1
102
RTVSPost2010Prop39
140
1.0
102
RTVSPost2010PropOp39
 70
     1
102
RTVSPost2010Prop40
 90
        0
102
RTVSPost2010PropOp40
 70
     1
102
RTVSPost2010Prop41ColorIndex
 90
       18
102
RTVSPost2010Prop41ColorRGB
 90
        0
102
RTVSPost2010PropOp41
 70
     1
102
RTVSPost2010Prop42
 90
       50
102
RTVSPost2010PropOp42
 70
     1
102
RTVSPost2010Prop43
 90
        3
102
RTVSPost2010PropOp43
 70
     1
102
RTVSPost2010Prop44ColorIndex
 90
        5
102
RTVSPost2010Prop44ColorRGB
 90
      255
102
RTVSPost2010PropOp44
 70
     1
102
RTVSPost2010Prop45
280
     0
102
RTVSPost2010PropOp45
 70
     1
102
RTVSPost2010Prop46
 90
       50
102
RTVSPost2010PropOp46
 70
     1
102
RTVSPost2010Prop47
 90
       50
102
RTVSPost2010PropOp47
 70
     1
102
RTVSPost2010Prop48
 90
       50
102
RTVSPost2010PropOp48
 70
     1
102
RTVSPost2010Prop49
280
     0
102
RTVSPost2010PropOp49
 70
     1
102
RTVSPost2010Prop50
 90
       50
102
RTVSPost2010PropOp50
 70
     1
102
RTVSPost2010Prop51ColorIndex
 90
      256
102
RTVSPost2010Prop51ColorRGB
 90
-16777216
102
RTVSPost2010PropOp51
 70
     0
102
RTVSPost2010Prop52
140
1.0
102
RTVSPost2010PropOp52
 70
     0
102
RTVSPost2010Prop53
 90
        2
102
RTVSPost2010PropOp53
 70
     1
102
RTVSPost2010Prop54
  1
strokes_ogs.tif
102
RTVSPost2010PropOp54
 70
     1
102
RTVSPost2010Prop55
280
     0
102
RTVSPost2010PropOp55
 70
     1
102
RTVSPost2010Prop56
140
1.0
102
RTVSPost2010PropOp56
 70
     1
102
RTVSPost2010Prop57
140
1.0
102
RTVSPost2010PropOp57
 70
     1
102
RTVSPropertyOp0
 70
     1
102
RTVSPropertyOp1
 70
     1
102
RTVSPropertyOp2
 70
     1
102
RTVSPropertyOp3
 70
     1
102
RTVSPropertyOp4
 70
     1
102
RTVSPropertyOp5
 70
     1
102
RTVSPropertyOp6
 70
     1
102
RTVSPropertyOp7
 70
     1
102
RTVSPropertyOp8
 70
     1
102
RTVSPropertyOp9
 70
     1
102
RTVSPropertyOp10
 70
     1
102
RTVSPropertyOp11
 70
     1
102
RTVSPropertyOp12
 70
     1
102
RTVSPropertyOp13
 70
     1
102
RTVSPropertyOp14
 70
     1
102
RTVSPropertyOp15
 70
     1
102
RTVSPropertyOp16
 70
     1
102
RTVSPropertyOp17
 70
     1
102
RTVSPropertyOp18
 70
     1
102
RTVSPropertyOp19
 70
     1
102
RTVSPropertyOp20
 70
     1
102
RTVSPropertyOp21
 70
     1
102
RTVSPropertyOp22
 70
     1
102
RTVSPropertyOp23
 70
     1
102
RTVSPropertyOp24
 70
     1
102
RTVSPropertyOp25
 70
     1
102
RTVSPropertyOp26
 70
     1
102
RTVSPropertyOp27
 70
     1
102
RTVSPropertyOp28
 70
     1
102
RTVSPropertyOp29
 70
     1
102
RTVSPropertyOp30
 70
     1
102
RTVSPropertyOp31
 70
     1
102
RTVSPropertyOp32
 70
     1
102
RTVSPropertyOp33
 70
     1
102
RTVSPropertyOp34
 70
     1
102
RTVSPropertyOp35
 70
     1
102
RTVSPropertyOp36
 70
     1
102
RTVSPropertyOp37
 70
     1
102
RTVSPropertyOp38
 70
     1
102
RTVSPropertyOp39
 70
     1
102
RTVSPropertyOp40
 70
     1
102
RTVSPropertyOp41
 70
     1
102
RTVSPropertyOp42
 70
     1
102
RTVSPropertyOp43
 70
     1
102
RTVSPropertyOp44
 70
     1
102
RTVSPropertyOp45
 70
     1
102
RTVSPropertyOp46
 70
     1
102
RTVSPropertyOp47
 70
     1
102
RTVSPropertyOp48
 70
     1
102
RTVSPropertyOp49
 70
     1
102
RTVSPropertyOp50
 70
     1
102
RTVSPropertyOp51
 70
     0
102
RTVSPropertyOp52
 70
     0
102
RTVSPropertyOp53
 70
     1
102
RTVSPropertyOp54
 70
     1
102
RTVSPropertyOp55
 70
     1
102
RTVSPropertyOp56
 70
     1
102
RTVSPropertyOp57
 70
     1
102
RTVSPropertyOp58
 70
     1
102
RTVSPropertyOp59
 70
     1
102
RTVSPropertyOp60
 70
     1
102
RTVSPropertyOp61
 70
     1
102
RTVSPropertyOp62
 70
     1
  0
XRECORD
  5
2BE9A
102
{ACAD_REACTORS
330
2BE99
102
}
330
2BE99
100
AcDbXrecord
280
     1
102
RTVSPost2010Prop28
280
     0
102
RTVSPost2010PropOp28
 70
     1
102
RTVSPost2010Prop29
280
     1
102
RTVSPost2010PropOp29
 70
     1
102
RTVSPost2010Prop30
280
     1
102
RTVSPost2010PropOp30
 70
     1
102
RTVSPost2010Prop31
280
     0
102
RTVSPost2010PropOp31
 70
     1
102
RTVSPost2010Prop32
280
     0
102
RTVSPost2010PropOp32
 70
     1
102
RTVSPost2010Prop33
280
     0
102
RTVSPost2010PropOp33
 70
     1
102
RTVSPost2010Prop34
280
     0
102
RTVSPost2010PropOp34
 70
     1
102
RTVSPost2010Prop35
280
     0
102
RTVSPost2010PropOp35
 70
     1
102
RTVSPost2010Prop36
280
     0
102
RTVSPost2010PropOp36
 70
     1
102
RTVSPost2010Prop37
 90
       50
102
RTVSPost2010PropOp37
 70
     1
102
RTVSPost2010Prop38
140
0.0
102
RTVSPost2010PropOp38
 70
     1
102
RTVSPost2010Prop39
140
1.0
102
RTVSPost2010PropOp39
 70
     1
102
RTVSPost2010Prop40
 90
        0
102
RTVSPost2010PropOp40
 70
     1
102
RTVSPost2010Prop41ColorIndex
 90
       18
102
RTVSPost2010Prop41ColorRGB
 90
        0
102
RTVSPost2010PropOp41
 70
     1
102
RTVSPost2010Prop42
 90
       50
102
RTVSPost2010PropOp42
 70
     1
102
RTVSPost2010Prop43
 90
        3
102
RTVSPost2010PropOp43
 70
     1
102
RTVSPost2010Prop44ColorIndex
 90
        5
102
RTVSPost2010Prop44ColorRGB
 90
      255
102
RTVSPost2010PropOp44
 70
     1
102
RTVSPost2010Prop45
280
     0
102
RTVSPost2010PropOp45
 70
     1
102
RTVSPost2010Prop46
 90
       50
102
RTVSPost2010PropOp46
 70
     1
102
RTVSPost2010Prop47
 90
       50
102
RTVSPost2010PropOp47
 70
     1
102
RTVSPost2010Prop48
 90
       50
102
RTVSPost2010PropOp48
 70
     1
102
RTVSPost2010Prop49
280
     0
102
RTVSPost2010PropOp49
 70
     1
102
RTVSPost2010Prop50
 90
       50
102
RTVSPost2010PropOp50
 70
     1
102
RTVSPost2010Prop51ColorIndex
 90
      256
102
RTVSPost2010Prop51ColorRGB
 90
-16777216
102
RTVSPost2010PropOp51
 70
     0
102
RTVSPost2010Prop52
140
1.0
102
RTVSPost2010PropOp52
 70
     0
102
RTVSPost2010Prop53
 90
        2
102
RTVSPost2010PropOp53
 70
     1
102
RTVSPost2010Prop54
  1
strokes_ogs.tif
102
RTVSPost2010PropOp54
 70
     1
102
RTVSPost2010Prop55
280
     0
102
RTVSPost2010PropOp55
 70
     1
102
RTVSPost2010Prop56
140
1.0
102
RTVSPost2010PropOp56
 70
     1
102
RTVSPost2010Prop57
140
1.0
102
RTVSPost2010PropOp57
 70
     1
102
RTVSPropertyOp0
 70
     1
102
RTVSPropertyOp1
 70
     1
102
RTVSPropertyOp2
 70
     1
102
RTVSPropertyOp3
 70
     1
102
RTVSPropertyOp4
 70
     1
102
RTVSPropertyOp5
 70
     1
102
RTVSPropertyOp6
 70
     1
102
RTVSPropertyOp7
 70
     1
102
RTVSPropertyOp8
 70
     1
102
RTVSPropertyOp9
 70
     1
102
RTVSPropertyOp10
 70
     1
102
RTVSPropertyOp11
 70
     1
102
RTVSPropertyOp12
 70
     1
102
RTVSPropertyOp13
 70
     1
102
RTVSPropertyOp14
 70
     1
102
RTVSPropertyOp15
 70
     1
102
RTVSPropertyOp16
 70
     1
102
RTVSPropertyOp17
 70
     1
102
RTVSPropertyOp18
 70
     1
102
RTVSPropertyOp19
 70
     1
102
RTVSPropertyOp20
 70
     1
102
RTVSPropertyOp21
 70
     1
102
RTVSPropertyOp22
 70
     1
102
RTVSPropertyOp23
 70
     1
102
RTVSPropertyOp24
 70
     1
102
RTVSPropertyOp25
 70
     1
102
RTVSPropertyOp26
 70
     1
102
RTVSPropertyOp27
 70
     1
102
RTVSPropertyOp28
 70
     1
102
RTVSPropertyOp29
 70
     1
102
RTVSPropertyOp30
 70
     1
102
RTVSPropertyOp31
 70
     1
102
RTVSPropertyOp32
 70
     1
102
RTVSPropertyOp33
 70
     1
102
RTVSPropertyOp34
 70
     1
102
RTVSPropertyOp35
 70
     1
102
RTVSPropertyOp36
 70
     1
102
RTVSPropertyOp37
 70
     1
102
RTVSPropertyOp38
 70
     1
102
RTVSPropertyOp39
 70
     1
102
RTVSPropertyOp40
 70
     1
102
RTVSPropertyOp41
 70
     1
102
RTVSPropertyOp42
 70
     1
102
RTVSPropertyOp43
 70
     1
102
RTVSPropertyOp44
 70
     1
102
RTVSPropertyOp45
 70
     1
102
RTVSPropertyOp46
 70
     1
102
RTVSPropertyOp47
 70
     1
102
RTVSPropertyOp48
 70
     1
102
RTVSPropertyOp49
 70
     1
102
RTVSPropertyOp50
 70
     1
102
RTVSPropertyOp51
 70
     0
102
RTVSPropertyOp52
 70
     0
102
RTVSPropertyOp53
 70
     1
102
RTVSPropertyOp54
 70
     1
102
RTVSPropertyOp55
 70
     1
102
RTVSPropertyOp56
 70
     1
102
RTVSPropertyOp57
 70
     1
102
RTVSPropertyOp58
 70
     1
102
RTVSPropertyOp59
 70
     1
102
RTVSPropertyOp60
 70
     1
102
RTVSPropertyOp61
 70
     1
102
RTVSPropertyOp62
 70
     1
  0
XRECORD
  5
2BE9C
102
{ACAD_REACTORS
330
2BE9B
102
}
330
2BE9B
100
AcDbXrecord
280
     1
102
RTVSPost2010Prop28
280
     0
102
RTVSPost2010PropOp28
 70
     1
102
RTVSPost2010Prop29
280
     1
102
RTVSPost2010PropOp29
 70
     1
102
RTVSPost2010Prop30
280
     1
102
RTVSPost2010PropOp30
 70
     1
102
RTVSPost2010Prop31
280
     0
102
RTVSPost2010PropOp31
 70
     1
102
RTVSPost2010Prop32
280
     0
102
RTVSPost2010PropOp32
 70
     1
102
RTVSPost2010Prop33
280
     0
102
RTVSPost2010PropOp33
 70
     1
102
RTVSPost2010Prop34
280
     0
102
RTVSPost2010PropOp34
 70
     1
102
RTVSPost2010Prop35
280
     0
102
RTVSPost2010PropOp35
 70
     1
102
RTVSPost2010Prop36
280
     0
102
RTVSPost2010PropOp36
 70
     1
102
RTVSPost2010Prop37
 90
       50
102
RTVSPost2010PropOp37
 70
     1
102
RTVSPost2010Prop38
140
0.0
102
RTVSPost2010PropOp38
 70
     1
102
RTVSPost2010Prop39
140
1.0
102
RTVSPost2010PropOp39
 70
     1
102
RTVSPost2010Prop40
 90
        0
102
RTVSPost2010PropOp40
 70
     1
102
RTVSPost2010Prop41ColorIndex
 90
       18
102
RTVSPost2010Prop41ColorRGB
 90
        0
102
RTVSPost2010PropOp41
 70
     1
102
RTVSPost2010Prop42
 90
       50
102
RTVSPost2010PropOp42
 70
     1
102
RTVSPost2010Prop43
 90
        3
102
RTVSPost2010PropOp43
 70
     1
102
RTVSPost2010Prop44ColorIndex
 90
        5
102
RTVSPost2010Prop44ColorRGB
 90
      255
102
RTVSPost2010PropOp44
 70
     1
102
RTVSPost2010Prop45
280
     0
102
RTVSPost2010PropOp45
 70
     1
102
RTVSPost2010Prop46
 90
       50
102
RTVSPost2010PropOp46
 70
     1
102
RTVSPost2010Prop47
 90
       50
102
RTVSPost2010PropOp47
 70
     1
102
RTVSPost2010Prop48
 90
       50
102
RTVSPost2010PropOp48
 70
     1
102
RTVSPost2010Prop49
280
     0
102
RTVSPost2010PropOp49
 70
     1
102
RTVSPost2010Prop50
 90
       50
102
RTVSPost2010PropOp50
 70
     1
102
RTVSPost2010Prop51ColorIndex
 90
      256
102
RTVSPost2010Prop51ColorRGB
 90
-16777216
102
RTVSPost2010PropOp51
 70
     0
102
RTVSPost2010Prop52
140
1.0
102
RTVSPost2010PropOp52
 70
     0
102
RTVSPost2010Prop53
 90
        2
102
RTVSPost2010PropOp53
 70
     1
102
RTVSPost2010Prop54
  1
strokes_ogs.tif
102
RTVSPost2010PropOp54
 70
     1
102
RTVSPost2010Prop55
280
     0
102
RTVSPost2010PropOp55
 70
     1
102
RTVSPost2010Prop56
140
1.0
102
RTVSPost2010PropOp56
 70
     1
102
RTVSPost2010Prop57
140
1.0
102
RTVSPost2010PropOp57
 70
     1
102
RTVSPropertyOp0
 70
     1
102
RTVSPropertyOp1
 70
     1
102
RTVSPropertyOp2
 70
     1
102
RTVSPropertyOp3
 70
     1
102
RTVSPropertyOp4
 70
     1
102
RTVSPropertyOp5
 70
     1
102
RTVSPropertyOp6
 70
     1
102
RTVSPropertyOp7
 70
     1
102
RTVSPropertyOp8
 70
     1
102
RTVSPropertyOp9
 70
     1
102
RTVSPropertyOp10
 70
     1
102
RTVSPropertyOp11
 70
     1
102
RTVSPropertyOp12
 70
     1
102
RTVSPropertyOp13
 70
     1
102
RTVSPropertyOp14
 70
     1
102
RTVSPropertyOp15
 70
     1
102
RTVSPropertyOp16
 70
     1
102
RTVSPropertyOp17
 70
     1
102
RTVSPropertyOp18
 70
     1
102
RTVSPropertyOp19
 70
     1
102
RTVSPropertyOp20
 70
     1
102
RTVSPropertyOp21
 70
     1
102
RTVSPropertyOp22
 70
     1
102
RTVSPropertyOp23
 70
     1
102
RTVSPropertyOp24
 70
     1
102
RTVSPropertyOp25
 70
     1
102
RTVSPropertyOp26
 70
     1
102
RTVSPropertyOp27
 70
     1
102
RTVSPropertyOp28
 70
     1
102
RTVSPropertyOp29
 70
     1
102
RTVSPropertyOp30
 70
     1
102
RTVSPropertyOp31
 70
     1
102
RTVSPropertyOp32
 70
     1
102
RTVSPropertyOp33
 70
     1
102
RTVSPropertyOp34
 70
     1
102
RTVSPropertyOp35
 70
     1
102
RTVSPropertyOp36
 70
     1
102
RTVSPropertyOp37
 70
     1
102
RTVSPropertyOp38
 70
     1
102
RTVSPropertyOp39
 70
     1
102
RTVSPropertyOp40
 70
     1
102
RTVSPropertyOp41
 70
     1
102
RTVSPropertyOp42
 70
     1
102
RTVSPropertyOp43
 70
     1
102
RTVSPropertyOp44
 70
     1
102
RTVSPropertyOp45
 70
     1
102
RTVSPropertyOp46
 70
     1
102
RTVSPropertyOp47
 70
     1
102
RTVSPropertyOp48
 70
     1
102
RTVSPropertyOp49
 70
     1
102
RTVSPropertyOp50
 70
     1
102
RTVSPropertyOp51
 70
     0
102
RTVSPropertyOp52
 70
     0
102
RTVSPropertyOp53
 70
     1
102
RTVSPropertyOp54
 70
     1
102
RTVSPropertyOp55
 70
     1
102
RTVSPropertyOp56
 70
     1
102
RTVSPropertyOp57
 70
     1
102
RTVSPropertyOp58
 70
     1
102
RTVSPropertyOp59
 70
     1
102
RTVSPropertyOp60
 70
     1
102
RTVSPropertyOp61
 70
     1
102
RTVSPropertyOp62
 70
     1
  0
XRECORD
  5
2BE9E
102
{ACAD_REACTORS
330
2BE9D
102
}
330
2BE9D
100
AcDbXrecord
280
     1
102
RTVSPost2010Prop28
280
     0
102
RTVSPost2010PropOp28
 70
     1
102
RTVSPost2010Prop29
280
     1
102
RTVSPost2010PropOp29
 70
     1
102
RTVSPost2010Prop30
280
     1
102
RTVSPost2010PropOp30
 70
     1
102
RTVSPost2010Prop31
280
     0
102
RTVSPost2010PropOp31
 70
     1
102
RTVSPost2010Prop32
280
     0
102
RTVSPost2010PropOp32
 70
     1
102
RTVSPost2010Prop33
280
     0
102
RTVSPost2010PropOp33
 70
     1
102
RTVSPost2010Prop34
280
     0
102
RTVSPost2010PropOp34
 70
     1
102
RTVSPost2010Prop35
280
     0
102
RTVSPost2010PropOp35
 70
     1
102
RTVSPost2010Prop36
280
     0
102
RTVSPost2010PropOp36
 70
     1
102
RTVSPost2010Prop37
 90
       50
102
RTVSPost2010PropOp37
 70
     1
102
RTVSPost2010Prop38
140
0.0
102
RTVSPost2010PropOp38
 70
     1
102
RTVSPost2010Prop39
140
1.0
102
RTVSPost2010PropOp39
 70
     1
102
RTVSPost2010Prop40
 90
        0
102
RTVSPost2010PropOp40
 70
     1
102
RTVSPost2010Prop41ColorIndex
 90
       18
102
RTVSPost2010Prop41ColorRGB
 90
        0
102
RTVSPost2010PropOp41
 70
     1
102
RTVSPost2010Prop42
 90
       50
102
RTVSPost2010PropOp42
 70
     1
102
RTVSPost2010Prop43
 90
        3
102
RTVSPost2010PropOp43
 70
     1
102
RTVSPost2010Prop44ColorIndex
 90
        5
102
RTVSPost2010Prop44ColorRGB
 90
      255
102
RTVSPost2010PropOp44
 70
     1
102
RTVSPost2010Prop45
280
     0
102
RTVSPost2010PropOp45
 70
     1
102
RTVSPost2010Prop46
 90
       50
102
RTVSPost2010PropOp46
 70
     1
102
RTVSPost2010Prop47
 90
       50
102
RTVSPost2010PropOp47
 70
     1
102
RTVSPost2010Prop48
 90
       50
102
RTVSPost2010PropOp48
 70
     1
102
RTVSPost2010Prop49
280
     0
102
RTVSPost2010PropOp49
 70
     1
102
RTVSPost2010Prop50
 90
       50
102
RTVSPost2010PropOp50
 70
     1
102
RTVSPost2010Prop51ColorIndex
 90
      256
102
RTVSPost2010Prop51ColorRGB
 90
-16777216
102
RTVSPost2010PropOp51
 70
     0
102
RTVSPost2010Prop52
140
1.0
102
RTVSPost2010PropOp52
 70
     0
102
RTVSPost2010Prop53
 90
        2
102
RTVSPost2010PropOp53
 70
     1
102
RTVSPost2010Prop54
  1
strokes_ogs.tif
102
RTVSPost2010PropOp54
 70
     1
102
RTVSPost2010Prop55
280
     0
102
RTVSPost2010PropOp55
 70
     1
102
RTVSPost2010Prop56
140
1.0
102
RTVSPost2010PropOp56
 70
     1
102
RTVSPost2010Prop57
140
1.0
102
RTVSPost2010PropOp57
 70
     1
102
RTVSPropertyOp0
 70
     1
102
RTVSPropertyOp1
 70
     1
102
RTVSPropertyOp2
 70
     1
102
RTVSPropertyOp3
 70
     1
102
RTVSPropertyOp4
 70
     1
102
RTVSPropertyOp5
 70
     1
102
RTVSPropertyOp6
 70
     1
102
RTVSPropertyOp7
 70
     1
102
RTVSPropertyOp8
 70
     1
102
RTVSPropertyOp9
 70
     1
102
RTVSPropertyOp10
 70
     1
102
RTVSPropertyOp11
 70
     1
102
RTVSPropertyOp12
 70
     1
102
RTVSPropertyOp13
 70
     1
102
RTVSPropertyOp14
 70
     1
102
RTVSPropertyOp15
 70
     1
102
RTVSPropertyOp16
 70
     1
102
RTVSPropertyOp17
 70
     1
102
RTVSPropertyOp18
 70
     1
102
RTVSPropertyOp19
 70
     1
102
RTVSPropertyOp20
 70
     1
102
RTVSPropertyOp21
 70
     1
102
RTVSPropertyOp22
 70
     1
102
RTVSPropertyOp23
 70
     1
102
RTVSPropertyOp24
 70
     1
102
RTVSPropertyOp25
 70
     1
102
RTVSPropertyOp26
 70
     1
102
RTVSPropertyOp27
 70
     1
102
RTVSPropertyOp28
 70
     1
102
RTVSPropertyOp29
 70
     1
102
RTVSPropertyOp30
 70
     1
102
RTVSPropertyOp31
 70
     1
102
RTVSPropertyOp32
 70
     1
102
RTVSPropertyOp33
 70
     1
102
RTVSPropertyOp34
 70
     1
102
RTVSPropertyOp35
 70
     1
102
RTVSPropertyOp36
 70
     1
102
RTVSPropertyOp37
 70
     1
102
RTVSPropertyOp38
 70
     1
102
RTVSPropertyOp39
 70
     1
102
RTVSPropertyOp40
 70
     1
102
RTVSPropertyOp41
 70
     1
102
RTVSPropertyOp42
 70
     1
102
RTVSPropertyOp43
 70
     1
102
RTVSPropertyOp44
 70
     1
102
RTVSPropertyOp45
 70
     1
102
RTVSPropertyOp46
 70
     1
102
RTVSPropertyOp47
 70
     1
102
RTVSPropertyOp48
 70
     1
102
RTVSPropertyOp49
 70
     1
102
RTVSPropertyOp50
 70
     1
102
RTVSPropertyOp51
 70
     0
102
RTVSPropertyOp52
 70
     0
102
RTVSPropertyOp53
 70
     1
102
RTVSPropertyOp54
 70
     1
102
RTVSPropertyOp55
 70
     1
102
RTVSPropertyOp56
 70
     1
102
RTVSPropertyOp57
 70
     1
102
RTVSPropertyOp58
 70
     1
102
RTVSPropertyOp59
 70
     1
102
RTVSPropertyOp60
 70
     1
102
RTVSPropertyOp61
 70
     1
102
RTVSPropertyOp62
 70
     1
  0
XRECORD
  5
2BEA4
102
{ACAD_REACTORS
330
2BEA3
102
}
330
2BEA3
100
AcDbXrecord
280
     1
102
RTVSPost2010Prop28
280
     0
102
RTVSPost2010PropOp28
 70
     1
102
RTVSPost2010Prop29
280
     1
102
RTVSPost2010PropOp29
 70
     1
102
RTVSPost2010Prop30
280
     1
102
RTVSPost2010PropOp30
 70
     1
102
RTVSPost2010Prop31
280
     0
102
RTVSPost2010PropOp31
 70
     1
102
RTVSPost2010Prop32
280
     0
102
RTVSPost2010PropOp32
 70
     1
102
RTVSPost2010Prop33
280
     0
102
RTVSPost2010PropOp33
 70
     1
102
RTVSPost2010Prop34
280
     0
102
RTVSPost2010PropOp34
 70
     1
102
RTVSPost2010Prop35
280
     0
102
RTVSPost2010PropOp35
 70
     1
102
RTVSPost2010Prop36
280
     0
102
RTVSPost2010PropOp36
 70
     1
102
RTVSPost2010Prop37
 90
       50
102
RTVSPost2010PropOp37
 70
     1
102
RTVSPost2010Prop38
140
0.0
102
RTVSPost2010PropOp38
 70
     1
102
RTVSPost2010Prop39
140
1.0
102
RTVSPost2010PropOp39
 70
     1
102
RTVSPost2010Prop40
 90
        0
102
RTVSPost2010PropOp40
 70
     1
102
RTVSPost2010Prop41ColorIndex
 90
       18
102
RTVSPost2010Prop41ColorRGB
 90
        0
102
RTVSPost2010PropOp41
 70
     1
102
RTVSPost2010Prop42
 90
       50
102
RTVSPost2010PropOp42
 70
     1
102
RTVSPost2010Prop43
 90
        3
102
RTVSPost2010PropOp43
 70
     1
102
RTVSPost2010Prop44ColorIndex
 90
        5
102
RTVSPost2010Prop44ColorRGB
 90
      255
102
RTVSPost2010PropOp44
 70
     1
102
RTVSPost2010Prop45
280
     0
102
RTVSPost2010PropOp45
 70
     1
102
RTVSPost2010Prop46
 90
       50
102
RTVSPost2010PropOp46
 70
     1
102
RTVSPost2010Prop47
 90
       50
102
RTVSPost2010PropOp47
 70
     1
102
RTVSPost2010Prop48
 90
       50
102
RTVSPost2010PropOp48
 70
     1
102
RTVSPost2010Prop49
280
     0
102
RTVSPost2010PropOp49
 70
     1
102
RTVSPost2010Prop50
 90
       50
102
RTVSPost2010PropOp50
 70
     1
102
RTVSPost2010Prop51ColorIndex
 90
      256
102
RTVSPost2010Prop51ColorRGB
 90
-16777216
102
RTVSPost2010PropOp51
 70
     0
102
RTVSPost2010Prop52
140
1.0
102
RTVSPost2010PropOp52
 70
     0
102
RTVSPost2010Prop53
 90
        2
102
RTVSPost2010PropOp53
 70
     1
102
RTVSPost2010Prop54
  1
strokes_ogs.tif
102
RTVSPost2010PropOp54
 70
     1
102
RTVSPost2010Prop55
280
     0
102
RTVSPost2010PropOp55
 70
     1
102
RTVSPost2010Prop56
140
1.0
102
RTVSPost2010PropOp56
 70
     1
102
RTVSPost2010Prop57
140
1.0
102
RTVSPost2010PropOp57
 70
     1
102
RTVSPropertyOp0
 70
     1
102
RTVSPropertyOp1
 70
     1
102
RTVSPropertyOp2
 70
     1
102
RTVSPropertyOp3
 70
     1
102
RTVSPropertyOp4
 70
     1
102
RTVSPropertyOp5
 70
     1
102
RTVSPropertyOp6
 70
     1
102
RTVSPropertyOp7
 70
     1
102
RTVSPropertyOp8
 70
     1
102
RTVSPropertyOp9
 70
     1
102
RTVSPropertyOp10
 70
     1
102
RTVSPropertyOp11
 70
     1
102
RTVSPropertyOp12
 70
     1
102
RTVSPropertyOp13
 70
     1
102
RTVSPropertyOp14
 70
     1
102
RTVSPropertyOp15
 70
     1
102
RTVSPropertyOp16
 70
     1
102
RTVSPropertyOp17
 70
     1
102
RTVSPropertyOp18
 70
     1
102
RTVSPropertyOp19
 70
     1
102
RTVSPropertyOp20
 70
     1
102
RTVSPropertyOp21
 70
     1
102
RTVSPropertyOp22
 70
     1
102
RTVSPropertyOp23
 70
     1
102
RTVSPropertyOp24
 70
     1
102
RTVSPropertyOp25
 70
     1
102
RTVSPropertyOp26
 70
     1
102
RTVSPropertyOp27
 70
     1
102
RTVSPropertyOp28
 70
     1
102
RTVSPropertyOp29
 70
     1
102
RTVSPropertyOp30
 70
     1
102
RTVSPropertyOp31
 70
     1
102
RTVSPropertyOp32
 70
     1
102
RTVSPropertyOp33
 70
     1
102
RTVSPropertyOp34
 70
     1
102
RTVSPropertyOp35
 70
     1
102
RTVSPropertyOp36
 70
     1
102
RTVSPropertyOp37
 70
     1
102
RTVSPropertyOp38
 70
     1
102
RTVSPropertyOp39
 70
     1
102
RTVSPropertyOp40
 70
     1
102
RTVSPropertyOp41
 70
     1
102
RTVSPropertyOp42
 70
     1
102
RTVSPropertyOp43
 70
     1
102
RTVSPropertyOp44
 70
     1
102
RTVSPropertyOp45
 70
     1
102
RTVSPropertyOp46
 70
     1
102
RTVSPropertyOp47
 70
     1
102
RTVSPropertyOp48
 70
     1
102
RTVSPropertyOp49
 70
     1
102
RTVSPropertyOp50
 70
     1
102
RTVSPropertyOp51
 70
     0
102
RTVSPropertyOp52
 70
     0
102
RTVSPropertyOp53
 70
     1
102
RTVSPropertyOp54
 70
     1
102
RTVSPropertyOp55
 70
     1
102
RTVSPropertyOp56
 70
     1
102
RTVSPropertyOp57
 70
     1
102
RTVSPropertyOp58
 70
     1
102
RTVSPropertyOp59
 70
     1
102
RTVSPropertyOp60
 70
     1
102
RTVSPropertyOp61
 70
     1
102
RTVSPropertyOp62
 70
     1
  0
XRECORD
  5
2BEB8
102
{ACAD_REACTORS
330
2BEB7
102
}
330
2BEB7
100
AcDbXrecord
280
     1
102
RTVSPost2010Prop28
280
     0
102
RTVSPost2010PropOp28
 70
     0
102
RTVSPost2010Prop29
280
     1
102
RTVSPost2010PropOp29
 70
     0
102
RTVSPost2010Prop30
280
     1
102
RTVSPost2010PropOp30
 70
     0
102
RTVSPost2010Prop31
280
     0
102
RTVSPost2010PropOp31
 70
     0
102
RTVSPost2010Prop32
280
     0
102
RTVSPost2010PropOp32
 70
     0
102
RTVSPost2010Prop33
280
     0
102
RTVSPost2010PropOp33
 70
     0
102
RTVSPost2010Prop34
280
     0
102
RTVSPost2010PropOp34
 70
     0
102
RTVSPost2010Prop35
280
     0
102
RTVSPost2010PropOp35
 70
     0
102
RTVSPost2010Prop36
280
     0
102
RTVSPost2010PropOp36
 70
     0
102
RTVSPost2010Prop37
 90
       50
102
RTVSPost2010PropOp37
 70
     0
102
RTVSPost2010Prop38
140
0.0
102
RTVSPost2010PropOp38
 70
     0
102
RTVSPost2010Prop39
140
1.0
102
RTVSPost2010PropOp39
 70
     0
102
RTVSPost2010Prop40
 90
        0
102
RTVSPost2010PropOp40
 70
     0
102
RTVSPost2010Prop41ColorIndex
 90
       18
102
RTVSPost2010Prop41ColorRGB
 90
        0
102
RTVSPost2010PropOp41
 70
     0
102
RTVSPost2010Prop42
 90
       50
102
RTVSPost2010PropOp42
 70
     0
102
RTVSPost2010Prop43
 90
        3
102
RTVSPost2010PropOp43
 70
     0
102
RTVSPost2010Prop44ColorIndex
 90
        5
102
RTVSPost2010Prop44ColorRGB
 90
      255
102
RTVSPost2010PropOp44
 70
     0
102
RTVSPost2010Prop45
280
     0
102
RTVSPost2010PropOp45
 70
     0
102
RTVSPost2010Prop46
 90
       50
102
RTVSPost2010PropOp46
 70
     0
102
RTVSPost2010Prop47
 90
       50
102
RTVSPost2010PropOp47
 70
     0
102
RTVSPost2010Prop48
 90
       50
102
RTVSPost2010PropOp48
 70
     0
102
RTVSPost2010Prop49
280
     0
102
RTVSPost2010PropOp49
 70
     0
102
RTVSPost2010Prop50
 90
       50
102
RTVSPost2010PropOp50
 70
     0
102
RTVSPost2010Prop51ColorIndex
 90
      256
102
RTVSPost2010Prop51ColorRGB
 90
-16777216
102
RTVSPost2010PropOp51
 70
     0
102
RTVSPost2010Prop52
140
1.0
102
RTVSPost2010PropOp52
 70
     0
102
RTVSPost2010Prop53
 90
        2
102
RTVSPost2010PropOp53
 70
     0
102
RTVSPost2010Prop54
  1
strokes_ogs.tif
102
RTVSPost2010PropOp54
 70
     0
102
RTVSPost2010Prop55
280
     0
102
RTVSPost2010PropOp55
 70
     0
102
RTVSPost2010Prop56
140
1.0
102
RTVSPost2010PropOp56
 70
     0
102
RTVSPost2010Prop57
140
1.0
102
RTVSPost2010PropOp57
 70
     0
102
RTVSPropertyOp0
 70
     0
102
RTVSPropertyOp1
 70
     0
102
RTVSPropertyOp2
 70
     0
102
RTVSPropertyOp3
 70
     0
102
RTVSPropertyOp4
 70
     0
102
RTVSPropertyOp5
 70
     0
102
RTVSPropertyOp6
 70
     0
102
RTVSPropertyOp7
 70
     0
102
RTVSPropertyOp8
 70
     0
102
RTVSPropertyOp9
 70
     0
102
RTVSPropertyOp10
 70
     0
102
RTVSPropertyOp11
 70
     0
102
RTVSPropertyOp12
 70
     0
102
RTVSPropertyOp13
 70
     0
102
RTVSPropertyOp14
 70
     2
102
RTVSPropertyOp15
 70
     0
102
RTVSPropertyOp16
 70
     0
102
RTVSPropertyOp17
 70
     0
102
RTVSPropertyOp18
 70
     0
102
RTVSPropertyOp19
 70
     0
102
RTVSPropertyOp20
 70
     0
102
RTVSPropertyOp21
 70
     0
102
RTVSPropertyOp22
 70
     0
102
RTVSPropertyOp23
 70
     0
102
RTVSPropertyOp24
 70
     0
102
RTVSPropertyOp25
 70
     0
102
RTVSPropertyOp26
 70
     0
102
RTVSPropertyOp27
 70
     0
102
RTVSPropertyOp28
 70
     0
102
RTVSPropertyOp29
 70
     0
102
RTVSPropertyOp30
 70
     0
102
RTVSPropertyOp31
 70
     0
102
RTVSPropertyOp32
 70
     0
102
RTVSPropertyOp33
 70
     0
102
RTVSPropertyOp34
 70
     0
102
RTVSPropertyOp35
 70
     0
102
RTVSPropertyOp36
 70
     0
102
RTVSPropertyOp37
 70
     0
102
RTVSPropertyOp38
 70
     0
102
RTVSPropertyOp39
 70
     0
102
RTVSPropertyOp40
 70
     0
102
RTVSPropertyOp41
 70
     0
102
RTVSPropertyOp42
 70
     0
102
RTVSPropertyOp43
 70
     0
102
RTVSPropertyOp44
 70
     0
102
RTVSPropertyOp45
 70
     0
102
RTVSPropertyOp46
 70
     0
102
RTVSPropertyOp47
 70
     0
102
RTVSPropertyOp48
 70
     0
102
RTVSPropertyOp49
 70
     0
102
RTVSPropertyOp50
 70
     0
102
RTVSPropertyOp51
 70
     0
102
RTVSPropertyOp52
 70
     0
102
RTVSPropertyOp53
 70
     0
102
RTVSPropertyOp54
 70
     0
102
RTVSPropertyOp55
 70
     0
102
RTVSPropertyOp56
 70
     0
102
RTVSPropertyOp57
 70
     0
102
RTVSPropertyOp58
 70
     1
102
RTVSPropertyOp59
 70
     1
102
RTVSPropertyOp60
 70
     1
102
RTVSPropertyOp61
 70
     1
102
RTVSPropertyOp62
 70
     1
  0
XRECORD
  5
2BEB2
102
{ACAD_REACTORS
330
2BEB1
102
}
330
2BEB1
100
AcDbXrecord
280
     1
102
RTVSPost2010Prop28
280
     0
102
RTVSPost2010PropOp28
 70
     1
102
RTVSPost2010Prop29
280
     1
102
RTVSPost2010PropOp29
 70
     1
102
RTVSPost2010Prop30
280
     1
102
RTVSPost2010PropOp30
 70
     1
102
RTVSPost2010Prop31
280
     0
102
RTVSPost2010PropOp31
 70
     1
102
RTVSPost2010Prop32
280
     0
102
RTVSPost2010PropOp32
 70
     1
102
RTVSPost2010Prop33
280
     0
102
RTVSPost2010PropOp33
 70
     1
102
RTVSPost2010Prop34
280
     0
102
RTVSPost2010PropOp34
 70
     1
102
RTVSPost2010Prop35
280
     0
102
RTVSPost2010PropOp35
 70
     1
102
RTVSPost2010Prop36
280
     0
102
RTVSPost2010PropOp36
 70
     1
102
RTVSPost2010Prop37
 90
       50
102
RTVSPost2010PropOp37
 70
     1
102
RTVSPost2010Prop38
140
0.0
102
RTVSPost2010PropOp38
 70
     1
102
RTVSPost2010Prop39
140
1.0
102
RTVSPost2010PropOp39
 70
     1
102
RTVSPost2010Prop40
 90
        0
102
RTVSPost2010PropOp40
 70
     1
102
RTVSPost2010Prop41ColorIndex
 90
       18
102
RTVSPost2010Prop41ColorRGB
 90
        0
102
RTVSPost2010PropOp41
 70
     1
102
RTVSPost2010Prop42
 90
       50
102
RTVSPost2010PropOp42
 70
     1
102
RTVSPost2010Prop43
 90
        3
102
RTVSPost2010PropOp43
 70
     1
102
RTVSPost2010Prop44ColorIndex
 90
        5
102
RTVSPost2010Prop44ColorRGB
 90
      255
102
RTVSPost2010PropOp44
 70
     1
102
RTVSPost2010Prop45
280
     0
102
RTVSPost2010PropOp45
 70
     1
102
RTVSPost2010Prop46
 90
       50
102
RTVSPost2010PropOp46
 70
     1
102
RTVSPost2010Prop47
 90
       50
102
RTVSPost2010PropOp47
 70
     1
102
RTVSPost2010Prop48
 90
       50
102
RTVSPost2010PropOp48
 70
     1
102
RTVSPost2010Prop49
280
     0
102
RTVSPost2010PropOp49
 70
     1
102
RTVSPost2010Prop50
 90
       50
102
RTVSPost2010PropOp50
 70
     1
102
RTVSPost2010Prop51ColorIndex
 90
      256
102
RTVSPost2010Prop51ColorRGB
 90
-16777216
102
RTVSPost2010PropOp51
 70
     0
102
RTVSPost2010Prop52
140
1.0
102
RTVSPost2010PropOp52
 70
     0
102
RTVSPost2010Prop53
 90
        2
102
RTVSPost2010PropOp53
 70
     1
102
RTVSPost2010Prop54
  1
strokes_ogs.tif
102
RTVSPost2010PropOp54
 70
     1
102
RTVSPost2010Prop55
280
     0
102
RTVSPost2010PropOp55
 70
     1
102
RTVSPost2010Prop56
140
1.0
102
RTVSPost2010PropOp56
 70
     1
102
RTVSPost2010Prop57
140
1.0
102
RTVSPost2010PropOp57
 70
     1
102
RTVSPropertyOp0
 70
     1
102
RTVSPropertyOp1
 70
     1
102
RTVSPropertyOp2
 70
     1
102
RTVSPropertyOp3
 70
     1
102
RTVSPropertyOp4
 70
     1
102
RTVSPropertyOp5
 70
     1
102
RTVSPropertyOp6
 70
     1
102
RTVSPropertyOp7
 70
     1
102
RTVSPropertyOp8
 70
     1
102
RTVSPropertyOp9
 70
     1
102
RTVSPropertyOp10
 70
     1
102
RTVSPropertyOp11
 70
     1
102
RTVSPropertyOp12
 70
     1
102
RTVSPropertyOp13
 70
     1
102
RTVSPropertyOp14
 70
     1
102
RTVSPropertyOp15
 70
     1
102
RTVSPropertyOp16
 70
     1
102
RTVSPropertyOp17
 70
     1
102
RTVSPropertyOp18
 70
     1
102
RTVSPropertyOp19
 70
     1
102
RTVSPropertyOp20
 70
     1
102
RTVSPropertyOp21
 70
     1
102
RTVSPropertyOp22
 70
     1
102
RTVSPropertyOp23
 70
     1
102
RTVSPropertyOp24
 70
     1
102
RTVSPropertyOp25
 70
     1
102
RTVSPropertyOp26
 70
     1
102
RTVSPropertyOp27
 70
     1
102
RTVSPropertyOp28
 70
     1
102
RTVSPropertyOp29
 70
     1
102
RTVSPropertyOp30
 70
     1
102
RTVSPropertyOp31
 70
     1
102
RTVSPropertyOp32
 70
     1
102
RTVSPropertyOp33
 70
     1
102
RTVSPropertyOp34
 70
     1
102
RTVSPropertyOp35
 70
     1
102
RTVSPropertyOp36
 70
     1
102
RTVSPropertyOp37
 70
     1
102
RTVSPropertyOp38
 70
     1
102
RTVSPropertyOp39
 70
     1
102
RTVSPropertyOp40
 70
     1
102
RTVSPropertyOp41
 70
     1
102
RTVSPropertyOp42
 70
     1
102
RTVSPropertyOp43
 70
     1
102
RTVSPropertyOp44
 70
     1
102
RTVSPropertyOp45
 70
     1
102
RTVSPropertyOp46
 70
     1
102
RTVSPropertyOp47
 70
     1
102
RTVSPropertyOp48
 70
     1
102
RTVSPropertyOp49
 70
     1
102
RTVSPropertyOp50
 70
     1
102
RTVSPropertyOp51
 70
     0
102
RTVSPropertyOp52
 70
     0
102
RTVSPropertyOp53
 70
     1
102
RTVSPropertyOp54
 70
     1
102
RTVSPropertyOp55
 70
     1
102
RTVSPropertyOp56
 70
     1
102
RTVSPropertyOp57
 70
     1
102
RTVSPropertyOp58
 70
     1
102
RTVSPropertyOp59
 70
     1
102
RTVSPropertyOp60
 70
     1
102
RTVSPropertyOp61
 70
     1
102
RTVSPropertyOp62
 70
     1
  0
XRECORD
  5
2BEBA
102
{ACAD_REACTORS
330
2BEB9
102
}
330
2BEB9
100
AcDbXrecord
280
     1
102
RTVSPost2010Prop28
280
     0
102
RTVSPost2010PropOp28
 70
     0
102
RTVSPost2010Prop29
280
     1
102
RTVSPost2010PropOp29
 70
     0
102
RTVSPost2010Prop30
280
     1
102
RTVSPost2010PropOp30
 70
     0
102
RTVSPost2010Prop31
280
     0
102
RTVSPost2010PropOp31
 70
     0
102
RTVSPost2010Prop32
280
     0
102
RTVSPost2010PropOp32
 70
     0
102
RTVSPost2010Prop33
280
     0
102
RTVSPost2010PropOp33
 70
     0
102
RTVSPost2010Prop34
280
     0
102
RTVSPost2010PropOp34
 70
     0
102
RTVSPost2010Prop35
280
     0
102
RTVSPost2010PropOp35
 70
     0
102
RTVSPost2010Prop36
280
     0
102
RTVSPost2010PropOp36
 70
     0
102
RTVSPost2010Prop37
 90
       50
102
RTVSPost2010PropOp37
 70
     0
102
RTVSPost2010Prop38
140
0.0
102
RTVSPost2010PropOp38
 70
     0
102
RTVSPost2010Prop39
140
1.0
102
RTVSPost2010PropOp39
 70
     0
102
RTVSPost2010Prop40
 90
        0
102
RTVSPost2010PropOp40
 70
     0
102
RTVSPost2010Prop41ColorIndex
 90
       18
102
RTVSPost2010Prop41ColorRGB
 90
        0
102
RTVSPost2010PropOp41
 70
     0
102
RTVSPost2010Prop42
 90
       50
102
RTVSPost2010PropOp42
 70
     0
102
RTVSPost2010Prop43
 90
        3
102
RTVSPost2010PropOp43
 70
     0
102
RTVSPost2010Prop44ColorIndex
 90
        5
102
RTVSPost2010Prop44ColorRGB
 90
      255
102
RTVSPost2010PropOp44
 70
     0
102
RTVSPost2010Prop45
280
     0
102
RTVSPost2010PropOp45
 70
     0
102
RTVSPost2010Prop46
 90
       50
102
RTVSPost2010PropOp46
 70
     0
102
RTVSPost2010Prop47
 90
       50
102
RTVSPost2010PropOp47
 70
     0
102
RTVSPost2010Prop48
 90
       50
102
RTVSPost2010PropOp48
 70
     0
102
RTVSPost2010Prop49
280
     0
102
RTVSPost2010PropOp49
 70
     0
102
RTVSPost2010Prop50
 90
       50
102
RTVSPost2010PropOp50
 70
     0
102
RTVSPost2010Prop51ColorIndex
 90
      256
102
RTVSPost2010Prop51ColorRGB
 90
-16777216
102
RTVSPost2010PropOp51
 70
     0
102
RTVSPost2010Prop52
140
1.0
102
RTVSPost2010PropOp52
 70
     0
102
RTVSPost2010Prop53
 90
        2
102
RTVSPost2010PropOp53
 70
     0
102
RTVSPost2010Prop54
  1
strokes_ogs.tif
102
RTVSPost2010PropOp54
 70
     0
102
RTVSPost2010Prop55
280
     0
102
RTVSPost2010PropOp55
 70
     0
102
RTVSPost2010Prop56
140
1.0
102
RTVSPost2010PropOp56
 70
     0
102
RTVSPost2010Prop57
140
1.0
102
RTVSPost2010PropOp57
 70
     0
102
RTVSPropertyOp0
 70
     0
102
RTVSPropertyOp1
 70
     0
102
RTVSPropertyOp2
 70
     0
102
RTVSPropertyOp3
 70
     0
102
RTVSPropertyOp4
 70
     0
102
RTVSPropertyOp5
 70
     0
102
RTVSPropertyOp6
 70
     0
102
RTVSPropertyOp7
 70
     0
102
RTVSPropertyOp8
 70
     0
102
RTVSPropertyOp9
 70
     0
102
RTVSPropertyOp10
 70
     0
102
RTVSPropertyOp11
 70
     0
102
RTVSPropertyOp12
 70
     0
102
RTVSPropertyOp13
 70
     0
102
RTVSPropertyOp14
 70
     2
102
RTVSPropertyOp15
 70
     0
102
RTVSPropertyOp16
 70
     0
102
RTVSPropertyOp17
 70
     0
102
RTVSPropertyOp18
 70
     0
102
RTVSPropertyOp19
 70
     0
102
RTVSPropertyOp20
 70
     0
102
RTVSPropertyOp21
 70
     0
102
RTVSPropertyOp22
 70
     0
102
RTVSPropertyOp23
 70
     0
102
RTVSPropertyOp24
 70
     0
102
RTVSPropertyOp25
 70
     0
102
RTVSPropertyOp26
 70
     0
102
RTVSPropertyOp27
 70
     0
102
RTVSPropertyOp28
 70
     0
102
RTVSPropertyOp29
 70
     0
102
RTVSPropertyOp30
 70
     0
102
RTVSPropertyOp31
 70
     0
102
RTVSPropertyOp32
 70
     0
102
RTVSPropertyOp33
 70
     0
102
RTVSPropertyOp34
 70
     0
102
RTVSPropertyOp35
 70
     0
102
RTVSPropertyOp36
 70
     0
102
RTVSPropertyOp37
 70
     0
102
RTVSPropertyOp38
 70
     0
102
RTVSPropertyOp39
 70
     0
102
RTVSPropertyOp40
 70
     0
102
RTVSPropertyOp41
 70
     0
102
RTVSPropertyOp42
 70
     0
102
RTVSPropertyOp43
 70
     0
102
RTVSPropertyOp44
 70
     0
102
RTVSPropertyOp45
 70
     0
102
RTVSPropertyOp46
 70
     0
102
RTVSPropertyOp47
 70
     0
102
RTVSPropertyOp48
 70
     0
102
RTVSPropertyOp49
 70
     0
102
RTVSPropertyOp50
 70
     0
102
RTVSPropertyOp51
 70
     0
102
RTVSPropertyOp52
 70
     0
102
RTVSPropertyOp53
 70
     0
102
RTVSPropertyOp54
 70
     0
102
RTVSPropertyOp55
 70
     0
102
RTVSPropertyOp56
 70
     0
102
RTVSPropertyOp57
 70
     0
102
RTVSPropertyOp58
 70
     1
102
RTVSPropertyOp59
 70
     1
102
RTVSPropertyOp60
 70
     1
102
RTVSPropertyOp61
 70
     1
102
RTVSPropertyOp62
 70
     1
  0
XRECORD
  5
2BEA8
102
{ACAD_REACTORS
330
2BEA7
102
}
330
2BEA7
100
AcDbXrecord
280
     1
102
RTVSPost2010Prop28
280
     0
102
RTVSPost2010PropOp28
 70
     1
102
RTVSPost2010Prop29
280
     1
102
RTVSPost2010PropOp29
 70
     1
102
RTVSPost2010Prop30
280
     1
102
RTVSPost2010PropOp30
 70
     1
102
RTVSPost2010Prop31
280
     0
102
RTVSPost2010PropOp31
 70
     1
102
RTVSPost2010Prop32
280
     0
102
RTVSPost2010PropOp32
 70
     1
102
RTVSPost2010Prop33
280
     0
102
RTVSPost2010PropOp33
 70
     1
102
RTVSPost2010Prop34
280
     0
102
RTVSPost2010PropOp34
 70
     1
102
RTVSPost2010Prop35
280
     0
102
RTVSPost2010PropOp35
 70
     1
102
RTVSPost2010Prop36
280
     0
102
RTVSPost2010PropOp36
 70
     1
102
RTVSPost2010Prop37
 90
       50
102
RTVSPost2010PropOp37
 70
     1
102
RTVSPost2010Prop38
140
0.0
102
RTVSPost2010PropOp38
 70
     1
102
RTVSPost2010Prop39
140
1.0
102
RTVSPost2010PropOp39
 70
     1
102
RTVSPost2010Prop40
 90
        0
102
RTVSPost2010PropOp40
 70
     1
102
RTVSPost2010Prop41ColorIndex
 90
       18
102
RTVSPost2010Prop41ColorRGB
 90
        0
102
RTVSPost2010PropOp41
 70
     1
102
RTVSPost2010Prop42
 90
       50
102
RTVSPost2010PropOp42
 70
     1
102
RTVSPost2010Prop43
 90
        3
102
RTVSPost2010PropOp43
 70
     1
102
RTVSPost2010Prop44ColorIndex
 90
        5
102
RTVSPost2010Prop44ColorRGB
 90
      255
102
RTVSPost2010PropOp44
 70
     1
102
RTVSPost2010Prop45
280
     0
102
RTVSPost2010PropOp45
 70
     1
102
RTVSPost2010Prop46
 90
       50
102
RTVSPost2010PropOp46
 70
     1
102
RTVSPost2010Prop47
 90
       50
102
RTVSPost2010PropOp47
 70
     1
102
RTVSPost2010Prop48
 90
       50
102
RTVSPost2010PropOp48
 70
     1
102
RTVSPost2010Prop49
280
     0
102
RTVSPost2010PropOp49
 70
     1
102
RTVSPost2010Prop50
 90
       50
102
RTVSPost2010PropOp50
 70
     1
102
RTVSPost2010Prop51ColorIndex
 90
      256
102
RTVSPost2010Prop51ColorRGB
 90
-16777216
102
RTVSPost2010PropOp51
 70
     0
102
RTVSPost2010Prop52
140
1.0
102
RTVSPost2010PropOp52
 70
     0
102
RTVSPost2010Prop53
 90
        2
102
RTVSPost2010PropOp53
 70
     1
102
RTVSPost2010Prop54
  1
strokes_ogs.tif
102
RTVSPost2010PropOp54
 70
     1
102
RTVSPost2010Prop55
280
     0
102
RTVSPost2010PropOp55
 70
     1
102
RTVSPost2010Prop56
140
1.0
102
RTVSPost2010PropOp56
 70
     1
102
RTVSPost2010Prop57
140
1.0
102
RTVSPost2010PropOp57
 70
     1
102
RTVSPropertyOp0
 70
     1
102
RTVSPropertyOp1
 70
     1
102
RTVSPropertyOp2
 70
     1
102
RTVSPropertyOp3
 70
     1
102
RTVSPropertyOp4
 70
     1
102
RTVSPropertyOp5
 70
     1
102
RTVSPropertyOp6
 70
     1
102
RTVSPropertyOp7
 70
     1
102
RTVSPropertyOp8
 70
     1
102
RTVSPropertyOp9
 70
     1
102
RTVSPropertyOp10
 70
     1
102
RTVSPropertyOp11
 70
     1
102
RTVSPropertyOp12
 70
     1
102
RTVSPropertyOp13
 70
     1
102
RTVSPropertyOp14
 70
     1
102
RTVSPropertyOp15
 70
     1
102
RTVSPropertyOp16
 70
     1
102
RTVSPropertyOp17
 70
     1
102
RTVSPropertyOp18
 70
     1
102
RTVSPropertyOp19
 70
     1
102
RTVSPropertyOp20
 70
     1
102
RTVSPropertyOp21
 70
     1
102
RTVSPropertyOp22
 70
     1
102
RTVSPropertyOp23
 70
     1
102
RTVSPropertyOp24
 70
     1
102
RTVSPropertyOp25
 70
     1
102
RTVSPropertyOp26
 70
     1
102
RTVSPropertyOp27
 70
     1
102
RTVSPropertyOp28
 70
     1
102
RTVSPropertyOp29
 70
     1
102
RTVSPropertyOp30
 70
     1
102
RTVSPropertyOp31
 70
     1
102
RTVSPropertyOp32
 70
     1
102
RTVSPropertyOp33
 70
     1
102
RTVSPropertyOp34
 70
     1
102
RTVSPropertyOp35
 70
     1
102
RTVSPropertyOp36
 70
     1
102
RTVSPropertyOp37
 70
     1
102
RTVSPropertyOp38
 70
     1
102
RTVSPropertyOp39
 70
     1
102
RTVSPropertyOp40
 70
     1
102
RTVSPropertyOp41
 70
     1
102
RTVSPropertyOp42
 70
     1
102
RTVSPropertyOp43
 70
     1
102
RTVSPropertyOp44
 70
     1
102
RTVSPropertyOp45
 70
     1
102
RTVSPropertyOp46
 70
     1
102
RTVSPropertyOp47
 70
     1
102
RTVSPropertyOp48
 70
     1
102
RTVSPropertyOp49
 70
     1
102
RTVSPropertyOp50
 70
     1
102
RTVSPropertyOp51
 70
     0
102
RTVSPropertyOp52
 70
     0
102
RTVSPropertyOp53
 70
     1
102
RTVSPropertyOp54
 70
     1
102
RTVSPropertyOp55
 70
     1
102
RTVSPropertyOp56
 70
     1
102
RTVSPropertyOp57
 70
     1
102
RTVSPropertyOp58
 70
     1
102
RTVSPropertyOp59
 70
     1
102
RTVSPropertyOp60
 70
     1
102
RTVSPropertyOp61
 70
     1
102
RTVSPropertyOp62
 70
     1
  0
XRECORD
  5
2BEC6
102
{ACAD_REACTORS
330
2BEC5
102
}
330
2BEC5
100
AcDbXrecord
280
     1
102
RTVSPost2010Prop28
280
     0
102
RTVSPost2010PropOp28
 70
     1
102
RTVSPost2010Prop29
280
     1
102
RTVSPost2010PropOp29
 70
     1
102
RTVSPost2010Prop30
280
     1
102
RTVSPost2010PropOp30
 70
     1
102
RTVSPost2010Prop31
280
     0
102
RTVSPost2010PropOp31
 70
     1
102
RTVSPost2010Prop32
280
     0
102
RTVSPost2010PropOp32
 70
     1
102
RTVSPost2010Prop33
280
     0
102
RTVSPost2010PropOp33
 70
     1
102
RTVSPost2010Prop34
280
     0
102
RTVSPost2010PropOp34
 70
     1
102
RTVSPost2010Prop35
280
     0
102
RTVSPost2010PropOp35
 70
     1
102
RTVSPost2010Prop36
280
     0
102
RTVSPost2010PropOp36
 70
     1
102
RTVSPost2010Prop37
 90
       50
102
RTVSPost2010PropOp37
 70
     1
102
RTVSPost2010Prop38
140
0.0
102
RTVSPost2010PropOp38
 70
     1
102
RTVSPost2010Prop39
140
1.0
102
RTVSPost2010PropOp39
 70
     1
102
RTVSPost2010Prop40
 90
        0
102
RTVSPost2010PropOp40
 70
     1
102
RTVSPost2010Prop41ColorIndex
 90
       18
102
RTVSPost2010Prop41ColorRGB
 90
        0
102
RTVSPost2010PropOp41
 70
     1
102
RTVSPost2010Prop42
 90
       50
102
RTVSPost2010PropOp42
 70
     1
102
RTVSPost2010Prop43
 90
        3
102
RTVSPost2010PropOp43
 70
     1
102
RTVSPost2010Prop44ColorIndex
 90
        5
102
RTVSPost2010Prop44ColorRGB
 90
      255
102
RTVSPost2010PropOp44
 70
     1
102
RTVSPost2010Prop45
280
     0
102
RTVSPost2010PropOp45
 70
     1
102
RTVSPost2010Prop46
 90
       50
102
RTVSPost2010PropOp46
 70
     1
102
RTVSPost2010Prop47
 90
       50
102
RTVSPost2010PropOp47
 70
     1
102
RTVSPost2010Prop48
 90
       50
102
RTVSPost2010PropOp48
 70
     1
102
RTVSPost2010Prop49
280
     0
102
RTVSPost2010PropOp49
 70
     1
102
RTVSPost2010Prop50
 90
       50
102
RTVSPost2010PropOp50
 70
     1
102
RTVSPost2010Prop51ColorIndex
 90
      256
102
RTVSPost2010Prop51ColorRGB
 90
-16777216
102
RTVSPost2010PropOp51
 70
     0
102
RTVSPost2010Prop52
140
1.0
102
RTVSPost2010PropOp52
 70
     0
102
RTVSPost2010Prop53
 90
        2
102
RTVSPost2010PropOp53
 70
     1
102
RTVSPost2010Prop54
  1
strokes_ogs.tif
102
RTVSPost2010PropOp54
 70
     1
102
RTVSPost2010Prop55
280
     0
102
RTVSPost2010PropOp55
 70
     1
102
RTVSPost2010Prop56
140
1.0
102
RTVSPost2010PropOp56
 70
     1
102
RTVSPost2010Prop57
140
1.0
102
RTVSPost2010PropOp57
 70
     1
102
RTVSPropertyOp0
 70
     1
102
RTVSPropertyOp1
 70
     1
102
RTVSPropertyOp2
 70
     1
102
RTVSPropertyOp3
 70
     1
102
RTVSPropertyOp4
 70
     1
102
RTVSPropertyOp5
 70
     1
102
RTVSPropertyOp6
 70
     1
102
RTVSPropertyOp7
 70
     1
102
RTVSPropertyOp8
 70
     1
102
RTVSPropertyOp9
 70
     1
102
RTVSPropertyOp10
 70
     1
102
RTVSPropertyOp11
 70
     1
102
RTVSPropertyOp12
 70
     1
102
RTVSPropertyOp13
 70
     1
102
RTVSPropertyOp14
 70
     1
102
RTVSPropertyOp15
 70
     1
102
RTVSPropertyOp16
 70
     1
102
RTVSPropertyOp17
 70
     1
102
RTVSPropertyOp18
 70
     1
102
RTVSPropertyOp19
 70
     1
102
RTVSPropertyOp20
 70
     1
102
RTVSPropertyOp21
 70
     1
102
RTVSPropertyOp22
 70
     1
102
RTVSPropertyOp23
 70
     1
102
RTVSPropertyOp24
 70
     1
102
RTVSPropertyOp25
 70
     1
102
RTVSPropertyOp26
 70
     1
102
RTVSPropertyOp27
 70
     1
102
RTVSPropertyOp28
 70
     1
102
RTVSPropertyOp29
 70
     1
102
RTVSPropertyOp30
 70
     1
102
RTVSPropertyOp31
 70
     1
102
RTVSPropertyOp32
 70
     1
102
RTVSPropertyOp33
 70
     1
102
RTVSPropertyOp34
 70
     1
102
RTVSPropertyOp35
 70
     1
102
RTVSPropertyOp36
 70
     1
102
RTVSPropertyOp37
 70
     1
102
RTVSPropertyOp38
 70
     1
102
RTVSPropertyOp39
 70
     1
102
RTVSPropertyOp40
 70
     1
102
RTVSPropertyOp41
 70
     1
102
RTVSPropertyOp42
 70
     1
102
RTVSPropertyOp43
 70
     1
102
RTVSPropertyOp44
 70
     1
102
RTVSPropertyOp45
 70
     1
102
RTVSPropertyOp46
 70
     1
102
RTVSPropertyOp47
 70
     1
102
RTVSPropertyOp48
 70
     1
102
RTVSPropertyOp49
 70
     1
102
RTVSPropertyOp50
 70
     1
102
RTVSPropertyOp51
 70
     0
102
RTVSPropertyOp52
 70
     0
102
RTVSPropertyOp53
 70
     1
102
RTVSPropertyOp54
 70
     1
102
RTVSPropertyOp55
 70
     1
102
RTVSPropertyOp56
 70
     1
102
RTVSPropertyOp57
 70
     1
102
RTVSPropertyOp58
 70
     1
102
RTVSPropertyOp59
 70
     1
102
RTVSPropertyOp60
 70
     1
102
RTVSPropertyOp61
 70
     1
102
RTVSPropertyOp62
 70
     1
  0
XRECORD
  5
2BEC4
102
{ACAD_REACTORS
330
2BEC3
102
}
330
2BEC3
100
AcDbXrecord
280
     1
102
RTVSPost2010Prop28
280
     0
102
RTVSPost2010PropOp28
 70
     1
102
RTVSPost2010Prop29
280
     1
102
RTVSPost2010PropOp29
 70
     1
102
RTVSPost2010Prop30
280
     1
102
RTVSPost2010PropOp30
 70
     1
102
RTVSPost2010Prop31
280
     0
102
RTVSPost2010PropOp31
 70
     1
102
RTVSPost2010Prop32
280
     0
102
RTVSPost2010PropOp32
 70
     1
102
RTVSPost2010Prop33
280
     0
102
RTVSPost2010PropOp33
 70
     1
102
RTVSPost2010Prop34
280
     0
102
RTVSPost2010PropOp34
 70
     1
102
RTVSPost2010Prop35
280
     0
102
RTVSPost2010PropOp35
 70
     1
102
RTVSPost2010Prop36
280
     0
102
RTVSPost2010PropOp36
 70
     1
102
RTVSPost2010Prop37
 90
       50
102
RTVSPost2010PropOp37
 70
     1
102
RTVSPost2010Prop38
140
0.0
102
RTVSPost2010PropOp38
 70
     1
102
RTVSPost2010Prop39
140
1.0
102
RTVSPost2010PropOp39
 70
     1
102
RTVSPost2010Prop40
 90
        0
102
RTVSPost2010PropOp40
 70
     1
102
RTVSPost2010Prop41ColorIndex
 90
       18
102
RTVSPost2010Prop41ColorRGB
 90
        0
102
RTVSPost2010PropOp41
 70
     1
102
RTVSPost2010Prop42
 90
       50
102
RTVSPost2010PropOp42
 70
     1
102
RTVSPost2010Prop43
 90
        3
102
RTVSPost2010PropOp43
 70
     1
102
RTVSPost2010Prop44ColorIndex
 90
        5
102
RTVSPost2010Prop44ColorRGB
 90
      255
102
RTVSPost2010PropOp44
 70
     1
102
RTVSPost2010Prop45
280
     0
102
RTVSPost2010PropOp45
 70
     1
102
RTVSPost2010Prop46
 90
       50
102
RTVSPost2010PropOp46
 70
     1
102
RTVSPost2010Prop47
 90
       50
102
RTVSPost2010PropOp47
 70
     1
102
RTVSPost2010Prop48
 90
       50
102
RTVSPost2010PropOp48
 70
     1
102
RTVSPost2010Prop49
280
     0
102
RTVSPost2010PropOp49
 70
     1
102
RTVSPost2010Prop50
 90
       50
102
RTVSPost2010PropOp50
 70
     1
102
RTVSPost2010Prop51ColorIndex
 90
      256
102
RTVSPost2010Prop51ColorRGB
 90
-16777216
102
RTVSPost2010PropOp51
 70
     0
102
RTVSPost2010Prop52
140
1.0
102
RTVSPost2010PropOp52
 70
     0
102
RTVSPost2010Prop53
 90
        2
102
RTVSPost2010PropOp53
 70
     1
102
RTVSPost2010Prop54
  1
strokes_ogs.tif
102
RTVSPost2010PropOp54
 70
     1
102
RTVSPost2010Prop55
280
     0
102
RTVSPost2010PropOp55
 70
     1
102
RTVSPost2010Prop56
140
1.0
102
RTVSPost2010PropOp56
 70
     1
102
RTVSPost2010Prop57
140
1.0
102
RTVSPost2010PropOp57
 70
     1
102
RTVSPropertyOp0
 70
     1
102
RTVSPropertyOp1
 70
     1
102
RTVSPropertyOp2
 70
     1
102
RTVSPropertyOp3
 70
     1
102
RTVSPropertyOp4
 70
     1
102
RTVSPropertyOp5
 70
     1
102
RTVSPropertyOp6
 70
     1
102
RTVSPropertyOp7
 70
     1
102
RTVSPropertyOp8
 70
     1
102
RTVSPropertyOp9
 70
     1
102
RTVSPropertyOp10
 70
     1
102
RTVSPropertyOp11
 70
     1
102
RTVSPropertyOp12
 70
     1
102
RTVSPropertyOp13
 70
     1
102
RTVSPropertyOp14
 70
     1
102
RTVSPropertyOp15
 70
     1
102
RTVSPropertyOp16
 70
     1
102
RTVSPropertyOp17
 70
     1
102
RTVSPropertyOp18
 70
     1
102
RTVSPropertyOp19
 70
     1
102
RTVSPropertyOp20
 70
     1
102
RTVSPropertyOp21
 70
     1
102
RTVSPropertyOp22
 70
     1
102
RTVSPropertyOp23
 70
     1
102
RTVSPropertyOp24
 70
     1
102
RTVSPropertyOp25
 70
     1
102
RTVSPropertyOp26
 70
     1
102
RTVSPropertyOp27
 70
     1
102
RTVSPropertyOp28
 70
     1
102
RTVSPropertyOp29
 70
     1
102
RTVSPropertyOp30
 70
     1
102
RTVSPropertyOp31
 70
     1
102
RTVSPropertyOp32
 70
     1
102
RTVSPropertyOp33
 70
     1
102
RTVSPropertyOp34
 70
     1
102
RTVSPropertyOp35
 70
     1
102
RTVSPropertyOp36
 70
     1
102
RTVSPropertyOp37
 70
     1
102
RTVSPropertyOp38
 70
     1
102
RTVSPropertyOp39
 70
     1
102
RTVSPropertyOp40
 70
     1
102
RTVSPropertyOp41
 70
     1
102
RTVSPropertyOp42
 70
     1
102
RTVSPropertyOp43
 70
     1
102
RTVSPropertyOp44
 70
     1
102
RTVSPropertyOp45
 70
     1
102
RTVSPropertyOp46
 70
     1
102
RTVSPropertyOp47
 70
     1
102
RTVSPropertyOp48
 70
     1
102
RTVSPropertyOp49
 70
     1
102
RTVSPropertyOp50
 70
     1
102
RTVSPropertyOp51
 70
     0
102
RTVSPropertyOp52
 70
     0
102
RTVSPropertyOp53
 70
     1
102
RTVSPropertyOp54
 70
     1
102
RTVSPropertyOp55
 70
     1
102
RTVSPropertyOp56
 70
     1
102
RTVSPropertyOp57
 70
     1
102
RTVSPropertyOp58
 70
     1
102
RTVSPropertyOp59
 70
     1
102
RTVSPropertyOp60
 70
     1
102
RTVSPropertyOp61
 70
     1
102
RTVSPropertyOp62
 70
     1
  0
XRECORD
  5
2BEBE
102
{ACAD_REACTORS
330
2BEBD
102
}
330
2BEBD
100
AcDbXrecord
280
     1
102
RTVSPost2010Prop28
280
     0
102
RTVSPost2010PropOp28
 70
     1
102
RTVSPost2010Prop29
280
     1
102
RTVSPost2010PropOp29
 70
     1
102
RTVSPost2010Prop30
280
     1
102
RTVSPost2010PropOp30
 70
     1
102
RTVSPost2010Prop31
280
     0
102
RTVSPost2010PropOp31
 70
     1
102
RTVSPost2010Prop32
280
     0
102
RTVSPost2010PropOp32
 70
     1
102
RTVSPost2010Prop33
280
     0
102
RTVSPost2010PropOp33
 70
     1
102
RTVSPost2010Prop34
280
     0
102
RTVSPost2010PropOp34
 70
     1
102
RTVSPost2010Prop35
280
     0
102
RTVSPost2010PropOp35
 70
     1
102
RTVSPost2010Prop36
280
     0
102
RTVSPost2010PropOp36
 70
     1
102
RTVSPost2010Prop37
 90
       50
102
RTVSPost2010PropOp37
 70
     1
102
RTVSPost2010Prop38
140
0.0
102
RTVSPost2010PropOp38
 70
     1
102
RTVSPost2010Prop39
140
1.0
102
RTVSPost2010PropOp39
 70
     1
102
RTVSPost2010Prop40
 90
        0
102
RTVSPost2010PropOp40
 70
     1
102
RTVSPost2010Prop41ColorIndex
 90
       18
102
RTVSPost2010Prop41ColorRGB
 90
        0
102
RTVSPost2010PropOp41
 70
     1
102
RTVSPost2010Prop42
 90
       50
102
RTVSPost2010PropOp42
 70
     1
102
RTVSPost2010Prop43
 90
        3
102
RTVSPost2010PropOp43
 70
     1
102
RTVSPost2010Prop44ColorIndex
 90
        5
102
RTVSPost2010Prop44ColorRGB
 90
      255
102
RTVSPost2010PropOp44
 70
     1
102
RTVSPost2010Prop45
280
     0
102
RTVSPost2010PropOp45
 70
     1
102
RTVSPost2010Prop46
 90
       50
102
RTVSPost2010PropOp46
 70
     1
102
RTVSPost2010Prop47
 90
       50
102
RTVSPost2010PropOp47
 70
     1
102
RTVSPost2010Prop48
 90
       50
102
RTVSPost2010PropOp48
 70
     1
102
RTVSPost2010Prop49
280
     0
102
RTVSPost2010PropOp49
 70
     1
102
RTVSPost2010Prop50
 90
       50
102
RTVSPost2010PropOp50
 70
     1
102
RTVSPost2010Prop51ColorIndex
 90
      256
102
RTVSPost2010Prop51ColorRGB
 90
-16777216
102
RTVSPost2010PropOp51
 70
     0
102
RTVSPost2010Prop52
140
1.0
102
RTVSPost2010PropOp52
 70
     0
102
RTVSPost2010Prop53
 90
        2
102
RTVSPost2010PropOp53
 70
     1
102
RTVSPost2010Prop54
  1
strokes_ogs.tif
102
RTVSPost2010PropOp54
 70
     1
102
RTVSPost2010Prop55
280
     0
102
RTVSPost2010PropOp55
 70
     1
102
RTVSPost2010Prop56
140
1.0
102
RTVSPost2010PropOp56
 70
     1
102
RTVSPost2010Prop57
140
1.0
102
RTVSPost2010PropOp57
 70
     1
102
RTVSPropertyOp0
 70
     1
102
RTVSPropertyOp1
 70
     1
102
RTVSPropertyOp2
 70
     1
102
RTVSPropertyOp3
 70
     1
102
RTVSPropertyOp4
 70
     1
102
RTVSPropertyOp5
 70
     1
102
RTVSPropertyOp6
 70
     1
102
RTVSPropertyOp7
 70
     1
102
RTVSPropertyOp8
 70
     1
102
RTVSPropertyOp9
 70
     1
102
RTVSPropertyOp10
 70
     1
102
RTVSPropertyOp11
 70
     1
102
RTVSPropertyOp12
 70
     1
102
RTVSPropertyOp13
 70
     1
102
RTVSPropertyOp14
 70
     1
102
RTVSPropertyOp15
 70
     1
102
RTVSPropertyOp16
 70
     1
102
RTVSPropertyOp17
 70
     1
102
RTVSPropertyOp18
 70
     1
102
RTVSPropertyOp19
 70
     1
102
RTVSPropertyOp20
 70
     1
102
RTVSPropertyOp21
 70
     1
102
RTVSPropertyOp22
 70
     1
102
RTVSPropertyOp23
 70
     1
102
RTVSPropertyOp24
 70
     1
102
RTVSPropertyOp25
 70
     1
102
RTVSPropertyOp26
 70
     1
102
RTVSPropertyOp27
 70
     1
102
RTVSPropertyOp28
 70
     1
102
RTVSPropertyOp29
 70
     1
102
RTVSPropertyOp30
 70
     1
102
RTVSPropertyOp31
 70
     1
102
RTVSPropertyOp32
 70
     1
102
RTVSPropertyOp33
 70
     1
102
RTVSPropertyOp34
 70
     1
102
RTVSPropertyOp35
 70
     1
102
RTVSPropertyOp36
 70
     1
102
RTVSPropertyOp37
 70
     1
102
RTVSPropertyOp38
 70
     1
102
RTVSPropertyOp39
 70
     1
102
RTVSPropertyOp40
 70
     1
102
RTVSPropertyOp41
 70
     1
102
RTVSPropertyOp42
 70
     1
102
RTVSPropertyOp43
 70
     1
102
RTVSPropertyOp44
 70
     1
102
RTVSPropertyOp45
 70
     1
102
RTVSPropertyOp46
 70
     1
102
RTVSPropertyOp47
 70
     1
102
RTVSPropertyOp48
 70
     1
102
RTVSPropertyOp49
 70
     1
102
RTVSPropertyOp50
 70
     1
102
RTVSPropertyOp51
 70
     0
102
RTVSPropertyOp52
 70
     0
102
RTVSPropertyOp53
 70
     1
102
RTVSPropertyOp54
 70
     1
102
RTVSPropertyOp55
 70
     1
102
RTVSPropertyOp56
 70
     1
102
RTVSPropertyOp57
 70
     1
102
RTVSPropertyOp58
 70
     1
102
RTVSPropertyOp59
 70
     1
102
RTVSPropertyOp60
 70
     1
102
RTVSPropertyOp61
 70
     1
102
RTVSPropertyOp62
 70
     1
  0
XRECORD
  5
2BEC0
102
{ACAD_REACTORS
330
2BEBF
102
}
330
2BEBF
100
AcDbXrecord
280
     1
102
RTVSPost2010Prop28
280
     0
102
RTVSPost2010PropOp28
 70
     1
102
RTVSPost2010Prop29
280
     1
102
RTVSPost2010PropOp29
 70
     1
102
RTVSPost2010Prop30
280
     1
102
RTVSPost2010PropOp30
 70
     1
102
RTVSPost2010Prop31
280
     0
102
RTVSPost2010PropOp31
 70
     1
102
RTVSPost2010Prop32
280
     0
102
RTVSPost2010PropOp32
 70
     1
102
RTVSPost2010Prop33
280
     0
102
RTVSPost2010PropOp33
 70
     1
102
RTVSPost2010Prop34
280
     0
102
RTVSPost2010PropOp34
 70
     1
102
RTVSPost2010Prop35
280
     0
102
RTVSPost2010PropOp35
 70
     1
102
RTVSPost2010Prop36
280
     0
102
RTVSPost2010PropOp36
 70
     1
102
RTVSPost2010Prop37
 90
       50
102
RTVSPost2010PropOp37
 70
     1
102
RTVSPost2010Prop38
140
0.0
102
RTVSPost2010PropOp38
 70
     1
102
RTVSPost2010Prop39
140
1.0
102
RTVSPost2010PropOp39
 70
     1
102
RTVSPost2010Prop40
 90
        0
102
RTVSPost2010PropOp40
 70
     1
102
RTVSPost2010Prop41ColorIndex
 90
       18
102
RTVSPost2010Prop41ColorRGB
 90
        0
102
RTVSPost2010PropOp41
 70
     1
102
RTVSPost2010Prop42
 90
       50
102
RTVSPost2010PropOp42
 70
     1
102
RTVSPost2010Prop43
 90
        3
102
RTVSPost2010PropOp43
 70
     1
102
RTVSPost2010Prop44ColorIndex
 90
        5
102
RTVSPost2010Prop44ColorRGB
 90
      255
102
RTVSPost2010PropOp44
 70
     1
102
RTVSPost2010Prop45
280
     0
102
RTVSPost2010PropOp45
 70
     1
102
RTVSPost2010Prop46
 90
       50
102
RTVSPost2010PropOp46
 70
     1
102
RTVSPost2010Prop47
 90
       50
102
RTVSPost2010PropOp47
 70
     1
102
RTVSPost2010Prop48
 90
       50
102
RTVSPost2010PropOp48
 70
     1
102
RTVSPost2010Prop49
280
     0
102
RTVSPost2010PropOp49
 70
     1
102
RTVSPost2010Prop50
 90
       50
102
RTVSPost2010PropOp50
 70
     1
102
RTVSPost2010Prop51ColorIndex
 90
      256
102
RTVSPost2010Prop51ColorRGB
 90
-16777216
102
RTVSPost2010PropOp51
 70
     0
102
RTVSPost2010Prop52
140
1.0
102
RTVSPost2010PropOp52
 70
     0
102
RTVSPost2010Prop53
 90
        2
102
RTVSPost2010PropOp53
 70
     1
102
RTVSPost2010Prop54
  1
strokes_ogs.tif
102
RTVSPost2010PropOp54
 70
     1
102
RTVSPost2010Prop55
280
     0
102
RTVSPost2010PropOp55
 70
     1
102
RTVSPost2010Prop56
140
1.0
102
RTVSPost2010PropOp56
 70
     1
102
RTVSPost2010Prop57
140
1.0
102
RTVSPost2010PropOp57
 70
     1
102
RTVSPropertyOp0
 70
     1
102
RTVSPropertyOp1
 70
     1
102
RTVSPropertyOp2
 70
     1
102
RTVSPropertyOp3
 70
     1
102
RTVSPropertyOp4
 70
     1
102
RTVSPropertyOp5
 70
     1
102
RTVSPropertyOp6
 70
     1
102
RTVSPropertyOp7
 70
     1
102
RTVSPropertyOp8
 70
     1
102
RTVSPropertyOp9
 70
     1
102
RTVSPropertyOp10
 70
     1
102
RTVSPropertyOp11
 70
     1
102
RTVSPropertyOp12
 70
     1
102
RTVSPropertyOp13
 70
     1
102
RTVSPropertyOp14
 70
     1
102
RTVSPropertyOp15
 70
     1
102
RTVSPropertyOp16
 70
     1
102
RTVSPropertyOp17
 70
     1
102
RTVSPropertyOp18
 70
     1
102
RTVSPropertyOp19
 70
     1
102
RTVSPropertyOp20
 70
     1
102
RTVSPropertyOp21
 70
     1
102
RTVSPropertyOp22
 70
     1
102
RTVSPropertyOp23
 70
     1
102
RTVSPropertyOp24
 70
     1
102
RTVSPropertyOp25
 70
     1
102
RTVSPropertyOp26
 70
     1
102
RTVSPropertyOp27
 70
     1
102
RTVSPropertyOp28
 70
     1
102
RTVSPropertyOp29
 70
     1
102
RTVSPropertyOp30
 70
     1
102
RTVSPropertyOp31
 70
     1
102
RTVSPropertyOp32
 70
     1
102
RTVSPropertyOp33
 70
     1
102
RTVSPropertyOp34
 70
     1
102
RTVSPropertyOp35
 70
     1
102
RTVSPropertyOp36
 70
     1
102
RTVSPropertyOp37
 70
     1
102
RTVSPropertyOp38
 70
     1
102
RTVSPropertyOp39
 70
     1
102
RTVSPropertyOp40
 70
     1
102
RTVSPropertyOp41
 70
     1
102
RTVSPropertyOp42
 70
     1
102
RTVSPropertyOp43
 70
     1
102
RTVSPropertyOp44
 70
     1
102
RTVSPropertyOp45
 70
     1
102
RTVSPropertyOp46
 70
     1
102
RTVSPropertyOp47
 70
     1
102
RTVSPropertyOp48
 70
     1
102
RTVSPropertyOp49
 70
     1
102
RTVSPropertyOp50
 70
     1
102
RTVSPropertyOp51
 70
     0
102
RTVSPropertyOp52
 70
     0
102
RTVSPropertyOp53
 70
     1
102
RTVSPropertyOp54
 70
     1
102
RTVSPropertyOp55
 70
     1
102
RTVSPropertyOp56
 70
     1
102
RTVSPropertyOp57
 70
     1
102
RTVSPropertyOp58
 70
     1
102
RTVSPropertyOp59
 70
     1
102
RTVSPropertyOp60
 70
     1
102
RTVSPropertyOp61
 70
     1
102
RTVSPropertyOp62
 70
     1
  0
XRECORD
  5
2BEB0
102
{ACAD_REACTORS
330
2BEAF
102
}
330
2BEAF
100
AcDbXrecord
280
     1
102
RTVSPost2010Prop28
280
     0
102
RTVSPost2010PropOp28
 70
     1
102
RTVSPost2010Prop29
280
     1
102
RTVSPost2010PropOp29
 70
     1
102
RTVSPost2010Prop30
280
     1
102
RTVSPost2010PropOp30
 70
     1
102
RTVSPost2010Prop31
280
     0
102
RTVSPost2010PropOp31
 70
     1
102
RTVSPost2010Prop32
280
     0
102
RTVSPost2010PropOp32
 70
     1
102
RTVSPost2010Prop33
280
     0
102
RTVSPost2010PropOp33
 70
     1
102
RTVSPost2010Prop34
280
     0
102
RTVSPost2010PropOp34
 70
     1
102
RTVSPost2010Prop35
280
     0
102
RTVSPost2010PropOp35
 70
     1
102
RTVSPost2010Prop36
280
     0
102
RTVSPost2010PropOp36
 70
     1
102
RTVSPost2010Prop37
 90
       50
102
RTVSPost2010PropOp37
 70
     1
102
RTVSPost2010Prop38
140
0.0
102
RTVSPost2010PropOp38
 70
     1
102
RTVSPost2010Prop39
140
1.0
102
RTVSPost2010PropOp39
 70
     1
102
RTVSPost2010Prop40
 90
        0
102
RTVSPost2010PropOp40
 70
     1
102
RTVSPost2010Prop41ColorIndex
 90
       18
102
RTVSPost2010Prop41ColorRGB
 90
        0
102
RTVSPost2010PropOp41
 70
     1
102
RTVSPost2010Prop42
 90
       50
102
RTVSPost2010PropOp42
 70
     1
102
RTVSPost2010Prop43
 90
        3
102
RTVSPost2010PropOp43
 70
     1
102
RTVSPost2010Prop44ColorIndex
 90
        5
102
RTVSPost2010Prop44ColorRGB
 90
      255
102
RTVSPost2010PropOp44
 70
     1
102
RTVSPost2010Prop45
280
     0
102
RTVSPost2010PropOp45
 70
     1
102
RTVSPost2010Prop46
 90
       50
102
RTVSPost2010PropOp46
 70
     1
102
RTVSPost2010Prop47
 90
       50
102
RTVSPost2010PropOp47
 70
     1
102
RTVSPost2010Prop48
 90
       50
102
RTVSPost2010PropOp48
 70
     1
102
RTVSPost2010Prop49
280
     0
102
RTVSPost2010PropOp49
 70
     1
102
RTVSPost2010Prop50
 90
       50
102
RTVSPost2010PropOp50
 70
     1
102
RTVSPost2010Prop51ColorIndex
 90
      256
102
RTVSPost2010Prop51ColorRGB
 90
-16777216
102
RTVSPost2010PropOp51
 70
     0
102
RTVSPost2010Prop52
140
1.0
102
RTVSPost2010PropOp52
 70
     0
102
RTVSPost2010Prop53
 90
        2
102
RTVSPost2010PropOp53
 70
     1
102
RTVSPost2010Prop54
  1
strokes_ogs.tif
102
RTVSPost2010PropOp54
 70
     1
102
RTVSPost2010Prop55
280
     0
102
RTVSPost2010PropOp55
 70
     1
102
RTVSPost2010Prop56
140
1.0
102
RTVSPost2010PropOp56
 70
     1
102
RTVSPost2010Prop57
140
1.0
102
RTVSPost2010PropOp57
 70
     1
102
RTVSPropertyOp0
 70
     1
102
RTVSPropertyOp1
 70
     1
102
RTVSPropertyOp2
 70
     1
102
RTVSPropertyOp3
 70
     1
102
RTVSPropertyOp4
 70
     1
102
RTVSPropertyOp5
 70
     1
102
RTVSPropertyOp6
 70
     1
102
RTVSPropertyOp7
 70
     1
102
RTVSPropertyOp8
 70
     1
102
RTVSPropertyOp9
 70
     1
102
RTVSPropertyOp10
 70
     1
102
RTVSPropertyOp11
 70
     1
102
RTVSPropertyOp12
 70
     1
102
RTVSPropertyOp13
 70
     1
102
RTVSPropertyOp14
 70
     1
102
RTVSPropertyOp15
 70
     1
102
RTVSPropertyOp16
 70
     1
102
RTVSPropertyOp17
 70
     1
102
RTVSPropertyOp18
 70
     1
102
RTVSPropertyOp19
 70
     1
102
RTVSPropertyOp20
 70
     1
102
RTVSPropertyOp21
 70
     1
102
RTVSPropertyOp22
 70
     1
102
RTVSPropertyOp23
 70
     1
102
RTVSPropertyOp24
 70
     1
102
RTVSPropertyOp25
 70
     1
102
RTVSPropertyOp26
 70
     1
102
RTVSPropertyOp27
 70
     1
102
RTVSPropertyOp28
 70
     1
102
RTVSPropertyOp29
 70
     1
102
RTVSPropertyOp30
 70
     1
102
RTVSPropertyOp31
 70
     1
102
RTVSPropertyOp32
 70
     1
102
RTVSPropertyOp33
 70
     1
102
RTVSPropertyOp34
 70
     1
102
RTVSPropertyOp35
 70
     1
102
RTVSPropertyOp36
 70
     1
102
RTVSPropertyOp37
 70
     1
102
RTVSPropertyOp38
 70
     1
102
RTVSPropertyOp39
 70
     1
102
RTVSPropertyOp40
 70
     1
102
RTVSPropertyOp41
 70
     1
102
RTVSPropertyOp42
 70
     1
102
RTVSPropertyOp43
 70
     1
102
RTVSPropertyOp44
 70
     1
102
RTVSPropertyOp45
 70
     1
102
RTVSPropertyOp46
 70
     1
102
RTVSPropertyOp47
 70
     1
102
RTVSPropertyOp48
 70
     1
102
RTVSPropertyOp49
 70
     1
102
RTVSPropertyOp50
 70
     1
102
RTVSPropertyOp51
 70
     0
102
RTVSPropertyOp52
 70
     0
102
RTVSPropertyOp53
 70
     1
102
RTVSPropertyOp54
 70
     1
102
RTVSPropertyOp55
 70
     1
102
RTVSPropertyOp56
 70
     1
102
RTVSPropertyOp57
 70
     1
102
RTVSPropertyOp58
 70
     1
102
RTVSPropertyOp59
 70
     1
102
RTVSPropertyOp60
 70
     1
102
RTVSPropertyOp61
 70
     1
102
RTVSPropertyOp62
 70
     1
  0
XRECORD
  5
2BEA2
102
{ACAD_REACTORS
330
2BEA1
102
}
330
2BEA1
100
AcDbXrecord
280
     1
102
RTVSPost2010Prop28
280
     0
102
RTVSPost2010PropOp28
 70
     1
102
RTVSPost2010Prop29
280
     1
102
RTVSPost2010PropOp29
 70
     1
102
RTVSPost2010Prop30
280
     1
102
RTVSPost2010PropOp30
 70
     1
102
RTVSPost2010Prop31
280
     0
102
RTVSPost2010PropOp31
 70
     1
102
RTVSPost2010Prop32
280
     0
102
RTVSPost2010PropOp32
 70
     1
102
RTVSPost2010Prop33
280
     0
102
RTVSPost2010PropOp33
 70
     1
102
RTVSPost2010Prop34
280
     0
102
RTVSPost2010PropOp34
 70
     1
102
RTVSPost2010Prop35
280
     0
102
RTVSPost2010PropOp35
 70
     1
102
RTVSPost2010Prop36
280
     0
102
RTVSPost2010PropOp36
 70
     1
102
RTVSPost2010Prop37
 90
       50
102
RTVSPost2010PropOp37
 70
     1
102
RTVSPost2010Prop38
140
0.0
102
RTVSPost2010PropOp38
 70
     1
102
RTVSPost2010Prop39
140
1.0
102
RTVSPost2010PropOp39
 70
     1
102
RTVSPost2010Prop40
 90
        0
102
RTVSPost2010PropOp40
 70
     1
102
RTVSPost2010Prop41ColorIndex
 90
       18
102
RTVSPost2010Prop41ColorRGB
 90
        0
102
RTVSPost2010PropOp41
 70
     1
102
RTVSPost2010Prop42
 90
       50
102
RTVSPost2010PropOp42
 70
     1
102
RTVSPost2010Prop43
 90
        3
102
RTVSPost2010PropOp43
 70
     1
102
RTVSPost2010Prop44ColorIndex
 90
        5
102
RTVSPost2010Prop44ColorRGB
 90
      255
102
RTVSPost2010PropOp44
 70
     1
102
RTVSPost2010Prop45
280
     0
102
RTVSPost2010PropOp45
 70
     1
102
RTVSPost2010Prop46
 90
       50
102
RTVSPost2010PropOp46
 70
     1
102
RTVSPost2010Prop47
 90
       50
102
RTVSPost2010PropOp47
 70
     1
102
RTVSPost2010Prop48
 90
       50
102
RTVSPost2010PropOp48
 70
     1
102
RTVSPost2010Prop49
280
     0
102
RTVSPost2010PropOp49
 70
     1
102
RTVSPost2010Prop50
 90
       50
102
RTVSPost2010PropOp50
 70
     1
102
RTVSPost2010Prop51ColorIndex
 90
      256
102
RTVSPost2010Prop51ColorRGB
 90
-16777216
102
RTVSPost2010PropOp51
 70
     0
102
RTVSPost2010Prop52
140
1.0
102
RTVSPost2010PropOp52
 70
     0
102
RTVSPost2010Prop53
 90
        2
102
RTVSPost2010PropOp53
 70
     1
102
RTVSPost2010Prop54
  1
strokes_ogs.tif
102
RTVSPost2010PropOp54
 70
     1
102
RTVSPost2010Prop55
280
     0
102
RTVSPost2010PropOp55
 70
     1
102
RTVSPost2010Prop56
140
1.0
102
RTVSPost2010PropOp56
 70
     1
102
RTVSPost2010Prop57
140
1.0
102
RTVSPost2010PropOp57
 70
     1
102
RTVSPropertyOp0
 70
     1
102
RTVSPropertyOp1
 70
     1
102
RTVSPropertyOp2
 70
     1
102
RTVSPropertyOp3
 70
     1
102
RTVSPropertyOp4
 70
     1
102
RTVSPropertyOp5
 70
     1
102
RTVSPropertyOp6
 70
     1
102
RTVSPropertyOp7
 70
     1
102
RTVSPropertyOp8
 70
     1
102
RTVSPropertyOp9
 70
     1
102
RTVSPropertyOp10
 70
     1
102
RTVSPropertyOp11
 70
     1
102
RTVSPropertyOp12
 70
     1
102
RTVSPropertyOp13
 70
     1
102
RTVSPropertyOp14
 70
     1
102
RTVSPropertyOp15
 70
     1
102
RTVSPropertyOp16
 70
     1
102
RTVSPropertyOp17
 70
     1
102
RTVSPropertyOp18
 70
     1
102
RTVSPropertyOp19
 70
     1
102
RTVSPropertyOp20
 70
     1
102
RTVSPropertyOp21
 70
     1
102
RTVSPropertyOp22
 70
     1
102
RTVSPropertyOp23
 70
     1
102
RTVSPropertyOp24
 70
     1
102
RTVSPropertyOp25
 70
     1
102
RTVSPropertyOp26
 70
     1
102
RTVSPropertyOp27
 70
     1
102
RTVSPropertyOp28
 70
     1
102
RTVSPropertyOp29
 70
     1
102
RTVSPropertyOp30
 70
     1
102
RTVSPropertyOp31
 70
     1
102
RTVSPropertyOp32
 70
     1
102
RTVSPropertyOp33
 70
     1
102
RTVSPropertyOp34
 70
     1
102
RTVSPropertyOp35
 70
     1
102
RTVSPropertyOp36
 70
     1
102
RTVSPropertyOp37
 70
     1
102
RTVSPropertyOp38
 70
     1
102
RTVSPropertyOp39
 70
     1
102
RTVSPropertyOp40
 70
     1
102
RTVSPropertyOp41
 70
     1
102
RTVSPropertyOp42
 70
     1
102
RTVSPropertyOp43
 70
     1
102
RTVSPropertyOp44
 70
     1
102
RTVSPropertyOp45
 70
     1
102
RTVSPropertyOp46
 70
     1
102
RTVSPropertyOp47
 70
     1
102
RTVSPropertyOp48
 70
     1
102
RTVSPropertyOp49
 70
     1
102
RTVSPropertyOp50
 70
     1
102
RTVSPropertyOp51
 70
     0
102
RTVSPropertyOp52
 70
     0
102
RTVSPropertyOp53
 70
     1
102
RTVSPropertyOp54
 70
     1
102
RTVSPropertyOp55
 70
     1
102
RTVSPropertyOp56
 70
     1
102
RTVSPropertyOp57
 70
     1
102
RTVSPropertyOp58
 70
     1
102
RTVSPropertyOp59
 70
     1
102
RTVSPropertyOp60
 70
     1
102
RTVSPropertyOp61
 70
     1
102
RTVSPropertyOp62
 70
     1
  0
XRECORD
  5
2BEC2
102
{ACAD_REACTORS
330
2BEC1
102
}
330
2BEC1
100
AcDbXrecord
280
     1
102
RTVSPost2010Prop28
280
     0
102
RTVSPost2010PropOp28
 70
     1
102
RTVSPost2010Prop29
280
     1
102
RTVSPost2010PropOp29
 70
     1
102
RTVSPost2010Prop30
280
     1
102
RTVSPost2010PropOp30
 70
     1
102
RTVSPost2010Prop31
280
     0
102
RTVSPost2010PropOp31
 70
     1
102
RTVSPost2010Prop32
280
     0
102
RTVSPost2010PropOp32
 70
     1
102
RTVSPost2010Prop33
280
     0
102
RTVSPost2010PropOp33
 70
     1
102
RTVSPost2010Prop34
280
     0
102
RTVSPost2010PropOp34
 70
     1
102
RTVSPost2010Prop35
280
     0
102
RTVSPost2010PropOp35
 70
     1
102
RTVSPost2010Prop36
280
     0
102
RTVSPost2010PropOp36
 70
     1
102
RTVSPost2010Prop37
 90
       50
102
RTVSPost2010PropOp37
 70
     1
102
RTVSPost2010Prop38
140
0.0
102
RTVSPost2010PropOp38
 70
     1
102
RTVSPost2010Prop39
140
1.0
102
RTVSPost2010PropOp39
 70
     1
102
RTVSPost2010Prop40
 90
        0
102
RTVSPost2010PropOp40
 70
     1
102
RTVSPost2010Prop41ColorIndex
 90
       18
102
RTVSPost2010Prop41ColorRGB
 90
        0
102
RTVSPost2010PropOp41
 70
     1
102
RTVSPost2010Prop42
 90
       50
102
RTVSPost2010PropOp42
 70
     1
102
RTVSPost2010Prop43
 90
        3
102
RTVSPost2010PropOp43
 70
     1
102
RTVSPost2010Prop44ColorIndex
 90
        5
102
RTVSPost2010Prop44ColorRGB
 90
      255
102
RTVSPost2010PropOp44
 70
     1
102
RTVSPost2010Prop45
280
     0
102
RTVSPost2010PropOp45
 70
     1
102
RTVSPost2010Prop46
 90
       50
102
RTVSPost2010PropOp46
 70
     1
102
RTVSPost2010Prop47
 90
       50
102
RTVSPost2010PropOp47
 70
     1
102
RTVSPost2010Prop48
 90
       50
102
RTVSPost2010PropOp48
 70
     1
102
RTVSPost2010Prop49
280
     0
102
RTVSPost2010PropOp49
 70
     1
102
RTVSPost2010Prop50
 90
       50
102
RTVSPost2010PropOp50
 70
     1
102
RTVSPost2010Prop51ColorIndex
 90
      256
102
RTVSPost2010Prop51ColorRGB
 90
-16777216
102
RTVSPost2010PropOp51
 70
     0
102
RTVSPost2010Prop52
140
1.0
102
RTVSPost2010PropOp52
 70
     0
102
RTVSPost2010Prop53
 90
        2
102
RTVSPost2010PropOp53
 70
     1
102
RTVSPost2010Prop54
  1
strokes_ogs.tif
102
RTVSPost2010PropOp54
 70
     1
102
RTVSPost2010Prop55
280
     0
102
RTVSPost2010PropOp55
 70
     1
102
RTVSPost2010Prop56
140
1.0
102
RTVSPost2010PropOp56
 70
     1
102
RTVSPost2010Prop57
140
1.0
102
RTVSPost2010PropOp57
 70
     1
102
RTVSPropertyOp0
 70
     1
102
RTVSPropertyOp1
 70
     1
102
RTVSPropertyOp2
 70
     1
102
RTVSPropertyOp3
 70
     1
102
RTVSPropertyOp4
 70
     1
102
RTVSPropertyOp5
 70
     1
102
RTVSPropertyOp6
 70
     1
102
RTVSPropertyOp7
 70
     1
102
RTVSPropertyOp8
 70
     1
102
RTVSPropertyOp9
 70
     1
102
RTVSPropertyOp10
 70
     1
102
RTVSPropertyOp11
 70
     1
102
RTVSPropertyOp12
 70
     1
102
RTVSPropertyOp13
 70
     1
102
RTVSPropertyOp14
 70
     1
102
RTVSPropertyOp15
 70
     1
102
RTVSPropertyOp16
 70
     1
102
RTVSPropertyOp17
 70
     1
102
RTVSPropertyOp18
 70
     1
102
RTVSPropertyOp19
 70
     1
102
RTVSPropertyOp20
 70
     1
102
RTVSPropertyOp21
 70
     1
102
RTVSPropertyOp22
 70
     1
102
RTVSPropertyOp23
 70
     1
102
RTVSPropertyOp24
 70
     1
102
RTVSPropertyOp25
 70
     1
102
RTVSPropertyOp26
 70
     1
102
RTVSPropertyOp27
 70
     1
102
RTVSPropertyOp28
 70
     1
102
RTVSPropertyOp29
 70
     1
102
RTVSPropertyOp30
 70
     1
102
RTVSPropertyOp31
 70
     1
102
RTVSPropertyOp32
 70
     1
102
RTVSPropertyOp33
 70
     1
102
RTVSPropertyOp34
 70
     1
102
RTVSPropertyOp35
 70
     1
102
RTVSPropertyOp36
 70
     1
102
RTVSPropertyOp37
 70
     1
102
RTVSPropertyOp38
 70
     1
102
RTVSPropertyOp39
 70
     1
102
RTVSPropertyOp40
 70
     1
102
RTVSPropertyOp41
 70
     1
102
RTVSPropertyOp42
 70
     1
102
RTVSPropertyOp43
 70
     1
102
RTVSPropertyOp44
 70
     1
102
RTVSPropertyOp45
 70
     1
102
RTVSPropertyOp46
 70
     1
102
RTVSPropertyOp47
 70
     1
102
RTVSPropertyOp48
 70
     1
102
RTVSPropertyOp49
 70
     1
102
RTVSPropertyOp50
 70
     1
102
RTVSPropertyOp51
 70
     0
102
RTVSPropertyOp52
 70
     0
102
RTVSPropertyOp53
 70
     1
102
RTVSPropertyOp54
 70
     1
102
RTVSPropertyOp55
 70
     1
102
RTVSPropertyOp56
 70
     1
102
RTVSPropertyOp57
 70
     1
102
RTVSPropertyOp58
 70
     1
102
RTVSPropertyOp59
 70
     1
102
RTVSPropertyOp60
 70
     1
102
RTVSPropertyOp61
 70
     1
102
RTVSPropertyOp62
 70
     1
  0
ENDSEC
  0
EOF
