  0
SECTION
  2
HEADER
  9
$ACADVER
  1
AC1015
  9
$ACADMAINTVER
 70
    20
  9
$DWGCODEPAGE
  3
ANSI_932
  9
$INSBASE
 10
0.0
 20
0.0
 30
0.0
  9
$EXTMIN
 10
336.883192570507
 20
-2496.519611231486
 30
0.0
  9
$EXTMAX
 10
1059.398096070792
 20
-2225.691602833293
 30
137.5
  9
$LIMMIN
 10
0.0
 20
0.0
  9
$LIMMAX
 10
420.0
 20
297.0
  9
$ORTHOMODE
 70
     1
  9
$REGENMODE
 70
     1
  9
$FILLMODE
 70
     1
  9
$QTEXTMODE
 70
     0
  9
$MIRRTEXT
 70
     0
  9
$LTSCALE
 40
20.0
  9
$ATTMODE
 70
     2
  9
$TEXTSIZE
 40
10.0
  9
$TRACEWID
 40
1.0
  9
$TEXTSTYLE
  7
\U+FF7D\U+FF80\U+FF72\U+FF993
  9
$CLAYER
  8
破線
  9
$CELTYPE
  6
BYLAYER
  9
$CECOLOR
 62
   256
  9
$CELTSCALE
 40
1.0
  9
$DISPSILH
 70
     0
  9
$DIMSCALE
 40
1.5
  9
$DIMASZ
 40
2.5
  9
$DIMEXO
 40
0.8
  9
$DIMDLI
 40
10.0
  9
$DIMRND
 40
0.0
  9
$DIMDLE
 40
0.0
  9
$DIMEXE
 40
0.18
  9
$DIMTP
 40
0.0
  9
$DIMTM
 40
0.0
  9
$DIMTXT
 40
3.0
  9
$DIMCEN
 40
0.0
  9
$DIMTSZ
 40
0.0
  9
$DIMTOL
 70
     0
  9
$DIMLIM
 70
     0
  9
$DIMTIH
 70
     0
  9
$DIMTOH
 70
     0
  9
$DIMSE1
 70
     0
  9
$DIMSE2
 70
     0
  9
$DIMTAD
 70
     3
  9
$DIMZIN
 70
     8
  9
$DIMBLK
  1
Open30
  9
$DIMASO
 70
     1
  9
$DIMSHO
 70
     1
  9
$DIMPOST
  1

  9
$DIMAPOST
  1

  9
$DIMALT
 70
     0
  9
$DIMALTD
 70
     2
  9
$DIMALTF
 40
25.4
  9
$DIMLFAC
 40
1.0
  9
$DIMTOFL
 70
     0
  9
$DIMTVP
 40
0.0
  9
$DIMTIX
 70
     0
  9
$DIMSOXD
 70
     0
  9
$DIMSAH
 70
     0
  9
$DIMBLK1
  1

  9
$DIMBLK2
  1

  9
$DIMSTYLE
  2
まこ
  9
$DIMCLRD
 70
     4
  9
$DIMCLRE
 70
     4
  9
$DIMCLRT
 70
   256
  9
$DIMTFAC
 40
1.0
  9
$DIMGAP
 40
0.5
  9
$DIMJUST
 70
     0
  9
$DIMSD1
 70
     0
  9
$DIMSD2
 70
     0
  9
$DIMTOLJ
 70
     1
  9
$DIMTZIN
 70
     0
  9
$DIMALTZ
 70
     0
  9
$DIMALTTZ
 70
     0
  9
$DIMUPT
 70
     0
  9
$DIMDEC
 70
     8
  9
$DIMTDEC
 70
     8
  9
$DIMALTU
 70
     2
  9
$DIMALTTD
 70
     2
  9
$DIMTXSTY
  7
まこ
  9
$DIMAUNIT
 70
     0
  9
$DIMADEC
 70
     0
  9
$DIMALTRND
 40
0.0
  9
$DIMAZIN
 70
     0
  9
$DIMDSEP
 70
    46
  9
$DIMATFIT
 70
     1
  9
$DIMFRAC
 70
     0
  9
$DIMLDRBLK
  1
Open30
  9
$DIMLUNIT
 70
     2
  9
$DIMLWD
 70
    13
  9
$DIMLWE
 70
    13
  9
$DIMTMOVE
 70
     0
  9
$LUNITS
 70
     2
  9
$LUPREC
 70
     4
  9
$SKETCHINC
 40
1.0
  9
$FILLETRAD
 40
0.0
  9
$AUNITS
 70
     0
  9
$AUPREC
 70
     0
  9
$MENU
  1
.
  9
$ELEVATION
 40
0.0
  9
$PELEVATION
 40
0.0
  9
$THICKNESS
 40
0.0
  9
$LIMCHECK
 70
     0
  9
$CHAMFERA
 40
0.5
  9
$CHAMFERB
 40
0.5
  9
$CHAMFERC
 40
20.0
  9
$CHAMFERD
 40
0.0
  9
$SKPOLY
 70
     0
  9
$TDCREATE
 40
2451224.660162037
  9
$TDUCREATE
 40
2451224.285162384
  9
$TDUPDATE
 40
2458549.470243056
  9
$TDUUPDATE
 40
2458549.095243056
  9
$TDINDWG
 40
0.0389013310
  9
$TDUSRTIMER
 40
2458228.164911643
  9
$USRTIMER
 70
     1
  9
$ANGBASE
 50
0.0
  9
$ANGDIR
 70
     0
  9
$PDMODE
 70
     0
  9
$PDSIZE
 40
0.0
  9
$PLINEWID
 40
0.0
  9
$SPLFRAME
 70
     0
  9
$SPLINETYPE
 70
     6
  9
$SPLINESEGS
 70
     8
  9
$HANDSEED
  5
2BF3E
  9
$SURFTAB1
 70
     6
  9
$SURFTAB2
 70
     6
  9
$SURFTYPE
 70
     6
  9
$SURFU
 70
     6
  9
$SURFV
 70
     6
  9
$UCSBASE
  2

  9
$UCSNAME
  2

  9
$UCSORG
 10
0.0
 20
0.0
 30
0.0
  9
$UCSXDIR
 10
1.0
 20
0.0
 30
0.0
  9
$UCSYDIR
 10
0.0
 20
1.0
 30
0.0
  9
$UCSORTHOREF
  2

  9
$UCSORTHOVIEW
 70
     0
  9
$UCSORGTOP
 10
0.0
 20
0.0
 30
0.0
  9
$UCSORGBOTTOM
 10
0.0
 20
0.0
 30
0.0
  9
$UCSORGLEFT
 10
0.0
 20
0.0
 30
0.0
  9
$UCSORGRIGHT
 10
0.0
 20
0.0
 30
0.0
  9
$UCSORGFRONT
 10
0.0
 20
0.0
 30
0.0
  9
$UCSORGBACK
 10
0.0
 20
0.0
 30
0.0
  9
$PUCSBASE
  2

  9
$PUCSNAME
  2

  9
$PUCSORG
 10
0.0
 20
0.0
 30
0.0
  9
$PUCSXDIR
 10
1.0
 20
0.0
 30
0.0
  9
$PUCSYDIR
 10
0.0
 20
1.0
 30
0.0
  9
$PUCSORTHOREF
  2

  9
$PUCSORTHOVIEW
 70
     0
  9
$PUCSORGTOP
 10
0.0
 20
0.0
 30
0.0
  9
$PUCSORGBOTTOM
 10
0.0
 20
0.0
 30
0.0
  9
$PUCSORGLEFT
 10
0.0
 20
0.0
 30
0.0
  9
$PUCSORGRIGHT
 10
0.0
 20
0.0
 30
0.0
  9
$PUCSORGFRONT
 10
0.0
 20
0.0
 30
0.0
  9
$PUCSORGBACK
 10
0.0
 20
0.0
 30
0.0
  9
$USERI1
 70
     0
  9
$USERI2
 70
     0
  9
$USERI3
 70
     0
  9
$USERI4
 70
     0
  9
$USERI5
 70
     0
  9
$USERR1
 40
245.9999999999999
  9
$USERR2
 40
0.0
  9
$USERR3
 40
0.0
  9
$USERR4
 40
0.0
  9
$USERR5
 40
0.0
  9
$WORLDVIEW
 70
     1
  9
$SHADEDGE
 70
     3
  9
$SHADEDIF
 70
    70
  9
$TILEMODE
 70
     0
  9
$MAXACTVP
 70
    48
  9
$PINSBASE
 10
0.0
 20
0.0
 30
0.0
  9
$PLIMCHECK
 70
     0
  9
$PEXTMIN
 10
1.049999999999999
 20
0.6999999999999998
 30
0.0
  9
$PEXTMAX
 10
9.449999999999999
 20
6.3
 30
0.0
  9
$PLIMMIN
 10
0.0
 20
0.0
  9
$PLIMMAX
 10
0.0
 20
0.0
  9
$UNITMODE
 70
     0
  9
$VISRETAIN
 70
     1
  9
$PLINEGEN
 70
     0
  9
$PSLTSCALE
 70
     1
  9
$TREEDEPTH
 70
  3020
  9
$CMLSTYLE
  2
STANDARD
  9
$CMLJUST
 70
     0
  9
$CMLSCALE
 40
20.0
  9
$PROXYGRAPHICS
 70
     1
  9
$MEASUREMENT
 70
     0
  9
$CELWEIGHT
370
    -1
  9
$ENDCAPS
280
     0
  9
$JOINSTYLE
280
     0
  9
$LWDISPLAY
290
     0
  9
$INSUNITS
 70
     0
  9
$HYPERLINKBASE
  1

  9
$STYLESHEET
  1
monochrome.ctb
  9
$XEDIT
290
     1
  9
$CEPSNTYPE
380
     0
  9
$PSTYLEMODE
290
     1
  9
$FINGERPRINTGUID
  2
{D14EE3FF-941A-415A-9907-344E0A80D794}
  9
$VERSIONGUID
  2
{DE1FAACC-4F4D-4A07-B68E-06D5E6FC960D}
  9
$EXTNAMES
290
     1
  9
$PSVPSCALE
 40
0.0
  9
$OLESTARTUP
290
     0
  0
ENDSEC
  0
SECTION
  2
CLASSES
  0
CLASS
  1
ACDBDICTIONARYWDFLT
  2
AcDbDictionaryWithDefault
  3
ObjectDBX Classes
 90
        0
280
     0
281
     0
  0
CLASS
  1
ACDBPLACEHOLDER
  2
AcDbPlaceHolder
  3
ObjectDBX Classes
 90
        0
280
     0
281
     0
  0
CLASS
  1
LAYOUT
  2
AcDbLayout
  3
ObjectDBX Classes
 90
        0
280
     0
281
     0
  0
CLASS
  1
DICTIONARYVAR
  2
AcDbDictionaryVar
  3
ObjectDBX Classes
 90
        0
280
     0
281
     0
  0
CLASS
  1
VISUALSTYLE
  2
AcDbVisualStyle
  3
ObjectDBX Classes
 90
     4095
280
     0
281
     0
  0
CLASS
  1
SCALE
  2
AcDbScale
  3
ObjectDBX Classes
 90
     1153
280
     0
281
     0
  0
CLASS
  1
MATERIAL
  2
AcDbMaterial
  3
ObjectDBX Classes
 90
     1153
280
     0
281
     0
  0
CLASS
  1
TABLESTYLE
  2
AcDbTableStyle
  3
ObjectDBX Classes
 90
     4095
280
     0
281
     0
  0
CLASS
  1
MLEADERSTYLE
  2
AcDbMLeaderStyle
  3
ACDB_MLEADERSTYLE_CLASS
 90
     4095
280
     0
281
     0
  0
CLASS
  1
SUN
  2
AcDbSun
  3
SCENEOE
 90
     1153
280
     0
281
     0
  0
CLASS
  1
RASTERVARIABLES
  2
AcDbRasterVariables
  3
ISM
 90
        0
280
     0
281
     0
  0
CLASS
  1
DIMASSOC
  2
AcDbDimAssoc
  3
"AcDbDimAssoc|Product Desc:     AcDim ARX App For Dimension|Company:          Autodesk, Inc.|WEB Address:      www.autodesk.com"
 90
    32768
280
     0
281
     0
  0
CLASS
  1
SORTENTSTABLE
  2
AcDbSortentsTable
  3
ObjectDBX Classes
 90
        0
280
     0
281
     0
  0
CLASS
  1
ACDBSECTIONVIEWSTYLE
  2
AcDbSectionViewStyle
  3
ObjectDBX Classes
 90
     1025
280
     0
281
     0
  0
CLASS
  1
ACDBDETAILVIEWSTYLE
  2
AcDbDetailViewStyle
  3
ObjectDBX Classes
 90
     1025
280
     0
281
     0
  0
CLASS
  1
CELLSTYLEMAP
  2
AcDbCellStyleMap
  3
ObjectDBX Classes
 90
     1152
280
     0
281
     0
  0
ENDSEC
  0
SECTION
  2
TABLES
  0
TABLE
  2
VPORT
  5
8
102
{ACAD_XDICTIONARY
360
2BE9C
102
}
330
0
100
AcDbSymbolTable
 70
     1
  0
VPORT
  5
2839E
330
8
100
AcDbSymbolTableRecord
100
AcDbViewportTableRecord
  2
*Active
 70
     0
 10
0.0
 20
0.0
 11
1.0
 21
1.0
 12
1790.581466289011
 22
-1918.63471427777
 13
0.0
 23
0.0
 14
10.0
 24
10.0
 15
10.0
 25
10.0
 16
0.0
 26
0.0
 36
1.0
 17
0.0
 27
0.0
 37
0.0
 40
5296.375088945816
 41
1.305479452054794
 42
50.0
 43
0.0
 44
0.0
 50
0.0
 51
0.0
 71
    16
 72
   100
 73
     1
 74
     0
 75
     0
 76
     0
 77
     0
 78
     0
281
     0
 65
     1
110
0.0
120
0.0
130
0.0
111
1.0
121
0.0
131
0.0
112
0.0
122
1.0
132
0.0
 79
     0
146
0.0
  0
ENDTAB
  0
TABLE
  2
LTYPE
  5
5
330
0
100
AcDbSymbolTable
 70
     5
  0
LTYPE
  5
12
330
5
100
AcDbSymbolTableRecord
100
AcDbLinetypeTableRecord
  2
BYBLOCK
 70
     0
  3

 72
    65
 73
     0
 40
0.0
  0
LTYPE
  5
13
330
5
100
AcDbSymbolTableRecord
100
AcDbLinetypeTableRecord
  2
BYLAYER
 70
     0
  3

 72
    65
 73
     0
 40
0.0
  0
LTYPE
  5
14
330
5
100
AcDbSymbolTableRecord
100
AcDbLinetypeTableRecord
  2
CONTINUOUS
 70
     0
  3
Solid line
 72
    65
 73
     0
 40
0.0
  0
LTYPE
  5
126C
330
5
100
AcDbSymbolTableRecord
100
AcDbLinetypeTableRecord
  2
CENTER
 70
     0
  3
____ _ ____ _ ____ _ ____ _ ____ _ ____ _ ____
 72
    65
 73
     4
 40
2.0
 49
1.25
 74
     0
 49
-0.25
 74
     0
 49
0.25
 74
     0
 49
-0.25
 74
     0
  0
LTYPE
  5
126E
330
5
100
AcDbSymbolTableRecord
100
AcDbLinetypeTableRecord
  2
DASHDOT
 70
     0
  3
__ . __ . __ . __ . __ . __ . __ . __ . __ . __
 72
    65
 73
     4
 40
1.0
 49
0.5
 74
     0
 49
-0.25
 74
     0
 49
0.0
 74
     0
 49
-0.25
 74
     0
  0
LTYPE
  5
15420
330
5
100
AcDbSymbolTableRecord
100
AcDbLinetypeTableRecord
  2
CENTER2
 70
     0
  3
Center (.5x) ___ _ ___ _ ___ _ ___ _ ___ _ ___
 72
    65
 73
     4
 40
1.125
 49
0.75
 74
     0
 49
-0.125
 74
     0
 49
0.125
 74
     0
 49
-0.125
 74
     0
  0
LTYPE
  5
2A24C
330
5
100
AcDbSymbolTableRecord
100
AcDbLinetypeTableRecord
  2
HIDDEN2
 70
     0
  3
Hidden (.5x) _ _ _ _ _ _ _ _ _ _ _ _ _ _ _ _ _
 72
    65
 73
     2
 40
4.762499999999999
 49
3.174999999999999
 74
     0
 49
-1.587499999999999
 74
     0
  0
ENDTAB
  0
TABLE
  2
LAYER
  5
2
102
{ACAD_XDICTIONARY
360
254EC
102
}
330
0
100
AcDbSymbolTable
 70
     9
  0
LAYER
  5
E
330
2
100
AcDbSymbolTableRecord
100
AcDbLayerTableRecord
  2
0
 70
     2
 62
     7
  6
CONTINUOUS
370
    35
390
FB5C
  0
LAYER
  5
30
330
2
100
AcDbSymbolTableRecord
100
AcDbLayerTableRecord
  2
FRAME025
 70
     0
 62
     7
  6
CONTINUOUS
370
    -3
390
FB5C
  0
LAYER
  5
651
330
2
100
AcDbSymbolTableRecord
100
AcDbLayerTableRecord
  2
FRAME020
 70
     0
 62
     7
  6
CONTINUOUS
370
    -3
390
FB5C
  0
LAYER
  5
1271
330
2
100
AcDbSymbolTableRecord
100
AcDbLayerTableRecord
  2
A
 70
     0
 62
     7
  6
CONTINUOUS
370
    -3
390
FB5C
  0
LAYER
  5
122DE
330
2
100
AcDbSymbolTableRecord
100
AcDbLayerTableRecord
  2
dimension
 70
     0
 62
     7
  6
CONTINUOUS
370
    13
390
FB5C
  0
LAYER
  5
15422
330
2
100
AcDbSymbolTableRecord
100
AcDbLayerTableRecord
  2
細線
 70
     0
 62
     7
  6
CONTINUOUS
370
    13
390
FB5C
  0
LAYER
  5
15425
330
2
100
AcDbSymbolTableRecord
100
AcDbLayerTableRecord
  2
中心線
 70
     0
 62
     7
  6
CENTER2
370
    13
390
FB5C
  0
LAYER
  5
1A846
330
2
100
AcDbSymbolTableRecord
100
AcDbLayerTableRecord
  2
実線
 70
     0
 62
     7
  6
CONTINUOUS
370
    40
390
FB5C
  0
LAYER
  5
2A249
102
{ACAD_XDICTIONARY
360
2A24A
102
}
330
2
100
AcDbSymbolTableRecord
100
AcDbLayerTableRecord
  2
破線
 70
     0
 62
     7
  6
HIDDEN2
370
    13
390
FB5C
  0
ENDTAB
  0
TABLE
  2
STYLE
  5
3
330
0
100
AcDbSymbolTable
 70
     7
  0
STYLE
  5
F
330
3
100
AcDbSymbolTableRecord
100
AcDbTextStyleTableRecord
  2
STANDARD
 70
     0
 40
0.0
 41
1.0
 50
0.0
 71
     0
 42
2.5
  3
isocp.shx
  4
bigfont.shx
  0
STYLE
  5
34
330
3
100
AcDbSymbolTableRecord
100
AcDbTextStyleTableRecord
  2
TIMESNR
 70
     0
 40
0.0
 41
1.0
 50
0.0
 71
     0
 42
2.0
  3
times.ttf
  4

1001
ACAD
1000
Times New Roman
1071
       18
  0
STYLE
  5
35
330
3
100
AcDbSymbolTableRecord
100
AcDbTextStyleTableRecord
  2
MS\U+FF7A\U+FF9E\U+FF7C\U+FF6F\U+FF78
 70
     0
 40
0.0
 41
1.0
 50
0.0
 71
     0
 42
5.0
  3

  4

1001
ACAD
1000
MS Gothic
1071
    32817
  0
STYLE
  5
1275
330
3
100
AcDbSymbolTableRecord
100
AcDbTextStyleTableRecord
  2
BIGFONT
 70
     0
 40
2.0
 41
1.0
 50
0.0
 71
     0
 42
2.0
  3
txt.shx
  4
bigfont.shx
  0
STYLE
  5
1A849
330
3
100
AcDbSymbolTableRecord
100
AcDbTextStyleTableRecord
  2
まこ
 70
     0
 40
0.0
 41
1.0
 50
0.0
 71
     0
 42
2.5
  3
simplex.shx
  4
bigfont.shx
  0
STYLE
  5
1A84A
330
3
100
AcDbSymbolTableRecord
100
AcDbTextStyleTableRecord
  2
\U+FF7D\U+FF80\U+FF72\U+FF993
 70
     0
 40
10.0
 41
1.0
 50
0.0
 71
     0
 42
10.0
  3
isocp.shx
  4
extfont.shx
  0
STYLE
  5
1F8B3
330
3
100
AcDbSymbolTableRecord
100
AcDbTextStyleTableRecord
  2
MS\U+FF7A\U+FF9E\U+FF7C\U+FF6F\U+FF78N
 70
     0
 40
0.0
 41
1.0
 50
0.0
 71
     0
 42
5.0
  3

  4

1001
ACAD
1000
MS Gothic
1071
    32817
  0
ENDTAB
  0
TABLE
  2
VIEW
  5
6
330
0
100
AcDbSymbolTable
 70
     0
  0
ENDTAB
  0
TABLE
  2
UCS
  5
7
330
0
100
AcDbSymbolTable
 70
     0
  0
ENDTAB
  0
TABLE
  2
APPID
  5
9
330
0
100
AcDbSymbolTable
 70
    12
  0
APPID
  5
10
330
9
100
AcDbSymbolTableRecord
100
AcDbRegAppTableRecord
  2
ACAD
 70
     0
  0
APPID
  5
F013
330
9
100
AcDbSymbolTableRecord
100
AcDbRegAppTableRecord
  2
CONTENTBLOCKDESCRIPTION
 70
     0
  0
APPID
  5
F014
330
9
100
AcDbSymbolTableRecord
100
AcDbRegAppTableRecord
  2
CONTENTBLOCKICON
 70
     0
  0
APPID
  5
1A9A0
330
9
100
AcDbSymbolTableRecord
100
AcDbRegAppTableRecord
  2
DCO15
 70
     0
  0
APPID
  5
28407
330
9
100
AcDbSymbolTableRecord
100
AcDbRegAppTableRecord
  2
PE_CLOUD
 70
     0
  0
APPID
  5
2895F
330
9
100
AcDbSymbolTableRecord
100
AcDbRegAppTableRecord
  2
PLOTTRANSPARENCY
 70
     0
  0
APPID
  5
2A257
330
9
100
AcDbSymbolTableRecord
100
AcDbRegAppTableRecord
  2
ACAD_DSTYLE_DIMJAG
 70
     0
  0
APPID
  5
2A258
330
9
100
AcDbSymbolTableRecord
100
AcDbRegAppTableRecord
  2
ACAD_DSTYLE_DIMTALN
 70
     0
  0
APPID
  5
2A259
330
9
100
AcDbSymbolTableRecord
100
AcDbRegAppTableRecord
  2
ACAD_DSTYLE_DIMRADIAL_EXTENSION
 70
     0
  0
APPID
  5
2B5A9
330
9
100
AcDbSymbolTableRecord
100
AcDbRegAppTableRecord
  2
ACAD_DSTYLE_DIMFLIPARROW_SYMBOL
 70
     0
  0
APPID
  5
2B5AA
330
9
100
AcDbSymbolTableRecord
100
AcDbRegAppTableRecord
  2
ACAD_DSTYLE_DIMFLIPARROW_WHICH_SYMBOL
 70
     0
  0
APPID
  5
2BED5
330
9
100
AcDbSymbolTableRecord
100
AcDbRegAppTableRecord
  2
ACAD_MLEADERVER
 70
     0
  0
ENDTAB
  0
TABLE
  2
DIMSTYLE
  5
A
330
0
100
AcDbSymbolTable
 70
     2
100
AcDbDimStyleTable
 71
     0
  0
DIMSTYLE
105
1D
330
A
100
AcDbSymbolTableRecord
100
AcDbDimStyleTableRecord
  2
STANDARD
 70
     0
340
F
  0
DIMSTYLE
105
1A84D
330
A
100
AcDbSymbolTableRecord
100
AcDbDimStyleTableRecord
  2
まこ
 70
     0
 40
1.5
 41
2.5
 42
0.8
 43
10.0
 73
     0
 74
     0
 77
     3
 78
     8
140
3.0
141
0.0
147
0.5
176
     4
177
     4
178
   256
271
     8
272
     8
289
     1
340
1A849
341
1215D
342
1215D
371
    13
372
    13
  0
ENDTAB
  0
TABLE
  2
BLOCK_RECORD
  5
1
330
0
100
AcDbSymbolTable
 70
     2
  0
BLOCK_RECORD
  5
18
102
{ACAD_XDICTIONARY
360
2B4B3
102
}
330
1
100
AcDbSymbolTableRecord
100
AcDbBlockTableRecord
  2
*MODEL_SPACE
340
FB5D
  0
BLOCK_RECORD
  5
2BE3B
330
1
100
AcDbSymbolTableRecord
100
AcDbBlockTableRecord
  2
*Paper_Space
340
2BE3C
  0
BLOCK_RECORD
  5
115C
330
1
100
AcDbSymbolTableRecord
100
AcDbBlockTableRecord
  2
機械A4横_LBP
340
0
102
{BLKREFS
331
187D7
102
}
  0
BLOCK_RECORD
  5
1215D
330
1
100
AcDbSymbolTableRecord
100
AcDbBlockTableRecord
  2
_Open30
340
0
  0
ENDTAB
  0
ENDSEC
  0
SECTION
  2
BLOCKS
  0
BLOCK
  5
19
330
18
100
AcDbEntity
  8
0
100
AcDbBlockBegin
  2
*MODEL_SPACE
 70
     0
 10
0.0
 20
0.0
 30
0.0
  3
*MODEL_SPACE
  1

  0
ENDBLK
  5
1A
330
18
100
AcDbEntity
  8
0
100
AcDbBlockEnd
  0
BLOCK
  5
2BE3D
330
2BE3B
100
AcDbEntity
 67
     1
  8
0
100
AcDbBlockBegin
  2
*Paper_Space
 70
     0
 10
0.0
 20
0.0
 30
0.0
  3
*Paper_Space
  1

  0
ENDBLK
  5
2BE3E
330
2BE3B
100
AcDbEntity
 67
     1
  8
0
100
AcDbBlockEnd
  0
BLOCK
  5
115D
330
115C
100
AcDbEntity
  8
0
100
AcDbBlockBegin
  2
機械A4横_LBP
 70
     0
 10
0.0
 20
0.0
 30
0.0
  3
機械A4横_LBP
  1

  0
ENDBLK
  5
115E
330
115C
100
AcDbEntity
  8
0
100
AcDbBlockEnd
  0
BLOCK
  5
12161
330
1215D
100
AcDbEntity
  8
0
100
AcDbBlockBegin
  2
_Open30
 70
     0
 10
0.0
 20
0.0
 30
0.0
  3
_Open30
  1

  0
LINE
  5
1215E
330
1215D
100
AcDbEntity
  8
0
  6
ByBlock
 62
     0
370
    -2
100
AcDbLine
 10
-1.0
 20
0.26794919
 30
0.0
 11
0.0
 21
0.0
 31
0.0
  0
LINE
  5
1215F
330
1215D
100
AcDbEntity
  8
0
  6
ByBlock
 62
     0
370
    -2
100
AcDbLine
 10
0.0
 20
0.0
 30
0.0
 11
-1.0
 21
-0.26794919
 31
0.0
  0
LINE
  5
12160
330
1215D
100
AcDbEntity
  8
0
  6
ByBlock
 62
     0
370
    -2
100
AcDbLine
 10
0.0
 20
0.0
 30
0.0
 11
-1.0
 21
0.0
 31
0.0
  0
ENDBLK
  5
12162
330
1215D
100
AcDbEntity
  8
0
100
AcDbBlockEnd
  0
ENDSEC
  0
SECTION
  2
ENTITIES
  0
MTEXT
  5
176FC
330
18
100
AcDbEntity
  8
dimension
 62
     2
100
AcDbMText
 10
-100.7823601383244
 20
171.621314412839
 30
0.0
 40
8.0
 41
0.0
 71
     4
 72
     1
  1

 73
     1
 44
1.0
1001
ACAD
1000
MTEXTBEGIN
1070
    73
1070
     1
1070
    44
1040
1.0
1070
    74
1070
     0
1000
MTEXTEND
  0
TEXT
  5
187C8
330
18
100
AcDbEntity
  8
A
100
AcDbText
 10
27.08248755054501
 20
1784.547672862096
 30
0.0
 40
2.5
  1

  7
MS\U+FF7A\U+FF9E\U+FF7C\U+FF6F\U+FF78
100
AcDbText
  0
TEXT
  5
187C9
330
18
100
AcDbEntity
  8
A
100
AcDbText
 10
19.25748755054502
 20
1784.547672862096
 30
0.0
 40
2.5
  1

 41
0.5
  7
MS\U+FF7A\U+FF9E\U+FF7C\U+FF6F\U+FF78
100
AcDbText
  0
MTEXT
  5
187CB
330
18
100
AcDbEntity
  8
0
  6
ByBlock
100
AcDbMText
 10
325.4874764241681
 20
2232.511722574347
 30
0.0
 40
2.0
 41
0.0
 71
     4
 72
     5
  1

 11
-0.0000000000000002
 21
-1.0
 31
0.0
 73
     1
 44
1.0
1001
ACAD
1000
MTEXTBEGIN
1070
    73
1070
     1
1070
    44
1040
1.0
1070
    74
1070
     0
1000
MTEXTEND
  0
MTEXT
  5
187CC
330
18
100
AcDbEntity
  8
0
  6
ByBlock
100
AcDbMText
 10
360.9528647873209
 20
2221.71841421593
 30
0.0
 40
2.0
 41
0.0
 71
     7
 72
     5
  1

 11
0.0000000000000001
 21
1.0
 31
0.0
 73
     1
 44
1.0
1001
ACAD
1000
MTEXTBEGIN
1070
    73
1070
     1
1070
    44
1040
1.0
1070
    74
1070
     0
1000
MTEXTEND
  0
MTEXT
  5
187CD
330
18
100
AcDbEntity
  8
0
100
AcDbMText
 10
325.1733668026533
 20
2146.93890367364
 30
0.0
 40
2.0
 41
10.1453
 71
     1
 72
     5
  1

 11
-0.0000000000000002
 21
-1.0
 31
0.0
 73
     1
 44
1.0
1001
ACAD
1000
MTEXTBEGIN
1070
    73
1070
     1
1070
    44
1040
1.0
1070
    74
1070
     0
1000
MTEXTEND
  0
MTEXT
  5
187CE
330
18
100
AcDbEntity
  8
0
100
AcDbMText
 10
280.7738750495033
 20
2115.30742008065
 30
0.0
 40
2.0
 41
0.0
 71
     1
 72
     5
  1

 73
     1
 44
1.0
1001
ACAD
1000
MTEXTBEGIN
1070
    73
1070
     1
1070
    44
1040
1.0
1070
    74
1070
     0
1000
MTEXTEND
  0
MTEXT
  5
187CF
330
18
100
AcDbEntity
  8
0
  6
CENTER
100
AcDbMText
 10
606.3621522332663
 20
2216.239946825076
 30
0.0
 40
2.0
 41
15.6417
 71
     1
 72
     5
  1

  7
BIGFONT
 73
     1
 44
1.0
1001
ACAD
1000
MTEXTBEGIN
1070
    73
1070
     1
1070
    44
1040
1.0
1070
    74
1070
     0
1000
MTEXTEND
  0
MTEXT
  5
187D0
330
18
100
AcDbEntity
  8
0
  6
DASHDOT
100
AcDbMText
 10
368.6842112890945
 20
2323.029441652852
 30
0.0
 40
1.0
 41
2.0
 71
     1
 72
     5
  1

  7
BIGFONT
 73
     1
 44
1.0
1001
ACAD
1000
MTEXTBEGIN
1070
    73
1070
     1
1070
    44
1040
1.0
1070
    74
1070
     0
1000
MTEXTEND
  0
MTEXT
  5
187D1
330
18
100
AcDbEntity
  8
0
  6
ByBlock
100
AcDbMText
 10
325.4873894192178
 20
2232.511722574347
 30
0.0
 40
2.0
 41
0.0
 71
     4
 72
     5
  1

 11
-0.0000000000000002
 21
-1.0
 31
0.0
 73
     1
 44
1.0
1001
ACAD
1000
MTEXTBEGIN
1070
    73
1070
     1
1070
    44
1040
1.0
1070
    74
1070
     0
1000
MTEXTEND
  0
MTEXT
  5
187D2
330
18
100
AcDbEntity
  8
0
  6
ByBlock
100
AcDbMText
 10
360.9527777823708
 20
2221.71841421593
 30
0.0
 40
2.0
 41
0.0
 71
     7
 72
     5
  1

 11
0.0000000000000001
 21
1.0
 31
0.0
 73
     1
 44
1.0
1001
ACAD
1000
MTEXTBEGIN
1070
    73
1070
     1
1070
    44
1040
1.0
1070
    74
1070
     0
1000
MTEXTEND
  0
MTEXT
  5
187D3
330
18
100
AcDbEntity
  8
0
100
AcDbMText
 10
325.1732797977029
 20
2146.93890367364
 30
0.0
 40
2.0
 41
10.1453
 71
     1
 72
     5
  1

 11
-0.0000000000000002
 21
-1.0
 31
0.0
 73
     1
 44
1.0
1001
ACAD
1000
MTEXTBEGIN
1070
    73
1070
     1
1070
    44
1040
1.0
1070
    74
1070
     0
1000
MTEXTEND
  0
MTEXT
  5
187D4
330
18
100
AcDbEntity
  8
0
100
AcDbMText
 10
280.7737880445531
 20
2115.30742008065
 30
0.0
 40
2.0
 41
0.0
 71
     1
 72
     5
  1

 73
     1
 44
1.0
1001
ACAD
1000
MTEXTBEGIN
1070
    73
1070
     1
1070
    44
1040
1.0
1070
    74
1070
     0
1000
MTEXTEND
  0
MTEXT
  5
187D5
330
18
100
AcDbEntity
  8
0
  6
CENTER
100
AcDbMText
 10
606.3620652283159
 20
2216.239946825076
 30
0.0
 40
2.0
 41
15.6417
 71
     1
 72
     5
  1

  7
BIGFONT
 73
     1
 44
1.0
1001
ACAD
1000
MTEXTBEGIN
1070
    73
1070
     1
1070
    44
1040
1.0
1070
    74
1070
     0
1000
MTEXTEND
  0
MTEXT
  5
187D6
330
18
100
AcDbEntity
  8
0
  6
DASHDOT
100
AcDbMText
 10
368.6841242841443
 20
2323.029441652852
 30
0.0
 40
1.0
 41
2.0
 71
     1
 72
     5
  1

  7
BIGFONT
 73
     1
 44
1.0
1001
ACAD
1000
MTEXTBEGIN
1070
    73
1070
     1
1070
    44
1040
1.0
1070
    74
1070
     0
1000
MTEXTEND
  0
INSERT
  5
187D7
330
18
100
AcDbEntity
  8
FRAME025
100
AcDbBlockReference
  2
機械A4横_LBP
 10
271.0019941658661
 20
2006.888840564871
 30
0.0
  0
TEXT
  5
216E7
330
18
100
AcDbEntity
  8
FRAME020
  6
Continuous
100
AcDbText
 10
1272.84444499335
 20
-2736.187561819854
 30
0.0
 40
3.0
  1

 50
270.0
100
AcDbText
  0
MTEXT
  5
21ACC
330
18
100
AcDbEntity
  8
0
100
AcDbMText
 10
62.91095225984048
 20
-1280.130762802907
 30
0.0
 40
2.5
 41
0.625
 71
     9
 72
     1
  1

 73
     1
 44
1.0
1001
ACAD
1000
MTEXTBEGIN
1070
    73
1070
     1
1070
    44
1040
1.0
1070
    74
1070
     0
1000
MTEXTEND
  0
LINE
  5
27C69
330
18
100
AcDbEntity
  8
中心線
 48
0.5
100
AcDbLine
 10
521.431701924283
 20
-2233.191602833294
 30
0.0
 11
506.431701924283
 21
-2233.191602833294
 31
0.0
  0
LINE
  5
27C6A
330
18
100
AcDbEntity
  8
中心線
 48
0.5
100
AcDbLine
 10
506.431701924283
 20
-2298.191602833294
 30
0.0
 11
521.431701924283
 21
-2298.191602833294
 31
0.0
  0
LINE
  5
27C6C
330
18
100
AcDbEntity
  8
実線
100
AcDbLine
 10
482.1317019242832
 20
-2305.691602833293
 30
0.0
 11
801.7317019242831
 21
-2305.691602833293
 31
0.0
  0
LINE
  5
27C6D
330
18
100
AcDbEntity
  8
実線
100
AcDbLine
 10
482.1317019242832
 20
-2287.691602833294
 30
0.0
 11
801.7317019242831
 21
-2287.691602833294
 31
0.0
  0
LINE
  5
27C6E
330
18
100
AcDbEntity
  8
実線
100
AcDbLine
 10
801.7317019242831
 20
-2225.691602833293
 30
0.0
 11
482.1317019242832
 21
-2225.691602833293
 31
0.0
  0
LINE
  5
27C6F
330
18
100
AcDbEntity
  8
実線
100
AcDbLine
 10
801.7317019242829
 20
-2243.691602833294
 30
0.0
 11
482.131701924283
 21
-2243.691602833294
 31
0.0
  0
LINE
  5
27C70
330
18
100
AcDbEntity
  8
実線
100
AcDbLine
 10
482.131701924283
 20
-2435.127629116297
 30
0.0
 11
801.7317019242822
 21
-2435.127629116297
 31
0.0
  0
LINE
  5
27C71
330
18
100
AcDbEntity
  8
実線
100
AcDbLine
 10
482.131701924283
 20
-2461.127629116298
 30
0.0
 11
801.7317019242822
 21
-2461.127629116298
 31
0.0
  0
LINE
  5
27C72
330
18
100
AcDbEntity
  8
実線
100
AcDbLine
 10
481.931701924283
 20
-2475.127629116296
 30
0.0
 11
801.9317019242823
 21
-2475.127629116297
 31
0.0
  0
LINE
  5
27C75
330
18
100
AcDbEntity
  8
実線
100
AcDbLine
 10
372.883192570507
 20
-2231.691602833294
 30
0.0
 11
360.8831925705071
 21
-2231.691602833294
 31
0.0
  0
LINE
  5
27C76
330
18
100
AcDbEntity
  8
実線
100
AcDbLine
 10
372.883192570507
 20
-2299.691602833294
 30
0.0
 11
360.8831925705071
 21
-2299.691602833294
 31
0.0
  0
LWPOLYLINE
  5
27C77
330
18
100
AcDbEntity
  8
実線
100
AcDbPolyline
 90
        4
 70
     1
 43
0.0
 10
372.883192570507
 20
-2290.691602833294
 10
372.883192570507
 20
-2240.691602833294
 10
346.8831925705071
 20
-2240.691602833294
 10
346.8831925705071
 20
-2290.691602833294
  0
LINE
  5
27C79
330
18
100
AcDbEntity
  8
中心線
 48
0.5
100
AcDbLine
 10
336.883192570507
 20
-2265.691602833294
 30
0.0
 11
394.8831925705071
 21
-2265.691602833294
 31
0.0
  0
LINE
  5
27C7A
330
18
100
AcDbEntity
  8
実線
100
AcDbLine
 10
386.883192570507
 20
-2305.691602833295
 30
0.0
 11
360.883192570508
 21
-2305.691602833295
 31
0.0
  0
LINE
  5
27C7B
330
18
100
AcDbEntity
  8
実線
100
AcDbLine
 10
386.883192570507
 20
-2225.691602833293
 30
0.0
 11
360.883192570508
 21
-2225.691602833293
 31
0.0
  0
LINE
  5
27C7D
330
18
100
AcDbEntity
  8
実線
100
AcDbLine
 10
346.8831925705071
 20
-2240.691602833294
 30
0.0
 11
346.8831925705071
 21
-2225.691602833293
 31
0.0
  0
LINE
  5
27C83
330
18
100
AcDbEntity
  8
実線
100
AcDbLine
 10
360.8831925705071
 20
-2305.691602833295
 30
0.0
 11
346.8831925705071
 21
-2305.691602833295
 31
0.0
  0
LINE
  5
27C84
330
18
100
AcDbEntity
  8
実線
100
AcDbLine
 10
346.8831925705071
 20
-2290.691602833294
 30
0.0
 11
346.8831925705071
 21
-2305.691602833295
 31
0.0
  0
LINE
  5
27C8E
330
18
100
AcDbEntity
  8
実線
100
AcDbLine
 10
360.8831925705071
 20
-2305.691602833295
 30
0.0
 11
360.8831925705061
 21
-2299.691602833294
 31
0.0
  0
LINE
  5
27CC9
330
18
100
AcDbEntity
  8
実線
100
AcDbLine
 10
360.8831925705071
 20
-2225.691602833293
 30
0.0
 11
346.8831925705071
 21
-2225.691602833293
 31
0.0
  0
LINE
  5
27CCA
330
18
100
AcDbEntity
  8
実線
100
AcDbLine
 10
360.8831925705071
 20
-2225.691602833293
 30
0.0
 11
360.8831925705061
 21
-2231.691602833294
 31
0.0
  0
LINE
  5
27CCD
330
18
100
AcDbEntity
  8
実線
100
AcDbLine
 10
386.883192570507
 20
-2225.691602833293
 30
0.0
 11
386.883192570507
 21
-2243.691602833294
 31
0.0
  0
CIRCLE
  5
27CCE
330
18
100
AcDbEntity
  8
細線
  6
Continuous
100
AcDbCircle
 10
379.3831925705069
 20
-2235.691602833294
 30
0.0
 40
3.749999999999991
  0
CIRCLE
  5
27CCF
330
18
100
AcDbEntity
  8
細線
  6
Continuous
100
AcDbCircle
 10
379.3831925705069
 20
-2235.691602833294
 30
0.0
 40
4.25
  0
CIRCLE
  5
27CD0
330
18
100
AcDbEntity
  8
実線
100
AcDbCircle
 10
379.3831925705069
 20
-2235.691602833294
 30
0.0
 40
4.75
  0
LWPOLYLINE
  5
27CD1
330
18
100
AcDbEntity
  8
実線
100
AcDbPolyline
 90
        4
 70
     1
 43
0.0
 10
384.883192570507
 20
-2229.691602833294
 10
372.883192570507
 20
-2229.691602833294
 10
372.883192570507
 20
-2301.691602833294
 10
384.883192570507
 20
-2301.691602833294
  0
CIRCLE
  5
27CD2
330
18
100
AcDbEntity
  8
細線
  6
Continuous
100
AcDbCircle
 10
379.3831925705069
 20
-2295.691602833294
 30
0.0
 40
4.25
  0
CIRCLE
  5
27CD3
330
18
100
AcDbEntity
  8
実線
100
AcDbCircle
 10
379.3831925705069
 20
-2295.691602833294
 30
0.0
 40
4.75
  0
LINE
  5
27CD4
330
18
100
AcDbEntity
  8
細線
  6
Continuous
100
AcDbLine
 10
379.3831925705069
 20
-2293.382201833294
 30
0.0
 11
381.3831935705146
 21
-2294.536902633293
 31
0.0
  0
LINE
  5
27CD5
330
18
100
AcDbEntity
  8
細線
  6
Continuous
100
AcDbLine
 10
379.3831925705069
 20
-2293.382201333293
 30
0.0
 11
377.3831925705069
 21
-2294.536902233294
 31
0.0
  0
LINE
  5
27CD6
330
18
100
AcDbEntity
  8
細線
  6
Continuous
100
AcDbLine
 10
379.3831925705069
 20
-2298.001003833295
 30
0.0
 11
381.3831935705146
 21
-2296.846303033293
 31
0.0
  0
LINE
  5
27CD7
330
18
100
AcDbEntity
  8
細線
  6
Continuous
100
AcDbLine
 10
377.3831925705069
 20
-2296.846303433294
 30
0.0
 11
379.3831925705069
 21
-2298.001004333295
 31
0.0
  0
LINE
  5
27CD8
330
18
100
AcDbEntity
  8
細線
  6
Continuous
100
AcDbLine
 10
377.3831925705069
 20
-2294.536902333293
 30
0.0
 11
377.3831925705069
 21
-2296.846303333293
 31
0.0
  0
LINE
  5
27CD9
330
18
100
AcDbEntity
  8
細線
  6
Continuous
100
AcDbLine
 10
381.3831925705069
 20
-2294.536902333293
 30
0.0
 11
381.3831925705069
 21
-2296.846303333293
 31
0.0
  0
CIRCLE
  5
27CDA
330
18
100
AcDbEntity
  8
細線
  6
Continuous
100
AcDbCircle
 10
379.3831925705069
 20
-2295.691602833294
 30
0.0
 40
3.749999999999991
  0
LINE
  5
27CDB
330
18
100
AcDbEntity
  8
細線
  6
Continuous
100
AcDbLine
 10
379.3831925705069
 20
-2233.382201833293
 30
0.0
 11
381.3831935705146
 21
-2234.536902633293
 31
0.0
  0
LINE
  5
27CDC
330
18
100
AcDbEntity
  8
細線
  6
Continuous
100
AcDbLine
 10
379.3831925705069
 20
-2233.382201333293
 30
0.0
 11
377.3831925705069
 21
-2234.536902233294
 31
0.0
  0
LINE
  5
27CDD
330
18
100
AcDbEntity
  8
細線
  6
Continuous
100
AcDbLine
 10
377.3831925705069
 20
-2234.536902333293
 30
0.0
 11
377.3831925705069
 21
-2236.846303333293
 31
0.0
  0
LINE
  5
27CDE
330
18
100
AcDbEntity
  8
細線
  6
Continuous
100
AcDbLine
 10
381.3831925705069
 20
-2234.536902333293
 30
0.0
 11
381.3831925705069
 21
-2236.846303333293
 31
0.0
  0
LINE
  5
27CDF
330
18
100
AcDbEntity
  8
細線
  6
Continuous
100
AcDbLine
 10
379.3831925705069
 20
-2238.001003833295
 30
0.0
 11
381.3831935705146
 21
-2236.846303033293
 31
0.0
  0
LINE
  5
27CE0
330
18
100
AcDbEntity
  8
細線
  6
Continuous
100
AcDbLine
 10
377.3831925705069
 20
-2236.846303433294
 30
0.0
 11
379.3831925705069
 21
-2238.001004333295
 31
0.0
  0
LINE
  5
27CE1
330
18
100
AcDbEntity
  8
実線
100
AcDbLine
 10
386.4831925705071
 20
-2243.691602833294
 30
0.0
 11
386.4831925705071
 21
-2287.691602833294
 31
0.0
  0
LINE
  5
27CE2
330
18
100
AcDbEntity
  8
実線
100
AcDbLine
 10
386.883192570507
 20
-2287.691602833294
 30
0.0
 11
384.883192570507
 21
-2287.691602833294
 31
0.0
  0
LINE
  5
27CE3
330
18
100
AcDbEntity
  8
実線
100
AcDbLine
 10
386.883192570507
 20
-2305.691602833295
 30
0.0
 11
386.883192570507
 21
-2287.691602833294
 31
0.0
  0
LINE
  5
27CE4
330
18
100
AcDbEntity
  8
実線
100
AcDbLine
 10
386.883192570507
 20
-2243.691602833294
 30
0.0
 11
384.883192570507
 21
-2243.691602833294
 31
0.0
  0
LINE
  5
27CE7
330
18
100
AcDbEntity
  8
中心線
 48
0.5
100
AcDbLine
 10
513.931701924283
 20
-2240.691602833294
 30
0.0
 11
513.931701924283
 21
-2225.691602833293
 31
0.0
  0
CIRCLE
  5
27CE8
330
18
100
AcDbEntity
  8
細線
100
AcDbCircle
 10
513.931701924283
 20
-2233.191602833294
 30
0.0
 40
2.5
  0
CIRCLE
  5
27CE9
330
18
100
AcDbEntity
  8
実線
100
AcDbCircle
 10
513.931701924283
 20
-2233.191602833294
 30
0.0
 40
2.066999999999999
  0
LINE
  5
27CEA
330
18
100
AcDbEntity
  8
実線
100
AcDbLine
 10
482.131701924283
 20
-2243.691602833294
 30
0.0
 11
482.1317019242832
 21
-2225.691602833293
 31
0.0
  0
LINE
  5
27CEB
330
18
100
AcDbEntity
  8
実線
100
AcDbLine
 10
481.931701924283
 20
-2301.691602833294
 30
0.0
 11
481.931701924283
 21
-2229.691602833293
 31
0.0
  0
LINE
  5
27CEC
330
18
100
AcDbEntity
  8
実線
100
AcDbLine
 10
467.931701924283
 20
-2229.691602833293
 30
0.0
 11
467.931701924283
 21
-2301.691602833294
 31
0.0
  0
LINE
  5
27CF0
330
18
100
AcDbEntity
  8
実線
100
AcDbLine
 10
467.931701924283
 20
-2449.127629116296
 30
0.0
 11
481.931701924283
 21
-2449.127629116296
 31
0.0
  0
LINE
  5
27CF1
330
18
100
AcDbEntity
  8
実線
100
AcDbLine
 10
481.931701924283
 20
-2475.127629116296
 30
0.0
 11
467.931701924283
 21
-2475.127629116296
 31
0.0
  0
LINE
  5
27CF2
330
18
100
AcDbEntity
  8
実線
100
AcDbLine
 10
467.931701924283
 20
-2437.127629116297
 30
0.0
 11
481.931701924283
 21
-2437.127629116297
 31
0.0
  0
LINE
  5
27CF3
330
18
100
AcDbEntity
  8
実線
100
AcDbLine
 10
467.931701924283
 20
-2475.127629116296
 30
0.0
 11
467.931701924283
 21
-2437.127629116297
 31
0.0
  0
LINE
  5
27CF4
330
18
100
AcDbEntity
  8
実線
100
AcDbLine
 10
481.931701924283
 20
-2437.127629116297
 30
0.0
 11
481.931701924283
 21
-2475.127629116296
 31
0.0
  0
LINE
  5
27CF5
330
18
100
AcDbEntity
  8
実線
100
AcDbLine
 10
482.131701924283
 20
-2435.127629116296
 30
0.0
 11
482.131701924283
 21
-2461.127629116296
 31
0.0
  0
LINE
  5
27CF8
330
18
100
AcDbEntity
  8
実線
100
AcDbLine
 10
467.931701924283
 20
-2301.691602833294
 30
0.0
 11
481.931701924283
 21
-2301.691602833294
 31
0.0
  0
LINE
  5
27CF9
330
18
100
AcDbEntity
  8
実線
100
AcDbLine
 10
482.1317019242832
 20
-2287.691602833294
 30
0.0
 11
482.1317019242832
 21
-2305.691602833293
 31
0.0
  0
LINE
  5
27CFA
330
18
100
AcDbEntity
  8
中心線
 48
0.5
100
AcDbLine
 10
513.931701924283
 20
-2290.691602833294
 30
0.0
 11
513.931701924283
 21
-2305.691602833293
 31
0.0
  0
CIRCLE
  5
27CFB
330
18
100
AcDbEntity
  8
実線
100
AcDbCircle
 10
513.931701924283
 20
-2298.191602833294
 30
0.0
 40
2.066999999999999
  0
CIRCLE
  5
27CFC
330
18
100
AcDbEntity
  8
細線
100
AcDbCircle
 10
513.931701924283
 20
-2298.191602833294
 30
0.0
 40
2.5
  0
LINE
  5
27CFD
330
18
100
AcDbEntity
  8
実線
100
AcDbLine
 10
481.931701924283
 20
-2229.691602833293
 30
0.0
 11
467.931701924283
 21
-2229.691602833293
 31
0.0
  0
LINE
  5
27D02
330
18
100
AcDbEntity
  8
中心線
 48
0.5
100
AcDbLine
 10
1047.265507379574
 20
-2265.691602833294
 30
0.0
 11
989.2655073795745
 21
-2265.691602833294
 31
0.0
  0
LWPOLYLINE
  5
27D03
330
18
100
AcDbEntity
  8
実線
100
AcDbPolyline
 90
        4
 70
     1
 43
0.0
 10
1011.265507379574
 20
-2290.691602833294
 10
1011.265507379574
 20
-2240.691602833294
 10
1037.265507379574
 20
-2240.691602833294
 10
1037.265507379574
 20
-2290.691602833294
  0
LINE
  5
27D04
330
18
100
AcDbEntity
  8
実線
100
AcDbLine
 10
1011.265507379574
 20
-2299.691602833294
 30
0.0
 11
1023.265507379574
 21
-2299.691602833294
 31
0.0
  0
LINE
  5
27D05
330
18
100
AcDbEntity
  8
実線
100
AcDbLine
 10
997.2655073795746
 20
-2305.691602833295
 30
0.0
 11
1023.265507379574
 21
-2305.691602833295
 31
0.0
  0
LINE
  5
27D06
330
18
100
AcDbEntity
  8
実線
100
AcDbLine
 10
997.2655073795746
 20
-2225.691602833293
 30
0.0
 11
1023.265507379574
 21
-2225.691602833293
 31
0.0
  0
LINE
  5
27D07
330
18
100
AcDbEntity
  8
実線
100
AcDbLine
 10
1011.265507379574
 20
-2231.691602833294
 30
0.0
 11
1023.265507379574
 21
-2231.691602833294
 31
0.0
  0
LINE
  5
27D08
102
{ACAD_REACTORS
330
27D0A
102
}
330
18
100
AcDbEntity
  8
中心線
 48
0.5
100
AcDbLine
 10
1034.765507379574
 20
-2299.691602833294
 30
0.0
 11
1020.765507379574
 21
-2299.691602833294
 31
0.0
  0
CIRCLE
  5
27D09
102
{ACAD_REACTORS
330
27D0A
102
}
330
18
100
AcDbEntity
  8
実線
 48
0.2
100
AcDbCircle
 10
1027.765507379574
 20
-2299.691602833294
 30
0.0
 40
4.0
  0
HATCH
  5
27D0A
330
18
100
AcDbEntity
  8
細線
100
AcDbHatch
 10
0.0
 20
0.0
 30
0.0
210
0.0
220
0.0
230
1.0
  2
ANSI31
 70
     0
 71
     1
 91
        2
 92
        7
 72
     1
 73
     1
 93
        3
 10
1031.765507379574
 20
-2299.691602833294
 42
0.4142135623731467
 10
1027.765507379574
 20
-2295.691602833294
 42
0.0
 10
1027.765507379574
 20
-2299.691602833294
 42
0.0
 97
        3
330
27D09
330
27E04
330
27D08
 92
        7
 72
     1
 73
     1
 93
        3
 10
1027.765507379574
 20
-2303.691602833294
 42
0.0
 10
1027.765507379574
 20
-2299.691602833294
 42
0.0
 10
1023.765507379574
 20
-2299.691602833294
 42
0.4142135623731065
 97
        3
330
27E04
330
27D08
330
27D09
 75
     0
 76
     1
 52
0.0
 41
5.0
 77
     0
 78
     1
 53
45.0
 43
144.8433809208788
 44
-5.24174566782176
 45
-0.4419417382415922
 46
0.4419417382415923
 79
     0
 47
0.0648433176565354
 98
        2
 10
1030.647458325822
 20
-2298.220571519687
 10
1026.430718521434
 20
-2301.397894195675
  0
LWPOLYLINE
  5
27D0D
330
18
100
AcDbEntity
  8
実線
100
AcDbPolyline
 90
        4
 70
     1
 43
0.0
 10
815.9317019242831
 20
-2229.691602833293
 10
801.931701924283
 20
-2229.691602833293
 10
801.931701924283
 20
-2301.691602833294
 10
815.9317019242831
 20
-2301.691602833294
  0
LINE
  5
27D0E
330
18
100
AcDbEntity
  8
実線
100
AcDbLine
 10
801.9317019242823
 20
-2437.127629116297
 30
0.0
 11
815.9317019242838
 21
-2437.127629116297
 31
0.0
  0
LINE
  5
27D0F
330
18
100
AcDbEntity
  8
実線
100
AcDbLine
 10
815.9317019242822
 20
-2475.127629116297
 30
0.0
 11
801.9317019242823
 21
-2475.127629116297
 31
0.0
  0
LINE
  5
27D10
330
18
100
AcDbEntity
  8
実線
100
AcDbLine
 10
801.9317019242823
 20
-2449.127629116297
 30
0.0
 11
815.9317019242822
 21
-2449.127629116297
 31
0.0
  0
LINE
  5
27D13
330
18
100
AcDbEntity
  8
中心線
 48
0.5
100
AcDbLine
 10
820.9317019242829
 20
-2264.691602833293
 30
0.0
 11
796.931701924283
 21
-2264.691602833293
 31
0.0
  0
LINE
  5
27D14
330
18
100
AcDbEntity
  8
中心線
 48
0.5
100
AcDbLine
 10
820.9317019242829
 20
-2288.691602833293
 30
0.0
 11
796.931701924283
 21
-2288.691602833293
 31
0.0
  0
LINE
  5
27D3D
330
18
100
AcDbEntity
  8
実線
100
AcDbLine
 10
801.7317019242829
 20
-2243.691602833294
 30
0.0
 11
801.7317019242831
 21
-2225.691602833293
 31
0.0
  0
LINE
  5
27D53
330
18
100
AcDbEntity
  8
実線
100
AcDbLine
 10
801.7317019242822
 20
-2435.127629116297
 30
0.0
 11
801.7317019242822
 21
-2461.127629116298
 31
0.0
  0
LINE
  5
27D54
330
18
100
AcDbEntity
  8
実線
100
AcDbLine
 10
801.9317019242823
 20
-2475.127629116297
 30
0.0
 11
801.9317019242823
 21
-2437.127629116297
 31
0.0
  0
LINE
  5
27D5A
330
18
100
AcDbEntity
  8
実線
100
AcDbLine
 10
801.7317019242831
 20
-2287.691602833294
 30
0.0
 11
801.7317019242831
 21
-2305.691602833293
 31
0.0
  0
LINE
  5
27D6D
330
18
100
AcDbEntity
  8
実線
100
AcDbLine
 10
815.9317019242838
 20
-2437.127629116297
 30
0.0
 11
815.9317019242827
 21
-2462.127629116298
 31
0.0
  0
CIRCLE
  5
27D9B
330
18
100
AcDbEntity
  8
実線
100
AcDbCircle
 10
1004.765507379575
 20
-2235.691602833294
 30
0.0
 40
4.75
  0
CIRCLE
  5
27D9C
330
18
100
AcDbEntity
  8
細線
  6
Continuous
100
AcDbCircle
 10
1004.765507379575
 20
-2235.691602833294
 30
0.0
 40
4.25
  0
CIRCLE
  5
27D9D
330
18
100
AcDbEntity
  8
細線
  6
Continuous
100
AcDbCircle
 10
1004.765507379575
 20
-2235.691602833294
 30
0.0
 40
3.749999999999991
  0
LWPOLYLINE
  5
27D9E
330
18
100
AcDbEntity
  8
実線
100
AcDbPolyline
 90
        4
 70
     1
 43
0.0
 10
999.2655073795745
 20
-2229.691602833294
 10
1011.265507379574
 20
-2229.691602833294
 10
1011.265507379574
 20
-2301.691602833294
 10
999.2655073795745
 20
-2301.691602833294
  0
LINE
  5
27D9F
330
18
100
AcDbEntity
  8
実線
100
AcDbLine
 10
997.2655073795746
 20
-2225.691602833293
 30
0.0
 11
997.2655073795746
 21
-2243.691602833294
 31
0.0
  0
LINE
  5
27DE3
330
18
100
AcDbEntity
  8
中心線
 48
0.5
100
AcDbLine
 10
992.2655073795747
 20
-2233.191602833294
 30
0.0
 11
1007.265507379574
 21
-2233.191602833293
 31
0.0
  0
LINE
  5
27DE4
330
18
100
AcDbEntity
  8
中心線
 48
0.5
100
AcDbLine
 10
992.2655073795747
 20
-2298.191602833294
 30
0.0
 11
1007.265507379574
 21
-2298.191602833294
 31
0.0
  0
LINE
  5
27DE7
330
18
100
AcDbEntity
  8
中心線
 48
0.5
100
AcDbLine
 10
1005.265507379574
 20
-2292.457602233294
 30
0.0
 11
1005.265507379574
 21
-2260.925603433293
 31
0.0
  0
LINE
  5
27DE8
330
18
100
AcDbEntity
  8
実線
100
AcDbLine
 10
997.6655073795745
 20
-2243.691602833294
 30
0.0
 11
997.6655073795745
 21
-2287.691602833294
 31
0.0
  0
CIRCLE
  5
27DE9
330
18
100
AcDbEntity
  8
細線
 48
2.0
100
AcDbCircle
 10
1005.265507379575
 20
-2288.691602833294
 30
0.0
 40
2.0
  0
CIRCLE
  5
27DEA
330
18
100
AcDbEntity
  8
実線
100
AcDbCircle
 10
1005.265507379575
 20
-2288.691602833294
 30
0.0
 40
1.75
  0
LINE
  5
27DEB
330
18
100
AcDbEntity
  8
細線
  6
Continuous
100
AcDbLine
 10
1004.765507379575
 20
-2293.382201333293
 30
0.0
 11
1006.765507379575
 21
-2294.536902233294
 31
0.0
  0
LINE
  5
27DEC
330
18
100
AcDbEntity
  8
細線
  6
Continuous
100
AcDbLine
 10
1006.765507379575
 20
-2296.846303433294
 30
0.0
 11
1004.765507379575
 21
-2298.001004333295
 31
0.0
  0
CIRCLE
  5
27DED
330
18
100
AcDbEntity
  8
実線
100
AcDbCircle
 10
1004.765507379575
 20
-2295.691602833294
 30
0.0
 40
4.75
  0
LINE
  5
27DEE
330
18
100
AcDbEntity
  8
中心線
 48
0.2
100
AcDbLine
 10
1001.499507379575
 20
-2288.691602833294
 30
0.0
 11
1009.031506779575
 21
-2288.691602833294
 31
0.0
  0
CIRCLE
  5
27DEF
330
18
100
AcDbEntity
  8
細線
  6
Continuous
100
AcDbCircle
 10
1004.765507379575
 20
-2295.691602833294
 30
0.0
 40
4.25
  0
CIRCLE
  5
27DF0
330
18
100
AcDbEntity
  8
細線
  6
Continuous
100
AcDbCircle
 10
1004.765507379575
 20
-2295.691602833294
 30
0.0
 40
3.749999999999991
  0
LINE
  5
27DF1
330
18
100
AcDbEntity
  8
細線
  6
Continuous
100
AcDbLine
 10
1004.765507379575
 20
-2293.382201833294
 30
0.0
 11
1002.765506379567
 21
-2294.536902633293
 31
0.0
  0
LINE
  5
27DF2
330
18
100
AcDbEntity
  8
細線
  6
Continuous
100
AcDbLine
 10
1004.765507379575
 20
-2298.001003833295
 30
0.0
 11
1002.765506379567
 21
-2296.846303033293
 31
0.0
  0
LINE
  5
27DF3
330
18
100
AcDbEntity
  8
細線
  6
Continuous
100
AcDbLine
 10
1002.765507379575
 20
-2294.536902333293
 30
0.0
 11
1002.765507379575
 21
-2296.846303333293
 31
0.0
  0
LINE
  5
27DF4
330
18
100
AcDbEntity
  8
実線
100
AcDbLine
 10
997.2655073795746
 20
-2287.691602833294
 30
0.0
 11
999.2655073795745
 21
-2287.691602833294
 31
0.0
  0
LINE
  5
27DF5
330
18
100
AcDbEntity
  8
実線
100
AcDbLine
 10
997.2655073795746
 20
-2305.691602833295
 30
0.0
 11
997.2655073795746
 21
-2287.691602833294
 31
0.0
  0
LINE
  5
27DF6
330
18
100
AcDbEntity
  8
細線
  6
Continuous
100
AcDbLine
 10
1006.765507379575
 20
-2294.536902333293
 30
0.0
 11
1006.765507379575
 21
-2296.846303333293
 31
0.0
  0
LINE
  5
27DF7
330
18
100
AcDbEntity
  8
細線
  6
Continuous
100
AcDbLine
 10
1006.765507379575
 20
-2236.846303433294
 30
0.0
 11
1004.765507379575
 21
-2238.001004333295
 31
0.0
  0
LINE
  5
27DF8
330
18
100
AcDbEntity
  8
細線
  6
Continuous
100
AcDbLine
 10
1004.765507379575
 20
-2233.382201333293
 30
0.0
 11
1006.765507379575
 21
-2234.536902233294
 31
0.0
  0
CIRCLE
  5
27DF9
330
18
100
AcDbEntity
  8
実線
100
AcDbCircle
 10
1005.265507379575
 20
-2264.691602833294
 30
0.0
 40
1.75
  0
CIRCLE
  5
27DFA
330
18
100
AcDbEntity
  8
細線
 48
2.0
100
AcDbCircle
 10
1005.265507379575
 20
-2264.691602833294
 30
0.0
 40
2.0
  0
LINE
  5
27DFB
330
18
100
AcDbEntity
  8
中心線
 48
0.2
100
AcDbLine
 10
1001.499507379575
 20
-2264.691602833294
 30
0.0
 11
1009.031506779575
 21
-2264.691602833294
 31
0.0
  0
LINE
  5
27DFC
330
18
100
AcDbEntity
  8
細線
  6
Continuous
100
AcDbLine
 10
1004.765507379575
 20
-2233.382201833293
 30
0.0
 11
1002.765506379567
 21
-2234.536902633293
 31
0.0
  0
LINE
  5
27DFD
330
18
100
AcDbEntity
  8
細線
  6
Continuous
100
AcDbLine
 10
1004.765507379575
 20
-2238.001003833295
 30
0.0
 11
1002.765506379567
 21
-2236.846303033293
 31
0.0
  0
LINE
  5
27DFE
330
18
100
AcDbEntity
  8
細線
  6
Continuous
100
AcDbLine
 10
1002.765507379575
 20
-2234.536902333293
 30
0.0
 11
1002.765507379575
 21
-2236.846303333293
 31
0.0
  0
LINE
  5
27DFF
330
18
100
AcDbEntity
  8
実線
100
AcDbLine
 10
997.2655073795746
 20
-2243.691602833294
 30
0.0
 11
999.2655073795745
 21
-2243.691602833294
 31
0.0
  0
LINE
  5
27E00
330
18
100
AcDbEntity
  8
細線
  6
Continuous
100
AcDbLine
 10
1006.765507379575
 20
-2234.536902333293
 30
0.0
 11
1006.765507379575
 21
-2236.846303333293
 31
0.0
  0
LINE
  5
27E02
330
18
100
AcDbEntity
  8
実線
100
AcDbLine
 10
1037.265507379574
 20
-2240.691602833294
 30
0.0
 11
1037.265507379574
 21
-2225.691602833293
 31
0.0
  0
LINE
  5
27E03
330
18
100
AcDbEntity
  8
実線
100
AcDbLine
 10
1023.265507379574
 20
-2305.691602833295
 30
0.0
 11
1037.265507379574
 21
-2305.691602833295
 31
0.0
  0
LINE
  5
27E04
102
{ACAD_REACTORS
330
27D0A
102
}
330
18
100
AcDbEntity
  8
中心線
 48
0.5
100
AcDbLine
 10
1027.765507379574
 20
-2292.691602833294
 30
0.0
 11
1027.765507379574
 21
-2306.691602833295
 31
0.0
  0
LINE
  5
27E05
330
18
100
AcDbEntity
  8
実線
100
AcDbLine
 10
1023.265507379574
 20
-2305.691602833295
 30
0.0
 11
1023.265507379575
 21
-2299.691602833294
 31
0.0
  0
LINE
  5
27E06
330
18
100
AcDbEntity
  8
実線
100
AcDbLine
 10
1037.265507379574
 20
-2290.691602833294
 30
0.0
 11
1037.265507379574
 21
-2305.691602833295
 31
0.0
  0
LINE
  5
27E07
330
18
100
AcDbEntity
  8
実線
100
AcDbLine
 10
1023.265507379574
 20
-2225.691602833293
 30
0.0
 11
1037.265507379574
 21
-2225.691602833293
 31
0.0
  0
LINE
  5
27E08
330
18
100
AcDbEntity
  8
実線
100
AcDbLine
 10
1023.265507379574
 20
-2225.691602833293
 30
0.0
 11
1023.265507379575
 21
-2231.691602833294
 31
0.0
  0
TEXT
  5
28C33
330
18
100
AcDbEntity
  8
0
100
AcDbText
 10
358.4419328862515
 20
-2256.488446291349
 30
0.0
 40
2.0
  1
SER No.******
 50
270.0
 41
1.199999999999999
  7
MS\U+FF7A\U+FF9E\U+FF7C\U+FF6F\U+FF78N
 11
358.0765891362515
 21
-2256.488446291349
 31
0.0
100
AcDbText
 73
     1
  0
TEXT
  5
28C34
330
18
100
AcDbEntity
  8
0
100
AcDbText
 10
361.2659246896321
 20
-2256.51557286416
 30
0.0
 40
2.6
  1
MODEL:CLM250M
 50
270.0
 41
1.199999999999999
  7
MS\U+FF7A\U+FF9E\U+FF7C\U+FF6F\U+FF78N
 11
360.7909778146321
 21
-2256.51557286416
 31
0.0
100
AcDbText
 73
     1
  0
HATCH
  5
28C35
330
18
100
AcDbEntity
  8
0
100
AcDbHatch
 10
0.0
 20
0.0
 30
0.0
210
0.0
220
0.0
230
1.0
  2
SOLID
 70
     1
 71
     1
 91
        2
 92
       17
 93
        1
 72
     2
 10
355.1384659885088
 20
-2259.640649334373
 40
0.6007500000000002
 50
0.0
 51
360.0
 73
     1
 97
        1
330
28C3C
 92
        1
 93
        8
 72
     2
 10
355.1403287792063
 20
-2259.641580729722
 40
1.00311322310025
 50
23.58977727260604
 51
179.9468005913668
 73
     1
 72
     2
 10
354.9382159885089
 20
-2259.640649334373
 40
0.8009999999999999
 50
180.0
 51
360.0
 73
     1
 72
     1
 10
355.7392159885093
 20
-2259.640649334373
 11
355.7392159885093
 21
-2261.883449334373
 72
     1
 10
355.7392159885093
 20
-2261.883449334373
 11
353.7367159885087
 21
-2261.643149334374
 72
     1
 10
353.7367159885087
 20
-2261.643149334374
 11
353.7367159885087
 21
-2257.237649334373
 72
     1
 10
353.7367159885087
 20
-2257.237649334373
 11
356.9407159885085
 21
-2257.638149334372
 72
     1
 10
356.9407159885085
 20
-2257.638149334372
 11
356.9407159885085
 21
-2262.043649334373
 72
     1
 10
356.9407159885085
 20
-2262.043649334373
 11
356.0596159885089
 21
-2259.240149334373
 97
        8
330
28C42
330
28C3D
330
28C41
330
28C3F
330
28C37
330
28C47
330
28C36
330
28C40
 75
     0
 76
     1
 98
        1
 10
357.6179408042689
 20
-2058.162939240137
  0
LINE
  5
28C36
102
{ACAD_REACTORS
330
28C35
102
}
330
18
100
AcDbEntity
  8
0
100
AcDbLine
 10
356.9407159885085
 20
-2257.638149334372
 30
0.0
 11
356.9407159885085
 21
-2262.043649334373
 31
0.0
  0
LINE
  5
28C37
102
{ACAD_REACTORS
330
28C35
102
}
330
18
100
AcDbEntity
  8
0
100
AcDbLine
 10
353.7367159885087
 20
-2257.237649334373
 30
0.0
 11
353.7367159885087
 21
-2261.643149334374
 31
0.0
  0
LINE
  5
28C38
330
18
100
AcDbEntity
  8
0
100
AcDbLine
 10
364.8831925705071
 20
-2289.191602833295
 30
0.0
 11
364.8831925705071
 21
-2255.191602833294
 31
0.0
  0
LINE
  5
28C39
330
18
100
AcDbEntity
  8
0
100
AcDbLine
 10
357.883192570507
 20
-2254.691602833295
 30
0.0
 11
357.883192570507
 21
-2289.691602833295
 31
0.0
  0
LINE
  5
28C3A
330
18
100
AcDbEntity
  8
0
100
AcDbLine
 10
352.8831925705071
 20
-2255.191602833294
 30
0.0
 11
352.8831925705071
 21
-2289.191602833295
 31
0.0
  0
TEXT
  5
28C3B
330
18
100
AcDbEntity
  8
0
100
AcDbText
 10
353.7844501270928
 20
-2262.85974855876
 30
0.0
 40
1.44
  1
DENSO
 50
270.0
 41
1.3
  7
TIMESNR
100
AcDbText
  0
CIRCLE
  5
28C3C
102
{ACAD_REACTORS
330
28C35
102
}
330
18
100
AcDbEntity
  8
0
100
AcDbCircle
 10
355.1384659885088
 20
-2259.640649334373
 30
0.0
 40
0.6007500000000002
  0
ARC
  5
28C3D
102
{ACAD_REACTORS
330
28C35
102
}
330
18
100
AcDbEntity
  8
0
100
AcDbCircle
 10
354.9382159885089
 20
-2259.640649334373
 30
0.0
 40
0.8009999999999999
100
AcDbArc
 50
180.0
 51
0.0
  0
TEXT
  5
28C3E
330
18
100
AcDbEntity
  8
0
100
AcDbText
 10
355.4812125360785
 20
-2262.9811616689
 30
0.0
 40
1.44
  1
NIKKI
 50
270.0
 41
1.25
  7
TIMESNR
100
AcDbText
  0
LINE
  5
28C3F
102
{ACAD_REACTORS
330
28C35
102
}
330
18
100
AcDbEntity
  8
0
100
AcDbLine
 10
353.7367159885087
 20
-2261.643149334374
 30
0.0
 11
355.7392159885093
 21
-2261.883449334373
 31
0.0
  0
LINE
  5
28C40
102
{ACAD_REACTORS
330
28C35
102
}
330
18
100
AcDbEntity
  8
0
100
AcDbLine
 10
356.9407159885085
 20
-2262.043649334373
 30
0.0
 11
356.0596159885089
 21
-2259.240149334373
 31
0.0
  0
LINE
  5
28C41
102
{ACAD_REACTORS
330
28C35
102
}
330
18
100
AcDbEntity
  8
0
100
AcDbLine
 10
355.7392159885093
 20
-2259.640649334373
 30
0.0
 11
355.7392159885093
 21
-2261.883449334373
 31
0.0
  0
ARC
  5
28C42
102
{ACAD_REACTORS
330
28C35
102
}
330
18
100
AcDbEntity
  8
0
100
AcDbCircle
 10
355.1403287792063
 20
-2259.641580729722
 30
0.0
 40
1.00311322310025
100
AcDbArc
 50
23.58977727260604
 51
179.9468005913668
  0
LINE
  5
28C43
330
18
100
AcDbEntity
  8
0
100
AcDbLine
 10
353.383192570507
 20
-2289.691602833295
 30
0.0
 11
364.383192570507
 21
-2289.691602833295
 31
0.0
  0
ARC
  5
28C44
330
18
100
AcDbEntity
  8
0
100
AcDbCircle
 10
364.383192570507
 20
-2289.191602833295
 30
0.0
 40
0.5
100
AcDbArc
 50
270.0
 51
0.0
  0
ARC
  5
28C45
330
18
100
AcDbEntity
  8
0
100
AcDbCircle
 10
353.383192570507
 20
-2289.191602833295
 30
0.0
 40
0.5
100
AcDbArc
 50
180.0
 51
270.0
  0
LINE
  5
28C46
330
18
100
AcDbEntity
  8
0
100
AcDbLine
 10
364.383192570507
 20
-2254.691602833295
 30
0.0
 11
353.383192570507
 21
-2254.691602833295
 31
0.0
  0
LINE
  5
28C47
102
{ACAD_REACTORS
330
28C35
102
}
330
18
100
AcDbEntity
  8
0
100
AcDbLine
 10
353.7367159885087
 20
-2257.237649334373
 30
0.0
 11
356.9407159885085
 21
-2257.638149334372
 31
0.0
  0
ARC
  5
28C48
330
18
100
AcDbEntity
  8
0
100
AcDbCircle
 10
364.383192570507
 20
-2255.191602833294
 30
0.0
 40
0.5
100
AcDbArc
 50
0.0
 51
90.0
  0
ARC
  5
28C49
330
18
100
AcDbEntity
  8
0
100
AcDbCircle
 10
353.383192570507
 20
-2255.191602833294
 30
0.0
 40
0.5
100
AcDbArc
 50
90.0
 51
180.0
  0
TEXT
  5
28C4A
330
18
100
AcDbEntity
  8
0
100
AcDbText
 10
355.3876839843179
 20
-2274.313263227847
 30
137.5
 40
1.5
  1
SN-16140
 50
270.0
  7
MS\U+FF7A\U+FF9E\U+FF7C\U+FF6F\U+FF78N
 11
355.1136761718179
 21
-2274.313263227847
 31
137.5
100
AcDbText
 73
     1
  0
TEXT
  5
28C4B
330
18
100
AcDbEntity
  8
0
100
AcDbText
 10
353.5178979339317
 20
-2274.313263227847
 30
137.5
 40
1.5
  1
MADE IN JAPAN
 50
270.0
  7
MS\U+FF7A\U+FF9E\U+FF7C\U+FF6F\U+FF78N
 11
353.2438901214317
 21
-2274.313263227847
 31
137.5
100
AcDbText
 73
     1
  0
HATCH
  5
28C4C
330
18
100
AcDbEntity
  8
細線
100
AcDbHatch
 10
0.0
 20
0.0
 30
0.4990022692370815
210
0.0
220
0.0
230
1.0
  2
ANSI31
 70
     0
 71
     0
 91
        2
 92
        7
 72
     1
 73
     1
 93
        8
 10
354.0970425743761
 20
-2252.409984346082
 42
0.8256926312273156
 10
352.9078848724283
 20
-2246.239142048029
 42
0.0
 10
352.9078848724283
 20
-2245.705808714696
 42
0.0
 10
351.8412182057617
 20
-2246.772475381363
 42
0.0
 10
352.9078848724283
 20
-2247.839142048029
 42
0.0
 10
352.9078848724283
 20
-2247.305808714695
 42
-0.8235057969380607
 10
353.7109583893133
 20
-2251.415548898247
 42
0.0
 10
354.4012182057621
 20
-2252.105808714696
 42
0.0
 97
        0
 92
        7
 72
     1
 73
     1
 93
        8
 10
351.7187271704814
 20
-2246.468299749977
 42
0.8256926312273465
 10
352.9078848724283
 20
-2252.63914204803
 42
0.0
 10
352.9078848724283
 20
-2253.172475381362
 42
0.0
 10
353.9745515390949
 20
-2252.105808714696
 42
0.0
 10
352.9078848724283
 20
-2251.039142048029
 42
0.0
 10
352.9078848724283
 20
-2251.572475381363
 42
-0.8235057969380607
 10
352.1048113555433
 20
-2247.462735197811
 42
0.0
 10
351.4145515390954
 20
-2246.772475381363
 42
0.0
 97
        0
 75
     0
 76
     1
 52
270.0
 41
0.0106666666666667
 77
     0
 78
     1
 53
314.9999999999999
 43
242.3887618113775
 44
-1867.300582835764
 45
0.0239473496561844
 46
0.0239473496561844
 79
     0
 47
0.0
 98
        2
 10
355.1866580230907
 20
-2250.772036011633
 10
352.225208436408
 20
-2252.081907944203
1001
ACAD
1010
0.0
1020
0.0
1030
0.0
  0
LINE
  5
28C4D
102
{ACAD_REACTORS
330
28C4C
102
}
330
18
100
AcDbEntity
  8
細線
100
AcDbLine
 10
352.9078848724283
 20
-2251.039142048029
 30
0.4990022692370815
 11
352.9078848724283
 21
-2251.572475381363
 31
0.4990022692370815
  0
LINE
  5
28C4E
102
{ACAD_REACTORS
330
28C4C
102
}
330
18
100
AcDbEntity
  8
細線
100
AcDbLine
 10
353.9745515390949
 20
-2252.105808714696
 30
0.4990022692370815
 11
352.9078848724283
 21
-2251.039142048029
 31
0.4990022692370815
  0
LINE
  5
28C4F
102
{ACAD_REACTORS
330
28C4C
102
}
330
18
100
AcDbEntity
  8
細線
100
AcDbLine
 10
353.9745515390949
 20
-2252.105808714696
 30
0.4990022692370815
 11
352.9078848724283
 21
-2253.172475381362
 31
0.4990022692370815
  0
LINE
  5
28C50
102
{ACAD_REACTORS
330
28C4C
102
}
330
18
100
AcDbEntity
  8
細線
100
AcDbLine
 10
352.9078848724283
 20
-2247.839142048029
 30
0.4990022692370815
 11
352.9078848724283
 21
-2247.305808714695
 31
0.4990022692370815
  0
LINE
  5
28C51
102
{ACAD_REACTORS
330
28C4C
102
}
330
18
100
AcDbEntity
  8
細線
100
AcDbLine
 10
351.8412182057617
 20
-2246.772475381363
 30
0.4990022692370815
 11
352.9078848724283
 21
-2247.839142048029
 31
0.4990022692370815
  0
LINE
  5
28C52
102
{ACAD_REACTORS
330
28C4C
102
}
330
18
100
AcDbEntity
  8
細線
100
AcDbLine
 10
351.8412182057617
 20
-2246.772475381363
 30
0.4990022692370815
 11
352.9078848724283
 21
-2245.705808714696
 31
0.4990022692370815
  0
MTEXT
  5
28C53
330
18
100
AcDbEntity
  8
細線
100
AcDbMText
 10
354.361830896153
 20
-2247.696734302974
 30
0.4990022692370815
 40
2.933333333333333
 41
4.005499725684842
 71
     1
 72
     5
  1
{\fImpact|b0|i0|c128|p49;15}
  7
MS\U+FF7A\U+FF9E\U+FF7C\U+FF6F\U+FF78
 11
-0.0000000000000002
 21
-1.0
 31
0.0
 73
     1
 44
1.0
1001
ACAD
1000
MTEXTBEGIN
1070
    73
1070
     1
1070
    44
1040
1.0
1070
    74
1070
     0
1000
MTEXTEND
1000
ACAD_MTEXT_DEFINED_HEIGHT_BEGIN
1070
    46
1040
224.1841841841842
1000
ACAD_MTEXT_DEFINED_HEIGHT_END
  0
ARC
  5
28C54
102
{ACAD_REACTORS
330
28C4C
102
}
330
18
100
AcDbEntity
  8
細線
100
AcDbCircle
 10
352.9078848724283
 20
-2249.439142048029
 30
0.4990022692370815
 40
2.133333333333333
100
AcDbArc
 50
112.1133855977474
 51
270.0
  0
ARC
  5
28C55
102
{ACAD_REACTORS
330
28C4C
102
}
330
18
100
AcDbEntity
  8
細線
100
AcDbCircle
 10
352.9078848724283
 20
-2249.439142048029
 30
0.4990022692370815
 40
3.2
100
AcDbArc
 50
111.8150544339211
 51
270.0
  0
LINE
  5
28C56
102
{ACAD_REACTORS
330
28C4C
102
}
330
18
100
AcDbEntity
  8
細線
100
AcDbLine
 10
351.4145515390954
 20
-2246.772475381363
 30
0.4990022692370815
 11
352.1048113555433
 21
-2247.462735197811
 31
0.4990022692370815
  0
LINE
  5
28C57
102
{ACAD_REACTORS
330
28C4C
102
}
330
18
100
AcDbEntity
  8
細線
100
AcDbLine
 10
351.4145515390954
 20
-2246.772475381363
 30
0.4990022692370815
 11
351.7187271704814
 21
-2246.468299749977
 31
0.4990022692370815
  0
LINE
  5
28C58
102
{ACAD_REACTORS
330
28C4C
102
}
330
18
100
AcDbEntity
  8
細線
100
AcDbLine
 10
354.4012182057621
 20
-2252.105808714696
 30
0.4990022692370815
 11
353.7109583893133
 21
-2251.415548898247
 31
0.4990022692370815
  0
LINE
  5
28C59
102
{ACAD_REACTORS
330
28C4C
102
}
330
18
100
AcDbEntity
  8
細線
100
AcDbLine
 10
354.4012182057621
 20
-2252.105808714696
 30
0.4990022692370815
 11
354.0970425743761
 21
-2252.409984346082
 31
0.4990022692370815
  0
ARC
  5
28C5A
102
{ACAD_REACTORS
330
28C4C
102
}
330
18
100
AcDbEntity
  8
細線
100
AcDbCircle
 10
352.9078848724283
 20
-2249.439142048029
 30
0.4990022692370815
 40
2.133333333333333
100
AcDbArc
 50
292.1133855977474
 51
90.0
  0
ARC
  5
28C5B
102
{ACAD_REACTORS
330
28C4C
102
}
330
18
100
AcDbEntity
  8
細線
100
AcDbCircle
 10
352.9078848724283
 20
-2249.439142048029
 30
0.4990022692370815
 40
3.2
100
AcDbArc
 50
291.8150544339212
 51
90.0
  0
LINE
  5
28C5C
102
{ACAD_REACTORS
330
28C4C
102
}
330
18
100
AcDbEntity
  8
細線
100
AcDbLine
 10
352.9078848724283
 20
-2246.239142048029
 30
0.4990022692370815
 11
352.9078848724283
 21
-2245.705808714696
 31
0.4990022692370815
  0
LINE
  5
28C5D
102
{ACAD_REACTORS
330
28C4C
102
}
330
18
100
AcDbEntity
  8
細線
100
AcDbLine
 10
352.9078848724283
 20
-2252.63914204803
 30
0.4990022692370815
 11
352.9078848724283
 21
-2253.172475381362
 31
0.4990022692370815
  0
CIRCLE
  5
28C5E
330
18
100
AcDbEntity
  8
細線
100
AcDbCircle
 10
352.9078848724283
 20
-2249.439142048029
 30
0.4990022692370815
 40
4.0
  0
LINE
  5
28C5F
102
{ACAD_REACTORS
330
28C76
102
}
330
18
100
AcDbEntity
  8
細線
100
AcDbLine
 10
356.8831925705071
 20
-2242.191602833294
 30
0.0
 11
356.8831925705071
 21
-2254.191602833294
 31
0.0
  0
LINE
  5
28C60
102
{ACAD_REACTORS
330
28C76
102
}
330
18
100
AcDbEntity
  8
細線
100
AcDbLine
 10
361.3831925705071
 20
-2241.691602833295
 30
0.0
 11
361.3831925705071
 21
-2254.691602833295
 31
0.0
  0
LINE
  5
28C61
330
18
100
AcDbEntity
  8
細線
100
AcDbLine
 10
364.8831925705071
 20
-2254.191602833294
 30
0.0
 11
364.8831925705071
 21
-2242.191602833294
 31
0.0
  0
LINE
  5
28C62
102
{ACAD_REACTORS
330
28C76
102
}
330
18
100
AcDbEntity
  8
細線
100
AcDbLine
 10
364.383192570507
 20
-2241.691602833295
 30
0.0
 11
357.3831925705071
 21
-2241.691602833295
 31
0.0
  0
LINE
  5
28C63
102
{ACAD_REACTORS
330
28C76
102
}
330
18
100
AcDbEntity
  8
細線
100
AcDbLine
 10
357.3831925705071
 20
-2254.691602833295
 30
0.0
 11
364.383192570507
 21
-2254.691602833295
 31
0.0
  0
TEXT
  5
28C64
102
{ACAD_REACTORS
330
28C76
102
}
330
18
100
AcDbEntity
  8
細線
100
AcDbText
 10
359.6576527508886
 20
-2246.79153993843
 30
0.0
 40
1.08
  1
NIKKI
 50
270.0
 41
1.354166666666666
  7
TIMESNR
100
AcDbText
  0
LINE
  5
28C65
102
{ACAD_REACTORS
330
28C76
102
}
330
18
100
AcDbEntity
  8
細線
100
AcDbLine
 10
360.7522803402115
 20
-2246.029811166627
 30
0.0
 11
360.0914553402116
 21
-2243.751967416627
 31
0.0
  0
LINE
  5
28C66
102
{ACAD_REACTORS
330
28C76
102
}
330
18
100
AcDbEntity
  8
細線
100
AcDbLine
 10
358.3492803402113
 20
-2242.124936166627
 30
0.0
 11
360.7522803402115
 21
-2242.450342416628
 31
0.0
  0
TEXT
  5
28C67
102
{ACAD_REACTORS
330
28C76
102
}
330
18
100
AcDbEntity
  8
細線
100
AcDbText
 10
358.3850809441491
 20
-2246.692891786443
 30
0.0
 40
1.08
  1
DENSO
 50
270.0
 41
1.408333333333333
  7
TIMESNR
100
AcDbText
  0
LINE
  5
28C68
102
{ACAD_REACTORS
330
28C76
102
}
330
18
100
AcDbEntity
  8
細線
100
AcDbLine
 10
359.8511553402112
 20
-2244.077373666627
 30
0.0
 11
359.8511553402112
 21
-2245.899648666628
 31
0.0
  0
LINE
  5
28C69
102
{ACAD_REACTORS
330
28C76
102
}
330
18
100
AcDbEntity
  8
細線
100
AcDbLine
 10
358.3492803402113
 20
-2242.124936166627
 30
0.0
 11
358.3492803402113
 21
-2245.704404916627
 31
0.0
  0
ELLIPSE
  5
28C6A
102
{ACAD_REACTORS
330
28C76
102
}
330
18
100
AcDbEntity
  8
細線
100
AcDbEllipse
 10
359.4005928402111
 20
-2244.077373666627
 30
0.0
 11
-0.0000000000000001
 21
-0.488109375
 31
0.0
210
0.0
220
0.0
230
1.0
 40
0.9230769230769231
 41
0.0
 42
6.283185307179586
  0
ELLIPSE
  5
28C6B
102
{ACAD_REACTORS
330
28C76
102
}
330
18
100
AcDbEntity
  8
細線
100
AcDbEllipse
 10
359.4019899332342
 20
-2244.078130425349
 30
0.0
 11
-0.0000000000000001
 21
-0.8150294937689535
 31
0.0
210
0.0
220
0.0
230
1.0
 40
0.9230769230769231
 41
1.982515610014399
 42
4.711460475544681
  0
ELLIPSE
  5
28C6C
102
{ACAD_REACTORS
330
28C76
102
}
330
18
100
AcDbEntity
  8
細線
100
AcDbEllipse
 10
359.2504053402116
 20
-2244.077373666627
 30
0.0
 11
-0.0000000000000001
 21
-0.6508125000000002
 31
0.0
210
0.0
220
0.0
230
1.0
 40
0.9230769230769231
 41
4.712388980384689
 42
7.853981633974482
  0
LINE
  5
28C6D
102
{ACAD_REACTORS
330
28C76
102
}
330
18
100
AcDbEntity
  8
細線
100
AcDbLine
 10
358.3492803402113
 20
-2245.704404916627
 30
0.0
 11
359.8511553402112
 21
-2245.899648666628
 31
0.0
  0
LINE
  5
28C6E
102
{ACAD_REACTORS
330
28C76
102
}
330
18
100
AcDbEntity
  8
細線
100
AcDbLine
 10
360.7522803402115
 20
-2242.450342416628
 30
0.0
 11
360.7522803402115
 21
-2246.029811166627
 31
0.0
  0
TEXT
  5
28C6F
330
18
100
AcDbEntity
  8
細線
100
AcDbText
 10
362.1487826687779
 20
-2242.588180396943
 30
0.0
 40
2.0
  1
Certificate
 50
270.0
 41
0.8
  7
MS\U+FF7A\U+FF9E\U+FF7C\U+FF6F\U+FF78
100
AcDbText
  0
TEXT
  5
28C70
102
{ACAD_REACTORS
330
28C76
102
}
330
18
100
AcDbEntity
  8
細線
100
AcDbText
 10
357.3068343061476
 20
-2249.026422248385
 30
0.0
 40
0.8
  1
S20-0010A
 50
270.0
100
AcDbText
  0
LINE
  5
28C71
102
{ACAD_REACTORS
330
28C76
102
}
330
18
100
AcDbEntity
  8
細線
100
AcDbLine
 10
359.8925622812129
 20
-2243.460206171242
 30
0.0
 11
359.9723815524102
 21
-2243.546677048372
 31
0.0
  0
ARC
  5
28C72
102
{ACAD_REACTORS
330
28C76
102
}
330
18
100
AcDbEntity
  8
細線
100
AcDbCircle
 10
357.3831925705071
 20
-2242.191602833294
 30
0.0
 40
0.5
100
AcDbArc
 50
90.0
 51
180.0
  0
ARC
  5
28C73
102
{ACAD_REACTORS
330
28C76
102
}
330
18
100
AcDbEntity
  8
細線
100
AcDbCircle
 10
357.3831925705071
 20
-2254.191602833294
 30
0.0
 40
0.5
100
AcDbArc
 50
180.0
 51
270.0
  0
ARC
  5
28C74
330
18
100
AcDbEntity
  8
細線
100
AcDbCircle
 10
364.383192570507
 20
-2254.191602833294
 30
0.0
 40
0.4999999999999999
100
AcDbArc
 50
270.0
 51
0.0
  0
ARC
  5
28C75
330
18
100
AcDbEntity
  8
細線
100
AcDbCircle
 10
364.383192570507
 20
-2242.191602833294
 30
0.0
 40
0.5
100
AcDbArc
 50
0.0
 51
90.0
  0
HATCH
  5
28C76
330
18
100
AcDbEntity
  8
細線
100
AcDbHatch
 10
0.0
 20
0.0
 30
0.0
210
0.0
220
0.0
230
1.0
  2
ANSI31
 70
     0
 71
     1
 91
        5
 92
        1
 93
        6
 72
     1
 10
357.3831925705071
 20
-2254.691602833295
 11
364.383192570507
 21
-2254.691602833295
 72
     1
 10
361.3831925705071
 20
-2241.691602833295
 11
361.3831925705071
 21
-2254.691602833295
 72
     1
 10
364.383192570507
 20
-2241.691602833295
 11
357.3831925705071
 21
-2241.691602833295
 72
     2
 10
357.3831925705071
 20
-2242.191602833294
 40
0.5
 50
90.0
 51
180.0
 73
     1
 72
     1
 10
356.8831925705071
 20
-2242.191602833294
 11
356.8831925705071
 21
-2254.191602833294
 72
     2
 10
357.3831925705071
 20
-2254.191602833294
 40
0.5
 50
180.0
 51
270.0
 73
     1
 97
        6
330
28C63
330
28C60
330
28C62
330
28C72
330
28C5F
330
28C73
 92
        9
 93
        4
 72
     1
 10
357.0818343061476
 20
-2248.876422248385
 11
358.3318343061476
 21
-2248.876422248385
 72
     1
 10
358.3318343061476
 20
-2248.876422248385
 11
358.3318343061476
 21
-2254.293088915051
 72
     1
 10
358.3318343061476
 20
-2254.293088915051
 11
357.0818343061475
 21
-2254.293088915051
 72
     1
 10
357.0818343061476
 20
-2254.293088915051
 11
357.0818343061476
 21
-2248.876422248385
 97
        1
330
28C70
 92
       16
 93
       10
 72
     1
 10
358.3492803402113
 20
-2242.124936166627
 11
360.7522803402115
 21
-2242.450342416628
 72
     1
 10
360.7522803402115
 20
-2242.450342416628
 11
360.7522803402115
 21
-2246.029811166627
 72
     1
 10
360.7522803402115
 20
-2246.029811166627
 11
360.0914553402116
 21
-2243.751967416627
 72
     3
 10
359.4019899332342
 20
-2244.078130425349
 11
-0.0000000000000001
 21
-0.8150294937689535
 40
0.9230769230769231
 50
115.3172642090603
 51
269.9423673102363
 73
     1
 72
     1
 10
359.8925622812129
 20
-2243.460206171242
 11
359.9723815524102
 21
-2243.546677048372
 72
     3
 10
359.2504053402116
 20
-2244.077373666627
 11
-0.0000000000000001
 21
-0.6508125000000002
 40
0.9230769230769231
 50
270.0
 51
450.0
 73
     1
 72
     3
 10
359.4005928402111
 20
-2244.077373666627
 11
-0.0000000000000001
 21
-0.488109375
 40
0.9230769230769231
 50
0.0
 51
360.0
 73
     1
 72
     1
 10
359.8511553402112
 20
-2244.077373666627
 11
359.8511553402112
 21
-2245.899648666628
 72
     1
 10
358.3492803402113
 20
-2245.704404916627
 11
359.8511553402112
 21
-2245.899648666628
 72
     1
 10
358.3492803402113
 20
-2242.124936166627
 11
358.3492803402113
 21
-2245.704404916627
 97
       10
330
28C66
330
28C6E
330
28C65
330
28C6B
330
28C71
330
28C6C
330
28C6A
330
28C68
330
28C6D
330
28C69
 92
       24
 93
        4
 72
     1
 10
359.2803554535914
 20
-2246.403724623115
 11
361.0738689671051
 21
-2246.403724623115
 72
     1
 10
361.0738689671051
 20
-2246.403724623115
 11
361.0738689671051
 21
-2253.219670569061
 72
     1
 10
361.0738689671051
 20
-2253.219670569061
 11
359.2803554535914
 21
-2253.219670569061
 72
     1
 10
359.2803554535914
 20
-2253.219670569061
 11
359.2803554535914
 21
-2246.403724623115
 97
        1
330
28C64
 92
       24
 93
        4
 72
     1
 10
358.0012971603652
 20
-2246.372477372028
 11
359.8250809441491
 21
-2246.372477372028
 72
     1
 10
359.8250809441491
 20
-2246.372477372028
 11
359.8250809441491
 21
-2254.458441335992
 72
     1
 10
359.8250809441491
 20
-2254.458441335992
 11
358.0012971603652
 21
-2254.458441335992
 72
     1
 10
358.0012971603652
 20
-2254.458441335992
 11
358.0012971603652
 21
-2246.372477372029
 97
        1
330
28C67
 75
     0
 76
     1
 52
270.0
 41
5.0
 77
     0
 78
     1
 53
314.9999999999999
 43
185.5645831539522
 44
-2332.726121865318
 45
0.4419417382415923
 46
0.4419417382415922
 79
     0
 98
        2
 10
360.928471283153
 20
-2245.239779994736
 10
360.928471283153
 20
-2245.239779994736
1001
ACAD
1010
0.0
1020
0.0
1030
0.0
  0
LINE
  5
28D84
330
18
100
AcDbEntity
  8
実線
100
AcDbLine
 10
815.9317019242825
 20
-2469.127629116298
 30
0.0
 11
815.9317019242822
 21
-2475.127629116297
 31
0.0
  0
LINE
  5
29D0B
330
18
100
AcDbEntity
  8
中心線
 48
0.5
100
AcDbLine
 10
585.431701924283
 20
-2233.191602833294
 30
0.0
 11
570.431701924283
 21
-2233.191602833294
 31
0.0
  0
LINE
  5
29D0C
330
18
100
AcDbEntity
  8
中心線
 48
0.5
100
AcDbLine
 10
570.431701924283
 20
-2298.191602833294
 30
0.0
 11
585.431701924283
 21
-2298.191602833294
 31
0.0
  0
LINE
  5
29D0D
330
18
100
AcDbEntity
  8
中心線
 48
0.5
100
AcDbLine
 10
577.9317019242831
 20
-2240.691602833294
 30
0.0
 11
577.9317019242831
 21
-2225.691602833293
 31
0.0
  0
CIRCLE
  5
29D0E
330
18
100
AcDbEntity
  8
細線
100
AcDbCircle
 10
577.9317019242831
 20
-2233.191602833294
 30
0.0
 40
2.5
  0
CIRCLE
  5
29D0F
330
18
100
AcDbEntity
  8
実線
100
AcDbCircle
 10
577.9317019242831
 20
-2233.191602833294
 30
0.0
 40
2.066999999999999
  0
LINE
  5
29D10
330
18
100
AcDbEntity
  8
中心線
 48
0.5
100
AcDbLine
 10
577.9317019242831
 20
-2290.691602833294
 30
0.0
 11
577.9317019242831
 21
-2305.691602833293
 31
0.0
  0
CIRCLE
  5
29D11
330
18
100
AcDbEntity
  8
実線
100
AcDbCircle
 10
577.9317019242831
 20
-2298.191602833294
 30
0.0
 40
2.066999999999999
  0
CIRCLE
  5
29D12
330
18
100
AcDbEntity
  8
細線
100
AcDbCircle
 10
577.9317019242831
 20
-2298.191602833294
 30
0.0
 40
2.5
  0
LINE
  5
29D13
330
18
100
AcDbEntity
  8
中心線
 48
0.5
100
AcDbLine
 10
649.4317019242831
 20
-2233.191602833294
 30
0.0
 11
634.431701924283
 21
-2233.191602833294
 31
0.0
  0
LINE
  5
29D14
330
18
100
AcDbEntity
  8
中心線
 48
0.5
100
AcDbLine
 10
634.431701924283
 20
-2298.191602833294
 30
0.0
 11
649.4317019242831
 21
-2298.191602833294
 31
0.0
  0
LINE
  5
29D15
330
18
100
AcDbEntity
  8
中心線
 48
0.5
100
AcDbLine
 10
641.931701924283
 20
-2240.691602833294
 30
0.0
 11
641.931701924283
 21
-2225.691602833293
 31
0.0
  0
CIRCLE
  5
29D16
330
18
100
AcDbEntity
  8
細線
100
AcDbCircle
 10
641.931701924283
 20
-2233.191602833294
 30
0.0
 40
2.5
  0
CIRCLE
  5
29D17
330
18
100
AcDbEntity
  8
実線
100
AcDbCircle
 10
641.931701924283
 20
-2233.191602833294
 30
0.0
 40
2.066999999999999
  0
LINE
  5
29D18
330
18
100
AcDbEntity
  8
中心線
 48
0.5
100
AcDbLine
 10
641.931701924283
 20
-2290.691602833294
 30
0.0
 11
641.931701924283
 21
-2305.691602833293
 31
0.0
  0
CIRCLE
  5
29D19
330
18
100
AcDbEntity
  8
実線
100
AcDbCircle
 10
641.931701924283
 20
-2298.191602833294
 30
0.0
 40
2.066999999999999
  0
CIRCLE
  5
29D1A
330
18
100
AcDbEntity
  8
細線
100
AcDbCircle
 10
641.931701924283
 20
-2298.191602833294
 30
0.0
 40
2.5
  0
LINE
  5
29D1B
330
18
100
AcDbEntity
  8
中心線
 48
0.5
100
AcDbLine
 10
713.431701924283
 20
-2233.191602833294
 30
0.0
 11
698.431701924283
 21
-2233.191602833294
 31
0.0
  0
LINE
  5
29D1C
330
18
100
AcDbEntity
  8
中心線
 48
0.5
100
AcDbLine
 10
698.431701924283
 20
-2298.191602833294
 30
0.0
 11
713.431701924283
 21
-2298.191602833294
 31
0.0
  0
LINE
  5
29D1D
330
18
100
AcDbEntity
  8
中心線
 48
0.5
100
AcDbLine
 10
705.931701924283
 20
-2240.691602833294
 30
0.0
 11
705.931701924283
 21
-2225.691602833293
 31
0.0
  0
CIRCLE
  5
29D1E
330
18
100
AcDbEntity
  8
細線
100
AcDbCircle
 10
705.931701924283
 20
-2233.191602833294
 30
0.0
 40
2.5
  0
CIRCLE
  5
29D1F
330
18
100
AcDbEntity
  8
実線
100
AcDbCircle
 10
705.931701924283
 20
-2233.191602833294
 30
0.0
 40
2.066999999999999
  0
LINE
  5
29D20
330
18
100
AcDbEntity
  8
中心線
 48
0.5
100
AcDbLine
 10
705.931701924283
 20
-2290.691602833294
 30
0.0
 11
705.931701924283
 21
-2305.691602833293
 31
0.0
  0
CIRCLE
  5
29D21
330
18
100
AcDbEntity
  8
実線
100
AcDbCircle
 10
705.931701924283
 20
-2298.191602833294
 30
0.0
 40
2.066999999999999
  0
CIRCLE
  5
29D22
330
18
100
AcDbEntity
  8
細線
100
AcDbCircle
 10
705.931701924283
 20
-2298.191602833294
 30
0.0
 40
2.5
  0
LINE
  5
29D23
330
18
100
AcDbEntity
  8
中心線
 48
0.5
100
AcDbLine
 10
777.431701924283
 20
-2233.191602833294
 30
0.0
 11
762.431701924283
 21
-2233.191602833294
 31
0.0
  0
LINE
  5
29D24
330
18
100
AcDbEntity
  8
中心線
 48
0.5
100
AcDbLine
 10
762.431701924283
 20
-2298.191602833294
 30
0.0
 11
777.431701924283
 21
-2298.191602833294
 31
0.0
  0
LINE
  5
29D25
330
18
100
AcDbEntity
  8
中心線
 48
0.5
100
AcDbLine
 10
769.9317019242831
 20
-2240.691602833294
 30
0.0
 11
769.9317019242831
 21
-2225.691602833293
 31
0.0
  0
CIRCLE
  5
29D26
330
18
100
AcDbEntity
  8
細線
100
AcDbCircle
 10
769.9317019242831
 20
-2233.191602833294
 30
0.0
 40
2.5
  0
CIRCLE
  5
29D27
330
18
100
AcDbEntity
  8
実線
100
AcDbCircle
 10
769.9317019242831
 20
-2233.191602833294
 30
0.0
 40
2.066999999999999
  0
LINE
  5
29D28
330
18
100
AcDbEntity
  8
中心線
 48
0.5
100
AcDbLine
 10
769.9317019242831
 20
-2290.691602833294
 30
0.0
 11
769.9317019242831
 21
-2305.691602833293
 31
0.0
  0
CIRCLE
  5
29D29
330
18
100
AcDbEntity
  8
実線
100
AcDbCircle
 10
769.9317019242831
 20
-2298.191602833294
 30
0.0
 40
2.066999999999999
  0
CIRCLE
  5
29D2A
330
18
100
AcDbEntity
  8
細線
100
AcDbCircle
 10
769.9317019242831
 20
-2298.191602833294
 30
0.0
 40
2.5
  0
LINE
  5
2AA4D
330
18
100
AcDbEntity
  8
実線
100
AcDbLine
 10
801.7317019242831
 20
-2303.691602833294
 30
0.0
 11
814.9317019242834
 21
-2303.691602833294
 31
0.0
  0
LINE
  5
2AA4E
330
18
100
AcDbEntity
  8
実線
100
AcDbLine
 10
814.9317019242834
 20
-2303.691602833294
 30
0.0
 11
814.9317019242834
 21
-2301.691602833294
 31
0.0
  0
LINE
  5
2AA4F
330
18
100
AcDbEntity
  8
実線
100
AcDbLine
 10
871.2838019148515
 20
-2303.191602833294
 30
0.0
 11
814.9317019242834
 21
-2303.191602833294
 31
0.0
  0
LINE
  5
2AA50
330
18
100
AcDbEntity
  8
実線
100
AcDbLine
 10
815.9317019242831
 20
-2296.191602833294
 30
0.0
 11
872.5180907798106
 21
-2296.191602833294
 31
0.0
  0
LINE
  5
2AA51
330
18
100
AcDbEntity
  8
実線
100
AcDbLine
 10
885.931701924283
 20
-2294.741602833294
 30
0.0
 11
898.1317019242831
 21
-2294.741602833294
 31
0.0
  0
LINE
  5
2AA52
330
18
100
AcDbEntity
  8
実線
100
AcDbLine
 10
897.1317019242832
 20
-2298.241602833296
 30
0.0
 11
891.431701924283
 21
-2298.241602833296
 31
0.0
  0
LINE
  5
2AA53
330
18
100
AcDbEntity
  8
実線
100
AcDbLine
 10
898.1317019242831
 20
-2304.541602833295
 30
0.0
 11
885.931701924283
 21
-2304.541602833295
 31
0.0
  0
LINE
  5
2AA54
330
18
100
AcDbEntity
  8
実線
100
AcDbLine
 10
897.1317019242832
 20
-2301.041602833295
 30
0.0
 11
891.431701924283
 21
-2301.041602833295
 31
0.0
  0
LINE
  5
2AA55
330
18
100
AcDbEntity
  8
中心線
 48
0.5
100
AcDbLine
 10
870.4680971106666
 20
-2307.817694659442
 30
0.0
 11
873.2103666974992
 21
-2292.265511007148
 31
0.0
  0
LINE
  5
2AA56
330
18
100
AcDbEntity
  8
実線
100
AcDbLine
 10
882.9317019242829
 20
-2303.191602833294
 30
0.0
 11
873.2838019148514
 21
-2303.191602833294
 31
0.0
  0
LINE
  5
2AA57
330
18
100
AcDbEntity
  8
中心線
 48
0.5
100
AcDbLine
 10
872.4680971106666
 20
-2307.817694659442
 30
0.0
 11
875.2103666974994
 21
-2292.265511007148
 31
0.0
  0
LINE
  5
2AA58
330
18
100
AcDbEntity
  8
実線
 48
0.5
100
AcDbLine
 10
884.931701924283
 20
-2297.041602833294
 30
0.0
 11
882.9317019242829
 21
-2297.041602833294
 31
0.0
  0
LINE
  5
2AA59
330
18
100
AcDbEntity
  8
実線
 48
0.5
100
AcDbLine
 10
884.931701924283
 20
-2298.341602833295
 30
0.0
 11
882.9317019242829
 21
-2298.341602833295
 31
0.0
  0
LINE
  5
2AA5A
330
18
100
AcDbEntity
  8
実線
 48
0.5
100
AcDbLine
 10
884.931701924283
 20
-2299.641602833295
 30
0.0
 11
882.9317019242829
 21
-2299.641602833295
 31
0.0
  0
LINE
  5
2AA5B
330
18
100
AcDbEntity
  8
実線
 48
0.5
100
AcDbLine
 10
884.931701924283
 20
-2301.041602833295
 30
0.0
 11
882.9317019242829
 21
-2301.041602833295
 31
0.0
  0
LINE
  5
2AA5C
330
18
100
AcDbEntity
  8
実線
 48
0.5
100
AcDbLine
 10
882.9317019242829
 20
-2302.341602833295
 30
0.0
 11
884.931701924283
 21
-2302.341602833295
 31
0.0
  0
LINE
  5
2AA5D
330
18
100
AcDbEntity
  8
実線
100
AcDbLine
 10
882.9317019242825
 20
-2296.191602833294
 30
0.0
 11
882.9317019242829
 21
-2303.191602833294
 31
0.0
  0
LINE
  5
2AA5E
330
18
100
AcDbEntity
  8
実線
100
AcDbLine
 10
884.931701924283
 20
-2293.741602833295
 30
0.0
 11
885.4317019242829
 21
-2293.741602833295
 31
0.0
  0
LINE
  5
2AA5F
330
18
100
AcDbEntity
  8
実線
100
AcDbLine
 10
885.931701924283
 20
-2294.241602833295
 30
0.0
 11
885.931701924283
 21
-2294.741602833294
 31
0.0
  0
ARC
  5
2AA60
330
18
100
AcDbEntity
  8
実線
100
AcDbCircle
 10
885.4317019242829
 20
-2294.241602833295
 30
0.0
 40
0.5
100
AcDbArc
 50
0.0
 51
90.0
  0
LINE
  5
2AA61
330
18
100
AcDbEntity
  8
実線
100
AcDbLine
 10
891.431701924283
 20
-2298.241602833296
 30
0.0
 11
891.431701924283
 21
-2297.641602833295
 31
0.0
  0
LINE
  5
2AA62
330
18
100
AcDbEntity
  8
実線
100
AcDbLine
 10
890.6317019242832
 20
-2299.641602833295
 30
0.0
 11
890.6317019242832
 21
-2297.641602833295
 31
0.0
  0
LINE
  5
2AA63
330
18
100
AcDbEntity
  8
実線
100
AcDbLine
 10
891.431701924283
 20
-2297.641602833295
 30
0.0
 11
890.6317019242832
 21
-2297.641602833295
 31
0.0
  0
LINE
  5
2AA64
330
18
100
AcDbEntity
  8
実線
100
AcDbLine
 10
885.4317019242829
 20
-2305.541602833295
 30
0.0
 11
884.931701924283
 21
-2305.541602833295
 31
0.0
  0
LINE
  5
2AA65
330
18
100
AcDbEntity
  8
実線
100
AcDbLine
 10
885.931701924283
 20
-2304.541602833295
 30
0.0
 11
885.931701924283
 21
-2305.041602833295
 31
0.0
  0
ARC
  5
2AA66
330
18
100
AcDbEntity
  8
実線
100
AcDbCircle
 10
885.4317019242829
 20
-2305.041602833295
 30
0.0
 40
0.5
100
AcDbArc
 50
270.0
 51
0.0
  0
LINE
  5
2AA67
330
18
100
AcDbEntity
  8
実線
100
AcDbLine
 10
891.431701924283
 20
-2301.041602833295
 30
0.0
 11
891.431701924283
 21
-2301.641602833295
 31
0.0
  0
LINE
  5
2AA68
330
18
100
AcDbEntity
  8
実線
100
AcDbLine
 10
891.431701924283
 20
-2301.641602833295
 30
0.0
 11
890.6317019242832
 21
-2301.641602833295
 31
0.0
  0
LINE
  5
2AA69
330
18
100
AcDbEntity
  8
実線
100
AcDbLine
 10
884.931701924283
 20
-2293.741602833295
 30
0.0
 11
884.931701924283
 21
-2305.541602833295
 31
0.0
  0
LINE
  5
2AA6A
330
18
100
AcDbEntity
  8
実線
100
AcDbLine
 10
890.6317019242832
 20
-2299.641602833295
 30
0.0
 11
890.6317019242832
 21
-2301.641602833295
 31
0.0
  0
LINE
  5
2AA6B
330
18
100
AcDbEntity
  8
実線
100
AcDbLine
 10
898.1317019242831
 20
-2295.641602833295
 30
0.0
 11
908.6317019242832
 21
-2295.641602833295
 31
0.0
  0
LINE
  5
2AA6C
330
18
100
AcDbEntity
  8
実線
100
AcDbLine
 10
908.6317019242832
 20
-2303.641602833295
 30
0.0
 11
898.1317019242831
 21
-2303.641602833295
 31
0.0
  0
LINE
  5
2AA6D
330
18
100
AcDbEntity
  8
実線
100
AcDbLine
 10
902.6317019242831
 20
-2299.241602833296
 30
0.0
 11
901.6317019242832
 21
-2298.241602833296
 31
0.0
  0
LINE
  5
2AA6E
330
18
100
AcDbEntity
  8
実線
100
AcDbLine
 10
901.6317019242832
 20
-2301.041602833295
 30
0.0
 11
902.6317019242831
 21
-2300.041602833295
 31
0.0
  0
LINE
  5
2AA6F
330
18
100
AcDbEntity
  8
実線
100
AcDbLine
 10
902.6317019242831
 20
-2300.041602833295
 30
0.0
 11
901.6317019242832
 21
-2301.041602833295
 31
0.0
  0
LINE
  5
2AA70
330
18
100
AcDbEntity
  8
実線
100
AcDbLine
 10
900.2317019242831
 20
-2298.241602833296
 30
0.0
 11
897.1317019242832
 21
-2298.241602833296
 31
0.0
  0
LINE
  5
2AA71
330
18
100
AcDbEntity
  8
実線
100
AcDbLine
 10
898.1317019242831
 20
-2294.741602833294
 30
0.0
 11
898.1317019242831
 21
-2298.241602833296
 31
0.0
  0
LINE
  5
2AA72
330
18
100
AcDbEntity
  8
実線
100
AcDbLine
 10
898.5384897155908
 20
-2300.041602833295
 30
0.0
 11
898.5384897155908
 21
-2299.241602833296
 31
0.0
  0
LINE
  5
2AA73
330
18
100
AcDbEntity
  8
実線
100
AcDbLine
 10
898.5384897155908
 20
-2300.041602833295
 30
0.0
 11
897.1317019242832
 21
-2300.041602833295
 31
0.0
  0
LINE
  5
2AA74
330
18
100
AcDbEntity
  8
実線
100
AcDbLine
 10
897.1317019242832
 20
-2299.241602833296
 30
0.0
 11
897.1317019242832
 21
-2298.241602833296
 31
0.0
  0
LINE
  5
2AA75
330
18
100
AcDbEntity
  8
実線
100
AcDbLine
 10
897.1317019242832
 20
-2299.241602833296
 30
0.0
 11
898.5384897155908
 21
-2299.241602833296
 31
0.0
  0
LINE
  5
2AA76
330
18
100
AcDbEntity
  8
実線
100
AcDbLine
 10
897.1317019242832
 20
-2300.041602833295
 30
0.0
 11
898.5384897155908
 21
-2300.041602833295
 31
0.0
  0
LINE
  5
2AA77
330
18
100
AcDbEntity
  8
実線
100
AcDbLine
 10
900.2317019242831
 20
-2301.041602833295
 30
0.0
 11
897.1317019242832
 21
-2301.041602833295
 31
0.0
  0
LINE
  5
2AA78
330
18
100
AcDbEntity
  8
実線
100
AcDbLine
 10
898.1317019242831
 20
-2301.041602833295
 30
0.0
 11
898.1317019242831
 21
-2304.541602833295
 31
0.0
  0
LINE
  5
2AA79
330
18
100
AcDbEntity
  8
実線
100
AcDbLine
 10
897.1317019242832
 20
-2301.041602833295
 30
0.0
 11
897.1317019242832
 21
-2299.241602833296
 31
0.0
  0
LINE
  5
2AA7A
330
18
100
AcDbEntity
  8
実線
100
AcDbLine
 10
900.6317019242832
 20
-2300.041602833295
 30
0.0
 11
898.5384897155908
 21
-2300.041602833295
 31
0.0
  0
LINE
  5
2AA7B
330
18
100
AcDbEntity
  8
実線
100
AcDbLine
 10
898.5384897155908
 20
-2299.241602833296
 30
0.0
 11
900.6317019242832
 21
-2299.241602833296
 31
0.0
  0
LINE
  5
2AA7C
330
18
100
AcDbEntity
  8
実線
100
AcDbLine
 10
898.5384897155908
 20
-2300.041602833295
 30
0.0
 11
900.6317019242832
 21
-2300.041602833295
 31
0.0
  0
LINE
  5
2AA7D
330
18
100
AcDbEntity
  8
実線
100
AcDbLine
 10
900.6317019242832
 20
-2301.041602833295
 30
0.0
 11
900.2317019242831
 21
-2301.041602833295
 31
0.0
  0
LINE
  5
2AA7E
330
18
100
AcDbEntity
  8
実線
100
AcDbLine
 10
900.6317019242832
 20
-2298.241602833296
 30
0.0
 11
900.2317019242831
 21
-2298.241602833296
 31
0.0
  0
LINE
  5
2AA7F
330
18
100
AcDbEntity
  8
実線
100
AcDbLine
 10
900.6317019242832
 20
-2299.241602833296
 30
0.0
 11
900.6317019242832
 21
-2298.241602833296
 31
0.0
  0
LINE
  5
2AA80
330
18
100
AcDbEntity
  8
実線
100
AcDbLine
 10
901.6317019242832
 20
-2298.241602833296
 30
0.0
 11
900.6317019242832
 21
-2298.241602833296
 31
0.0
  0
LINE
  5
2AA81
330
18
100
AcDbEntity
  8
実線
100
AcDbLine
 10
900.6317019242832
 20
-2301.041602833295
 30
0.0
 11
901.6317019242832
 21
-2301.041602833295
 31
0.0
  0
LINE
  5
2AA82
330
18
100
AcDbEntity
  8
実線
100
AcDbLine
 10
901.6317019242832
 20
-2301.041602833295
 30
0.0
 11
900.6317019242832
 21
-2301.041602833295
 31
0.0
  0
LINE
  5
2AA83
330
18
100
AcDbEntity
  8
実線
100
AcDbLine
 10
900.6317019242832
 20
-2300.041602833295
 30
0.0
 11
900.6317019242832
 21
-2301.041602833295
 31
0.0
  0
LINE
  5
2AA84
330
18
100
AcDbEntity
  8
実線
100
AcDbLine
 10
900.6317019242832
 20
-2300.041602833295
 30
0.0
 11
900.6317019242832
 21
-2301.041602833295
 31
0.0
  0
LINE
  5
2AA85
330
18
100
AcDbEntity
  8
実線
100
AcDbLine
 10
908.6317019242832
 20
-2295.641602833295
 30
0.0
 11
908.6317019242832
 21
-2299.081602833295
 31
0.0
  0
LINE
  5
2AA86
330
18
100
AcDbEntity
  8
実線
100
AcDbLine
 10
902.6317019242831
 20
-2300.041602833295
 30
0.0
 11
902.6317019242831
 21
-2299.241602833296
 31
0.0
  0
LINE
  5
2AA87
330
18
100
AcDbEntity
  8
実線
100
AcDbLine
 10
902.4717019242833
 20
-2300.201602833295
 30
0.0
 11
908.6317019242832
 21
-2300.201602833295
 31
0.0
  0
LINE
  5
2AA88
330
18
100
AcDbEntity
  8
実線
100
AcDbLine
 10
908.6317019242832
 20
-2299.081602833295
 30
0.0
 11
902.4717019242824
 21
-2299.081602833295
 31
0.0
  0
LINE
  5
2AA89
330
18
100
AcDbEntity
  8
実線
100
AcDbLine
 10
908.6317019242832
 20
-2300.201602833295
 30
0.0
 11
908.6317019242832
 21
-2303.641602833295
 31
0.0
  0
LINE
  5
2AA8A
330
18
100
AcDbEntity
  8
実線
100
AcDbLine
 10
874.5180907798106
 20
-2296.191602833294
 30
0.0
 11
882.9317019242825
 21
-2296.191602833294
 31
0.0
  0
LINE
  5
2AA8B
330
18
100
AcDbEntity
  8
中心線
 48
0.5
100
AcDbLine
 10
820.9317019242829
 20
-2288.691602833293
 30
0.0
 11
796.931701924283
 21
-2288.691602833293
 31
0.0
  0
LINE
  5
2AA8C
330
18
100
AcDbEntity
  8
破線
 48
0.03
100
AcDbLine
 10
815.9317019242832
 20
-2286.941602833294
 30
0.0
 11
803.9317019242833
 21
-2286.941602833294
 31
0.0
  0
LINE
  5
2AA8D
330
18
100
AcDbEntity
  8
破線
 48
0.03
100
AcDbLine
 10
815.9317019242832
 20
-2286.691602833293
 30
0.0
 11
805.9317019242833
 21
-2286.691602833293
 31
0.0
  0
LINE
  5
2AA8E
330
18
100
AcDbEntity
  8
破線
 48
0.03
100
AcDbLine
 10
802.9213389531967
 20
-2288.691602833293
 30
0.0
 11
803.9317019242833
 21
-2286.941602833294
 31
0.0
  0
LINE
  5
2AA8F
330
18
100
AcDbEntity
  8
破線
 48
0.03
100
AcDbLine
 10
803.9317019242833
 20
-2290.441602833293
 30
0.0
 11
803.9317019242833
 21
-2286.941602833294
 31
0.0
  0
LINE
  5
2AA90
330
18
100
AcDbEntity
  8
破線
 48
0.03
100
AcDbLine
 10
805.9317019242833
 20
-2286.691602833293
 30
0.0
 11
805.4986892223848
 21
-2286.941602833294
 31
0.0
  0
LINE
  5
2AA91
330
18
100
AcDbEntity
  8
破線
 48
0.03
100
AcDbLine
 10
805.9317019242833
 20
-2290.691602833294
 30
0.0
 11
805.9317019242833
 21
-2286.691602833293
 31
0.0
  0
LINE
  5
2AA92
330
18
100
AcDbEntity
  8
破線
 48
0.03
100
AcDbLine
 10
802.9213389531967
 20
-2288.691602833293
 30
0.0
 11
803.9317019242833
 21
-2290.441602833293
 31
0.0
  0
LINE
  5
2AA93
330
18
100
AcDbEntity
  8
破線
 48
0.03
100
AcDbLine
 10
815.9317019242832
 20
-2290.691602833294
 30
0.0
 11
805.9317019242833
 21
-2290.691602833294
 31
0.0
  0
LINE
  5
2AA94
330
18
100
AcDbEntity
  8
破線
 48
0.03
100
AcDbLine
 10
815.9317019242832
 20
-2290.441602833293
 30
0.0
 11
803.9317019242833
 21
-2290.441602833293
 31
0.0
  0
LINE
  5
2AA95
330
18
100
AcDbEntity
  8
破線
 48
0.03
100
AcDbLine
 10
805.9317019242833
 20
-2290.691602833294
 30
0.0
 11
805.4986892223848
 21
-2290.441602833293
 31
0.0
  0
LINE
  5
2AA96
330
18
100
AcDbEntity
  8
中心線
 48
0.5
100
AcDbLine
 10
820.9317019242829
 20
-2264.691602833293
 30
0.0
 11
796.931701924283
 21
-2264.691602833293
 31
0.0
  0
LINE
  5
2AA97
330
18
100
AcDbEntity
  8
破線
 48
0.03
100
AcDbLine
 10
815.9317019242832
 20
-2262.941602833294
 30
0.0
 11
803.9317019242833
 21
-2262.941602833294
 31
0.0
  0
LINE
  5
2AA98
330
18
100
AcDbEntity
  8
破線
 48
0.03
100
AcDbLine
 10
815.9317019242832
 20
-2262.691602833294
 30
0.0
 11
805.9317019242833
 21
-2262.691602833294
 31
0.0
  0
LINE
  5
2AA99
330
18
100
AcDbEntity
  8
破線
 48
0.03
100
AcDbLine
 10
802.9213389531967
 20
-2264.691602833293
 30
0.0
 11
803.9317019242833
 21
-2262.941602833294
 31
0.0
  0
LINE
  5
2AA9A
330
18
100
AcDbEntity
  8
破線
 48
0.03
100
AcDbLine
 10
803.9317019242833
 20
-2266.441602833293
 30
0.0
 11
803.9317019242833
 21
-2262.941602833294
 31
0.0
  0
LINE
  5
2AA9B
330
18
100
AcDbEntity
  8
破線
 48
0.03
100
AcDbLine
 10
805.9317019242833
 20
-2262.691602833294
 30
0.0
 11
805.4986892223848
 21
-2262.941602833294
 31
0.0
  0
LINE
  5
2AA9C
330
18
100
AcDbEntity
  8
破線
 48
0.03
100
AcDbLine
 10
805.9317019242833
 20
-2266.691602833294
 30
0.0
 11
805.9317019242833
 21
-2262.691602833294
 31
0.0
  0
LINE
  5
2AA9D
330
18
100
AcDbEntity
  8
破線
 48
0.03
100
AcDbLine
 10
802.9213389531967
 20
-2264.691602833293
 30
0.0
 11
803.9317019242833
 21
-2266.441602833293
 31
0.0
  0
LINE
  5
2AA9E
330
18
100
AcDbEntity
  8
破線
 48
0.03
100
AcDbLine
 10
815.9317019242832
 20
-2266.691602833294
 30
0.0
 11
805.9317019242833
 21
-2266.691602833294
 31
0.0
  0
LINE
  5
2AA9F
330
18
100
AcDbEntity
  8
破線
 48
0.03
100
AcDbLine
 10
815.9317019242832
 20
-2266.441602833293
 30
0.0
 11
803.9317019242833
 21
-2266.441602833293
 31
0.0
  0
LINE
  5
2AAA0
330
18
100
AcDbEntity
  8
破線
 48
0.03
100
AcDbLine
 10
805.9317019242833
 20
-2266.691602833294
 30
0.0
 11
805.4986892223848
 21
-2266.441602833293
 31
0.0
  0
LINE
  5
2AAA1
330
18
100
AcDbEntity
  8
実線
100
AcDbLine
 10
873.2220874716023
 20
-2422.127629116297
 30
0.0
 11
882.931701924283
 21
-2422.127629116297
 31
0.0
  0
LINE
  5
2AAA3
330
18
100
AcDbEntity
  8
実線
100
AcDbLine
 10
801.9317019242821
 20
-2449.127629116297
 30
0.0
 11
815.9317019242822
 21
-2449.127629116297
 31
0.0
  0
LINE
  5
2AAA4
330
18
100
AcDbEntity
  8
実線
100
AcDbLine
 10
814.9317019242825
 20
-2461.627629116298
 30
0.0
 11
801.9317019242821
 21
-2461.627629116298
 31
0.0
  0
LINE
  5
2AAA5
330
18
100
AcDbEntity
  8
実線
100
AcDbLine
 10
814.9317019242822
 20
-2469.627629116298
 30
0.0
 11
801.9317019242826
 21
-2469.627629116298
 31
0.0
  0
LINE
  5
2AAA6
330
18
100
AcDbEntity
  8
実線
 48
10.0
100
AcDbLine
 10
814.9317019242825
 20
-2461.627629116298
 30
0.0
 11
814.9317019242822
 21
-2469.627629116298
 31
0.0
  0
LINE
  5
2AABB
330
18
100
AcDbEntity
  8
中心線
100
AcDbLine
 10
835.931701924283
 20
-2465.627629116298
 30
0.0
 11
793.1156428011002
 21
-2465.627629116298
 31
0.0
  0
LINE
  5
2AABC
330
18
100
AcDbEntity
  8
実線
100
AcDbLine
 10
899.6317019242821
 20
-2409.81895378673
 30
0.0
 11
891.4317019242824
 21
-2409.81895378673
 31
0.0
  0
LINE
  5
2AABD
330
18
100
AcDbEntity
  8
実線
100
AcDbLine
 10
885.9317019242823
 20
-2423.51895378673
 30
0.0
 11
898.1317019242821
 21
-2423.51895378673
 31
0.0
  0
LINE
  5
2AABE
330
18
100
AcDbEntity
  8
実線
100
AcDbLine
 10
895.1826809360548
 20
-2412.636592881047
 30
0.0
 11
890.6317019242822
 21
-2411.81895378673
 31
0.0
  0
LINE
  5
2AABF
330
18
100
AcDbEntity
  8
実線
100
AcDbLine
 10
895.0862234368868
 20
-2413.718953786731
 30
0.0
 11
885.9317019242823
 21
-2413.718953786731
 31
0.0
  0
LINE
  5
2AAC0
330
18
100
AcDbEntity
  8
実線
100
AcDbLine
 10
897.1317019242821
 20
-2410.418953786731
 30
0.0
 11
891.4317019242824
 21
-2410.418953786731
 31
0.0
  0
LINE
  5
2AAC1
330
18
100
AcDbEntity
  8
中心線
 48
0.5
100
AcDbLine
 10
870.4680971106656
 20
-2426.403720942445
 30
0.0
 11
873.2103666974984
 21
-2410.851537290151
 31
0.0
  0
LINE
  5
2AAC2
330
18
100
AcDbEntity
  8
中心線
 48
0.5
100
AcDbLine
 10
872.4680971106657
 20
-2426.403720942445
 30
0.0
 11
875.2103666974983
 21
-2410.851537290151
 31
0.0
  0
LINE
  5
2AAC3
330
18
100
AcDbEntity
  8
実線
100
AcDbLine
 10
884.9317019242828
 20
-2418.627629116298
 30
0.0
 11
882.9317019242829
 21
-2418.627629116298
 31
0.0
  0
LINE
  5
2AAC4
330
18
100
AcDbEntity
  8
実線
100
AcDbLine
 10
884.9317019242828
 20
-2421.227629116298
 30
0.0
 11
882.9317019242829
 21
-2421.227629116298
 31
0.0
  0
LINE
  5
2AAC5
330
18
100
AcDbEntity
  8
実線
100
AcDbLine
 10
884.9317019242828
 20
-2419.927629116298
 30
0.0
 11
882.9317019242829
 21
-2419.927629116298
 31
0.0
  0
LINE
  5
2AAC6
330
18
100
AcDbEntity
  8
実線
100
AcDbLine
 10
884.9317019242828
 20
-2417.227629116298
 30
0.0
 11
882.9317019242829
 21
-2417.227629116298
 31
0.0
  0
LINE
  5
2AAC7
330
18
100
AcDbEntity
  8
実線
100
AcDbLine
 10
882.9317019242829
 20
-2415.927629116298
 30
0.0
 11
884.9317019242828
 21
-2415.927629116298
 31
0.0
  0
LINE
  5
2AAC8
330
18
100
AcDbEntity
  8
実線
100
AcDbLine
 10
882.9317019242823
 20
-2415.127629116297
 30
0.0
 11
882.931701924283
 21
-2422.127629116297
 31
0.0
  0
LINE
  5
2AAC9
330
18
100
AcDbEntity
  8
実線
100
AcDbLine
 10
884.9317019242828
 20
-2415.977629116297
 30
0.0
 11
884.9317019242828
 21
-2421.277629116298
 31
0.0
  0
LINE
  5
2AACA
330
18
100
AcDbEntity
  8
実線
100
AcDbLine
 10
884.9317019242823
 20
-2418.61895378673
 30
0.0
 11
884.9317019242823
 21
-2412.71895378673
 31
0.0
  0
LINE
  5
2AACB
330
18
100
AcDbEntity
  8
実線
100
AcDbLine
 10
885.9317019242823
 20
-2424.01895378673
 30
0.0
 11
885.9317019242823
 21
-2423.51895378673
 31
0.0
  0
LINE
  5
2AACC
330
18
100
AcDbEntity
  8
実線
100
AcDbLine
 10
884.9317019242823
 20
-2424.51895378673
 30
0.0
 11
884.9317019242823
 21
-2418.61895378673
 31
0.0
  0
LINE
  5
2AACD
330
18
100
AcDbEntity
  8
実線
100
AcDbLine
 10
884.9317019242823
 20
-2424.51895378673
 30
0.0
 11
885.4317019242824
 21
-2424.51895378673
 31
0.0
  0
ARC
  5
2AACE
330
18
100
AcDbEntity
  8
実線
100
AcDbCircle
 10
885.4317019242824
 20
-2424.01895378673
 30
0.0
 40
0.5
100
AcDbArc
 50
270.0
 51
0.0
  0
LINE
  5
2AACF
330
18
100
AcDbEntity
  8
実線
100
AcDbLine
 10
891.4317019242824
 20
-2410.418953786731
 30
0.0
 11
891.4317019242824
 21
-2409.81895378673
 31
0.0
  0
LINE
  5
2AAD0
330
18
100
AcDbEntity
  8
実線
100
AcDbLine
 10
885.9317019242823
 20
-2413.718953786731
 30
0.0
 11
885.9317019242823
 21
-2413.218953786731
 31
0.0
  0
LINE
  5
2AAD1
330
18
100
AcDbEntity
  8
実線
100
AcDbLine
 10
890.6317019242822
 20
-2411.81895378673
 30
0.0
 11
890.6317019242822
 21
-2409.81895378673
 31
0.0
  0
LINE
  5
2AAD2
330
18
100
AcDbEntity
  8
実線
100
AcDbLine
 10
891.4317019242824
 20
-2409.81895378673
 30
0.0
 11
890.6317019242822
 21
-2409.81895378673
 31
0.0
  0
LINE
  5
2AAD3
330
18
100
AcDbEntity
  8
実線
100
AcDbLine
 10
885.4317019242824
 20
-2412.71895378673
 30
0.0
 11
884.9317019242823
 21
-2412.71895378673
 31
0.0
  0
ARC
  5
2AAD4
330
18
100
AcDbEntity
  8
実線
100
AcDbCircle
 10
885.4317019242824
 20
-2413.218953786731
 30
0.0
 40
0.5
100
AcDbArc
 50
0.0
 51
90.0
  0
LINE
  5
2AAD5
330
18
100
AcDbEntity
  8
実線
100
AcDbLine
 10
902.6317019242823
 20
-2411.41895378673
 30
0.0
 11
901.6317019242821
 21
-2410.418953786731
 31
0.0
  0
LINE
  5
2AAD6
330
18
100
AcDbEntity
  8
実線
100
AcDbLine
 10
901.6317019242821
 20
-2413.218953786731
 30
0.0
 11
902.6317019242823
 21
-2412.218953786731
 31
0.0
  0
LINE
  5
2AAD7
330
18
100
AcDbEntity
  8
実線
100
AcDbLine
 10
898.1317019242821
 20
-2418.058953786731
 30
0.0
 11
908.6317019242821
 21
-2418.058953786731
 31
0.0
  0
LINE
  5
2AAD8
330
18
100
AcDbEntity
  8
実線
100
AcDbLine
 10
908.6317019242821
 20
-2414.61895378673
 30
0.0
 11
898.1317019242821
 21
-2414.61895378673
 31
0.0
  0
LINE
  5
2AAD9
330
18
100
AcDbEntity
  8
実線
100
AcDbLine
 10
898.1317019242821
 20
-2422.61895378673
 30
0.0
 11
908.6317019242821
 21
-2422.61895378673
 31
0.0
  0
LINE
  5
2AADA
330
18
100
AcDbEntity
  8
実線
100
AcDbLine
 10
908.6317019242821
 20
-2419.17895378673
 30
0.0
 11
898.1317019242821
 21
-2419.17895378673
 31
0.0
  0
LINE
  5
2AADB
330
18
100
AcDbEntity
  8
実線
100
AcDbLine
 10
900.6317019242821
 20
-2411.41895378673
 30
0.0
 11
900.6317019242821
 21
-2410.418953786731
 31
0.0
  0
LINE
  5
2AADC
330
18
100
AcDbEntity
  8
実線
100
AcDbLine
 10
900.6317019242821
 20
-2412.218953786731
 30
0.0
 11
900.6317019242821
 21
-2413.218953786731
 31
0.0
  0
LINE
  5
2AADD
330
18
100
AcDbEntity
  8
実線
100
AcDbLine
 10
901.6317019242821
 20
-2410.418953786731
 30
0.0
 11
900.6317019242821
 21
-2410.418953786731
 31
0.0
  0
LINE
  5
2AADE
330
18
100
AcDbEntity
  8
実線
100
AcDbLine
 10
900.6317019242821
 20
-2413.218953786731
 30
0.0
 11
901.6317019242821
 21
-2413.218953786731
 31
0.0
  0
LINE
  5
2AADF
330
18
100
AcDbEntity
  8
実線
100
AcDbLine
 10
900.2317019242825
 20
-2410.418953786731
 30
0.0
 11
897.1317019242821
 21
-2410.418953786731
 31
0.0
  0
LINE
  5
2AAE0
330
18
100
AcDbEntity
  8
実線
100
AcDbLine
 10
898.1317019242821
 20
-2418.61895378673
 30
0.0
 11
898.1317019242821
 21
-2413.718953786731
 31
0.0
  0
LINE
  5
2AAE1
330
18
100
AcDbEntity
  8
実線
100
AcDbLine
 10
898.1317019242821
 20
-2423.51895378673
 30
0.0
 11
898.1317019242821
 21
-2418.61895378673
 31
0.0
  0
LINE
  5
2AAE2
330
18
100
AcDbEntity
  8
実線
100
AcDbLine
 10
897.1317019242821
 20
-2411.41895378673
 30
0.0
 11
898.5384897155897
 21
-2411.41895378673
 31
0.0
  0
LINE
  5
2AAE3
330
18
100
AcDbEntity
  8
実線
100
AcDbLine
 10
897.1317019242821
 20
-2411.41895378673
 30
0.0
 11
897.1317019242821
 21
-2410.418953786731
 31
0.0
  0
ARC
  5
2AAE4
330
18
100
AcDbEntity
  8
実線
100
AcDbCircle
 10
897.4218341144039
 20
-2412.621917155827
 30
0.0
 40
0.2901321901215654
100
AcDbArc
 50
180.0
 51
225.734786044511
  0
LINE
  5
2AAE5
330
18
100
AcDbEntity
  8
実線
100
AcDbLine
 10
898.1317019242821
 20
-2413.718953786731
 30
0.0
 11
897.219327463388
 21
-2412.829685642464
 31
0.0
  0
LINE
  5
2AAE6
330
18
100
AcDbEntity
  8
実線
100
AcDbLine
 10
897.1317019242821
 20
-2412.621917155827
 30
0.0
 11
897.1317019242821
 21
-2412.218953786731
 31
0.0
  0
LINE
  5
2AAE7
330
18
100
AcDbEntity
  8
実線
100
AcDbLine
 10
898.5384897155897
 20
-2412.218953786731
 30
0.0
 11
897.1317019242821
 21
-2412.218953786731
 31
0.0
  0
LINE
  5
2AAE8
330
18
100
AcDbEntity
  8
実線
100
AcDbLine
 10
898.5384897155897
 20
-2412.218953786731
 30
0.0
 11
898.5384897155897
 21
-2411.41895378673
 31
0.0
  0
LINE
  5
2AAE9
330
18
100
AcDbEntity
  8
実線
100
AcDbLine
 10
897.1317019242821
 20
-2412.218953786731
 30
0.0
 11
897.1317019242821
 21
-2411.41895378673
 31
0.0
  0
ARC
  5
2AAEA
330
18
100
AcDbEntity
  8
実線
100
AcDbCircle
 10
895.0862234368868
 20
-2413.173475299335
 30
0.0
 40
0.545478487396098
100
AcDbArc
 50
270.0
 51
79.81477213711087
  0
LINE
  5
2AAEB
330
18
100
AcDbEntity
  8
実線
100
AcDbLine
 10
900.2317019242825
 20
-2410.418953786731
 30
0.0
 11
899.6317019242821
 21
-2409.81895378673
 31
0.0
  0
LINE
  5
2AAEC
330
18
100
AcDbEntity
  8
実線
100
AcDbLine
 10
898.5384897155897
 20
-2411.41895378673
 30
0.0
 11
900.6317019242821
 21
-2411.41895378673
 31
0.0
  0
LINE
  5
2AAED
330
18
100
AcDbEntity
  8
実線
100
AcDbLine
 10
900.6317019242821
 20
-2412.218953786731
 30
0.0
 11
898.5384897155897
 21
-2412.218953786731
 31
0.0
  0
LINE
  5
2AAEE
330
18
100
AcDbEntity
  8
実線
100
AcDbLine
 10
900.6317019242821
 20
-2410.418953786731
 30
0.0
 11
900.2317019242825
 21
-2410.418953786731
 31
0.0
  0
LINE
  5
2AAEF
330
18
100
AcDbEntity
  8
実線
100
AcDbLine
 10
902.6317019242823
 20
-2412.218953786731
 30
0.0
 11
902.6317019242823
 21
-2411.41895378673
 31
0.0
  0
LINE
  5
2AAF4
330
18
100
AcDbEntity
  8
中心線
100
AcDbLine
 10
879.431701924283
 20
-2418.627629116298
 30
0.0
 11
907.7317019242839
 21
-2418.627629116298
 31
0.0
  0
LINE
  5
2AAF5
330
18
100
AcDbEntity
  8
実線
100
AcDbLine
 10
835.931701924283
 20
-2462.127629116298
 30
0.0
 11
814.9317019242825
 21
-2462.127629116298
 31
0.0
  0
LINE
  5
2AAF6
330
18
100
AcDbEntity
  8
実線
100
AcDbLine
 10
835.931701924283
 20
-2469.127629116298
 30
0.0
 11
814.9317019242822
 21
-2469.127629116298
 31
0.0
  0
ARC
  5
2AAF7
330
18
100
AcDbEntity
  8
実線
100
AcDbCircle
 10
835.931701924283
 20
-2452.127629116298
 30
0.0
 40
10.0
100
AcDbArc
 50
270.0
 51
0.0
  0
LINE
  5
2AAF8
330
18
100
AcDbEntity
  8
実線
100
AcDbLine
 10
845.9317019242829
 20
-2432.127629116298
 30
0.0
 11
845.9317019242829
 21
-2452.127629116298
 31
0.0
  0
LINE
  5
2AAF9
330
18
100
AcDbEntity
  8
中心線
100
AcDbLine
 10
849.431701924283
 20
-2432.127629116298
 30
0.0
 11
849.431701924283
 21
-2452.127629116298
 31
0.0
  0
LINE
  5
2AAFA
330
18
100
AcDbEntity
  8
実線
100
AcDbLine
 10
852.931701924283
 20
-2432.127629116298
 30
0.0
 11
852.931701924283
 21
-2452.127629116298
 31
0.0
  0
ARC
  5
2AAFB
330
18
100
AcDbEntity
  8
実線
100
AcDbCircle
 10
862.9317019242831
 20
-2432.127629116298
 30
0.0
 40
10.0
100
AcDbArc
 50
90.0
 51
180.0
  0
ARC
  5
2AAFC
330
18
100
AcDbEntity
  8
実線
100
AcDbCircle
 10
862.9317019242831
 20
-2432.127629116298
 30
0.0
 40
17.0
100
AcDbArc
 50
90.0
 51
180.0
  0
LINE
  5
2AAFD
330
18
100
AcDbEntity
  8
中心線
100
AcDbLine
 10
911.6596658939458
 20
-2418.627629116298
 30
0.0
 11
862.9317019242831
 21
-2418.627629116298
 31
0.0
  0
LINE
  5
2AAFE
330
18
100
AcDbEntity
  8
実線
100
AcDbLine
 10
862.9317019242831
 20
-2415.127629116297
 30
0.0
 11
872.4563763365617
 21
-2415.127629116297
 31
0.0
  0
LINE
  5
2AAFF
330
18
100
AcDbEntity
  8
実線
100
AcDbLine
 10
879.2881983251788
 20
-2415.127629116297
 30
0.0
 11
879.2881983251788
 21
-2415.127629116297
 31
0.0
  0
LINE
  5
2AB00
330
18
100
AcDbEntity
  8
実線
100
AcDbLine
 10
862.9317019242831
 20
-2422.127629116297
 30
0.0
 11
871.2220874716024
 21
-2422.127629116297
 31
0.0
  0
ARC
  5
2AB01
330
18
100
AcDbEntity
  8
実線
100
AcDbCircle
 10
835.931701924283
 20
-2452.127629116298
 30
0.0
 40
17.0
100
AcDbArc
 50
270.0
 51
0.0
  0
ARC
  5
2AB02
330
18
100
AcDbEntity
  8
中心線
100
AcDbCircle
 10
835.931701924283
 20
-2452.127629116298
 30
0.0
 40
13.5
100
AcDbArc
 50
270.0
 51
0.0
  0
ARC
  5
2AB03
330
18
100
AcDbEntity
  8
中心線
100
AcDbCircle
 10
862.9317019242831
 20
-2432.127629116298
 30
0.0
 40
13.5
100
AcDbArc
 50
90.0
 51
180.0
  0
LINE
  5
2AB05
330
18
100
AcDbEntity
  8
実線
100
AcDbLine
 10
882.931701924283
 20
-2422.127629116297
 30
0.0
 11
882.931701924283
 21
-2415.127629116297
 31
0.0
  0
LINE
  5
2AB06
330
18
100
AcDbEntity
  8
実線
100
AcDbLine
 10
874.4563763365617
 20
-2415.127629116297
 30
0.0
 11
882.931701924283
 21
-2415.127629116297
 31
0.0
  0
LINE
  5
2AB25
330
18
100
AcDbEntity
  8
実線
100
AcDbLine
 10
908.6317019242821
 20
-2422.61895378673
 30
0.0
 11
908.6317019242821
 21
-2419.17895378673
 31
0.0
  0
LINE
  5
2AB26
330
18
100
AcDbEntity
  8
実線
100
AcDbLine
 10
908.6317019242821
 20
-2418.058953786731
 30
0.0
 11
908.6317019242821
 21
-2414.61895378673
 31
0.0
  0
LINE
  5
2AB54
330
18
100
AcDbEntity
  8
中心線
100
AcDbLine
 10
828.9962382335762
 20
-2265.691602833294
 30
0.0
 11
458.6095199736119
 21
-2265.691602833294
 31
0.0
  0
LINE
  5
2B4B9
330
18
100
AcDbEntity
  8
破線
 48
0.03
100
AcDbLine
 10
511.8317019242827
 20
-2448.127629116297
 30
0.0
 11
516.0317019242834
 21
-2448.127629116297
 31
0.0
  0
LINE
  5
2B4BA
330
18
100
AcDbEntity
  8
破線
 48
0.03
100
AcDbLine
 10
516.4317019242812
 20
-2445.127629116297
 30
0.0
 11
511.4317019242831
 21
-2445.127629116297
 31
0.0
  0
LINE
  5
2B4BB
330
18
100
AcDbEntity
  8
破線
 48
0.03
100
AcDbLine
 10
516.431701924283
 20
-2445.127629116297
 30
0.0
 11
516.0317019242834
 21
-2445.820449439332
 31
0.0
  0
LINE
  5
2B4BC
330
18
100
AcDbEntity
  8
破線
 48
0.03
100
AcDbLine
 10
516.0317019242834
 20
-2435.127629116297
 30
0.0
 11
516.0317019242834
 21
-2448.127629116297
 31
0.0
  0
LINE
  5
2B4BD
330
18
100
AcDbEntity
  8
破線
 48
0.03
100
AcDbLine
 10
516.431701924283
 20
-2435.127629116297
 30
0.0
 11
516.431701924283
 21
-2445.127629116297
 31
0.0
  0
LINE
  5
2B4BE
330
18
100
AcDbEntity
  8
破線
 48
0.03
100
AcDbLine
 10
511.4317019242831
 20
-2445.127629116297
 30
0.0
 11
511.8317019242827
 21
-2445.820449439332
 31
0.0
  0
LINE
  5
2B4BF
330
18
100
AcDbEntity
  8
破線
 48
0.03
100
AcDbLine
 10
511.8317019242827
 20
-2435.127629116297
 30
0.0
 11
511.8317019242827
 21
-2448.127629116297
 31
0.0
  0
LINE
  5
2B4C0
330
18
100
AcDbEntity
  8
中心線
 48
0.5
100
AcDbLine
 10
513.931701924283
 20
-2433.103889495929
 30
0.0
 11
513.931701924283
 21
-2450.925512917074
 31
0.0
  0
LINE
  5
2B4C1
330
18
100
AcDbEntity
  8
破線
 48
0.03
100
AcDbLine
 10
511.4317019242831
 20
-2435.127629116297
 30
0.0
 11
511.4317019242831
 21
-2445.127629116297
 31
0.0
  0
LINE
  5
2B4C2
330
18
100
AcDbEntity
  8
破線
 48
0.03
100
AcDbLine
 10
516.431701924283
 20
-2435.127629116297
 30
0.0
 11
511.4317019242831
 21
-2435.127629116297
 31
0.0
  0
LINE
  5
2B4C3
330
18
100
AcDbEntity
  8
破線
 48
0.03
100
AcDbLine
 10
513.931701924283
 20
-2449.340064681604
 30
0.0
 11
516.0317019242834
 21
-2448.127629116297
 31
0.0
  0
LINE
  5
2B4C4
330
18
100
AcDbEntity
  8
破線
 48
0.03
100
AcDbLine
 10
513.931701924283
 20
-2449.340064681604
 30
0.0
 11
511.8317019242827
 21
-2448.127629116297
 31
0.0
  0
LINE
  5
2B4C5
330
18
100
AcDbEntity
  8
破線
 48
0.03
100
AcDbLine
 10
575.8317019242826
 20
-2448.127629116297
 30
0.0
 11
580.0317019242834
 21
-2448.127629116297
 31
0.0
  0
LINE
  5
2B4C6
330
18
100
AcDbEntity
  8
破線
 48
0.03
100
AcDbLine
 10
580.4317019242812
 20
-2445.127629116297
 30
0.0
 11
575.431701924283
 21
-2445.127629116297
 31
0.0
  0
LINE
  5
2B4C7
330
18
100
AcDbEntity
  8
破線
 48
0.03
100
AcDbLine
 10
580.431701924283
 20
-2445.127629116297
 30
0.0
 11
580.0317019242834
 21
-2445.820449439332
 31
0.0
  0
LINE
  5
2B4C8
330
18
100
AcDbEntity
  8
破線
 48
0.03
100
AcDbLine
 10
580.0317019242834
 20
-2435.127629116297
 30
0.0
 11
580.0317019242834
 21
-2448.127629116297
 31
0.0
  0
LINE
  5
2B4C9
330
18
100
AcDbEntity
  8
破線
 48
0.03
100
AcDbLine
 10
580.431701924283
 20
-2435.127629116297
 30
0.0
 11
580.431701924283
 21
-2445.127629116297
 31
0.0
  0
LINE
  5
2B4CA
330
18
100
AcDbEntity
  8
破線
 48
0.03
100
AcDbLine
 10
575.431701924283
 20
-2445.127629116297
 30
0.0
 11
575.8317019242826
 21
-2445.820449439332
 31
0.0
  0
LINE
  5
2B4CB
330
18
100
AcDbEntity
  8
破線
 48
0.03
100
AcDbLine
 10
575.8317019242826
 20
-2435.127629116297
 30
0.0
 11
575.8317019242826
 21
-2448.127629116297
 31
0.0
  0
LINE
  5
2B4CC
330
18
100
AcDbEntity
  8
中心線
 48
0.5
100
AcDbLine
 10
577.9317019242831
 20
-2433.103889495929
 30
0.0
 11
577.9317019242831
 21
-2450.925512917074
 31
0.0
  0
LINE
  5
2B4CD
330
18
100
AcDbEntity
  8
破線
 48
0.03
100
AcDbLine
 10
575.431701924283
 20
-2435.127629116297
 30
0.0
 11
575.431701924283
 21
-2445.127629116297
 31
0.0
  0
LINE
  5
2B4CE
330
18
100
AcDbEntity
  8
破線
 48
0.03
100
AcDbLine
 10
580.431701924283
 20
-2435.127629116297
 30
0.0
 11
575.431701924283
 21
-2435.127629116297
 31
0.0
  0
LINE
  5
2B4CF
330
18
100
AcDbEntity
  8
破線
 48
0.03
100
AcDbLine
 10
577.9317019242831
 20
-2449.340064681604
 30
0.0
 11
580.0317019242834
 21
-2448.127629116297
 31
0.0
  0
LINE
  5
2B4D0
330
18
100
AcDbEntity
  8
破線
 48
0.03
100
AcDbLine
 10
577.9317019242831
 20
-2449.340064681604
 30
0.0
 11
575.8317019242826
 21
-2448.127629116297
 31
0.0
  0
LINE
  5
2B4D1
330
18
100
AcDbEntity
  8
破線
 48
0.03
100
AcDbLine
 10
639.8317019242827
 20
-2448.127629116297
 30
0.0
 11
644.0317019242834
 21
-2448.127629116297
 31
0.0
  0
LINE
  5
2B4D2
330
18
100
AcDbEntity
  8
破線
 48
0.03
100
AcDbLine
 10
644.4317019242812
 20
-2445.127629116297
 30
0.0
 11
639.431701924283
 21
-2445.127629116297
 31
0.0
  0
LINE
  5
2B4D3
330
18
100
AcDbEntity
  8
破線
 48
0.03
100
AcDbLine
 10
644.4317019242831
 20
-2445.127629116297
 30
0.0
 11
644.0317019242834
 21
-2445.820449439332
 31
0.0
  0
LINE
  5
2B4D4
330
18
100
AcDbEntity
  8
破線
 48
0.03
100
AcDbLine
 10
644.0317019242834
 20
-2435.127629116297
 30
0.0
 11
644.0317019242834
 21
-2448.127629116297
 31
0.0
  0
LINE
  5
2B4D5
330
18
100
AcDbEntity
  8
破線
 48
0.03
100
AcDbLine
 10
644.4317019242831
 20
-2435.127629116297
 30
0.0
 11
644.4317019242831
 21
-2445.127629116297
 31
0.0
  0
LINE
  5
2B4D6
330
18
100
AcDbEntity
  8
破線
 48
0.03
100
AcDbLine
 10
639.431701924283
 20
-2445.127629116297
 30
0.0
 11
639.8317019242827
 21
-2445.820449439332
 31
0.0
  0
LINE
  5
2B4D7
330
18
100
AcDbEntity
  8
破線
 48
0.03
100
AcDbLine
 10
639.8317019242827
 20
-2435.127629116297
 30
0.0
 11
639.8317019242827
 21
-2448.127629116297
 31
0.0
  0
LINE
  5
2B4D8
330
18
100
AcDbEntity
  8
中心線
 48
0.5
100
AcDbLine
 10
641.931701924283
 20
-2433.103889495929
 30
0.0
 11
641.931701924283
 21
-2450.925512917074
 31
0.0
  0
LINE
  5
2B4D9
330
18
100
AcDbEntity
  8
破線
 48
0.03
100
AcDbLine
 10
639.431701924283
 20
-2435.127629116297
 30
0.0
 11
639.431701924283
 21
-2445.127629116297
 31
0.0
  0
LINE
  5
2B4DA
330
18
100
AcDbEntity
  8
破線
 48
0.03
100
AcDbLine
 10
644.4317019242831
 20
-2435.127629116297
 30
0.0
 11
639.431701924283
 21
-2435.127629116297
 31
0.0
  0
LINE
  5
2B4DB
330
18
100
AcDbEntity
  8
破線
 48
0.03
100
AcDbLine
 10
641.931701924283
 20
-2449.340064681604
 30
0.0
 11
644.0317019242834
 21
-2448.127629116297
 31
0.0
  0
LINE
  5
2B4DC
330
18
100
AcDbEntity
  8
破線
 48
0.03
100
AcDbLine
 10
641.931701924283
 20
-2449.340064681604
 30
0.0
 11
639.8317019242827
 21
-2448.127629116297
 31
0.0
  0
LINE
  5
2B4DD
330
18
100
AcDbEntity
  8
破線
 48
0.03
100
AcDbLine
 10
703.8317019242827
 20
-2448.127629116297
 30
0.0
 11
708.0317019242833
 21
-2448.127629116297
 31
0.0
  0
LINE
  5
2B4DE
330
18
100
AcDbEntity
  8
破線
 48
0.03
100
AcDbLine
 10
708.4317019242812
 20
-2445.127629116297
 30
0.0
 11
703.4317019242831
 21
-2445.127629116297
 31
0.0
  0
LINE
  5
2B4DF
330
18
100
AcDbEntity
  8
破線
 48
0.03
100
AcDbLine
 10
708.431701924283
 20
-2445.127629116297
 30
0.0
 11
708.0317019242833
 21
-2445.820449439332
 31
0.0
  0
LINE
  5
2B4E0
330
18
100
AcDbEntity
  8
破線
 48
0.03
100
AcDbLine
 10
708.0317019242833
 20
-2435.127629116297
 30
0.0
 11
708.0317019242833
 21
-2448.127629116297
 31
0.0
  0
LINE
  5
2B4E1
330
18
100
AcDbEntity
  8
破線
 48
0.03
100
AcDbLine
 10
708.431701924283
 20
-2435.127629116297
 30
0.0
 11
708.431701924283
 21
-2445.127629116297
 31
0.0
  0
LINE
  5
2B4E2
330
18
100
AcDbEntity
  8
破線
 48
0.03
100
AcDbLine
 10
703.4317019242831
 20
-2445.127629116297
 30
0.0
 11
703.8317019242827
 21
-2445.820449439332
 31
0.0
  0
LINE
  5
2B4E3
330
18
100
AcDbEntity
  8
破線
 48
0.03
100
AcDbLine
 10
703.8317019242827
 20
-2435.127629116297
 30
0.0
 11
703.8317019242827
 21
-2448.127629116297
 31
0.0
  0
LINE
  5
2B4E4
330
18
100
AcDbEntity
  8
中心線
 48
0.5
100
AcDbLine
 10
705.931701924283
 20
-2433.103889495929
 30
0.0
 11
705.931701924283
 21
-2450.925512917074
 31
0.0
  0
LINE
  5
2B4E5
330
18
100
AcDbEntity
  8
破線
 48
0.03
100
AcDbLine
 10
703.4317019242831
 20
-2435.127629116297
 30
0.0
 11
703.4317019242831
 21
-2445.127629116297
 31
0.0
  0
LINE
  5
2B4E6
330
18
100
AcDbEntity
  8
破線
 48
0.03
100
AcDbLine
 10
708.431701924283
 20
-2435.127629116297
 30
0.0
 11
703.4317019242831
 21
-2435.127629116297
 31
0.0
  0
LINE
  5
2B4E7
330
18
100
AcDbEntity
  8
破線
 48
0.03
100
AcDbLine
 10
705.931701924283
 20
-2449.340064681604
 30
0.0
 11
708.0317019242833
 21
-2448.127629116297
 31
0.0
  0
LINE
  5
2B4E8
330
18
100
AcDbEntity
  8
破線
 48
0.03
100
AcDbLine
 10
705.931701924283
 20
-2449.340064681604
 30
0.0
 11
703.8317019242827
 21
-2448.127629116297
 31
0.0
  0
LINE
  5
2B4E9
330
18
100
AcDbEntity
  8
破線
 48
0.03
100
AcDbLine
 10
767.8317019242826
 20
-2448.127629116297
 30
0.0
 11
772.0317019242834
 21
-2448.127629116297
 31
0.0
  0
LINE
  5
2B4EA
330
18
100
AcDbEntity
  8
破線
 48
0.03
100
AcDbLine
 10
772.4317019242812
 20
-2445.127629116297
 30
0.0
 11
767.431701924283
 21
-2445.127629116297
 31
0.0
  0
LINE
  5
2B4EB
330
18
100
AcDbEntity
  8
破線
 48
0.03
100
AcDbLine
 10
772.431701924283
 20
-2445.127629116297
 30
0.0
 11
772.0317019242834
 21
-2445.820449439332
 31
0.0
  0
LINE
  5
2B4EC
330
18
100
AcDbEntity
  8
破線
 48
0.03
100
AcDbLine
 10
772.0317019242834
 20
-2435.127629116297
 30
0.0
 11
772.0317019242834
 21
-2448.127629116297
 31
0.0
  0
LINE
  5
2B4ED
330
18
100
AcDbEntity
  8
破線
 48
0.03
100
AcDbLine
 10
772.431701924283
 20
-2435.127629116297
 30
0.0
 11
772.431701924283
 21
-2445.127629116297
 31
0.0
  0
LINE
  5
2B4EE
330
18
100
AcDbEntity
  8
破線
 48
0.03
100
AcDbLine
 10
767.431701924283
 20
-2445.127629116297
 30
0.0
 11
767.8317019242826
 21
-2445.820449439332
 31
0.0
  0
LINE
  5
2B4EF
330
18
100
AcDbEntity
  8
破線
 48
0.03
100
AcDbLine
 10
767.8317019242826
 20
-2435.127629116297
 30
0.0
 11
767.8317019242826
 21
-2448.127629116297
 31
0.0
  0
LINE
  5
2B4F0
330
18
100
AcDbEntity
  8
中心線
 48
0.5
100
AcDbLine
 10
769.9317019242831
 20
-2433.103889495929
 30
0.0
 11
769.9317019242831
 21
-2450.925512917074
 31
0.0
  0
LINE
  5
2B4F1
330
18
100
AcDbEntity
  8
破線
 48
0.03
100
AcDbLine
 10
767.431701924283
 20
-2435.127629116297
 30
0.0
 11
767.431701924283
 21
-2445.127629116297
 31
0.0
  0
LINE
  5
2B4F2
330
18
100
AcDbEntity
  8
破線
 48
0.03
100
AcDbLine
 10
772.431701924283
 20
-2435.127629116297
 30
0.0
 11
767.431701924283
 21
-2435.127629116297
 31
0.0
  0
LINE
  5
2B4F3
330
18
100
AcDbEntity
  8
破線
 48
0.03
100
AcDbLine
 10
769.9317019242831
 20
-2449.340064681604
 30
0.0
 11
772.0317019242834
 21
-2448.127629116297
 31
0.0
  0
LINE
  5
2B4F4
330
18
100
AcDbEntity
  8
破線
 48
0.03
100
AcDbLine
 10
769.9317019242831
 20
-2449.340064681604
 30
0.0
 11
767.8317019242826
 21
-2448.127629116297
 31
0.0
  0
LINE
  5
2BCC5
330
18
100
AcDbEntity
  8
破線
 48
0.03
100
AcDbLine
 10
815.9317019242838
 20
-2441.377629116297
 30
0.0
 11
803.9317019242838
 21
-2441.377629116297
 31
0.0
  0
LINE
  5
2BCC6
330
18
100
AcDbEntity
  8
破線
 48
0.03
100
AcDbLine
 10
815.9317019242838
 20
-2441.127629116297
 30
0.0
 11
805.9317019242838
 21
-2441.127629116297
 31
0.0
  0
LINE
  5
2BCC7
330
18
100
AcDbEntity
  8
破線
 48
0.03
100
AcDbLine
 10
802.9213389531973
 20
-2443.127629116297
 30
0.0
 11
803.9317019242838
 21
-2441.377629116297
 31
0.0
  0
LINE
  5
2BCC8
330
18
100
AcDbEntity
  8
破線
 48
0.03
100
AcDbLine
 10
803.9317019242838
 20
-2444.877629116297
 30
0.0
 11
803.9317019242838
 21
-2441.377629116297
 31
0.0
  0
LINE
  5
2BCC9
330
18
100
AcDbEntity
  8
破線
 48
0.03
100
AcDbLine
 10
805.9317019242838
 20
-2441.127629116297
 30
0.0
 11
805.4986892223855
 21
-2441.377629116297
 31
0.0
  0
LINE
  5
2BCCA
330
18
100
AcDbEntity
  8
破線
 48
0.03
100
AcDbLine
 10
805.9317019242838
 20
-2445.127629116297
 30
0.0
 11
805.9317019242838
 21
-2441.127629116297
 31
0.0
  0
LINE
  5
2BCCB
330
18
100
AcDbEntity
  8
破線
 48
0.03
100
AcDbLine
 10
802.9213389531973
 20
-2443.127629116297
 30
0.0
 11
803.9317019242838
 21
-2444.877629116297
 31
0.0
  0
LINE
  5
2BCCC
330
18
100
AcDbEntity
  8
破線
 48
0.03
100
AcDbLine
 10
815.9317019242838
 20
-2445.127629116297
 30
0.0
 11
805.9317019242838
 21
-2445.127629116297
 31
0.0
  0
LINE
  5
2BCCD
330
18
100
AcDbEntity
  8
破線
 48
0.03
100
AcDbLine
 10
815.9317019242838
 20
-2444.877629116297
 30
0.0
 11
803.9317019242838
 21
-2444.877629116297
 31
0.0
  0
LINE
  5
2BCCE
330
18
100
AcDbEntity
  8
破線
 48
0.03
100
AcDbLine
 10
805.9317019242838
 20
-2445.127629116297
 30
0.0
 11
805.4986892223855
 21
-2444.877629116297
 31
0.0
  0
LINE
  5
2BCCF
330
18
100
AcDbEntity
  8
中心線
 48
0.5
100
AcDbLine
 10
820.9317019242838
 20
-2443.127629116297
 30
0.0
 11
796.9317019242838
 21
-2443.127629116297
 31
0.0
  0
TEXT
  5
2BE38
330
18
100
AcDbEntity
  8
細線
  6
Continuous
100
AcDbText
 10
995.4867147227316
 20
-2474.624724714699
 30
0.0
 40
3.2
  1
CLMA500MA
100
AcDbText
  0
TEXT
  5
2BE39
330
18
100
AcDbEntity
  8
細線
100
AcDbText
 10
990.8480960707921
 20
-2485.173963717814
 30
0.0
 40
5.0
  1
外形図_コイルユニット単体
 41
0.9
100
AcDbText
  0
TEXT
  5
2BE3A
330
18
100
AcDbEntity
  8
細線
100
AcDbText
 10
990.9616562889695
 20
-2496.919611231485
 30
0.0
 40
6.0
  1
ＳＥ－８７３００
 41
1.1
100
AcDbText
  0
VIEWPORT
  5
2BE3F
102
{ACAD_XDICTIONARY
360
2BF35
102
}
330
2BE3B
100
AcDbEntity
 67
     1
  8
0
100
AcDbViewport
 10
8.420300975294018
 20
3.5
 30
0.0
 40
12.8035190474548
 41
8.207384004778715
 68
     1
 69
     1
 12
8.420300975294018
 22
3.5
 13
0.0
 23
0.0
 14
0.5
 24
0.5
 15
0.0
 25
0.0
 16
0.0
 26
0.0
 36
1.0
 17
0.0
 27
0.0
 37
0.0
 42
50.0
 43
0.0
 44
0.0
 45
8.207384004778715
 50
0.0
 51
0.0
 72
   100
 90
   557152
  1

281
     0
 71
     1
 74
     0
110
0.0
120
0.0
130
0.0
111
1.0
121
0.0
131
0.0
112
0.0
122
1.0
132
0.0
 79
     0
146
0.0
  0
VIEWPORT
  5
2BE40
102
{ACAD_XDICTIONARY
360
2BE41
102
}
330
2BE3B
100
AcDbEntity
 67
     1
  8
0
100
AcDbViewport
 10
5.25
 20
3.5
 30
0.0
 40
8.4
 41
5.6
 68
     2
 69
     2
 12
700.8137119439279
 22
-2345.182083513434
 13
0.0
 23
0.0
 14
0.5
 24
0.5
 15
0.0
 25
0.0
 16
0.0
 26
0.0
 36
1.0
 17
0.0
 27
0.0
 37
0.0
 42
50.0
 43
0.0
 44
0.0
 45
494.9455063478523
 50
0.0
 51
0.0
 72
   100
341
E
 90
   557152
  1

281
     0
 71
     1
 74
     0
110
0.0
120
0.0
130
0.0
111
1.0
121
0.0
131
0.0
112
0.0
122
1.0
132
0.0
 79
     0
146
0.0
  0
ENDSEC
  0
SECTION
  2
OBJECTS
  0
DICTIONARY
  5
C
330
0
100
AcDbDictionary
281
     1
  3
ACAD_2007HEADERVARS_RT
350
2BEFA
  3
ACAD_CIP_PREVIOUS_PRODUCT_INFO
350
2BE8C
  3
ACAD_COLOR
350
2BE7C
  3
ACAD_DETAILVIEWSTYLE
350
28920
  3
ACAD_GROUP
350
D
  3
ACAD_IMAGE_VARS
350
283ED
  3
ACAD_LAYOUT
350
DB2
  3
ACAD_MATERIAL
350
2BDF4
  3
ACAD_MLEADERSTYLE
350
2BDFA
  3
ACAD_MLINESTYLE
350
1B
  3
ACAD_PLOTSETTINGS
350
DB3
  3
ACAD_PLOTSTYLENAME
350
FB5B
  3
ACAD_SCALELIST
350
283C1
  3
ACAD_SECTIONVIEWSTYLE
350
28921
  3
ACAD_TABLESTYLE
350
2BDF8
  3
ACAD_VISUALSTYLE
350
2BDDB
  3
AcadDim
350
264CA
  3
ACDB_RECOMPOSE_DATA
350
2BEF8
  3
AcDbVariableDictionary
350
106A6
  3
APPDATA
350
283EB
  3
ASE_INDEX_DICTIONARY
350
1A99F
  3
DWGPROPS
350
2BEF9
  3
FX_DICT_DIMENSION_PALETTE
350
28918
  3
FX_DICT_DIMENSION_PALETTE_RECENTLIST
350
28919
  0
DICTIONARY
  5
2BE9C
330
8
100
AcDbDictionary
280
     1
281
     1
  0
DICTIONARY
  5
254EC
330
2
100
AcDbDictionary
280
     1
281
     1
  3
ACAD_LAYERSTATES
360
254F9
  3
ACLYDICTIONARY
360
2BE6E
  0
DICTIONARY
  5
2A24A
330
2A249
100
AcDbDictionary
280
     1
281
     1
  3
ADSK_XREC_LAYER_RECONCILED
360
2A24B
  0
DICTIONARY
  5
2B4B3
330
18
100
AcDbDictionary
280
     1
281
     1
  3
ACAD_SORTENTS
360
2B4B4
  0
DICTIONARY
  5
2BF35
330
2BE3F
100
AcDbDictionary
280
     1
281
     1
  3
ACAD_XREC_ROUNDTRIP
360
2BF36
  0
DICTIONARY
  5
2BE41
330
2BE40
100
AcDbDictionary
280
     1
281
     1
  3
ACAD_XREC_ROUNDTRIP
360
2BF37
  3
ASDK_XREC_ANNOTATION_SCALE_INFO
360
2BE42
  0
DICTIONARY
  5
2BEFA
102
{ACAD_REACTORS
330
C
102
}
330
C
100
AcDbDictionary
281
     1
  3
INTERFERECOLOR
350
2BEFB
  0
XRECORD
  5
2BE8C
102
{ACAD_REACTORS
330
C
102
}
330
C
100
AcDbXrecord
280
     1
300
ACDLT
300
2019
300
87085ACDLT_2019_0F
  0
DICTIONARY
  5
2BE7C
102
{ACAD_REACTORS
330
C
102
}
330
C
100
AcDbDictionary
281
     1
  0
DICTIONARY
  5
28920
102
{ACAD_REACTORS
330
C
102
}
330
C
100
AcDbDictionary
281
     1
  3
Imperial24
350
2BE7E
  0
DICTIONARY
  5
D
102
{ACAD_REACTORS
330
C
102
}
330
C
100
AcDbDictionary
281
     1
  0
RASTERVARIABLES
  5
283ED
102
{ACAD_REACTORS
330
C
102
}
330
C
100
AcDbRasterVariables
 90
        0
 70
     1
 71
     1
 72
     0
  0
DICTIONARY
  5
DB2
102
{ACAD_REACTORS
330
C
102
}
330
C
100
AcDbDictionary
281
     1
  3
Model
350
FB5D
  3
Sheet1
350
2BE3C
  0
DICTIONARY
  5
2BDF4
102
{ACAD_REACTORS
330
C
102
}
330
C
100
AcDbDictionary
281
     1
  3
ByBlock
350
2BE7A
  3
ByLayer
350
2BDF5
  3
Global
350
2BDF7
  0
DICTIONARY
  5
2BDFA
102
{ACAD_REACTORS
330
C
102
}
330
C
100
AcDbDictionary
281
     1
  3
Standard
350
2BDFB
  0
DICTIONARY
  5
1B
102
{ACAD_REACTORS
330
C
102
}
330
C
100
AcDbDictionary
281
     1
  3
STANDARD
350
1C
  0
DICTIONARY
  5
DB3
102
{ACAD_REACTORS
330
C
102
}
330
C
100
AcDbDictionary
281
     1
  0
ACDBDICTIONARYWDFLT
  5
FB5B
102
{ACAD_REACTORS
330
C
102
}
330
C
100
AcDbDictionary
281
     1
  3
Normal
350
FB5C
100
AcDbDictionaryWithDefault
340
FB5C
  0
DICTIONARY
  5
283C1
102
{ACAD_REACTORS
330
C
102
}
330
C
100
AcDbDictionary
281
     1
  3
A0
350
283C2
  3
A1
350
283C3
  3
A2
350
283C4
  3
A3
350
283C5
  3
A4
350
283C6
  3
A5
350
283C7
  3
A6
350
283C8
  3
A7
350
283C9
  3
A8
350
283CA
  3
A9
350
283CB
  3
B0
350
283CC
  3
B1
350
283CD
  3
B2
350
283CE
  3
B3
350
283CF
  3
B4
350
283D0
  3
B5
350
283D1
  3
B6
350
283D2
  3
B7
350
283D3
  3
B8
350
283D4
  3
B9
350
283D5
  3
C0
350
283D6
  3
C1
350
283D7
  3
C2
350
283D8
  3
C3
350
283D9
  3
C4
350
283DA
  3
C5
350
283DB
  3
C6
350
283DC
  3
C7
350
283DD
  3
C8
350
283DE
  3
C9
350
283DF
  3
D0
350
283E0
  3
D1
350
283E1
  3
D2
350
283E2
  0
DICTIONARY
  5
28921
102
{ACAD_REACTORS
330
C
102
}
330
C
100
AcDbDictionary
281
     1
  3
Imperial24
350
2BE7D
  0
DICTIONARY
  5
2BDF8
102
{ACAD_REACTORS
330
C
102
}
330
C
100
AcDbDictionary
281
     1
  3
Standard
350
2BDF9
  0
DICTIONARY
  5
2BDDB
102
{ACAD_REACTORS
330
C
102
}
330
C
100
AcDbDictionary
281
     1
  3
2dWireframe
350
2BDE0
  3
Basic
350
2BDE3
  3
Brighten
350
2BDE7
  3
ColorChange
350
2BDEB
  3
Conceptual
350
2BDE5
  3
Dim
350
2BDE6
  3
EdgeColorOff
350
2BDEE
  3
Facepattern
350
2BDEA
  3
Flat
350
2BDDC
  3
FlatWithEdges
350
2BDDD
  3
Gouraud
350
2BDDE
  3
GouraudWithEdges
350
2BDDF
  3
Hidden
350
2BDE2
  3
JitterOff
350
2BDEC
  3
Linepattern
350
2BDE9
  3
OverhangOff
350
2BDED
  3
Realistic
350
2BDE4
  3
Shaded
350
2BDF3
  3
Shaded with edges
350
2BDF2
  3
Shades of Gray
350
2BDEF
  3
Sketchy
350
2BDF0
  3
Thicken
350
2BDE8
  3
Wireframe
350
2BDE1
  3
X-Ray
350
2BDF1
  0
XRECORD
  5
264CA
102
{ACAD_REACTORS
330
C
102
}
330
C
100
AcDbXrecord
280
     1
 90
   990106
  3

 60
     0
 61
     0
 62
     4
 63
     4
 64
     1
 65
     0
 66
     0
 67
     3
 68
     1
 69
     0
 70
     0
 71
     0
 72
     0
 40
0.0
170
     2
340
0
  0
XRECORD
  5
2BEF8
102
{ACAD_REACTORS
330
C
102
}
330
C
100
AcDbXrecord
280
     1
 90
        1
330
2BDF9
  0
DICTIONARY
  5
106A6
102
{ACAD_REACTORS
330
C
102
}
330
C
100
AcDbDictionary
281
     1
  3
CANNOSCALE
350
2BDFE
  3
CMLEADERSTYLE
350
2BE00
  3
CTABLESTYLE
350
2BDFF
  3
CVIEWDETAILSTYLE
350
2BEE1
  3
CVIEWSECTIONSTYLE
350
2BEE2
  3
DGNFRAME
350
2BEE9
  3
DIMASSOC
350
2BEE8
  3
HIDETEXT
350
2BEE7
  3
INDEXCTL
350
2BEE6
  3
LAYEREVAL
350
2BEE4
  3
LAYERNOTIFY
350
2BEE5
  3
LIGHTINGUNITS
350
2BEE3
  3
MSLTSCALE
350
2BE01
  3
SORTENTS
350
106A7
  3
XCLIPFRAME
350
2BEF6
  0
DICTIONARY
  5
283EB
102
{ACAD_REACTORS
330
C
102
}
330
C
100
AcDbDictionary
281
     1
  0
DICTIONARY
  5
1A99F
102
{ACAD_REACTORS
330
C
102
}
330
C
100
AcDbDictionary
281
     1
  3
ASEBlockHierarchyIndexRecord
350
1A9A1
1001
DCO15
1040
1464612067.17
  0
XRECORD
  5
2BEF9
102
{ACAD_REACTORS
330
C
102
}
330
C
100
AcDbXrecord
280
     1
  1
DWGPROPS COOKIE
  2

  3

  4

  6

  7

  8
NI0949
  9

300
=
301
=
302
=
303
=
304
=
305
=
306
=
307
=
308
=
309
=
 40
0.0389013310185185
 41
2451224.660162037
 42
2458549.470243056
  1

 90
        0
  0
DICTIONARY
  5
28918
102
{ACAD_REACTORS
330
C
102
}
330
C
100
AcDbDictionary
281
     1
  0
DICTIONARY
  5
28919
102
{ACAD_REACTORS
330
C
102
}
330
C
100
AcDbDictionary
281
     1
  3
10
350
29D4F
  3
11
350
2AD07
  3
12
350
2AD08
  3
13
350
2AD29
  3
14
350
2AD2A
  3
15
350
2B86B
  3
16
350
2B879
  3
7
350
2894A
  3
8
350
29D3F
  3
9
350
29D4B
  0
DICTIONARY
  5
254F9
102
{ACAD_REACTORS
330
254EC
102
}
330
254EC
100
AcDbDictionary
281
     1
  0
DICTIONARY
  5
2BE6E
102
{ACAD_REACTORS
330
254EC
102
}
330
254EC
100
AcDbDictionary
281
     1
  3
*A1
350
2BE6F
  3
*A10
350
2BE76
  3
*A11
350
2BE77
  3
*A2
350
2BE78
  3
*A3
350
2BE79
  3
*A4
350
2BE70
  3
*A5
350
2BE71
  3
*A6
350
2BE72
  3
*A7
350
2BE73
  3
*A8
350
2BE74
  3
*A9
350
2BE75
1001
ACAD
1000
<All
  0
XRECORD
  5
2A24B
102
{ACAD_REACTORS
330
2A24A
102
}
330
2A24A
100
AcDbXrecord
280
     1
290
     1
  0
SORTENTSTABLE
  5
2B4B4
102
{ACAD_REACTORS
330
2B4B3
102
}
330
2B4B3
100
AcDbSortentsTable
330
18
331
176FC
  5
187CD
331
187C8
  5
187CE
331
187C9
  5
187CF
331
187CB
  5
187D0
331
187CC
  5
187D1
331
187CD
  5
187D2
331
187CE
  5
187D3
331
187CF
  5
187D4
331
187D0
  5
187D5
331
187D1
  5
187D6
331
187D2
  5
187D7
331
187D3
  5
216E7
331
187D4
  5
21ACC
331
187D5
  5
27C69
331
187D6
  5
27C6A
331
187D7
  5
27C6B
331
216E7
  5
27C6C
331
21ACC
  5
27C6D
331
27C69
  5
27C6E
331
27C6A
  5
27C6F
331
27C6C
  5
27C71
331
27C6D
  5
27C72
331
27C6E
  5
27C73
331
27C6F
  5
27C74
331
27C70
  5
27C75
331
27C71
  5
27C76
331
27C72
  5
27C77
331
27C75
  5
27C7B
331
27C76
  5
27C7D
331
27C77
  5
27C7E
331
27C79
  5
27C7F
331
27C7A
  5
27C80
331
27C7B
  5
27C81
331
27C7D
  5
27C83
331
27C83
  5
27CCC
331
27C84
  5
27CCD
331
27C8E
  5
27CCE
331
27CC9
  5
27CCF
331
27CCA
  5
27CD0
331
27CCD
  5
27CD2
331
27CCE
  5
27CD3
331
27CCF
  5
27CD4
331
27CD0
  5
27CD5
331
27CD1
  5
27CD6
331
27CD2
  5
27CD7
331
27CD3
  5
27CD8
331
27CD4
  5
27CD9
331
27CD5
  5
27CDA
331
27CD6
  5
27CDB
331
27CD7
  5
27CDC
331
27CD8
  5
27CDD
331
27CD9
  5
27CDE
331
27CDA
  5
27CDF
331
27CDB
  5
27CE0
331
27CDC
  5
27CE1
331
27CDD
  5
27CE2
331
27CDE
  5
27CE3
331
27CDF
  5
27CE4
331
27CE0
  5
27CE7
331
27CE1
  5
27CE8
331
27CE2
  5
27CE9
331
27CE3
  5
27CEA
331
27CE4
  5
27CEB
331
27CE7
  5
27CEC
331
27CE8
  5
27CED
331
27CE9
  5
27CEE
331
27CEA
  5
27CEF
331
27CEB
  5
27CF0
331
27CEC
  5
27CF1
331
27CF0
  5
27CF5
331
27CF1
  5
27CF6
331
27CF2
  5
27CF7
331
27CF3
  5
27CF8
331
27CF4
  5
27CF9
331
27CF5
  5
27CFA
331
27CF8
  5
27CFD
331
27CF9
  5
27D02
331
27CFA
  5
27D03
331
27CFB
  5
27D04
331
27CFC
  5
27D05
331
27CFD
  5
27D06
331
27D02
  5
27D07
331
27D03
  5
27D08
331
27D04
  5
27D09
331
27D05
  5
27D0A
331
27D06
  5
27D0B
331
27D07
  5
27D0C
331
27D08
  5
27D0D
331
27D09
  5
27D0E
331
27D0A
  5
27D0F
331
27D0D
  5
27D12
331
27D0E
  5
27D13
331
27D0F
  5
27D14
331
27D10
  5
27D15
331
27D13
  5
27D20
331
27D14
  5
27D21
331
27D3D
  5
27D60
331
27D53
  5
27D61
331
27D54
  5
27D62
331
27D5A
  5
27D63
331
27D6D
  5
27D73
331
27D9B
  5
27DA0
331
27D9C
  5
27DA1
331
27D9D
  5
27DA2
331
27D9E
  5
27DA3
331
27D9F
  5
27DA4
331
27DE3
  5
27DE8
331
27DE4
  5
27DE9
331
27DE7
  5
27DEC
331
27DE8
  5
27DED
331
27DE9
  5
27DEE
331
27DEA
  5
27DEF
331
27DEB
  5
27DF0
331
27DEC
  5
27DF1
331
27DED
  5
27DF2
331
27DEE
  5
27DF3
331
27DEF
  5
27DF4
331
27DF0
  5
27DF5
331
27DF1
  5
27DF6
331
27DF2
  5
27DF7
331
27DF3
  5
27DF8
331
27DF4
  5
27DF9
331
27DF5
  5
27DFA
331
27DF6
  5
27DFB
331
27DF7
  5
27DFC
331
27DF8
  5
27DFD
331
27DF9
  5
27DFE
331
27DFA
  5
27DFF
331
27DFB
  5
27E00
331
27DFC
  5
27E02
331
27DFD
  5
27E03
331
27DFE
  5
27E04
331
27DFF
  5
27E05
331
27E00
  5
27E06
331
27E02
  5
27E07
331
27E03
  5
27E08
331
27E04
  5
27FE0
331
27E05
  5
27FE1
331
27E06
  5
28C33
331
27E07
  5
28C34
331
27E08
  5
28C35
331
28C33
  5
28C38
331
28C34
  5
28C39
331
28C35
  5
28C3A
331
28C36
  5
28C3B
331
28C37
  5
28C3C
331
28C38
  5
28C3D
331
28C39
  5
28C3E
331
28C3A
  5
28C3F
331
28C3B
  5
28C40
331
28C3C
  5
28C41
331
28C3D
  5
28C42
331
28C3E
  5
28C43
331
28C3F
  5
28C44
331
28C40
  5
28C45
331
28C41
  5
28C46
331
28C42
  5
28C47
331
28C43
  5
28C48
331
28C44
  5
28C49
331
28C45
  5
28C4A
331
28C46
  5
28C4B
331
28C47
  5
28C4C
331
28C48
  5
28C4D
331
28C49
  5
28C4E
331
28C4A
  5
28C4F
331
28C4B
  5
28C50
331
28C4C
  5
28C51
331
28C4D
  5
28C52
331
28C4E
  5
28C53
331
28C4F
  5
28C54
331
28C50
  5
28C55
331
28C51
  5
28C56
331
28C52
  5
28C57
331
28C53
  5
28C58
331
28C54
  5
28C59
331
28C55
  5
28C5A
331
28C56
  5
28C5B
331
28C57
  5
28C5C
331
28C58
  5
28C5D
331
28C59
  5
28C5E
331
28C5A
  5
28C5F
331
28C5B
  5
28C60
331
28C5C
  5
28C61
331
28C5D
  5
28C62
331
28C5E
  5
28C63
331
28C5F
  5
28C64
331
28C60
  5
28C65
331
28C61
  5
28C66
331
28C62
  5
28C67
331
28C63
  5
28C68
331
28C64
  5
28C69
331
28C65
  5
28C6A
331
28C66
  5
28C6B
331
28C67
  5
28C6C
331
28C68
  5
28C6D
331
28C69
  5
28C6E
331
28C6A
  5
28C6F
331
28C6B
  5
28C70
331
28C6C
  5
28C71
331
28C6D
  5
28C72
331
28C6E
  5
28C73
331
28C6F
  5
28C74
331
28C70
  5
28C75
331
28C71
  5
28C76
331
28C72
  5
28CF1
331
28C73
  5
28CF2
331
28C74
  5
28D84
331
28C75
  5
29BC4
331
28C76
  5
29BC5
331
28D84
  5
29BC8
331
29D0B
  5
29D10
331
29D0C
  5
29D11
331
29D0D
  5
29D12
331
29D0E
  5
29D13
331
29D0F
  5
29D14
331
29D10
  5
29D15
331
29D11
  5
29D16
331
29D12
  5
29D17
331
29D13
  5
29D18
331
29D14
  5
29D19
331
29D15
  5
29D1A
331
29D16
  5
29D1B
331
29D17
  5
29D1C
331
29D18
  5
29D1D
331
29D19
  5
29D1E
331
29D1A
  5
29D1F
331
29D1B
  5
29D20
331
29D1C
  5
29D21
331
29D1D
  5
29D22
331
29D1E
  5
29D23
331
29D1F
  5
29D24
331
29D20
  5
29D25
331
29D21
  5
29D26
331
29D22
  5
29D27
331
29D23
  5
29D28
331
29D24
  5
29D29
331
29D25
  5
29D2A
331
29D26
  5
29D2C
331
29D27
  5
29D2D
331
29D28
  5
29D2E
331
29D29
  5
29D2F
331
29D2A
  5
2A014
331
2AA4D
  5
2AA52
331
2AA4E
  5
2AA53
331
2AA4F
  5
2AA54
331
2AA50
  5
2AA55
331
2AA51
  5
2AA56
331
2AA52
  5
2AA57
331
2AA53
  5
2AA58
331
2AA54
  5
2AA59
331
2AA55
  5
2AA5A
331
2AA56
  5
2AA5B
331
2AA57
  5
2AA5C
331
2AA58
  5
2AA5D
331
2AA59
  5
2AA5E
331
2AA5A
  5
2AA5F
331
2AA5B
  5
2AA60
331
2AA5C
  5
2AA61
331
2AA5D
  5
2AA62
331
2AA5E
  5
2AA63
331
2AA5F
  5
2AA64
331
2AA60
  5
2AA65
331
2AA61
  5
2AA66
331
2AA62
  5
2AA67
331
2AA63
  5
2AA68
331
2AA64
  5
2AA69
331
2AA65
  5
2AA6A
331
2AA66
  5
2AA6B
331
2AA67
  5
2AA6C
331
2AA68
  5
2AA6D
331
2AA69
  5
2AA6E
331
2AA6A
  5
2AA6F
331
2AA6B
  5
2AA70
331
2AA6C
  5
2AA71
331
2AA6D
  5
2AA72
331
2AA6E
  5
2AA73
331
2AA6F
  5
2AA74
331
2AA70
  5
2AA75
331
2AA71
  5
2AA76
331
2AA72
  5
2AA77
331
2AA73
  5
2AA78
331
2AA74
  5
2AA79
331
2AA75
  5
2AA7A
331
2AA76
  5
2AA7B
331
2AA77
  5
2AA7C
331
2AA78
  5
2AA7D
331
2AA79
  5
2AA7E
331
2AA7A
  5
2AA7F
331
2AA7B
  5
2AA80
331
2AA7C
  5
2AA81
331
2AA7D
  5
2AA82
331
2AA7E
  5
2AA83
331
2AA7F
  5
2AA84
331
2AA80
  5
2AA85
331
2AA81
  5
2AA86
331
2AA82
  5
2AA87
331
2AA83
  5
2AA88
331
2AA84
  5
2AA89
331
2AA85
  5
2AA8A
331
2AA86
  5
2AA8B
331
2AA87
  5
2AA8C
331
2AA88
  5
2AA8D
331
2AA89
  5
2AA8E
331
2AA8A
  5
2AA8F
331
2AA8B
  5
2AA90
331
2AA8C
  5
2AA91
331
2AA8D
  5
2AA92
331
2AA8E
  5
2AA93
331
2AA8F
  5
2AA94
331
2AA90
  5
2AA95
331
2AA91
  5
2AA96
331
2AA92
  5
2AA97
331
2AA93
  5
2AA98
331
2AA94
  5
2AA99
331
2AA95
  5
2AA9A
331
2AA96
  5
2AA9B
331
2AA97
  5
2AA9C
331
2AA98
  5
2AA9D
331
2AA99
  5
2AA9E
331
2AA9A
  5
2AA9F
331
2AA9B
  5
2AAA0
331
2AA9C
  5
2AAA1
331
2AA9D
  5
2AAA2
331
2AA9E
  5
2AAA3
331
2AA9F
  5
2AAA4
331
2AAA0
  5
2AAA5
331
2AAA1
  5
2AAA6
331
2AAA3
  5
2AAA8
331
2AAA4
  5
2AAA9
331
2AAA5
  5
2AAAA
331
2AAA6
  5
2AAAB
331
2AABB
  5
2AAC0
331
2AABC
  5
2AAC1
331
2AABD
  5
2AAC2
331
2AABE
  5
2AAC3
331
2AABF
  5
2AAC4
331
2AAC0
  5
2AAC5
331
2AAC1
  5
2AAC6
331
2AAC2
  5
2AAC7
331
2AAC3
  5
2AAC8
331
2AAC4
  5
2AAC9
331
2AAC5
  5
2AACA
331
2AAC6
  5
2AACB
331
2AAC7
  5
2AACC
331
2AAC8
  5
2AACD
331
2AAC9
  5
2AACE
331
2AACA
  5
2AACF
331
2AACB
  5
2AAD0
331
2AACC
  5
2AAD1
331
2AACD
  5
2AAD2
331
2AACE
  5
2AAD3
331
2AACF
  5
2AAD4
331
2AAD0
  5
2AAD5
331
2AAD1
  5
2AAD6
331
2AAD2
  5
2AAD7
331
2AAD3
  5
2AAD8
331
2AAD4
  5
2AAD9
331
2AAD5
  5
2AADA
331
2AAD6
  5
2AADB
331
2AAD7
  5
2AADC
331
2AAD8
  5
2AADD
331
2AAD9
  5
2AADE
331
2AADA
  5
2AADF
331
2AADB
  5
2AAE0
331
2AADC
  5
2AAE1
331
2AADD
  5
2AAE2
331
2AADE
  5
2AAE3
331
2AADF
  5
2AAE4
331
2AAE0
  5
2AAE5
331
2AAE1
  5
2AAE6
331
2AAE2
  5
2AAE7
331
2AAE3
  5
2AAE8
331
2AAE4
  5
2AAE9
331
2AAE5
  5
2AAEA
331
2AAE6
  5
2AAEB
331
2AAE7
  5
2AAEC
331
2AAE8
  5
2AAED
331
2AAE9
  5
2AAEE
331
2AAEA
  5
2AAEF
331
2AAEB
  5
2AAF0
331
2AAEC
  5
2AAF1
331
2AAED
  5
2AAF2
331
2AAEE
  5
2AAF3
331
2AAEF
  5
2AAF4
331
2AAF4
  5
2AAF9
331
2AAF5
  5
2AAFA
331
2AAF6
  5
2AAFB
331
2AAF7
  5
2AAFC
331
2AAF8
  5
2AAFD
331
2AAF9
  5
2AAFE
331
2AAFA
  5
2AAFF
331
2AAFB
  5
2AB00
331
2AAFC
  5
2AB01
331
2AAFD
  5
2AB02
331
2AAFE
  5
2AB03
331
2AAFF
  5
2AB04
331
2AB00
  5
2AB05
331
2AB01
  5
2AB06
331
2AB02
  5
2AB25
331
2AB03
  5
2AB26
331
2AB05
  5
2AB28
331
2AB06
  5
2AB29
331
2AB25
  5
2AB2A
331
2AB26
  5
2AB2B
331
2AB54
  5
2AC4B
  0
XRECORD
  5
2BF36
102
{ACAD_REACTORS
330
2BF35
102
}
330
2BF35
100
AcDbXrecord
280
     1
102
SHADEPLOT
 70
     0
  0
XRECORD
  5
2BF37
102
{ACAD_REACTORS
330
2BE41
102
}
330
2BE41
100
AcDbXrecord
280
     1
102
SHADEPLOT
 70
     0
  0
XRECORD
  5
2BE42
102
{ACAD_REACTORS
330
2BE41
102
}
330
2BE41
100
AcDbXrecord
280
     1
 90
        1
340
283C2
  0
XRECORD
  5
2BEFB
102
{ACAD_REACTORS
330
2BEFA
102
}
330
2BEFA
100
AcDbXrecord
280
     1
1004
1800000001000000000000C0000000000000000000000000
  0
ACDBDETAILVIEWSTYLE
  5
2BE7E
102
{ACAD_XDICTIONARY
360
2BF3C
102
}
102
{ACAD_REACTORS
330
28920
102
}
330
28920
100
AcDbModelDocViewStyle
 70
     0
  3
Imperial24
290
     0
100
AcDbDetailViewStyle
 70
     0
 71
     0
 90
        3
 71
     1
340
F
 40
0.24
340
0
 40
0.24
300

 40
0.36
280
     3
 71
     2
340
14
 90
       25
 71
     3
340
F
 40
0.24
 90
        1
 40
0.75
 90
        1
300
%<\AcVar ViewType \f "%tc1">% %<\AcVar ViewDetailId>%\PSCALE %<\AcVar ViewScale \f "%sn">%
 71
     4
340
14
 90
       25
340
14
 90
       25
280
     0
  0
LAYOUT
  5
FB5D
102
{ACAD_XDICTIONARY
360
2BEFC
102
}
102
{ACAD_REACTORS
330
DB2
102
}
330
DB2
100
AcDbPlotSettings
  1

  2
\\HONAMI\LBP-910
  4
A3
  6

 40
5.873749732971191
 41
5.873747825622558
 42
5.873748779296875
 43
5.873748779296875
 44
296.9259948730469
 45
419.9466552734374
 46
0.0
 47
0.0
 48
-134.0496161171158
 49
-116.2294073187233
140
1105.745250909008
141
633.2284101676227
142
1.0
143
2.866823569012708
 70
 11952
 72
     1
 73
     1
 74
     1
  7
monochrome.ctb
 75
     0
147
0.3488181173089717
148
98.7130430422485
149
74.96499340265336
100
AcDbLayout
  1
Model
 70
     1
 71
     0
 10
0.0
 20
0.0
 11
12.0
 21
9.0
 12
0.0
 22
0.0
 32
0.0
 14
336.883192570507
 24
-2496.119611231484
 34
0.0
 15
1059.098096070792
 25
-2225.691602833293
 35
137.5
146
0.0
 13
0.0
 23
0.0
 33
0.0
 16
1.0
 26
0.0
 36
0.0
 17
0.0
 27
1.0
 37
0.0
 76
     0
330
18
  0
LAYOUT
  5
2BE3C
102
{ACAD_XDICTIONARY
360
2BF33
102
}
102
{ACAD_REACTORS
330
DB2
102
}
330
DB2
100
AcDbPlotSettings
  1

  2
none_device
  4
ANSI_A_(11.00_x_8.50_Inches)
  6

 40
6.349999999999999
 41
19.05
 42
6.349999999999999
 43
19.05
 44
279.4
 45
215.9
 46
0.0
 47
0.0
 48
0.0
 49
0.0
140
0.0
141
0.0
142
1.0
143
1.0
 70
   688
 72
     0
 73
     0
 74
     5
  7

 75
    16
147
1.0
148
0.0
149
0.0
100
AcDbLayout
  1
Sheet1
 70
     1
 71
     1
 10
0.0
 20
0.0
 11
0.0
 21
0.0
 12
0.0
 22
0.0
 32
0.0
 14
1.049999999999999
 24
0.6999999999999998
 34
0.0
 15
9.449999999999999
 25
6.3
 35
0.0
146
0.0
 13
0.0
 23
0.0
 33
0.0
 16
1.0
 26
0.0
 36
0.0
 17
0.0
 27
1.0
 37
0.0
 76
     0
330
2BE3B
331
2BE3F
  0
MATERIAL
  5
2BE7A
102
{ACAD_XDICTIONARY
360
2BF38
102
}
102
{ACAD_REACTORS
330
2BDF4
102
}
330
2BDF4
100
AcDbMaterial
  1
ByBlock
 73
     1
 78
     1
172
     1
176
     1
270
     1
274
     1
  0
MATERIAL
  5
2BDF5
102
{ACAD_XDICTIONARY
360
2BF2E
102
}
102
{ACAD_REACTORS
330
2BDF4
102
}
330
2BDF4
100
AcDbMaterial
  1
ByLayer
 73
     1
 78
     1
172
     1
176
     1
270
     1
274
     1
  0
MATERIAL
  5
2BDF7
102
{ACAD_XDICTIONARY
360
2BF30
102
}
102
{ACAD_REACTORS
330
2BDF4
102
}
330
2BDF4
100
AcDbMaterial
  1
Global
 73
     1
 78
     1
172
     1
176
     1
270
     1
274
     1
  0
MLEADERSTYLE
  5
2BDFB
102
{ACAD_REACTORS
330
2BDFA
102
}
330
2BDFA
100
AcDbMLeaderStyle
170
     2
171
     1
172
     0
 90
        2
 40
0.0
 41
0.0
173
     1
 91
-1056964608
340
12
 92
       -2
290
     1
 42
0.09
291
     1
 43
0.36
  3
Standard
 44
0.18
300

342
F
174
     1
178
     6
175
     1
176
     0
 93
-1056964608
 45
0.18
292
     0
297
     0
 46
0.18
 94
-1056964608
 47
1.0
 49
1.0
140
1.0
293
     1
141
0.0
294
     1
177
     0
142
1.0
295
     0
296
     0
143
0.125
1001
ACAD_MLEADERVER
1070
     2
  0
MLINESTYLE
  5
1C
102
{ACAD_REACTORS
330
1B
102
}
330
1B
100
AcDbMlineStyle
  2
STANDARD
 70
     0
  3

 62
   256
 51
90.0
 52
90.0
 71
     2
 49
0.5
 62
   256
  6
BYLAYER
 49
-0.5
 62
   256
  6
BYLAYER
  0
ACDBPLACEHOLDER
  5
FB5C
102
{ACAD_REACTORS
330
FB5B
102
}
330
FB5B
  0
SCALE
  5
283C2
102
{ACAD_REACTORS
330
283C1
102
}
330
283C1
100
AcDbScale
 70
     0
300
1:1
140
1.0
141
1.0
290
     1
  0
SCALE
  5
283C3
102
{ACAD_REACTORS
330
283C1
102
}
330
283C1
100
AcDbScale
 70
     0
300
1:2
140
1.0
141
2.0
290
     0
  0
SCALE
  5
283C4
102
{ACAD_REACTORS
330
283C1
102
}
330
283C1
100
AcDbScale
 70
     0
300
1:4
140
1.0
141
4.0
290
     0
  0
SCALE
  5
283C5
102
{ACAD_REACTORS
330
283C1
102
}
330
283C1
100
AcDbScale
 70
     0
300
1:5
140
1.0
141
5.0
290
     0
  0
SCALE
  5
283C6
102
{ACAD_REACTORS
330
283C1
102
}
330
283C1
100
AcDbScale
 70
     0
300
1:8
140
1.0
141
8.0
290
     0
  0
SCALE
  5
283C7
102
{ACAD_REACTORS
330
283C1
102
}
330
283C1
100
AcDbScale
 70
     0
300
1:10
140
1.0
141
10.0
290
     0
  0
SCALE
  5
283C8
102
{ACAD_REACTORS
330
283C1
102
}
330
283C1
100
AcDbScale
 70
     0
300
1:16
140
1.0
141
16.0
290
     0
  0
SCALE
  5
283C9
102
{ACAD_REACTORS
330
283C1
102
}
330
283C1
100
AcDbScale
 70
     0
300
1:20
140
1.0
141
20.0
290
     0
  0
SCALE
  5
283CA
102
{ACAD_REACTORS
330
283C1
102
}
330
283C1
100
AcDbScale
 70
     0
300
1:30
140
1.0
141
30.0
290
     0
  0
SCALE
  5
283CB
102
{ACAD_REACTORS
330
283C1
102
}
330
283C1
100
AcDbScale
 70
     0
300
1:40
140
1.0
141
40.0
290
     0
  0
SCALE
  5
283CC
102
{ACAD_REACTORS
330
283C1
102
}
330
283C1
100
AcDbScale
 70
     0
300
1:50
140
1.0
141
50.0
290
     0
  0
SCALE
  5
283CD
102
{ACAD_REACTORS
330
283C1
102
}
330
283C1
100
AcDbScale
 70
     0
300
1:100
140
1.0
141
100.0
290
     0
  0
SCALE
  5
283CE
102
{ACAD_REACTORS
330
283C1
102
}
330
283C1
100
AcDbScale
 70
     0
300
2:1
140
2.0
141
1.0
290
     0
  0
SCALE
  5
283CF
102
{ACAD_REACTORS
330
283C1
102
}
330
283C1
100
AcDbScale
 70
     0
300
4:1
140
4.0
141
1.0
290
     0
  0
SCALE
  5
283D0
102
{ACAD_REACTORS
330
283C1
102
}
330
283C1
100
AcDbScale
 70
     0
300
8:1
140
8.0
141
1.0
290
     0
  0
SCALE
  5
283D1
102
{ACAD_REACTORS
330
283C1
102
}
330
283C1
100
AcDbScale
 70
     0
300
10:1
140
10.0
141
1.0
290
     0
  0
SCALE
  5
283D2
102
{ACAD_REACTORS
330
283C1
102
}
330
283C1
100
AcDbScale
 70
     0
300
100:1
140
100.0
141
1.0
290
     0
  0
SCALE
  5
283D3
102
{ACAD_REACTORS
330
283C1
102
}
330
283C1
100
AcDbScale
 70
     0
300
1/128" = 1'-0"
140
0.0078125
141
12.0
290
     0
  0
SCALE
  5
283D4
102
{ACAD_REACTORS
330
283C1
102
}
330
283C1
100
AcDbScale
 70
     0
300
1/64" = 1'-0"
140
0.015625
141
12.0
290
     0
  0
SCALE
  5
283D5
102
{ACAD_REACTORS
330
283C1
102
}
330
283C1
100
AcDbScale
 70
     0
300
1/32" = 1'-0"
140
0.03125
141
12.0
290
     0
  0
SCALE
  5
283D6
102
{ACAD_REACTORS
330
283C1
102
}
330
283C1
100
AcDbScale
 70
     0
300
1/16" = 1'-0"
140
0.0625
141
12.0
290
     0
  0
SCALE
  5
283D7
102
{ACAD_REACTORS
330
283C1
102
}
330
283C1
100
AcDbScale
 70
     0
300
3/32" = 1'-0"
140
0.09375
141
12.0
290
     0
  0
SCALE
  5
283D8
102
{ACAD_REACTORS
330
283C1
102
}
330
283C1
100
AcDbScale
 70
     0
300
1/8" = 1'-0"
140
0.125
141
12.0
290
     0
  0
SCALE
  5
283D9
102
{ACAD_REACTORS
330
283C1
102
}
330
283C1
100
AcDbScale
 70
     0
300
3/16" = 1'-0"
140
0.1875
141
12.0
290
     0
  0
SCALE
  5
283DA
102
{ACAD_REACTORS
330
283C1
102
}
330
283C1
100
AcDbScale
 70
     0
300
1/4" = 1'-0"
140
0.25
141
12.0
290
     0
  0
SCALE
  5
283DB
102
{ACAD_REACTORS
330
283C1
102
}
330
283C1
100
AcDbScale
 70
     0
300
3/8" = 1'-0"
140
0.375
141
12.0
290
     0
  0
SCALE
  5
283DC
102
{ACAD_REACTORS
330
283C1
102
}
330
283C1
100
AcDbScale
 70
     0
300
1/2" = 1'-0"
140
0.5
141
12.0
290
     0
  0
SCALE
  5
283DD
102
{ACAD_REACTORS
330
283C1
102
}
330
283C1
100
AcDbScale
 70
     0
300
3/4" = 1'-0"
140
0.75
141
12.0
290
     0
  0
SCALE
  5
283DE
102
{ACAD_REACTORS
330
283C1
102
}
330
283C1
100
AcDbScale
 70
     0
300
1" = 1'-0"
140
1.0
141
12.0
290
     0
  0
SCALE
  5
283DF
102
{ACAD_REACTORS
330
283C1
102
}
330
283C1
100
AcDbScale
 70
     0
300
1-1/2" = 1'-0"
140
1.5
141
12.0
290
     0
  0
SCALE
  5
283E0
102
{ACAD_REACTORS
330
283C1
102
}
330
283C1
100
AcDbScale
 70
     0
300
3" = 1'-0"
140
3.0
141
12.0
290
     0
  0
SCALE
  5
283E1
102
{ACAD_REACTORS
330
283C1
102
}
330
283C1
100
AcDbScale
 70
     0
300
6" = 1'-0"
140
6.0
141
12.0
290
     0
  0
SCALE
  5
283E2
102
{ACAD_REACTORS
330
283C1
102
}
330
283C1
100
AcDbScale
 70
     0
300
1'-0" = 1'-0"
140
12.0
141
12.0
290
     0
  0
ACDBSECTIONVIEWSTYLE
  5
2BE7D
102
{ACAD_XDICTIONARY
360
2BF3A
102
}
102
{ACAD_REACTORS
330
28921
102
}
330
28921
100
AcDbModelDocViewStyle
 70
     0
  3
Imperial24
290
     0
100
AcDbSectionViewStyle
 70
     0
 71
     0
 90
       78
 71
     1
340
F
 40
0.24
340
0
340
0
 40
0.24
300
I, O, Q, S, X, Z
 40
0.48
 90
        3
 40
0.18
 90
        1
 71
     2
340
14
 90
       25
340
14
 90
       50
 40
0.24
 40
0.0
 40
0.24
 71
     3
340
F
 40
0.24
 90
        1
 40
0.75
 90
        1
300
%<\AcVar ViewType \f "%tc1">% %<\AcVar ViewSectionStartId>%-%<\AcVar ViewSectionEndId>%\PSCALE %<\AcVar ViewScale \f "%sn">%
 71
     4
300
ANSI31
 40
1.0
 90
        0
290
     0
290
     0
 90
        6
 40
0.0
 40
1.570796326794896
 40
0.2617993877991494
 40
1.308996938995747
 40
-0.2617993877991494
 40
1.832595714594046
  0
TABLESTYLE
  5
2BDF9
102
{ACAD_XDICTIONARY
360
2BE8D
102
}
102
{ACAD_REACTORS
330
2BDF8
102
}
330
2BDF8
100
AcDbTableStyle
  3
Standard
 70
     0
 71
     0
 40
0.06
 41
0.06
280
     0
281
     0
  7
STANDARD
140
0.18
170
     2
 62
     0
 63
     7
283
     0
274
    -2
284
     1
 64
     0
275
    -2
285
     1
 65
     0
276
    -2
286
     1
 66
     0
277
    -2
287
     1
 67
     0
278
    -2
288
     1
 68
     0
279
    -2
289
     1
 69
     0
  7
STANDARD
140
0.25
170
     5
 62
     0
 63
     7
283
     0
274
    -2
284
     1
 64
     0
275
    -2
285
     1
 65
     0
276
    -2
286
     1
 66
     0
277
    -2
287
     1
 67
     0
278
    -2
288
     1
 68
     0
279
    -2
289
     1
 69
     0
  7
STANDARD
140
0.18
170
     5
 62
     0
 63
     7
283
     0
274
    -2
284
     1
 64
     0
275
    -2
285
     1
 65
     0
276
    -2
286
     1
 66
     0
277
    -2
287
     1
 67
     0
278
    -2
288
     1
 68
     0
279
    -2
289
     1
 69
     0
  0
VISUALSTYLE
  5
2BDE0
102
{ACAD_XDICTIONARY
360
2BF06
102
}
102
{ACAD_REACTORS
330
2BDDB
102
}
330
2BDDB
100
AcDbVisualStyle
  2
2dWireframe
 70
     4
 71
     0
 72
     2
 73
     0
 90
        0
 40
-0.6
 41
-30.0
 62
     5
 63
     7
 74
     1
 91
        4
 64
     7
 65
   257
 75
     1
175
     1
 42
1.0
 92
        0
 66
   257
 43
1.0
 76
     1
 77
     6
 78
     2
 67
     7
 79
     5
170
     0
171
     0
290
     0
174
     0
 93
        1
 44
0.0
173
     0
291
     0
 45
0.0
1001
ACAD
1000
AcDbSavedByObjectVersion
1070
     0
  0
VISUALSTYLE
  5
2BDE3
102
{ACAD_XDICTIONARY
360
2BF0C
102
}
102
{ACAD_REACTORS
330
2BDDB
102
}
330
2BDDB
100
AcDbVisualStyle
  2
Basic
 70
     7
 71
     1
 72
     0
 73
     1
 90
        0
 40
-0.6
 41
-30.0
 62
     5
 63
     7
 74
     0
 91
        4
 64
     7
 65
   257
 75
     1
175
     1
 42
1.0
 92
        8
 66
     7
 43
1.0
 76
     1
 77
     6
 78
     2
 67
     7
 79
     5
170
     0
171
     0
290
     0
174
     0
 93
        1
 44
0.0
173
     0
291
     1
 45
0.0
1001
ACAD
1000
AcDbSavedByObjectVersion
1070
     0
  0
VISUALSTYLE
  5
2BDE7
102
{ACAD_XDICTIONARY
360
2BF14
102
}
102
{ACAD_REACTORS
330
2BDDB
102
}
330
2BDDB
100
AcDbVisualStyle
  2
Brighten
 70
    12
 71
     2
 72
     2
 73
     0
 90
        0
 40
-0.6
 41
-30.0
 62
     5
 63
     7
 74
     1
 91
        4
 64
     7
 65
   257
 75
     1
175
     1
 42
1.0
 92
        8
 66
     7
 43
1.0
 76
     1
 77
     6
 78
     2
 67
     7
 79
     5
170
     0
171
     0
290
     0
174
     0
 93
        1
 44
50.0
173
     0
291
     1
 45
0.0
1001
ACAD
1000
AcDbSavedByObjectVersion
1070
     0
  0
VISUALSTYLE
  5
2BDEB
102
{ACAD_XDICTIONARY
360
2BF1C
102
}
102
{ACAD_REACTORS
330
2BDDB
102
}
330
2BDDB
100
AcDbVisualStyle
  2
ColorChange
 70
    16
 71
     2
 72
     2
 73
     3
 90
        0
 40
-0.6
 41
-30.0
 62
     5
 63
     8
 74
     1
 91
        4
 64
     7
 65
   257
 75
     1
175
     1
 42
1.0
 92
        8
 66
     8
 43
1.0
 76
     1
 77
     6
 78
     2
 67
     7
 79
     5
170
     0
171
     0
290
     0
174
     0
 93
        1
 44
0.0
173
     0
291
     1
 45
0.0
1001
ACAD
1000
AcDbSavedByObjectVersion
1070
     0
  0
VISUALSTYLE
  5
2BDE5
102
{ACAD_XDICTIONARY
360
2BF10
102
}
102
{ACAD_REACTORS
330
2BDDB
102
}
330
2BDDB
100
AcDbVisualStyle
  2
Conceptual
 70
     9
 71
     3
 72
     2
 73
     0
 90
        0
 40
-0.6
 41
-30.0
 62
     5
 63
     7
 74
     2
 91
        2
 64
     7
 65
   257
 75
     1
175
     1
 42
179.0
 92
        8
 66
     7
 43
1.0
 76
     1
 77
     6
 78
     2
 67
     7
 79
     3
170
     0
171
     0
290
     0
174
     0
 93
        1
 44
0.0
173
     0
291
     0
 45
0.0
1001
ACAD
1000
AcDbSavedByObjectVersion
1070
     0
  0
VISUALSTYLE
  5
2BDE6
102
{ACAD_XDICTIONARY
360
2BF12
102
}
102
{ACAD_REACTORS
330
2BDDB
102
}
330
2BDDB
100
AcDbVisualStyle
  2
Dim
 70
    11
 71
     2
 72
     2
 73
     0
 90
        0
 40
-0.6
 41
-30.0
 62
     5
 63
     7
 74
     1
 91
        4
 64
     7
 65
   257
 75
     1
175
     1
 42
1.0
 92
        8
 66
     7
 43
1.0
 76
     1
 77
     6
 78
     2
 67
     7
 79
     5
170
     0
171
     0
290
     0
174
     0
 93
        1
 44
-50.0
173
     0
291
     1
 45
0.0
1001
ACAD
1000
AcDbSavedByObjectVersion
1070
     0
  0
VISUALSTYLE
  5
2BDEE
102
{ACAD_XDICTIONARY
360
2BF22
102
}
102
{ACAD_REACTORS
330
2BDDB
102
}
330
2BDDB
100
AcDbVisualStyle
  2
EdgeColorOff
 70
    22
 71
     2
 72
     2
 73
     0
 90
        0
 40
-0.6
 41
-30.0
 62
     5
 63
     7
 74
     1
 91
        4
 64
     7
 65
   257
 75
     1
175
     1
 42
1.0
 92
        8
 66
     7
 43
1.0
 76
     1
 77
     6
 78
     2
 67
     7
 79
     5
170
     0
171
     0
290
     0
174
     0
 93
        1
 44
0.0
173
     0
291
     1
 45
0.0
1001
ACAD
1000
AcDbSavedByObjectVersion
1070
     0
  0
VISUALSTYLE
  5
2BDEA
102
{ACAD_XDICTIONARY
360
2BF1A
102
}
102
{ACAD_REACTORS
330
2BDDB
102
}
330
2BDDB
100
AcDbVisualStyle
  2
Facepattern
 70
    15
 71
     2
 72
     2
 73
     0
 90
        0
 40
-0.6
 41
-30.0
 62
     5
 63
     7
 74
     1
 91
        4
 64
     7
 65
   257
 75
     1
175
     1
 42
1.0
 92
        8
 66
     7
 43
1.0
 76
     1
 77
     6
 78
     2
 67
     7
 79
     5
170
     0
171
     0
290
     0
174
     0
 93
        1
 44
0.0
173
     0
291
     1
 45
0.0
1001
ACAD
1000
AcDbSavedByObjectVersion
1070
     0
  0
VISUALSTYLE
  5
2BDDC
102
{ACAD_XDICTIONARY
360
2BEFE
102
}
102
{ACAD_REACTORS
330
2BDDB
102
}
330
2BDDB
100
AcDbVisualStyle
  2
Flat
 70
     0
 71
     2
 72
     1
 73
     1
 90
        2
 40
-0.6
 41
30.0
 62
     5
 63
     7
 74
     0
 91
        0
 64
     7
 65
   257
 75
     1
175
     1
 42
1.0
 92
        8
 66
     7
 43
1.0
 76
     1
 77
     6
 78
     2
 67
     7
 79
     5
170
     0
171
     0
290
     0
174
     0
 93
       13
 44
0.0
173
     0
291
     1
 45
0.0
1001
ACAD
1000
AcDbSavedByObjectVersion
1070
     0
  0
VISUALSTYLE
  5
2BDDD
102
{ACAD_XDICTIONARY
360
2BF00
102
}
102
{ACAD_REACTORS
330
2BDDB
102
}
330
2BDDB
100
AcDbVisualStyle
  2
FlatWithEdges
 70
     1
 71
     2
 72
     1
 73
     1
 90
        2
 40
-0.6
 41
30.0
 62
     5
 63
     7
 74
     1
 91
        0
 64
     7
 65
   257
 75
     1
175
     1
 42
1.0
 92
        0
 66
   257
 43
1.0
 76
     1
 77
     6
 78
     2
 67
     7
 79
     5
170
     0
171
     0
290
     0
174
     0
 93
       13
 44
0.0
173
     0
291
     1
 45
0.0
1001
ACAD
1000
AcDbSavedByObjectVersion
1070
     0
  0
VISUALSTYLE
  5
2BDDE
102
{ACAD_XDICTIONARY
360
2BF02
102
}
102
{ACAD_REACTORS
330
2BDDB
102
}
330
2BDDB
100
AcDbVisualStyle
  2
Gouraud
 70
     2
 71
     2
 72
     2
 73
     1
 90
        2
 40
-0.6
 41
30.0
 62
     5
 63
     7
 74
     0
 91
        0
 64
     7
 65
   257
 75
     1
175
     1
 42
1.0
 92
        0
 66
     7
 43
1.0
 76
     1
 77
     6
 78
     2
 67
     7
 79
     5
170
     0
171
     0
290
     0
174
     0
 93
       13
 44
0.0
173
     0
291
     1
 45
0.0
1001
ACAD
1000
AcDbSavedByObjectVersion
1070
     0
  0
VISUALSTYLE
  5
2BDDF
102
{ACAD_XDICTIONARY
360
2BF04
102
}
102
{ACAD_REACTORS
330
2BDDB
102
}
330
2BDDB
100
AcDbVisualStyle
  2
GouraudWithEdges
 70
     3
 71
     2
 72
     2
 73
     1
 90
        2
 40
-0.6
 41
30.0
 62
     5
 63
     7
 74
     1
 91
        0
 64
     7
 65
   257
 75
     1
175
     1
 42
1.0
 92
        0
 66
   257
 43
1.0
 76
     1
 77
     6
 78
     2
 67
     7
 79
     5
170
     0
171
     0
290
     0
174
     0
 93
       13
 44
0.0
173
     0
291
     1
 45
0.0
1001
ACAD
1000
AcDbSavedByObjectVersion
1070
     0
  0
VISUALSTYLE
  5
2BDE2
102
{ACAD_XDICTIONARY
360
2BF0A
102
}
102
{ACAD_REACTORS
330
2BDDB
102
}
330
2BDDB
100
AcDbVisualStyle
  2
Hidden
 70
     6
 71
     1
 72
     2
 73
     2
 90
        0
 40
-0.6
 41
-30.0
 62
     5
 63
     7
 74
     2
 91
        2
 64
     7
 65
   257
 75
     2
175
     1
 42
40.0
 92
        0
 66
   257
 43
1.0
 76
     1
 77
     6
 78
     2
 67
     7
 79
     3
170
     0
171
     0
290
     0
174
     0
 93
        1
 44
0.0
173
     0
291
     0
 45
0.0
1001
ACAD
1000
AcDbSavedByObjectVersion
1070
     0
  0
VISUALSTYLE
  5
2BDEC
102
{ACAD_XDICTIONARY
360
2BF1E
102
}
102
{ACAD_REACTORS
330
2BDDB
102
}
330
2BDDB
100
AcDbVisualStyle
  2
JitterOff
 70
    20
 71
     2
 72
     2
 73
     0
 90
        0
 40
-0.6
 41
-30.0
 62
     5
 63
     7
 74
     1
 91
        4
 64
     7
 65
   257
 75
     1
175
     1
 42
1.0
 92
       10
 66
     7
 43
1.0
 76
     1
 77
     6
 78
     2
 67
     7
 79
     5
170
     0
171
     0
290
     0
174
     0
 93
        1
 44
0.0
173
     0
291
     1
 45
0.0
1001
ACAD
1000
AcDbSavedByObjectVersion
1070
     0
  0
VISUALSTYLE
  5
2BDE9
102
{ACAD_XDICTIONARY
360
2BF18
102
}
102
{ACAD_REACTORS
330
2BDDB
102
}
330
2BDDB
100
AcDbVisualStyle
  2
Linepattern
 70
    14
 71
     2
 72
     2
 73
     0
 90
        0
 40
-0.6
 41
-30.0
 62
     5
 63
     7
 74
     1
 91
        4
 64
     7
 65
   257
 75
     7
175
     7
 42
1.0
 92
        8
 66
     7
 43
1.0
 76
     1
 77
     6
 78
     2
 67
     7
 79
     5
170
     0
171
     0
290
     0
174
     0
 93
        1
 44
0.0
173
     0
291
     1
 45
0.0
1001
ACAD
1000
AcDbSavedByObjectVersion
1070
     0
  0
VISUALSTYLE
  5
2BDED
102
{ACAD_XDICTIONARY
360
2BF20
102
}
102
{ACAD_REACTORS
330
2BDDB
102
}
330
2BDDB
100
AcDbVisualStyle
  2
OverhangOff
 70
    21
 71
     2
 72
     2
 73
     0
 90
        0
 40
-0.6
 41
-30.0
 62
     5
 63
     7
 74
     1
 91
        4
 64
     7
 65
   257
 75
     1
175
     1
 42
1.0
 92
        9
 66
     7
 43
1.0
 76
     1
 77
     6
 78
     2
 67
     7
 79
     5
170
     0
171
     0
290
     0
174
     0
 93
        1
 44
0.0
173
     0
291
     1
 45
0.0
1001
ACAD
1000
AcDbSavedByObjectVersion
1070
     0
  0
VISUALSTYLE
  5
2BDE4
102
{ACAD_XDICTIONARY
360
2BF0E
102
}
102
{ACAD_REACTORS
330
2BDDB
102
}
330
2BDDB
100
AcDbVisualStyle
  2
Realistic
 70
     8
 71
     2
 72
     2
 73
     0
 90
        2
 40
-0.6
 41
30.0
 62
     5
 63
     7
 74
     0
 91
        0
 64
     7
 65
   257
 75
     1
175
     1
 42
1.0
 92
        8
 66
   257
 43
1.0
 76
     1
 77
     6
 78
     2
 67
     7
 79
     3
170
     0
171
     0
290
     0
174
     0
 93
       13
 44
0.0
173
     0
291
     0
 45
0.0
1001
ACAD
1000
AcDbSavedByObjectVersion
1070
     0
  0
VISUALSTYLE
  5
2BDF3
102
{ACAD_XDICTIONARY
360
2BF2C
102
}
102
{ACAD_REACTORS
330
2BDDB
102
}
330
2BDDB
100
AcDbVisualStyle
  2
Shaded
 70
    27
 71
     2
 72
     2
 73
     1
 90
        2
 40
-0.6
 41
30.0
 62
     5
 63
     7
 74
     0
 91
        4
 64
     7
 65
   257
 75
     1
175
     1
 42
1.0
 92
        8
 66
   257
 43
1.0
 76
     1
 77
     6
 78
     2
 67
     8
 79
     3
170
     0
171
     0
290
     0
174
     0
 93
        5
 44
0.0
173
     0
291
     0
 45
0.0
1001
ACAD
1000
AcDbSavedByObjectVersion
1070
     0
  0
VISUALSTYLE
  5
2BDF2
102
{ACAD_XDICTIONARY
360
2BF2A
102
}
102
{ACAD_REACTORS
330
2BDDB
102
}
330
2BDDB
100
AcDbVisualStyle
  2
Shaded with edges
 70
    26
 71
     2
 72
     2
 73
     1
 90
        2
 40
-0.6
 41
30.0
 62
     5
 63
     7
 74
     1
 91
        2
 64
     7
 65
   257
 75
     2
175
     1
 42
1.0
 92
        8
 66
   257
 43
1.0
 76
     1
 77
     6
 78
     2
 67
     7
 79
     3
170
     0
171
     0
290
     0
174
     0
 93
        5
 44
0.0
173
     0
291
     0
 45
0.0
1001
ACAD
1000
AcDbSavedByObjectVersion
1070
     0
  0
VISUALSTYLE
  5
2BDEF
102
{ACAD_XDICTIONARY
360
2BF24
102
}
102
{ACAD_REACTORS
330
2BDDB
102
}
330
2BDDB
100
AcDbVisualStyle
  2
Shades of Gray
 70
    23
 71
     2
 72
     2
 73
     3
 90
        0
 40
-0.6
 41
-30.0
 62
     5
 63
     7
 74
     2
 91
        2
 64
     7
 65
     7
 75
     1
175
     1
 42
40.0
 92
        8
 66
     7
 43
1.0
 76
     1
 77
     6
 78
     2
 67
     7
 79
     3
170
     0
171
     0
290
     0
174
     0
 93
        1
 44
0.0
173
     0
291
     0
 45
0.0
1001
ACAD
1000
AcDbSavedByObjectVersion
1070
     0
  0
VISUALSTYLE
  5
2BDF0
102
{ACAD_XDICTIONARY
360
2BF26
102
}
102
{ACAD_REACTORS
330
2BDDB
102
}
330
2BDDB
100
AcDbVisualStyle
  2
Sketchy
 70
    24
 71
     1
 72
     2
 73
     2
 90
        0
 40
-0.6
 41
-30.0
 62
     5
 63
     7
 74
     2
 91
        2
 64
     7
 65
     7
 75
     1
175
     1
 42
40.0
 92
       11
 66
     7
 43
1.0
 76
     1
 77
     6
 78
     2
 67
     7
 79
     6
170
     0
171
     0
290
     0
174
     0
 93
        1
 44
0.0
173
     0
291
     0
 45
0.0
1001
ACAD
1000
AcDbSavedByObjectVersion
1070
     0
  0
VISUALSTYLE
  5
2BDE8
102
{ACAD_XDICTIONARY
360
2BF16
102
}
102
{ACAD_REACTORS
330
2BDDB
102
}
330
2BDDB
100
AcDbVisualStyle
  2
Thicken
 70
    13
 71
     2
 72
     2
 73
     0
 90
        0
 40
-0.6
 41
-30.0
 62
     5
 63
     7
 74
     1
 91
        4
 64
     7
 65
   257
 75
     1
175
     1
 42
1.0
 92
       12
 66
     7
 43
1.0
 76
     1
 77
     6
 78
     2
 67
     7
 79
     5
170
     0
171
     0
290
     0
174
     0
 93
        1
 44
0.0
173
     0
291
     1
 45
0.0
1001
ACAD
1000
AcDbSavedByObjectVersion
1070
     0
  0
VISUALSTYLE
  5
2BDE1
102
{ACAD_XDICTIONARY
360
2BF08
102
}
102
{ACAD_REACTORS
330
2BDDB
102
}
330
2BDDB
100
AcDbVisualStyle
  2
Wireframe
 70
     5
 71
     0
 72
     2
 73
     0
 90
        0
 40
-0.6
 41
-30.0
 62
     5
 63
     7
 74
     1
 91
        4
 64
     7
 65
   257
 75
     1
175
     1
 42
1.0
 92
        0
 66
   257
 43
1.0
 76
     1
 77
     6
 78
     2
 67
     7
 79
     3
170
     0
171
     0
290
     0
174
     0
 93
        1
 44
0.0
173
     0
291
     0
 45
0.0
1001
ACAD
1000
AcDbSavedByObjectVersion
1070
     0
  0
VISUALSTYLE
  5
2BDF1
102
{ACAD_XDICTIONARY
360
2BF28
102
}
102
{ACAD_REACTORS
330
2BDDB
102
}
330
2BDDB
100
AcDbVisualStyle
  2
X-Ray
 70
    25
 71
     2
 72
     2
 73
     1
 90
        1
 40
0.5
 41
-30.0
 62
     5
 63
     7
 74
     1
 91
        0
 64
     7
 65
   257
 75
     1
175
     1
 42
1.0
 92
        8
 66
     7
 43
1.0
 76
     1
 77
     6
 78
     2
 67
     7
 79
     3
170
     0
171
     0
290
     0
174
     0
 93
       13
 44
0.0
173
     0
291
     0
 45
0.0
1001
ACAD
1000
AcDbSavedByObjectVersion
1070
     0
  0
DICTIONARYVAR
  5
2BDFE
102
{ACAD_REACTORS
330
106A6
102
}
330
106A6
100
DictionaryVariables
280
     0
  1
1:1
  0
DICTIONARYVAR
  5
2BE00
102
{ACAD_REACTORS
330
106A6
102
}
330
106A6
100
DictionaryVariables
280
     0
  1
STANDARD
  0
DICTIONARYVAR
  5
2BDFF
102
{ACAD_REACTORS
330
106A6
102
}
330
106A6
100
DictionaryVariables
280
     0
  1
STANDARD
  0
DICTIONARYVAR
  5
2BEE1
102
{ACAD_REACTORS
330
106A6
102
}
330
106A6
100
DictionaryVariables
280
     0
  1
Imperial24
  0
DICTIONARYVAR
  5
2BEE2
102
{ACAD_REACTORS
330
106A6
102
}
330
106A6
100
DictionaryVariables
280
     0
  1
Imperial24
  0
DICTIONARYVAR
  5
2BEE9
102
{ACAD_REACTORS
330
106A6
102
}
330
106A6
100
DictionaryVariables
280
     0
  1
2
  0
DICTIONARYVAR
  5
2BEE8
102
{ACAD_REACTORS
330
106A6
102
}
330
106A6
100
DictionaryVariables
280
     0
  1
2
  0
DICTIONARYVAR
  5
2BEE7
102
{ACAD_REACTORS
330
106A6
102
}
330
106A6
100
DictionaryVariables
280
     0
  1
1
  0
DICTIONARYVAR
  5
2BEE6
102
{ACAD_REACTORS
330
106A6
102
}
330
106A6
100
DictionaryVariables
280
     0
  1
0
  0
DICTIONARYVAR
  5
2BEE4
102
{ACAD_REACTORS
330
106A6
102
}
330
106A6
100
DictionaryVariables
280
     0
  1
0
  0
DICTIONARYVAR
  5
2BEE5
102
{ACAD_REACTORS
330
106A6
102
}
330
106A6
100
DictionaryVariables
280
     0
  1
0
  0
DICTIONARYVAR
  5
2BEE3
102
{ACAD_REACTORS
330
106A6
102
}
330
106A6
100
DictionaryVariables
280
     0
  1
2
  0
DICTIONARYVAR
  5
2BE01
102
{ACAD_REACTORS
330
106A6
102
}
330
106A6
100
DictionaryVariables
280
     0
  1
0
  0
DICTIONARYVAR
  5
106A7
102
{ACAD_REACTORS
330
106A6
102
}
330
106A6
100
DictionaryVariables
280
     0
  1
96
  0
DICTIONARYVAR
  5
2BEF6
102
{ACAD_REACTORS
330
106A6
102
}
330
106A6
100
DictionaryVariables
280
     0
  1
2
  0
XRECORD
  5
1A9A1
102
{ACAD_REACTORS
330
1A99F
102
}
330
1A99F
100
AcDbXrecord
280
     1
330
187D7
330
0
330
0
330
0
330
0
330
0
330
0
330
0
330
0
330
0
330
0
330
0
330
0
330
0
330
0
330
0
330
0
330
0
330
0
330
0
330
0
330
0
330
0
330
0
330
0
330
0
330
0
330
0
330
0
330
0
330
0
330
0
330
0
330
0
330
0
330
0
330
0
330
0
330
0
330
0
330
0
330
0
330
0
330
0
  0
XRECORD
  5
29D4F
102
{ACAD_REACTORS
330
28919
102
}
330
28919
100
AcDbXrecord
280
     1
290
     0
290
     0
  0
XRECORD
  5
2AD07
102
{ACAD_REACTORS
330
28919
102
}
330
28919
100
AcDbXrecord
280
     1
290
     0
290
     0
  0
XRECORD
  5
2AD08
102
{ACAD_REACTORS
330
28919
102
}
330
28919
100
AcDbXrecord
280
     1
290
     1
290
     1
  0
XRECORD
  5
2AD29
102
{ACAD_REACTORS
330
28919
102
}
330
28919
100
AcDbXrecord
280
     1
290
     1
290
     1
  0
XRECORD
  5
2AD2A
102
{ACAD_REACTORS
330
28919
102
}
330
28919
100
AcDbXrecord
280
     1
290
     1
290
     0
  0
XRECORD
  5
2B86B
102
{ACAD_REACTORS
330
28919
102
}
330
28919
100
AcDbXrecord
280
     1
290
     1
290
     0
  0
XRECORD
  5
2B879
102
{ACAD_REACTORS
330
28919
102
}
330
28919
100
AcDbXrecord
280
     1
290
     1
290
     1
  0
XRECORD
  5
2894A
102
{ACAD_REACTORS
330
28919
102
}
330
28919
100
AcDbXrecord
280
     1
290
     1
290
     1
  0
XRECORD
  5
29D3F
102
{ACAD_REACTORS
330
28919
102
}
330
28919
100
AcDbXrecord
280
     1
290
     1
290
     0
  0
XRECORD
  5
29D4B
102
{ACAD_REACTORS
330
28919
102
}
330
28919
100
AcDbXrecord
280
     1
290
     1
290
     0
  0
XRECORD
  5
2BE6F
102
{ACAD_REACTORS
330
2BE6E
102
}
330
2BE6E
100
AcDbXrecord
280
     1
  1
AcLyLayerFilter
 90
        1
300
0
301
NAME=="*0"
  0
XRECORD
  5
2BE76
102
{ACAD_REACTORS
330
2BE6E
102
}
330
2BE6E
100
AcDbXrecord
280
     1
  1
AcLyLayerFilter
 90
        1
300
4
301
NAME=="*4"
  0
XRECORD
  5
2BE77
102
{ACAD_REACTORS
330
2BE6E
102
}
330
2BE6E
100
AcDbXrecord
280
     1
  1
AcLyLayerFilter
 90
        1
300
5
301
NAME=="*5"
  0
XRECORD
  5
2BE78
102
{ACAD_REACTORS
330
2BE6E
102
}
330
2BE6E
100
AcDbXrecord
280
     1
  1
AcLyLayerFilter
 90
        1
300
7
301
NAME=="*7"
  0
XRECORD
  5
2BE79
102
{ACAD_REACTORS
330
2BE6E
102
}
330
2BE6E
100
AcDbXrecord
280
     1
  1
AcLyLayerFilter
 90
        1
300
kiseki
301
NAME=="kiseki*"
  0
XRECORD
  5
2BE70
102
{ACAD_REACTORS
330
2BE6E
102
}
330
2BE6E
100
AcDbXrecord
280
     1
  1
AcLyLayerFilter
 90
        1
300
11
301
NAME=="*11"
  0
XRECORD
  5
2BE71
102
{ACAD_REACTORS
330
2BE6E
102
}
330
2BE6E
100
AcDbXrecord
280
     1
  1
AcLyLayerFilter
 90
        1
300
150_
301
NAME=="150_*"
  0
XRECORD
  5
2BE72
102
{ACAD_REACTORS
330
2BE6E
102
}
330
2BE6E
100
AcDbXrecord
280
     1
  1
AcLyLayerFilter
 90
        1
300
160_
301
NAME=="160_*"
  0
XRECORD
  5
2BE73
102
{ACAD_REACTORS
330
2BE6E
102
}
330
2BE6E
100
AcDbXrecord
280
     1
  1
AcLyLayerFilter
 90
        1
300
170_
301
NAME=="170_*"
  0
XRECORD
  5
2BE74
102
{ACAD_REACTORS
330
2BE6E
102
}
330
2BE6E
100
AcDbXrecord
280
     1
  1
AcLyLayerFilter
 90
        1
300
171_
301
NAME=="171_*"
  0
XRECORD
  5
2BE75
102
{ACAD_REACTORS
330
2BE6E
102
}
330
2BE6E
100
AcDbXrecord
280
     1
  1
AcLyLayerFilter
 90
        1
300
350_
301
NAME=="350_*"
  0
DICTIONARY
  5
2BF3C
330
2BE7E
100
AcDbDictionary
280
     1
281
     1
  3
ACAD_XREC_ROUNDTRIP
360
2BF3D
  0
DICTIONARY
  5
2BEFC
330
FB5D
100
AcDbDictionary
280
     1
281
     1
  3
ACAD_XREC_ROUNDTRIP
360
2BEFD
  0
DICTIONARY
  5
2BF33
330
2BE3C
100
AcDbDictionary
280
     1
281
     1
  3
ACAD_XREC_ROUNDTRIP
360
2BF34
  0
DICTIONARY
  5
2BF38
330
2BE7A
100
AcDbDictionary
280
     1
281
     1
  3
ACAD_XREC_ROUNDTRIP
360
2BF39
  0
DICTIONARY
  5
2BF2E
330
2BDF5
100
AcDbDictionary
280
     1
281
     1
  3
ACAD_XREC_ROUNDTRIP
360
2BF2F
  0
DICTIONARY
  5
2BF30
330
2BDF7
100
AcDbDictionary
280
     1
281
     1
  3
ACAD_XREC_ROUNDTRIP
360
2BF31
  0
DICTIONARY
  5
2BF3A
330
2BE7D
100
AcDbDictionary
280
     1
281
     1
  3
ACAD_XREC_ROUNDTRIP
360
2BF3B
  0
DICTIONARY
  5
2BE8D
330
2BDF9
100
AcDbDictionary
280
     1
281
     1
  3
ACAD_ROUNDTRIP_2008_TABLESTYLE_CELLSTYLEMAP
360
2BEF7
  3
ACAD_XREC_ROUNDTRIP
360
2BF32
  0
DICTIONARY
  5
2BF06
330
2BDE0
100
AcDbDictionary
280
     1
281
     1
  3
ACAD_XREC_ROUNDTRIP
360
2BF07
  0
DICTIONARY
  5
2BF0C
330
2BDE3
100
AcDbDictionary
280
     1
281
     1
  3
ACAD_XREC_ROUNDTRIP
360
2BF0D
  0
DICTIONARY
  5
2BF14
330
2BDE7
100
AcDbDictionary
280
     1
281
     1
  3
ACAD_XREC_ROUNDTRIP
360
2BF15
  0
DICTIONARY
  5
2BF1C
330
2BDEB
100
AcDbDictionary
280
     1
281
     1
  3
ACAD_XREC_ROUNDTRIP
360
2BF1D
  0
DICTIONARY
  5
2BF10
330
2BDE5
100
AcDbDictionary
280
     1
281
     1
  3
ACAD_XREC_ROUNDTRIP
360
2BF11
  0
DICTIONARY
  5
2BF12
330
2BDE6
100
AcDbDictionary
280
     1
281
     1
  3
ACAD_XREC_ROUNDTRIP
360
2BF13
  0
DICTIONARY
  5
2BF22
330
2BDEE
100
AcDbDictionary
280
     1
281
     1
  3
ACAD_XREC_ROUNDTRIP
360
2BF23
  0
DICTIONARY
  5
2BF1A
330
2BDEA
100
AcDbDictionary
280
     1
281
     1
  3
ACAD_XREC_ROUNDTRIP
360
2BF1B
  0
DICTIONARY
  5
2BEFE
330
2BDDC
100
AcDbDictionary
280
     1
281
     1
  3
ACAD_XREC_ROUNDTRIP
360
2BEFF
  0
DICTIONARY
  5
2BF00
330
2BDDD
100
AcDbDictionary
280
     1
281
     1
  3
ACAD_XREC_ROUNDTRIP
360
2BF01
  0
DICTIONARY
  5
2BF02
330
2BDDE
100
AcDbDictionary
280
     1
281
     1
  3
ACAD_XREC_ROUNDTRIP
360
2BF03
  0
DICTIONARY
  5
2BF04
330
2BDDF
100
AcDbDictionary
280
     1
281
     1
  3
ACAD_XREC_ROUNDTRIP
360
2BF05
  0
DICTIONARY
  5
2BF0A
330
2BDE2
100
AcDbDictionary
280
     1
281
     1
  3
ACAD_XREC_ROUNDTRIP
360
2BF0B
  0
DICTIONARY
  5
2BF1E
330
2BDEC
100
AcDbDictionary
280
     1
281
     1
  3
ACAD_XREC_ROUNDTRIP
360
2BF1F
  0
DICTIONARY
  5
2BF18
330
2BDE9
100
AcDbDictionary
280
     1
281
     1
  3
ACAD_XREC_ROUNDTRIP
360
2BF19
  0
DICTIONARY
  5
2BF20
330
2BDED
100
AcDbDictionary
280
     1
281
     1
  3
ACAD_XREC_ROUNDTRIP
360
2BF21
  0
DICTIONARY
  5
2BF0E
330
2BDE4
100
AcDbDictionary
280
     1
281
     1
  3
ACAD_XREC_ROUNDTRIP
360
2BF0F
  0
DICTIONARY
  5
2BF2C
330
2BDF3
100
AcDbDictionary
280
     1
281
     1
  3
ACAD_XREC_ROUNDTRIP
360
2BF2D
  0
DICTIONARY
  5
2BF2A
330
2BDF2
100
AcDbDictionary
280
     1
281
     1
  3
ACAD_XREC_ROUNDTRIP
360
2BF2B
  0
DICTIONARY
  5
2BF24
330
2BDEF
100
AcDbDictionary
280
     1
281
     1
  3
ACAD_XREC_ROUNDTRIP
360
2BF25
  0
DICTIONARY
  5
2BF26
330
2BDF0
100
AcDbDictionary
280
     1
281
     1
  3
ACAD_XREC_ROUNDTRIP
360
2BF27
  0
DICTIONARY
  5
2BF16
330
2BDE8
100
AcDbDictionary
280
     1
281
     1
  3
ACAD_XREC_ROUNDTRIP
360
2BF17
  0
DICTIONARY
  5
2BF08
330
2BDE1
100
AcDbDictionary
280
     1
281
     1
  3
ACAD_XREC_ROUNDTRIP
360
2BF09
  0
DICTIONARY
  5
2BF28
330
2BDF1
100
AcDbDictionary
280
     1
281
     1
  3
ACAD_XREC_ROUNDTRIP
360
2BF29
  0
XRECORD
  5
2BF3D
102
{ACAD_REACTORS
330
2BF3C
102
}
330
2BF3C
100
AcDbXrecord
280
     1
102
DISPLAYNAME
  1
Imperial24
102
FLAGS
 90
        0
  0
XRECORD
  5
2BEFD
102
{ACAD_REACTORS
330
2BEFC
102
}
330
2BEFC
100
AcDbXrecord
280
     1
102
SHADEPLOT
 70
     0
102
SHADEPLOTRESLEVEL
 70
     2
102
SHADEPLOTCUSTOMDPI
 70
   300
  0
XRECORD
  5
2BF34
102
{ACAD_REACTORS
330
2BF33
102
}
330
2BF33
100
AcDbXrecord
280
     1
102
SHADEPLOT
 70
     0
102
SHADEPLOTRESLEVEL
 70
     2
102
SHADEPLOTCUSTOMDPI
 70
   300
  0
XRECORD
  5
2BF39
102
{ACAD_REACTORS
330
2BF38
102
}
330
2BF38
100
AcDbXrecord
280
     1
102
MATERIAL
148
0.0
149
0.0
149
0.0
 93
        0
 94
      127
282
     0
 72
     1
 77
     1
171
     1
175
     1
179
     1
273
     0
  0
XRECORD
  5
2BF2F
102
{ACAD_REACTORS
330
2BF2E
102
}
330
2BF2E
100
AcDbXrecord
280
     1
102
MATERIAL
148
0.0
149
0.0
149
0.0
 93
        0
 94
      127
282
     0
 72
     1
 77
     1
171
     1
175
     1
179
     1
273
     0
  0
XRECORD
  5
2BF31
102
{ACAD_REACTORS
330
2BF30
102
}
330
2BF30
100
AcDbXrecord
280
     1
102
MATERIAL
148
0.0
149
0.0
149
0.0
 93
        0
 94
      127
282
     0
 72
     1
 77
     1
171
     1
175
     1
179
     1
273
     0
  0
XRECORD
  5
2BF3B
102
{ACAD_REACTORS
330
2BF3A
102
}
330
2BF3A
100
AcDbXrecord
280
     1
102
DISPLAYNAME
  1
Imperial24
102
FLAGS
 90
        0
  0
CELLSTYLEMAP
  5
2BEF7
102
{ACAD_REACTORS
330
2BE8D
102
}
330
2BE8D
100
AcDbCellStyleMap
 90
        3
300
CELLSTYLE
  1
TABLEFORMAT_BEGIN
 90
        5
170
     1
 91
        0
 92
    32768
 62
   257
 93
        1
300
CONTENTFORMAT
  1
CONTENTFORMAT_BEGIN
 90
        0
 91
        0
 92
        4
 93
        0
300

 40
0.0
140
1.0
 94
        5
 62
     0
340
F
144
0.25
309
CONTENTFORMAT_END
171
     1
301
MARGIN
  1
CELLMARGIN_BEGIN
 40
0.06
 40
0.06
 40
0.06
 40
0.06
 40
0.06
 40
0.06
309
CELLMARGIN_END
 94
        6
 95
        1
302
GRIDFORMAT
  1
GRIDFORMAT_BEGIN
 90
        0
 91
        1
 62
     0
 92
       -2
340
12
 93
        0
 40
0.045
309
GRIDFORMAT_END
 95
        2
302
GRIDFORMAT
  1
GRIDFORMAT_BEGIN
 90
        0
 91
        1
 62
     0
 92
       -2
340
12
 93
        0
 40
0.045
309
GRIDFORMAT_END
 95
        4
302
GRIDFORMAT
  1
GRIDFORMAT_BEGIN
 90
        0
 91
        1
 62
     0
 92
       -2
340
12
 93
        0
 40
0.045
309
GRIDFORMAT_END
 95
        8
302
GRIDFORMAT
  1
GRIDFORMAT_BEGIN
 90
        0
 91
        1
 62
     0
 92
       -2
340
12
 93
        0
 40
0.045
309
GRIDFORMAT_END
 95
       16
302
GRIDFORMAT
  1
GRIDFORMAT_BEGIN
 90
        0
 91
        1
 62
     0
 92
       -2
340
12
 93
        0
 40
0.045
309
GRIDFORMAT_END
 95
       32
302
GRIDFORMAT
  1
GRIDFORMAT_BEGIN
 90
        0
 91
        1
 62
     0
 92
       -2
340
12
 93
        0
 40
0.045
309
GRIDFORMAT_END
309
TABLEFORMAT_END
  1
CELLSTYLE_BEGIN
 90
        1
 91
        1
300
_TITLE
309
CELLSTYLE_END
300
CELLSTYLE
  1
TABLEFORMAT_BEGIN
 90
        5
170
     1
 91
        0
 92
        0
 62
   257
 93
        1
300
CONTENTFORMAT
  1
CONTENTFORMAT_BEGIN
 90
        0
 91
        0
 92
        4
 93
        0
300

 40
0.0
140
1.0
 94
        5
 62
     0
340
F
144
0.18
309
CONTENTFORMAT_END
171
     1
301
MARGIN
  1
CELLMARGIN_BEGIN
 40
0.06
 40
0.06
 40
0.06
 40
0.06
 40
0.06
 40
0.06
309
CELLMARGIN_END
 94
        6
 95
        1
302
GRIDFORMAT
  1
GRIDFORMAT_BEGIN
 90
        0
 91
        1
 62
     0
 92
       -2
340
12
 93
        0
 40
0.045
309
GRIDFORMAT_END
 95
        2
302
GRIDFORMAT
  1
GRIDFORMAT_BEGIN
 90
        0
 91
        1
 62
     0
 92
       -2
340
12
 93
        0
 40
0.045
309
GRIDFORMAT_END
 95
        4
302
GRIDFORMAT
  1
GRIDFORMAT_BEGIN
 90
        0
 91
        1
 62
     0
 92
       -2
340
12
 93
        0
 40
0.045
309
GRIDFORMAT_END
 95
        8
302
GRIDFORMAT
  1
GRIDFORMAT_BEGIN
 90
        0
 91
        1
 62
     0
 92
       -2
340
12
 93
        0
 40
0.045
309
GRIDFORMAT_END
 95
       16
302
GRIDFORMAT
  1
GRIDFORMAT_BEGIN
 90
        0
 91
        1
 62
     0
 92
       -2
340
12
 93
        0
 40
0.045
309
GRIDFORMAT_END
 95
       32
302
GRIDFORMAT
  1
GRIDFORMAT_BEGIN
 90
        0
 91
        1
 62
     0
 92
       -2
340
12
 93
        0
 40
0.045
309
GRIDFORMAT_END
309
TABLEFORMAT_END
  1
CELLSTYLE_BEGIN
 90
        2
 91
        1
300
_HEADER
309
CELLSTYLE_END
300
CELLSTYLE
  1
TABLEFORMAT_BEGIN
 90
        5
170
     1
 91
        0
 92
        0
 62
   257
 93
        1
300
CONTENTFORMAT
  1
CONTENTFORMAT_BEGIN
 90
        0
 91
        0
 92
        4
 93
        0
300

 40
0.0
140
1.0
 94
        2
 62
     0
340
F
144
0.18
309
CONTENTFORMAT_END
171
     1
301
MARGIN
  1
CELLMARGIN_BEGIN
 40
0.06
 40
0.06
 40
0.06
 40
0.06
 40
0.06
 40
0.06
309
CELLMARGIN_END
 94
        6
 95
        1
302
GRIDFORMAT
  1
GRIDFORMAT_BEGIN
 90
        0
 91
        1
 62
     0
 92
       -2
340
12
 93
        0
 40
0.045
309
GRIDFORMAT_END
 95
        2
302
GRIDFORMAT
  1
GRIDFORMAT_BEGIN
 90
        0
 91
        1
 62
     0
 92
       -2
340
12
 93
        0
 40
0.045
309
GRIDFORMAT_END
 95
        4
302
GRIDFORMAT
  1
GRIDFORMAT_BEGIN
 90
        0
 91
        1
 62
     0
 92
       -2
340
12
 93
        0
 40
0.045
309
GRIDFORMAT_END
 95
        8
302
GRIDFORMAT
  1
GRIDFORMAT_BEGIN
 90
        0
 91
        1
 62
     0
 92
       -2
340
12
 93
        0
 40
0.045
309
GRIDFORMAT_END
 95
       16
302
GRIDFORMAT
  1
GRIDFORMAT_BEGIN
 90
        0
 91
        1
 62
     0
 92
       -2
340
12
 93
        0
 40
0.045
309
GRIDFORMAT_END
 95
       32
302
GRIDFORMAT
  1
GRIDFORMAT_BEGIN
 90
        0
 91
        1
 62
     0
 92
       -2
340
12
 93
        0
 40
0.045
309
GRIDFORMAT_END
309
TABLEFORMAT_END
  1
CELLSTYLE_BEGIN
 90
        3
 91
        2
300
_DATA
309
CELLSTYLE_END
  0
XRECORD
  5
2BF32
102
{ACAD_REACTORS
330
2BE8D
102
}
330
2BE8D
100
AcDbXrecord
280
     1
102
ACAD_ROUNDTRIP_PRE2007_TABLESTYLE
 90
        4
 91
        0
  1

 92
        4
 93
        0
  2

 94
        4
 95
        0
  3

  0
XRECORD
  5
2BF07
102
{ACAD_REACTORS
330
2BF06
102
}
330
2BF06
100
AcDbXrecord
280
     1
102
RTVSPost2010Prop28
280
     1
102
RTVSPost2010PropOp28
 70
     1
102
RTVSPost2010Prop29
280
     1
102
RTVSPost2010PropOp29
 70
     1
102
RTVSPost2010Prop30
280
     0
102
RTVSPost2010PropOp30
 70
     1
102
RTVSPost2010Prop31
280
     0
102
RTVSPost2010PropOp31
 70
     1
102
RTVSPost2010Prop32
280
     0
102
RTVSPost2010PropOp32
 70
     1
102
RTVSPost2010Prop33
280
     0
102
RTVSPost2010PropOp33
 70
     1
102
RTVSPost2010Prop34
280
     0
102
RTVSPost2010PropOp34
 70
     1
102
RTVSPost2010Prop35
280
     0
102
RTVSPost2010PropOp35
 70
     1
102
RTVSPost2010Prop36
280
     0
102
RTVSPost2010PropOp36
 70
     1
102
RTVSPost2010Prop37
 90
       50
102
RTVSPost2010PropOp37
 70
     1
102
RTVSPost2010Prop38
140
0.0
102
RTVSPost2010PropOp38
 70
     1
102
RTVSPost2010Prop39
140
1.0
102
RTVSPost2010PropOp39
 70
     1
102
RTVSPost2010Prop40
 90
        0
102
RTVSPost2010PropOp40
 70
     1
102
RTVSPost2010Prop41ColorIndex
 90
       18
102
RTVSPost2010Prop41ColorRGB
 90
        0
102
RTVSPost2010PropOp41
 70
     1
102
RTVSPost2010Prop42
 90
       50
102
RTVSPost2010PropOp42
 70
     1
102
RTVSPost2010Prop43
 90
        3
102
RTVSPost2010PropOp43
 70
     1
102
RTVSPost2010Prop44ColorIndex
 90
        5
102
RTVSPost2010Prop44ColorRGB
 90
      255
102
RTVSPost2010PropOp44
 70
     1
102
RTVSPost2010Prop45
280
     0
102
RTVSPost2010PropOp45
 70
     1
102
RTVSPost2010Prop46
 90
       50
102
RTVSPost2010PropOp46
 70
     1
102
RTVSPost2010Prop47
 90
       50
102
RTVSPost2010PropOp47
 70
     1
102
RTVSPost2010Prop48
 90
       50
102
RTVSPost2010PropOp48
 70
     1
102
RTVSPost2010Prop49
280
     0
102
RTVSPost2010PropOp49
 70
     1
102
RTVSPost2010Prop50
 90
       50
102
RTVSPost2010PropOp50
 70
     1
102
RTVSPost2010Prop51ColorIndex
 90
      256
102
RTVSPost2010Prop51ColorRGB
 90
-16777216
102
RTVSPost2010PropOp51
 70
     0
102
RTVSPost2010Prop52
140
1.0
102
RTVSPost2010PropOp52
 70
     0
102
RTVSPost2010Prop53
 90
        2
102
RTVSPost2010PropOp53
 70
     1
102
RTVSPost2010Prop54
  1
strokes_ogs.tif
102
RTVSPost2010PropOp54
 70
     1
102
RTVSPost2010Prop55
280
     0
102
RTVSPost2010PropOp55
 70
     1
102
RTVSPost2010Prop56
140
1.0
102
RTVSPost2010PropOp56
 70
     1
102
RTVSPost2010Prop57
140
1.0
102
RTVSPost2010PropOp57
 70
     1
102
RTVSPropertyOp0
 70
     1
102
RTVSPropertyOp1
 70
     1
102
RTVSPropertyOp2
 70
     1
102
RTVSPropertyOp3
 70
     1
102
RTVSPropertyOp4
 70
     1
102
RTVSPropertyOp5
 70
     1
102
RTVSPropertyOp6
 70
     1
102
RTVSPropertyOp7
 70
     1
102
RTVSPropertyOp8
 70
     1
102
RTVSPropertyOp9
 70
     1
102
RTVSPropertyOp10
 70
     1
102
RTVSPropertyOp11
 70
     1
102
RTVSPropertyOp12
 70
     1
102
RTVSPropertyOp13
 70
     1
102
RTVSPropertyOp14
 70
     1
102
RTVSPropertyOp15
 70
     1
102
RTVSPropertyOp16
 70
     1
102
RTVSPropertyOp17
 70
     1
102
RTVSPropertyOp18
 70
     1
102
RTVSPropertyOp19
 70
     1
102
RTVSPropertyOp20
 70
     1
102
RTVSPropertyOp21
 70
     1
102
RTVSPropertyOp22
 70
     1
102
RTVSPropertyOp23
 70
     1
102
RTVSPropertyOp24
 70
     1
102
RTVSPropertyOp25
 70
     1
102
RTVSPropertyOp26
 70
     1
102
RTVSPropertyOp27
 70
     1
102
RTVSPropertyOp28
 70
     1
102
RTVSPropertyOp29
 70
     1
102
RTVSPropertyOp30
 70
     1
102
RTVSPropertyOp31
 70
     1
102
RTVSPropertyOp32
 70
     1
102
RTVSPropertyOp33
 70
     1
102
RTVSPropertyOp34
 70
     1
102
RTVSPropertyOp35
 70
     1
102
RTVSPropertyOp36
 70
     1
102
RTVSPropertyOp37
 70
     1
102
RTVSPropertyOp38
 70
     1
102
RTVSPropertyOp39
 70
     1
102
RTVSPropertyOp40
 70
     1
102
RTVSPropertyOp41
 70
     1
102
RTVSPropertyOp42
 70
     1
102
RTVSPropertyOp43
 70
     1
102
RTVSPropertyOp44
 70
     1
102
RTVSPropertyOp45
 70
     1
102
RTVSPropertyOp46
 70
     1
102
RTVSPropertyOp47
 70
     1
102
RTVSPropertyOp48
 70
     1
102
RTVSPropertyOp49
 70
     1
102
RTVSPropertyOp50
 70
     1
102
RTVSPropertyOp51
 70
     0
102
RTVSPropertyOp52
 70
     0
102
RTVSPropertyOp53
 70
     1
102
RTVSPropertyOp54
 70
     1
102
RTVSPropertyOp55
 70
     1
102
RTVSPropertyOp56
 70
     1
102
RTVSPropertyOp57
 70
     1
102
RTVSPropertyOp58
 70
     1
102
RTVSPropertyOp59
 70
     1
102
RTVSPropertyOp60
 70
     1
102
RTVSPropertyOp61
 70
     1
102
RTVSPropertyOp62
 70
     1
  0
XRECORD
  5
2BF0D
102
{ACAD_REACTORS
330
2BF0C
102
}
330
2BF0C
100
AcDbXrecord
280
     1
102
RTVSPost2010Prop28
280
     0
102
RTVSPost2010PropOp28
 70
     1
102
RTVSPost2010Prop29
280
     1
102
RTVSPost2010PropOp29
 70
     1
102
RTVSPost2010Prop30
280
     1
102
RTVSPost2010PropOp30
 70
     1
102
RTVSPost2010Prop31
280
     0
102
RTVSPost2010PropOp31
 70
     1
102
RTVSPost2010Prop32
280
     0
102
RTVSPost2010PropOp32
 70
     1
102
RTVSPost2010Prop33
280
     0
102
RTVSPost2010PropOp33
 70
     1
102
RTVSPost2010Prop34
280
     0
102
RTVSPost2010PropOp34
 70
     1
102
RTVSPost2010Prop35
280
     0
102
RTVSPost2010PropOp35
 70
     1
102
RTVSPost2010Prop36
280
     0
102
RTVSPost2010PropOp36
 70
     1
102
RTVSPost2010Prop37
 90
       50
102
RTVSPost2010PropOp37
 70
     1
102
RTVSPost2010Prop38
140
0.0
102
RTVSPost2010PropOp38
 70
     1
102
RTVSPost2010Prop39
140
1.0
102
RTVSPost2010PropOp39
 70
     1
102
RTVSPost2010Prop40
 90
        0
102
RTVSPost2010PropOp40
 70
     1
102
RTVSPost2010Prop41ColorIndex
 90
       18
102
RTVSPost2010Prop41ColorRGB
 90
        0
102
RTVSPost2010PropOp41
 70
     1
102
RTVSPost2010Prop42
 90
       50
102
RTVSPost2010PropOp42
 70
     1
102
RTVSPost2010Prop43
 90
        3
102
RTVSPost2010PropOp43
 70
     1
102
RTVSPost2010Prop44ColorIndex
 90
        5
102
RTVSPost2010Prop44ColorRGB
 90
      255
102
RTVSPost2010PropOp44
 70
     1
102
RTVSPost2010Prop45
280
     0
102
RTVSPost2010PropOp45
 70
     1
102
RTVSPost2010Prop46
 90
       50
102
RTVSPost2010PropOp46
 70
     1
102
RTVSPost2010Prop47
 90
       50
102
RTVSPost2010PropOp47
 70
     1
102
RTVSPost2010Prop48
 90
       50
102
RTVSPost2010PropOp48
 70
     1
102
RTVSPost2010Prop49
280
     0
102
RTVSPost2010PropOp49
 70
     1
102
RTVSPost2010Prop50
 90
       50
102
RTVSPost2010PropOp50
 70
     1
102
RTVSPost2010Prop51ColorIndex
 90
      256
102
RTVSPost2010Prop51ColorRGB
 90
-16777216
102
RTVSPost2010PropOp51
 70
     0
102
RTVSPost2010Prop52
140
1.0
102
RTVSPost2010PropOp52
 70
     0
102
RTVSPost2010Prop53
 90
        2
102
RTVSPost2010PropOp53
 70
     1
102
RTVSPost2010Prop54
  1
strokes_ogs.tif
102
RTVSPost2010PropOp54
 70
     1
102
RTVSPost2010Prop55
280
     0
102
RTVSPost2010PropOp55
 70
     1
102
RTVSPost2010Prop56
140
1.0
102
RTVSPost2010PropOp56
 70
     1
102
RTVSPost2010Prop57
140
1.0
102
RTVSPost2010PropOp57
 70
     1
102
RTVSPropertyOp0
 70
     1
102
RTVSPropertyOp1
 70
     1
102
RTVSPropertyOp2
 70
     1
102
RTVSPropertyOp3
 70
     1
102
RTVSPropertyOp4
 70
     1
102
RTVSPropertyOp5
 70
     1
102
RTVSPropertyOp6
 70
     1
102
RTVSPropertyOp7
 70
     1
102
RTVSPropertyOp8
 70
     1
102
RTVSPropertyOp9
 70
     1
102
RTVSPropertyOp10
 70
     1
102
RTVSPropertyOp11
 70
     1
102
RTVSPropertyOp12
 70
     1
102
RTVSPropertyOp13
 70
     1
102
RTVSPropertyOp14
 70
     1
102
RTVSPropertyOp15
 70
     1
102
RTVSPropertyOp16
 70
     1
102
RTVSPropertyOp17
 70
     1
102
RTVSPropertyOp18
 70
     1
102
RTVSPropertyOp19
 70
     1
102
RTVSPropertyOp20
 70
     1
102
RTVSPropertyOp21
 70
     1
102
RTVSPropertyOp22
 70
     1
102
RTVSPropertyOp23
 70
     1
102
RTVSPropertyOp24
 70
     1
102
RTVSPropertyOp25
 70
     1
102
RTVSPropertyOp26
 70
     1
102
RTVSPropertyOp27
 70
     1
102
RTVSPropertyOp28
 70
     1
102
RTVSPropertyOp29
 70
     1
102
RTVSPropertyOp30
 70
     1
102
RTVSPropertyOp31
 70
     1
102
RTVSPropertyOp32
 70
     1
102
RTVSPropertyOp33
 70
     1
102
RTVSPropertyOp34
 70
     1
102
RTVSPropertyOp35
 70
     1
102
RTVSPropertyOp36
 70
     1
102
RTVSPropertyOp37
 70
     1
102
RTVSPropertyOp38
 70
     1
102
RTVSPropertyOp39
 70
     1
102
RTVSPropertyOp40
 70
     1
102
RTVSPropertyOp41
 70
     1
102
RTVSPropertyOp42
 70
     1
102
RTVSPropertyOp43
 70
     1
102
RTVSPropertyOp44
 70
     1
102
RTVSPropertyOp45
 70
     1
102
RTVSPropertyOp46
 70
     1
102
RTVSPropertyOp47
 70
     1
102
RTVSPropertyOp48
 70
     1
102
RTVSPropertyOp49
 70
     1
102
RTVSPropertyOp50
 70
     1
102
RTVSPropertyOp51
 70
     0
102
RTVSPropertyOp52
 70
     0
102
RTVSPropertyOp53
 70
     1
102
RTVSPropertyOp54
 70
     1
102
RTVSPropertyOp55
 70
     1
102
RTVSPropertyOp56
 70
     1
102
RTVSPropertyOp57
 70
     1
102
RTVSPropertyOp58
 70
     1
102
RTVSPropertyOp59
 70
     1
102
RTVSPropertyOp60
 70
     1
102
RTVSPropertyOp61
 70
     1
102
RTVSPropertyOp62
 70
     1
  0
XRECORD
  5
2BF15
102
{ACAD_REACTORS
330
2BF14
102
}
330
2BF14
100
AcDbXrecord
280
     1
102
RTVSPost2010Prop28
280
     0
102
RTVSPost2010PropOp28
 70
     1
102
RTVSPost2010Prop29
280
     1
102
RTVSPost2010PropOp29
 70
     1
102
RTVSPost2010Prop30
280
     1
102
RTVSPost2010PropOp30
 70
     1
102
RTVSPost2010Prop31
280
     0
102
RTVSPost2010PropOp31
 70
     1
102
RTVSPost2010Prop32
280
     0
102
RTVSPost2010PropOp32
 70
     1
102
RTVSPost2010Prop33
280
     0
102
RTVSPost2010PropOp33
 70
     1
102
RTVSPost2010Prop34
280
     0
102
RTVSPost2010PropOp34
 70
     1
102
RTVSPost2010Prop35
280
     0
102
RTVSPost2010PropOp35
 70
     1
102
RTVSPost2010Prop36
280
     0
102
RTVSPost2010PropOp36
 70
     1
102
RTVSPost2010Prop37
 90
       50
102
RTVSPost2010PropOp37
 70
     1
102
RTVSPost2010Prop38
140
0.0
102
RTVSPost2010PropOp38
 70
     1
102
RTVSPost2010Prop39
140
1.0
102
RTVSPost2010PropOp39
 70
     1
102
RTVSPost2010Prop40
 90
        0
102
RTVSPost2010PropOp40
 70
     1
102
RTVSPost2010Prop41ColorIndex
 90
       18
102
RTVSPost2010Prop41ColorRGB
 90
        0
102
RTVSPost2010PropOp41
 70
     1
102
RTVSPost2010Prop42
 90
       50
102
RTVSPost2010PropOp42
 70
     1
102
RTVSPost2010Prop43
 90
        3
102
RTVSPost2010PropOp43
 70
     1
102
RTVSPost2010Prop44ColorIndex
 90
        5
102
RTVSPost2010Prop44ColorRGB
 90
      255
102
RTVSPost2010PropOp44
 70
     1
102
RTVSPost2010Prop45
280
     0
102
RTVSPost2010PropOp45
 70
     1
102
RTVSPost2010Prop46
 90
       50
102
RTVSPost2010PropOp46
 70
     1
102
RTVSPost2010Prop47
 90
       50
102
RTVSPost2010PropOp47
 70
     1
102
RTVSPost2010Prop48
 90
       50
102
RTVSPost2010PropOp48
 70
     1
102
RTVSPost2010Prop49
280
     0
102
RTVSPost2010PropOp49
 70
     1
102
RTVSPost2010Prop50
 90
       50
102
RTVSPost2010PropOp50
 70
     1
102
RTVSPost2010Prop51ColorIndex
 90
      256
102
RTVSPost2010Prop51ColorRGB
 90
-16777216
102
RTVSPost2010PropOp51
 70
     0
102
RTVSPost2010Prop52
140
1.0
102
RTVSPost2010PropOp52
 70
     0
102
RTVSPost2010Prop53
 90
        2
102
RTVSPost2010PropOp53
 70
     1
102
RTVSPost2010Prop54
  1
strokes_ogs.tif
102
RTVSPost2010PropOp54
 70
     1
102
RTVSPost2010Prop55
280
     0
102
RTVSPost2010PropOp55
 70
     1
102
RTVSPost2010Prop56
140
1.0
102
RTVSPost2010PropOp56
 70
     1
102
RTVSPost2010Prop57
140
1.0
102
RTVSPost2010PropOp57
 70
     1
102
RTVSPropertyOp0
 70
     1
102
RTVSPropertyOp1
 70
     1
102
RTVSPropertyOp2
 70
     1
102
RTVSPropertyOp3
 70
     1
102
RTVSPropertyOp4
 70
     1
102
RTVSPropertyOp5
 70
     1
102
RTVSPropertyOp6
 70
     1
102
RTVSPropertyOp7
 70
     1
102
RTVSPropertyOp8
 70
     1
102
RTVSPropertyOp9
 70
     1
102
RTVSPropertyOp10
 70
     1
102
RTVSPropertyOp11
 70
     1
102
RTVSPropertyOp12
 70
     1
102
RTVSPropertyOp13
 70
     1
102
RTVSPropertyOp14
 70
     1
102
RTVSPropertyOp15
 70
     1
102
RTVSPropertyOp16
 70
     1
102
RTVSPropertyOp17
 70
     1
102
RTVSPropertyOp18
 70
     1
102
RTVSPropertyOp19
 70
     1
102
RTVSPropertyOp20
 70
     1
102
RTVSPropertyOp21
 70
     1
102
RTVSPropertyOp22
 70
     1
102
RTVSPropertyOp23
 70
     1
102
RTVSPropertyOp24
 70
     1
102
RTVSPropertyOp25
 70
     1
102
RTVSPropertyOp26
 70
     1
102
RTVSPropertyOp27
 70
     1
102
RTVSPropertyOp28
 70
     1
102
RTVSPropertyOp29
 70
     1
102
RTVSPropertyOp30
 70
     1
102
RTVSPropertyOp31
 70
     1
102
RTVSPropertyOp32
 70
     1
102
RTVSPropertyOp33
 70
     1
102
RTVSPropertyOp34
 70
     1
102
RTVSPropertyOp35
 70
     1
102
RTVSPropertyOp36
 70
     1
102
RTVSPropertyOp37
 70
     1
102
RTVSPropertyOp38
 70
     1
102
RTVSPropertyOp39
 70
     1
102
RTVSPropertyOp40
 70
     1
102
RTVSPropertyOp41
 70
     1
102
RTVSPropertyOp42
 70
     1
102
RTVSPropertyOp43
 70
     1
102
RTVSPropertyOp44
 70
     1
102
RTVSPropertyOp45
 70
     1
102
RTVSPropertyOp46
 70
     1
102
RTVSPropertyOp47
 70
     1
102
RTVSPropertyOp48
 70
     1
102
RTVSPropertyOp49
 70
     1
102
RTVSPropertyOp50
 70
     1
102
RTVSPropertyOp51
 70
     0
102
RTVSPropertyOp52
 70
     0
102
RTVSPropertyOp53
 70
     1
102
RTVSPropertyOp54
 70
     1
102
RTVSPropertyOp55
 70
     1
102
RTVSPropertyOp56
 70
     1
102
RTVSPropertyOp57
 70
     1
102
RTVSPropertyOp58
 70
     1
102
RTVSPropertyOp59
 70
     1
102
RTVSPropertyOp60
 70
     1
102
RTVSPropertyOp61
 70
     1
102
RTVSPropertyOp62
 70
     1
  0
XRECORD
  5
2BF1D
102
{ACAD_REACTORS
330
2BF1C
102
}
330
2BF1C
100
AcDbXrecord
280
     1
102
RTVSPost2010Prop28
280
     0
102
RTVSPost2010PropOp28
 70
     1
102
RTVSPost2010Prop29
280
     1
102
RTVSPost2010PropOp29
 70
     1
102
RTVSPost2010Prop30
280
     1
102
RTVSPost2010PropOp30
 70
     1
102
RTVSPost2010Prop31
280
     0
102
RTVSPost2010PropOp31
 70
     1
102
RTVSPost2010Prop32
280
     0
102
RTVSPost2010PropOp32
 70
     1
102
RTVSPost2010Prop33
280
     0
102
RTVSPost2010PropOp33
 70
     1
102
RTVSPost2010Prop34
280
     0
102
RTVSPost2010PropOp34
 70
     1
102
RTVSPost2010Prop35
280
     0
102
RTVSPost2010PropOp35
 70
     1
102
RTVSPost2010Prop36
280
     0
102
RTVSPost2010PropOp36
 70
     1
102
RTVSPost2010Prop37
 90
       50
102
RTVSPost2010PropOp37
 70
     1
102
RTVSPost2010Prop38
140
0.0
102
RTVSPost2010PropOp38
 70
     1
102
RTVSPost2010Prop39
140
1.0
102
RTVSPost2010PropOp39
 70
     1
102
RTVSPost2010Prop40
 90
        0
102
RTVSPost2010PropOp40
 70
     1
102
RTVSPost2010Prop41ColorIndex
 90
       18
102
RTVSPost2010Prop41ColorRGB
 90
        0
102
RTVSPost2010PropOp41
 70
     1
102
RTVSPost2010Prop42
 90
       50
102
RTVSPost2010PropOp42
 70
     1
102
RTVSPost2010Prop43
 90
        3
102
RTVSPost2010PropOp43
 70
     1
102
RTVSPost2010Prop44ColorIndex
 90
        5
102
RTVSPost2010Prop44ColorRGB
 90
      255
102
RTVSPost2010PropOp44
 70
     1
102
RTVSPost2010Prop45
280
     0
102
RTVSPost2010PropOp45
 70
     1
102
RTVSPost2010Prop46
 90
       50
102
RTVSPost2010PropOp46
 70
     1
102
RTVSPost2010Prop47
 90
       50
102
RTVSPost2010PropOp47
 70
     1
102
RTVSPost2010Prop48
 90
       50
102
RTVSPost2010PropOp48
 70
     1
102
RTVSPost2010Prop49
280
     0
102
RTVSPost2010PropOp49
 70
     1
102
RTVSPost2010Prop50
 90
       50
102
RTVSPost2010PropOp50
 70
     1
102
RTVSPost2010Prop51ColorIndex
 90
      256
102
RTVSPost2010Prop51ColorRGB
 90
-16777216
102
RTVSPost2010PropOp51
 70
     0
102
RTVSPost2010Prop52
140
1.0
102
RTVSPost2010PropOp52
 70
     0
102
RTVSPost2010Prop53
 90
        2
102
RTVSPost2010PropOp53
 70
     1
102
RTVSPost2010Prop54
  1
strokes_ogs.tif
102
RTVSPost2010PropOp54
 70
     1
102
RTVSPost2010Prop55
280
     0
102
RTVSPost2010PropOp55
 70
     1
102
RTVSPost2010Prop56
140
1.0
102
RTVSPost2010PropOp56
 70
     1
102
RTVSPost2010Prop57
140
1.0
102
RTVSPost2010PropOp57
 70
     1
102
RTVSPropertyOp0
 70
     1
102
RTVSPropertyOp1
 70
     1
102
RTVSPropertyOp2
 70
     1
102
RTVSPropertyOp3
 70
     1
102
RTVSPropertyOp4
 70
     1
102
RTVSPropertyOp5
 70
     1
102
RTVSPropertyOp6
 70
     1
102
RTVSPropertyOp7
 70
     1
102
RTVSPropertyOp8
 70
     1
102
RTVSPropertyOp9
 70
     1
102
RTVSPropertyOp10
 70
     1
102
RTVSPropertyOp11
 70
     1
102
RTVSPropertyOp12
 70
     1
102
RTVSPropertyOp13
 70
     1
102
RTVSPropertyOp14
 70
     1
102
RTVSPropertyOp15
 70
     1
102
RTVSPropertyOp16
 70
     1
102
RTVSPropertyOp17
 70
     1
102
RTVSPropertyOp18
 70
     1
102
RTVSPropertyOp19
 70
     1
102
RTVSPropertyOp20
 70
     1
102
RTVSPropertyOp21
 70
     1
102
RTVSPropertyOp22
 70
     1
102
RTVSPropertyOp23
 70
     1
102
RTVSPropertyOp24
 70
     1
102
RTVSPropertyOp25
 70
     1
102
RTVSPropertyOp26
 70
     1
102
RTVSPropertyOp27
 70
     1
102
RTVSPropertyOp28
 70
     1
102
RTVSPropertyOp29
 70
     1
102
RTVSPropertyOp30
 70
     1
102
RTVSPropertyOp31
 70
     1
102
RTVSPropertyOp32
 70
     1
102
RTVSPropertyOp33
 70
     1
102
RTVSPropertyOp34
 70
     1
102
RTVSPropertyOp35
 70
     1
102
RTVSPropertyOp36
 70
     1
102
RTVSPropertyOp37
 70
     1
102
RTVSPropertyOp38
 70
     1
102
RTVSPropertyOp39
 70
     1
102
RTVSPropertyOp40
 70
     1
102
RTVSPropertyOp41
 70
     1
102
RTVSPropertyOp42
 70
     1
102
RTVSPropertyOp43
 70
     1
102
RTVSPropertyOp44
 70
     1
102
RTVSPropertyOp45
 70
     1
102
RTVSPropertyOp46
 70
     1
102
RTVSPropertyOp47
 70
     1
102
RTVSPropertyOp48
 70
     1
102
RTVSPropertyOp49
 70
     1
102
RTVSPropertyOp50
 70
     1
102
RTVSPropertyOp51
 70
     0
102
RTVSPropertyOp52
 70
     0
102
RTVSPropertyOp53
 70
     1
102
RTVSPropertyOp54
 70
     1
102
RTVSPropertyOp55
 70
     1
102
RTVSPropertyOp56
 70
     1
102
RTVSPropertyOp57
 70
     1
102
RTVSPropertyOp58
 70
     1
102
RTVSPropertyOp59
 70
     1
102
RTVSPropertyOp60
 70
     1
102
RTVSPropertyOp61
 70
     1
102
RTVSPropertyOp62
 70
     1
  0
XRECORD
  5
2BF11
102
{ACAD_REACTORS
330
2BF10
102
}
330
2BF10
100
AcDbXrecord
280
     1
102
RTVSPost2010Prop28
280
     0
102
RTVSPost2010PropOp28
 70
     1
102
RTVSPost2010Prop29
280
     1
102
RTVSPost2010PropOp29
 70
     1
102
RTVSPost2010Prop30
280
     1
102
RTVSPost2010PropOp30
 70
     1
102
RTVSPost2010Prop31
280
     0
102
RTVSPost2010PropOp31
 70
     1
102
RTVSPost2010Prop32
280
     0
102
RTVSPost2010PropOp32
 70
     1
102
RTVSPost2010Prop33
280
     0
102
RTVSPost2010PropOp33
 70
     1
102
RTVSPost2010Prop34
280
     0
102
RTVSPost2010PropOp34
 70
     1
102
RTVSPost2010Prop35
280
     0
102
RTVSPost2010PropOp35
 70
     1
102
RTVSPost2010Prop36
280
     0
102
RTVSPost2010PropOp36
 70
     1
102
RTVSPost2010Prop37
 90
       50
102
RTVSPost2010PropOp37
 70
     1
102
RTVSPost2010Prop38
140
0.0
102
RTVSPost2010PropOp38
 70
     1
102
RTVSPost2010Prop39
140
1.0
102
RTVSPost2010PropOp39
 70
     1
102
RTVSPost2010Prop40
 90
        0
102
RTVSPost2010PropOp40
 70
     1
102
RTVSPost2010Prop41ColorIndex
 90
       18
102
RTVSPost2010Prop41ColorRGB
 90
        0
102
RTVSPost2010PropOp41
 70
     1
102
RTVSPost2010Prop42
 90
       50
102
RTVSPost2010PropOp42
 70
     1
102
RTVSPost2010Prop43
 90
        3
102
RTVSPost2010PropOp43
 70
     1
102
RTVSPost2010Prop44ColorIndex
 90
        5
102
RTVSPost2010Prop44ColorRGB
 90
      255
102
RTVSPost2010PropOp44
 70
     1
102
RTVSPost2010Prop45
280
     0
102
RTVSPost2010PropOp45
 70
     1
102
RTVSPost2010Prop46
 90
       50
102
RTVSPost2010PropOp46
 70
     1
102
RTVSPost2010Prop47
 90
       50
102
RTVSPost2010PropOp47
 70
     1
102
RTVSPost2010Prop48
 90
       50
102
RTVSPost2010PropOp48
 70
     1
102
RTVSPost2010Prop49
280
     0
102
RTVSPost2010PropOp49
 70
     1
102
RTVSPost2010Prop50
 90
       50
102
RTVSPost2010PropOp50
 70
     1
102
RTVSPost2010Prop51ColorIndex
 90
      256
102
RTVSPost2010Prop51ColorRGB
 90
-16777216
102
RTVSPost2010PropOp51
 70
     0
102
RTVSPost2010Prop52
140
1.0
102
RTVSPost2010PropOp52
 70
     0
102
RTVSPost2010Prop53
 90
        2
102
RTVSPost2010PropOp53
 70
     1
102
RTVSPost2010Prop54
  1
strokes_ogs.tif
102
RTVSPost2010PropOp54
 70
     1
102
RTVSPost2010Prop55
280
     0
102
RTVSPost2010PropOp55
 70
     1
102
RTVSPost2010Prop56
140
1.0
102
RTVSPost2010PropOp56
 70
     1
102
RTVSPost2010Prop57
140
1.0
102
RTVSPost2010PropOp57
 70
     1
102
RTVSPropertyOp0
 70
     1
102
RTVSPropertyOp1
 70
     1
102
RTVSPropertyOp2
 70
     1
102
RTVSPropertyOp3
 70
     1
102
RTVSPropertyOp4
 70
     1
102
RTVSPropertyOp5
 70
     1
102
RTVSPropertyOp6
 70
     1
102
RTVSPropertyOp7
 70
     1
102
RTVSPropertyOp8
 70
     1
102
RTVSPropertyOp9
 70
     1
102
RTVSPropertyOp10
 70
     1
102
RTVSPropertyOp11
 70
     1
102
RTVSPropertyOp12
 70
     1
102
RTVSPropertyOp13
 70
     1
102
RTVSPropertyOp14
 70
     1
102
RTVSPropertyOp15
 70
     1
102
RTVSPropertyOp16
 70
     1
102
RTVSPropertyOp17
 70
     1
102
RTVSPropertyOp18
 70
     1
102
RTVSPropertyOp19
 70
     1
102
RTVSPropertyOp20
 70
     1
102
RTVSPropertyOp21
 70
     1
102
RTVSPropertyOp22
 70
     1
102
RTVSPropertyOp23
 70
     1
102
RTVSPropertyOp24
 70
     1
102
RTVSPropertyOp25
 70
     1
102
RTVSPropertyOp26
 70
     1
102
RTVSPropertyOp27
 70
     1
102
RTVSPropertyOp28
 70
     1
102
RTVSPropertyOp29
 70
     1
102
RTVSPropertyOp30
 70
     1
102
RTVSPropertyOp31
 70
     1
102
RTVSPropertyOp32
 70
     1
102
RTVSPropertyOp33
 70
     1
102
RTVSPropertyOp34
 70
     1
102
RTVSPropertyOp35
 70
     1
102
RTVSPropertyOp36
 70
     1
102
RTVSPropertyOp37
 70
     1
102
RTVSPropertyOp38
 70
     1
102
RTVSPropertyOp39
 70
     1
102
RTVSPropertyOp40
 70
     1
102
RTVSPropertyOp41
 70
     1
102
RTVSPropertyOp42
 70
     1
102
RTVSPropertyOp43
 70
     1
102
RTVSPropertyOp44
 70
     1
102
RTVSPropertyOp45
 70
     1
102
RTVSPropertyOp46
 70
     1
102
RTVSPropertyOp47
 70
     1
102
RTVSPropertyOp48
 70
     1
102
RTVSPropertyOp49
 70
     1
102
RTVSPropertyOp50
 70
     1
102
RTVSPropertyOp51
 70
     0
102
RTVSPropertyOp52
 70
     0
102
RTVSPropertyOp53
 70
     1
102
RTVSPropertyOp54
 70
     1
102
RTVSPropertyOp55
 70
     1
102
RTVSPropertyOp56
 70
     1
102
RTVSPropertyOp57
 70
     1
102
RTVSPropertyOp58
 70
     1
102
RTVSPropertyOp59
 70
     1
102
RTVSPropertyOp60
 70
     1
102
RTVSPropertyOp61
 70
     1
102
RTVSPropertyOp62
 70
     1
  0
XRECORD
  5
2BF13
102
{ACAD_REACTORS
330
2BF12
102
}
330
2BF12
100
AcDbXrecord
280
     1
102
RTVSPost2010Prop28
280
     0
102
RTVSPost2010PropOp28
 70
     1
102
RTVSPost2010Prop29
280
     1
102
RTVSPost2010PropOp29
 70
     1
102
RTVSPost2010Prop30
280
     1
102
RTVSPost2010PropOp30
 70
     1
102
RTVSPost2010Prop31
280
     0
102
RTVSPost2010PropOp31
 70
     1
102
RTVSPost2010Prop32
280
     0
102
RTVSPost2010PropOp32
 70
     1
102
RTVSPost2010Prop33
280
     0
102
RTVSPost2010PropOp33
 70
     1
102
RTVSPost2010Prop34
280
     0
102
RTVSPost2010PropOp34
 70
     1
102
RTVSPost2010Prop35
280
     0
102
RTVSPost2010PropOp35
 70
     1
102
RTVSPost2010Prop36
280
     0
102
RTVSPost2010PropOp36
 70
     1
102
RTVSPost2010Prop37
 90
       50
102
RTVSPost2010PropOp37
 70
     1
102
RTVSPost2010Prop38
140
0.0
102
RTVSPost2010PropOp38
 70
     1
102
RTVSPost2010Prop39
140
1.0
102
RTVSPost2010PropOp39
 70
     1
102
RTVSPost2010Prop40
 90
        0
102
RTVSPost2010PropOp40
 70
     1
102
RTVSPost2010Prop41ColorIndex
 90
       18
102
RTVSPost2010Prop41ColorRGB
 90
        0
102
RTVSPost2010PropOp41
 70
     1
102
RTVSPost2010Prop42
 90
       50
102
RTVSPost2010PropOp42
 70
     1
102
RTVSPost2010Prop43
 90
        3
102
RTVSPost2010PropOp43
 70
     1
102
RTVSPost2010Prop44ColorIndex
 90
        5
102
RTVSPost2010Prop44ColorRGB
 90
      255
102
RTVSPost2010PropOp44
 70
     1
102
RTVSPost2010Prop45
280
     0
102
RTVSPost2010PropOp45
 70
     1
102
RTVSPost2010Prop46
 90
       50
102
RTVSPost2010PropOp46
 70
     1
102
RTVSPost2010Prop47
 90
       50
102
RTVSPost2010PropOp47
 70
     1
102
RTVSPost2010Prop48
 90
       50
102
RTVSPost2010PropOp48
 70
     1
102
RTVSPost2010Prop49
280
     0
102
RTVSPost2010PropOp49
 70
     1
102
RTVSPost2010Prop50
 90
       50
102
RTVSPost2010PropOp50
 70
     1
102
RTVSPost2010Prop51ColorIndex
 90
      256
102
RTVSPost2010Prop51ColorRGB
 90
-16777216
102
RTVSPost2010PropOp51
 70
     0
102
RTVSPost2010Prop52
140
1.0
102
RTVSPost2010PropOp52
 70
     0
102
RTVSPost2010Prop53
 90
        2
102
RTVSPost2010PropOp53
 70
     1
102
RTVSPost2010Prop54
  1
strokes_ogs.tif
102
RTVSPost2010PropOp54
 70
     1
102
RTVSPost2010Prop55
280
     0
102
RTVSPost2010PropOp55
 70
     1
102
RTVSPost2010Prop56
140
1.0
102
RTVSPost2010PropOp56
 70
     1
102
RTVSPost2010Prop57
140
1.0
102
RTVSPost2010PropOp57
 70
     1
102
RTVSPropertyOp0
 70
     1
102
RTVSPropertyOp1
 70
     1
102
RTVSPropertyOp2
 70
     1
102
RTVSPropertyOp3
 70
     1
102
RTVSPropertyOp4
 70
     1
102
RTVSPropertyOp5
 70
     1
102
RTVSPropertyOp6
 70
     1
102
RTVSPropertyOp7
 70
     1
102
RTVSPropertyOp8
 70
     1
102
RTVSPropertyOp9
 70
     1
102
RTVSPropertyOp10
 70
     1
102
RTVSPropertyOp11
 70
     1
102
RTVSPropertyOp12
 70
     1
102
RTVSPropertyOp13
 70
     1
102
RTVSPropertyOp14
 70
     1
102
RTVSPropertyOp15
 70
     1
102
RTVSPropertyOp16
 70
     1
102
RTVSPropertyOp17
 70
     1
102
RTVSPropertyOp18
 70
     1
102
RTVSPropertyOp19
 70
     1
102
RTVSPropertyOp20
 70
     1
102
RTVSPropertyOp21
 70
     1
102
RTVSPropertyOp22
 70
     1
102
RTVSPropertyOp23
 70
     1
102
RTVSPropertyOp24
 70
     1
102
RTVSPropertyOp25
 70
     1
102
RTVSPropertyOp26
 70
     1
102
RTVSPropertyOp27
 70
     1
102
RTVSPropertyOp28
 70
     1
102
RTVSPropertyOp29
 70
     1
102
RTVSPropertyOp30
 70
     1
102
RTVSPropertyOp31
 70
     1
102
RTVSPropertyOp32
 70
     1
102
RTVSPropertyOp33
 70
     1
102
RTVSPropertyOp34
 70
     1
102
RTVSPropertyOp35
 70
     1
102
RTVSPropertyOp36
 70
     1
102
RTVSPropertyOp37
 70
     1
102
RTVSPropertyOp38
 70
     1
102
RTVSPropertyOp39
 70
     1
102
RTVSPropertyOp40
 70
     1
102
RTVSPropertyOp41
 70
     1
102
RTVSPropertyOp42
 70
     1
102
RTVSPropertyOp43
 70
     1
102
RTVSPropertyOp44
 70
     1
102
RTVSPropertyOp45
 70
     1
102
RTVSPropertyOp46
 70
     1
102
RTVSPropertyOp47
 70
     1
102
RTVSPropertyOp48
 70
     1
102
RTVSPropertyOp49
 70
     1
102
RTVSPropertyOp50
 70
     1
102
RTVSPropertyOp51
 70
     0
102
RTVSPropertyOp52
 70
     0
102
RTVSPropertyOp53
 70
     1
102
RTVSPropertyOp54
 70
     1
102
RTVSPropertyOp55
 70
     1
102
RTVSPropertyOp56
 70
     1
102
RTVSPropertyOp57
 70
     1
102
RTVSPropertyOp58
 70
     1
102
RTVSPropertyOp59
 70
     1
102
RTVSPropertyOp60
 70
     1
102
RTVSPropertyOp61
 70
     1
102
RTVSPropertyOp62
 70
     1
  0
XRECORD
  5
2BF23
102
{ACAD_REACTORS
330
2BF22
102
}
330
2BF22
100
AcDbXrecord
280
     1
102
RTVSPost2010Prop28
280
     0
102
RTVSPost2010PropOp28
 70
     0
102
RTVSPost2010Prop29
280
     1
102
RTVSPost2010PropOp29
 70
     0
102
RTVSPost2010Prop30
280
     1
102
RTVSPost2010PropOp30
 70
     0
102
RTVSPost2010Prop31
280
     0
102
RTVSPost2010PropOp31
 70
     0
102
RTVSPost2010Prop32
280
     0
102
RTVSPost2010PropOp32
 70
     0
102
RTVSPost2010Prop33
280
     0
102
RTVSPost2010PropOp33
 70
     0
102
RTVSPost2010Prop34
280
     0
102
RTVSPost2010PropOp34
 70
     0
102
RTVSPost2010Prop35
280
     0
102
RTVSPost2010PropOp35
 70
     0
102
RTVSPost2010Prop36
280
     0
102
RTVSPost2010PropOp36
 70
     0
102
RTVSPost2010Prop37
 90
       50
102
RTVSPost2010PropOp37
 70
     0
102
RTVSPost2010Prop38
140
0.0
102
RTVSPost2010PropOp38
 70
     0
102
RTVSPost2010Prop39
140
1.0
102
RTVSPost2010PropOp39
 70
     0
102
RTVSPost2010Prop40
 90
        0
102
RTVSPost2010PropOp40
 70
     0
102
RTVSPost2010Prop41ColorIndex
 90
       18
102
RTVSPost2010Prop41ColorRGB
 90
        0
102
RTVSPost2010PropOp41
 70
     0
102
RTVSPost2010Prop42
 90
       50
102
RTVSPost2010PropOp42
 70
     0
102
RTVSPost2010Prop43
 90
        3
102
RTVSPost2010PropOp43
 70
     0
102
RTVSPost2010Prop44ColorIndex
 90
        5
102
RTVSPost2010Prop44ColorRGB
 90
      255
102
RTVSPost2010PropOp44
 70
     0
102
RTVSPost2010Prop45
280
     0
102
RTVSPost2010PropOp45
 70
     0
102
RTVSPost2010Prop46
 90
       50
102
RTVSPost2010PropOp46
 70
     0
102
RTVSPost2010Prop47
 90
       50
102
RTVSPost2010PropOp47
 70
     0
102
RTVSPost2010Prop48
 90
       50
102
RTVSPost2010PropOp48
 70
     0
102
RTVSPost2010Prop49
280
     0
102
RTVSPost2010PropOp49
 70
     0
102
RTVSPost2010Prop50
 90
       50
102
RTVSPost2010PropOp50
 70
     0
102
RTVSPost2010Prop51ColorIndex
 90
      256
102
RTVSPost2010Prop51ColorRGB
 90
-16777216
102
RTVSPost2010PropOp51
 70
     0
102
RTVSPost2010Prop52
140
1.0
102
RTVSPost2010PropOp52
 70
     0
102
RTVSPost2010Prop53
 90
        2
102
RTVSPost2010PropOp53
 70
     0
102
RTVSPost2010Prop54
  1
strokes_ogs.tif
102
RTVSPost2010PropOp54
 70
     0
102
RTVSPost2010Prop55
280
     0
102
RTVSPost2010PropOp55
 70
     0
102
RTVSPost2010Prop56
140
1.0
102
RTVSPost2010PropOp56
 70
     0
102
RTVSPost2010Prop57
140
1.0
102
RTVSPost2010PropOp57
 70
     0
102
RTVSPropertyOp0
 70
     0
102
RTVSPropertyOp1
 70
     0
102
RTVSPropertyOp2
 70
     0
102
RTVSPropertyOp3
 70
     0
102
RTVSPropertyOp4
 70
     0
102
RTVSPropertyOp5
 70
     0
102
RTVSPropertyOp6
 70
     0
102
RTVSPropertyOp7
 70
     0
102
RTVSPropertyOp8
 70
     0
102
RTVSPropertyOp9
 70
     0
102
RTVSPropertyOp10
 70
     0
102
RTVSPropertyOp11
 70
     0
102
RTVSPropertyOp12
 70
     0
102
RTVSPropertyOp13
 70
     0
102
RTVSPropertyOp14
 70
     2
102
RTVSPropertyOp15
 70
     0
102
RTVSPropertyOp16
 70
     0
102
RTVSPropertyOp17
 70
     0
102
RTVSPropertyOp18
 70
     0
102
RTVSPropertyOp19
 70
     0
102
RTVSPropertyOp20
 70
     0
102
RTVSPropertyOp21
 70
     0
102
RTVSPropertyOp22
 70
     0
102
RTVSPropertyOp23
 70
     0
102
RTVSPropertyOp24
 70
     0
102
RTVSPropertyOp25
 70
     0
102
RTVSPropertyOp26
 70
     0
102
RTVSPropertyOp27
 70
     0
102
RTVSPropertyOp28
 70
     0
102
RTVSPropertyOp29
 70
     0
102
RTVSPropertyOp30
 70
     0
102
RTVSPropertyOp31
 70
     0
102
RTVSPropertyOp32
 70
     0
102
RTVSPropertyOp33
 70
     0
102
RTVSPropertyOp34
 70
     0
102
RTVSPropertyOp35
 70
     0
102
RTVSPropertyOp36
 70
     0
102
RTVSPropertyOp37
 70
     0
102
RTVSPropertyOp38
 70
     0
102
RTVSPropertyOp39
 70
     0
102
RTVSPropertyOp40
 70
     0
102
RTVSPropertyOp41
 70
     0
102
RTVSPropertyOp42
 70
     0
102
RTVSPropertyOp43
 70
     0
102
RTVSPropertyOp44
 70
     0
102
RTVSPropertyOp45
 70
     0
102
RTVSPropertyOp46
 70
     0
102
RTVSPropertyOp47
 70
     0
102
RTVSPropertyOp48
 70
     0
102
RTVSPropertyOp49
 70
     0
102
RTVSPropertyOp50
 70
     0
102
RTVSPropertyOp51
 70
     0
102
RTVSPropertyOp52
 70
     0
102
RTVSPropertyOp53
 70
     0
102
RTVSPropertyOp54
 70
     0
102
RTVSPropertyOp55
 70
     0
102
RTVSPropertyOp56
 70
     0
102
RTVSPropertyOp57
 70
     0
102
RTVSPropertyOp58
 70
     1
102
RTVSPropertyOp59
 70
     1
102
RTVSPropertyOp60
 70
     1
102
RTVSPropertyOp61
 70
     1
102
RTVSPropertyOp62
 70
     1
  0
XRECORD
  5
2BF1B
102
{ACAD_REACTORS
330
2BF1A
102
}
330
2BF1A
100
AcDbXrecord
280
     1
102
RTVSPost2010Prop28
280
     0
102
RTVSPost2010PropOp28
 70
     1
102
RTVSPost2010Prop29
280
     1
102
RTVSPost2010PropOp29
 70
     1
102
RTVSPost2010Prop30
280
     1
102
RTVSPost2010PropOp30
 70
     1
102
RTVSPost2010Prop31
280
     0
102
RTVSPost2010PropOp31
 70
     1
102
RTVSPost2010Prop32
280
     0
102
RTVSPost2010PropOp32
 70
     1
102
RTVSPost2010Prop33
280
     0
102
RTVSPost2010PropOp33
 70
     1
102
RTVSPost2010Prop34
280
     0
102
RTVSPost2010PropOp34
 70
     1
102
RTVSPost2010Prop35
280
     0
102
RTVSPost2010PropOp35
 70
     1
102
RTVSPost2010Prop36
280
     0
102
RTVSPost2010PropOp36
 70
     1
102
RTVSPost2010Prop37
 90
       50
102
RTVSPost2010PropOp37
 70
     1
102
RTVSPost2010Prop38
140
0.0
102
RTVSPost2010PropOp38
 70
     1
102
RTVSPost2010Prop39
140
1.0
102
RTVSPost2010PropOp39
 70
     1
102
RTVSPost2010Prop40
 90
        0
102
RTVSPost2010PropOp40
 70
     1
102
RTVSPost2010Prop41ColorIndex
 90
       18
102
RTVSPost2010Prop41ColorRGB
 90
        0
102
RTVSPost2010PropOp41
 70
     1
102
RTVSPost2010Prop42
 90
       50
102
RTVSPost2010PropOp42
 70
     1
102
RTVSPost2010Prop43
 90
        3
102
RTVSPost2010PropOp43
 70
     1
102
RTVSPost2010Prop44ColorIndex
 90
        5
102
RTVSPost2010Prop44ColorRGB
 90
      255
102
RTVSPost2010PropOp44
 70
     1
102
RTVSPost2010Prop45
280
     0
102
RTVSPost2010PropOp45
 70
     1
102
RTVSPost2010Prop46
 90
       50
102
RTVSPost2010PropOp46
 70
     1
102
RTVSPost2010Prop47
 90
       50
102
RTVSPost2010PropOp47
 70
     1
102
RTVSPost2010Prop48
 90
       50
102
RTVSPost2010PropOp48
 70
     1
102
RTVSPost2010Prop49
280
     0
102
RTVSPost2010PropOp49
 70
     1
102
RTVSPost2010Prop50
 90
       50
102
RTVSPost2010PropOp50
 70
     1
102
RTVSPost2010Prop51ColorIndex
 90
      256
102
RTVSPost2010Prop51ColorRGB
 90
-16777216
102
RTVSPost2010PropOp51
 70
     0
102
RTVSPost2010Prop52
140
1.0
102
RTVSPost2010PropOp52
 70
     0
102
RTVSPost2010Prop53
 90
        2
102
RTVSPost2010PropOp53
 70
     1
102
RTVSPost2010Prop54
  1
strokes_ogs.tif
102
RTVSPost2010PropOp54
 70
     1
102
RTVSPost2010Prop55
280
     0
102
RTVSPost2010PropOp55
 70
     1
102
RTVSPost2010Prop56
140
1.0
102
RTVSPost2010PropOp56
 70
     1
102
RTVSPost2010Prop57
140
1.0
102
RTVSPost2010PropOp57
 70
     1
102
RTVSPropertyOp0
 70
     1
102
RTVSPropertyOp1
 70
     1
102
RTVSPropertyOp2
 70
     1
102
RTVSPropertyOp3
 70
     1
102
RTVSPropertyOp4
 70
     1
102
RTVSPropertyOp5
 70
     1
102
RTVSPropertyOp6
 70
     1
102
RTVSPropertyOp7
 70
     1
102
RTVSPropertyOp8
 70
     1
102
RTVSPropertyOp9
 70
     1
102
RTVSPropertyOp10
 70
     1
102
RTVSPropertyOp11
 70
     1
102
RTVSPropertyOp12
 70
     1
102
RTVSPropertyOp13
 70
     1
102
RTVSPropertyOp14
 70
     1
102
RTVSPropertyOp15
 70
     1
102
RTVSPropertyOp16
 70
     1
102
RTVSPropertyOp17
 70
     1
102
RTVSPropertyOp18
 70
     1
102
RTVSPropertyOp19
 70
     1
102
RTVSPropertyOp20
 70
     1
102
RTVSPropertyOp21
 70
     1
102
RTVSPropertyOp22
 70
     1
102
RTVSPropertyOp23
 70
     1
102
RTVSPropertyOp24
 70
     1
102
RTVSPropertyOp25
 70
     1
102
RTVSPropertyOp26
 70
     1
102
RTVSPropertyOp27
 70
     1
102
RTVSPropertyOp28
 70
     1
102
RTVSPropertyOp29
 70
     1
102
RTVSPropertyOp30
 70
     1
102
RTVSPropertyOp31
 70
     1
102
RTVSPropertyOp32
 70
     1
102
RTVSPropertyOp33
 70
     1
102
RTVSPropertyOp34
 70
     1
102
RTVSPropertyOp35
 70
     1
102
RTVSPropertyOp36
 70
     1
102
RTVSPropertyOp37
 70
     1
102
RTVSPropertyOp38
 70
     1
102
RTVSPropertyOp39
 70
     1
102
RTVSPropertyOp40
 70
     1
102
RTVSPropertyOp41
 70
     1
102
RTVSPropertyOp42
 70
     1
102
RTVSPropertyOp43
 70
     1
102
RTVSPropertyOp44
 70
     1
102
RTVSPropertyOp45
 70
     1
102
RTVSPropertyOp46
 70
     1
102
RTVSPropertyOp47
 70
     1
102
RTVSPropertyOp48
 70
     1
102
RTVSPropertyOp49
 70
     1
102
RTVSPropertyOp50
 70
     1
102
RTVSPropertyOp51
 70
     0
102
RTVSPropertyOp52
 70
     0
102
RTVSPropertyOp53
 70
     1
102
RTVSPropertyOp54
 70
     1
102
RTVSPropertyOp55
 70
     1
102
RTVSPropertyOp56
 70
     1
102
RTVSPropertyOp57
 70
     1
102
RTVSPropertyOp58
 70
     1
102
RTVSPropertyOp59
 70
     1
102
RTVSPropertyOp60
 70
     1
102
RTVSPropertyOp61
 70
     1
102
RTVSPropertyOp62
 70
     1
  0
XRECORD
  5
2BEFF
102
{ACAD_REACTORS
330
2BEFE
102
}
330
2BEFE
100
AcDbXrecord
280
     1
102
RTVSPost2010Prop28
280
     0
102
RTVSPost2010PropOp28
 70
     1
102
RTVSPost2010Prop29
280
     1
102
RTVSPost2010PropOp29
 70
     1
102
RTVSPost2010Prop30
280
     1
102
RTVSPost2010PropOp30
 70
     1
102
RTVSPost2010Prop31
280
     0
102
RTVSPost2010PropOp31
 70
     1
102
RTVSPost2010Prop32
280
     0
102
RTVSPost2010PropOp32
 70
     1
102
RTVSPost2010Prop33
280
     0
102
RTVSPost2010PropOp33
 70
     1
102
RTVSPost2010Prop34
280
     0
102
RTVSPost2010PropOp34
 70
     1
102
RTVSPost2010Prop35
280
     0
102
RTVSPost2010PropOp35
 70
     1
102
RTVSPost2010Prop36
280
     0
102
RTVSPost2010PropOp36
 70
     1
102
RTVSPost2010Prop37
 90
       50
102
RTVSPost2010PropOp37
 70
     1
102
RTVSPost2010Prop38
140
0.0
102
RTVSPost2010PropOp38
 70
     1
102
RTVSPost2010Prop39
140
1.0
102
RTVSPost2010PropOp39
 70
     1
102
RTVSPost2010Prop40
 90
        0
102
RTVSPost2010PropOp40
 70
     1
102
RTVSPost2010Prop41ColorIndex
 90
       18
102
RTVSPost2010Prop41ColorRGB
 90
        0
102
RTVSPost2010PropOp41
 70
     1
102
RTVSPost2010Prop42
 90
       50
102
RTVSPost2010PropOp42
 70
     1
102
RTVSPost2010Prop43
 90
        3
102
RTVSPost2010PropOp43
 70
     1
102
RTVSPost2010Prop44ColorIndex
 90
        5
102
RTVSPost2010Prop44ColorRGB
 90
      255
102
RTVSPost2010PropOp44
 70
     1
102
RTVSPost2010Prop45
280
     0
102
RTVSPost2010PropOp45
 70
     1
102
RTVSPost2010Prop46
 90
       50
102
RTVSPost2010PropOp46
 70
     1
102
RTVSPost2010Prop47
 90
       50
102
RTVSPost2010PropOp47
 70
     1
102
RTVSPost2010Prop48
 90
       50
102
RTVSPost2010PropOp48
 70
     1
102
RTVSPost2010Prop49
280
     0
102
RTVSPost2010PropOp49
 70
     1
102
RTVSPost2010Prop50
 90
       50
102
RTVSPost2010PropOp50
 70
     1
102
RTVSPost2010Prop51ColorIndex
 90
      256
102
RTVSPost2010Prop51ColorRGB
 90
-16777216
102
RTVSPost2010PropOp51
 70
     0
102
RTVSPost2010Prop52
140
1.0
102
RTVSPost2010PropOp52
 70
     0
102
RTVSPost2010Prop53
 90
        2
102
RTVSPost2010PropOp53
 70
     1
102
RTVSPost2010Prop54
  1
strokes_ogs.tif
102
RTVSPost2010PropOp54
 70
     1
102
RTVSPost2010Prop55
280
     0
102
RTVSPost2010PropOp55
 70
     1
102
RTVSPost2010Prop56
140
1.0
102
RTVSPost2010PropOp56
 70
     1
102
RTVSPost2010Prop57
140
1.0
102
RTVSPost2010PropOp57
 70
     1
102
RTVSPropertyOp0
 70
     1
102
RTVSPropertyOp1
 70
     1
102
RTVSPropertyOp2
 70
     1
102
RTVSPropertyOp3
 70
     1
102
RTVSPropertyOp4
 70
     1
102
RTVSPropertyOp5
 70
     1
102
RTVSPropertyOp6
 70
     1
102
RTVSPropertyOp7
 70
     1
102
RTVSPropertyOp8
 70
     1
102
RTVSPropertyOp9
 70
     1
102
RTVSPropertyOp10
 70
     1
102
RTVSPropertyOp11
 70
     1
102
RTVSPropertyOp12
 70
     1
102
RTVSPropertyOp13
 70
     1
102
RTVSPropertyOp14
 70
     1
102
RTVSPropertyOp15
 70
     1
102
RTVSPropertyOp16
 70
     1
102
RTVSPropertyOp17
 70
     1
102
RTVSPropertyOp18
 70
     1
102
RTVSPropertyOp19
 70
     1
102
RTVSPropertyOp20
 70
     1
102
RTVSPropertyOp21
 70
     1
102
RTVSPropertyOp22
 70
     1
102
RTVSPropertyOp23
 70
     1
102
RTVSPropertyOp24
 70
     1
102
RTVSPropertyOp25
 70
     1
102
RTVSPropertyOp26
 70
     1
102
RTVSPropertyOp27
 70
     1
102
RTVSPropertyOp28
 70
     1
102
RTVSPropertyOp29
 70
     1
102
RTVSPropertyOp30
 70
     1
102
RTVSPropertyOp31
 70
     1
102
RTVSPropertyOp32
 70
     1
102
RTVSPropertyOp33
 70
     1
102
RTVSPropertyOp34
 70
     1
102
RTVSPropertyOp35
 70
     1
102
RTVSPropertyOp36
 70
     1
102
RTVSPropertyOp37
 70
     1
102
RTVSPropertyOp38
 70
     1
102
RTVSPropertyOp39
 70
     1
102
RTVSPropertyOp40
 70
     1
102
RTVSPropertyOp41
 70
     1
102
RTVSPropertyOp42
 70
     1
102
RTVSPropertyOp43
 70
     1
102
RTVSPropertyOp44
 70
     1
102
RTVSPropertyOp45
 70
     1
102
RTVSPropertyOp46
 70
     1
102
RTVSPropertyOp47
 70
     1
102
RTVSPropertyOp48
 70
     1
102
RTVSPropertyOp49
 70
     1
102
RTVSPropertyOp50
 70
     1
102
RTVSPropertyOp51
 70
     0
102
RTVSPropertyOp52
 70
     0
102
RTVSPropertyOp53
 70
     1
102
RTVSPropertyOp54
 70
     1
102
RTVSPropertyOp55
 70
     1
102
RTVSPropertyOp56
 70
     1
102
RTVSPropertyOp57
 70
     1
102
RTVSPropertyOp58
 70
     1
102
RTVSPropertyOp59
 70
     1
102
RTVSPropertyOp60
 70
     1
102
RTVSPropertyOp61
 70
     1
102
RTVSPropertyOp62
 70
     1
  0
XRECORD
  5
2BF01
102
{ACAD_REACTORS
330
2BF00
102
}
330
2BF00
100
AcDbXrecord
280
     1
102
RTVSPost2010Prop28
280
     0
102
RTVSPost2010PropOp28
 70
     1
102
RTVSPost2010Prop29
280
     1
102
RTVSPost2010PropOp29
 70
     1
102
RTVSPost2010Prop30
280
     1
102
RTVSPost2010PropOp30
 70
     1
102
RTVSPost2010Prop31
280
     0
102
RTVSPost2010PropOp31
 70
     1
102
RTVSPost2010Prop32
280
     0
102
RTVSPost2010PropOp32
 70
     1
102
RTVSPost2010Prop33
280
     0
102
RTVSPost2010PropOp33
 70
     1
102
RTVSPost2010Prop34
280
     0
102
RTVSPost2010PropOp34
 70
     1
102
RTVSPost2010Prop35
280
     0
102
RTVSPost2010PropOp35
 70
     1
102
RTVSPost2010Prop36
280
     0
102
RTVSPost2010PropOp36
 70
     1
102
RTVSPost2010Prop37
 90
       50
102
RTVSPost2010PropOp37
 70
     1
102
RTVSPost2010Prop38
140
0.0
102
RTVSPost2010PropOp38
 70
     1
102
RTVSPost2010Prop39
140
1.0
102
RTVSPost2010PropOp39
 70
     1
102
RTVSPost2010Prop40
 90
        0
102
RTVSPost2010PropOp40
 70
     1
102
RTVSPost2010Prop41ColorIndex
 90
       18
102
RTVSPost2010Prop41ColorRGB
 90
        0
102
RTVSPost2010PropOp41
 70
     1
102
RTVSPost2010Prop42
 90
       50
102
RTVSPost2010PropOp42
 70
     1
102
RTVSPost2010Prop43
 90
        3
102
RTVSPost2010PropOp43
 70
     1
102
RTVSPost2010Prop44ColorIndex
 90
        5
102
RTVSPost2010Prop44ColorRGB
 90
      255
102
RTVSPost2010PropOp44
 70
     1
102
RTVSPost2010Prop45
280
     0
102
RTVSPost2010PropOp45
 70
     1
102
RTVSPost2010Prop46
 90
       50
102
RTVSPost2010PropOp46
 70
     1
102
RTVSPost2010Prop47
 90
       50
102
RTVSPost2010PropOp47
 70
     1
102
RTVSPost2010Prop48
 90
       50
102
RTVSPost2010PropOp48
 70
     1
102
RTVSPost2010Prop49
280
     0
102
RTVSPost2010PropOp49
 70
     1
102
RTVSPost2010Prop50
 90
       50
102
RTVSPost2010PropOp50
 70
     1
102
RTVSPost2010Prop51ColorIndex
 90
      256
102
RTVSPost2010Prop51ColorRGB
 90
-16777216
102
RTVSPost2010PropOp51
 70
     0
102
RTVSPost2010Prop52
140
1.0
102
RTVSPost2010PropOp52
 70
     0
102
RTVSPost2010Prop53
 90
        2
102
RTVSPost2010PropOp53
 70
     1
102
RTVSPost2010Prop54
  1
strokes_ogs.tif
102
RTVSPost2010PropOp54
 70
     1
102
RTVSPost2010Prop55
280
     0
102
RTVSPost2010PropOp55
 70
     1
102
RTVSPost2010Prop56
140
1.0
102
RTVSPost2010PropOp56
 70
     1
102
RTVSPost2010Prop57
140
1.0
102
RTVSPost2010PropOp57
 70
     1
102
RTVSPropertyOp0
 70
     1
102
RTVSPropertyOp1
 70
     1
102
RTVSPropertyOp2
 70
     1
102
RTVSPropertyOp3
 70
     1
102
RTVSPropertyOp4
 70
     1
102
RTVSPropertyOp5
 70
     1
102
RTVSPropertyOp6
 70
     1
102
RTVSPropertyOp7
 70
     1
102
RTVSPropertyOp8
 70
     1
102
RTVSPropertyOp9
 70
     1
102
RTVSPropertyOp10
 70
     1
102
RTVSPropertyOp11
 70
     1
102
RTVSPropertyOp12
 70
     1
102
RTVSPropertyOp13
 70
     1
102
RTVSPropertyOp14
 70
     1
102
RTVSPropertyOp15
 70
     1
102
RTVSPropertyOp16
 70
     1
102
RTVSPropertyOp17
 70
     1
102
RTVSPropertyOp18
 70
     1
102
RTVSPropertyOp19
 70
     1
102
RTVSPropertyOp20
 70
     1
102
RTVSPropertyOp21
 70
     1
102
RTVSPropertyOp22
 70
     1
102
RTVSPropertyOp23
 70
     1
102
RTVSPropertyOp24
 70
     1
102
RTVSPropertyOp25
 70
     1
102
RTVSPropertyOp26
 70
     1
102
RTVSPropertyOp27
 70
     1
102
RTVSPropertyOp28
 70
     1
102
RTVSPropertyOp29
 70
     1
102
RTVSPropertyOp30
 70
     1
102
RTVSPropertyOp31
 70
     1
102
RTVSPropertyOp32
 70
     1
102
RTVSPropertyOp33
 70
     1
102
RTVSPropertyOp34
 70
     1
102
RTVSPropertyOp35
 70
     1
102
RTVSPropertyOp36
 70
     1
102
RTVSPropertyOp37
 70
     1
102
RTVSPropertyOp38
 70
     1
102
RTVSPropertyOp39
 70
     1
102
RTVSPropertyOp40
 70
     1
102
RTVSPropertyOp41
 70
     1
102
RTVSPropertyOp42
 70
     1
102
RTVSPropertyOp43
 70
     1
102
RTVSPropertyOp44
 70
     1
102
RTVSPropertyOp45
 70
     1
102
RTVSPropertyOp46
 70
     1
102
RTVSPropertyOp47
 70
     1
102
RTVSPropertyOp48
 70
     1
102
RTVSPropertyOp49
 70
     1
102
RTVSPropertyOp50
 70
     1
102
RTVSPropertyOp51
 70
     0
102
RTVSPropertyOp52
 70
     0
102
RTVSPropertyOp53
 70
     1
102
RTVSPropertyOp54
 70
     1
102
RTVSPropertyOp55
 70
     1
102
RTVSPropertyOp56
 70
     1
102
RTVSPropertyOp57
 70
     1
102
RTVSPropertyOp58
 70
     1
102
RTVSPropertyOp59
 70
     1
102
RTVSPropertyOp60
 70
     1
102
RTVSPropertyOp61
 70
     1
102
RTVSPropertyOp62
 70
     1
  0
XRECORD
  5
2BF03
102
{ACAD_REACTORS
330
2BF02
102
}
330
2BF02
100
AcDbXrecord
280
     1
102
RTVSPost2010Prop28
280
     0
102
RTVSPost2010PropOp28
 70
     1
102
RTVSPost2010Prop29
280
     1
102
RTVSPost2010PropOp29
 70
     1
102
RTVSPost2010Prop30
280
     1
102
RTVSPost2010PropOp30
 70
     1
102
RTVSPost2010Prop31
280
     0
102
RTVSPost2010PropOp31
 70
     1
102
RTVSPost2010Prop32
280
     0
102
RTVSPost2010PropOp32
 70
     1
102
RTVSPost2010Prop33
280
     0
102
RTVSPost2010PropOp33
 70
     1
102
RTVSPost2010Prop34
280
     0
102
RTVSPost2010PropOp34
 70
     1
102
RTVSPost2010Prop35
280
     0
102
RTVSPost2010PropOp35
 70
     1
102
RTVSPost2010Prop36
280
     0
102
RTVSPost2010PropOp36
 70
     1
102
RTVSPost2010Prop37
 90
       50
102
RTVSPost2010PropOp37
 70
     1
102
RTVSPost2010Prop38
140
0.0
102
RTVSPost2010PropOp38
 70
     1
102
RTVSPost2010Prop39
140
1.0
102
RTVSPost2010PropOp39
 70
     1
102
RTVSPost2010Prop40
 90
        0
102
RTVSPost2010PropOp40
 70
     1
102
RTVSPost2010Prop41ColorIndex
 90
       18
102
RTVSPost2010Prop41ColorRGB
 90
        0
102
RTVSPost2010PropOp41
 70
     1
102
RTVSPost2010Prop42
 90
       50
102
RTVSPost2010PropOp42
 70
     1
102
RTVSPost2010Prop43
 90
        3
102
RTVSPost2010PropOp43
 70
     1
102
RTVSPost2010Prop44ColorIndex
 90
        5
102
RTVSPost2010Prop44ColorRGB
 90
      255
102
RTVSPost2010PropOp44
 70
     1
102
RTVSPost2010Prop45
280
     0
102
RTVSPost2010PropOp45
 70
     1
102
RTVSPost2010Prop46
 90
       50
102
RTVSPost2010PropOp46
 70
     1
102
RTVSPost2010Prop47
 90
       50
102
RTVSPost2010PropOp47
 70
     1
102
RTVSPost2010Prop48
 90
       50
102
RTVSPost2010PropOp48
 70
     1
102
RTVSPost2010Prop49
280
     0
102
RTVSPost2010PropOp49
 70
     1
102
RTVSPost2010Prop50
 90
       50
102
RTVSPost2010PropOp50
 70
     1
102
RTVSPost2010Prop51ColorIndex
 90
      256
102
RTVSPost2010Prop51ColorRGB
 90
-16777216
102
RTVSPost2010PropOp51
 70
     0
102
RTVSPost2010Prop52
140
1.0
102
RTVSPost2010PropOp52
 70
     0
102
RTVSPost2010Prop53
 90
        2
102
RTVSPost2010PropOp53
 70
     1
102
RTVSPost2010Prop54
  1
strokes_ogs.tif
102
RTVSPost2010PropOp54
 70
     1
102
RTVSPost2010Prop55
280
     0
102
RTVSPost2010PropOp55
 70
     1
102
RTVSPost2010Prop56
140
1.0
102
RTVSPost2010PropOp56
 70
     1
102
RTVSPost2010Prop57
140
1.0
102
RTVSPost2010PropOp57
 70
     1
102
RTVSPropertyOp0
 70
     1
102
RTVSPropertyOp1
 70
     1
102
RTVSPropertyOp2
 70
     1
102
RTVSPropertyOp3
 70
     1
102
RTVSPropertyOp4
 70
     1
102
RTVSPropertyOp5
 70
     1
102
RTVSPropertyOp6
 70
     1
102
RTVSPropertyOp7
 70
     1
102
RTVSPropertyOp8
 70
     1
102
RTVSPropertyOp9
 70
     1
102
RTVSPropertyOp10
 70
     1
102
RTVSPropertyOp11
 70
     1
102
RTVSPropertyOp12
 70
     1
102
RTVSPropertyOp13
 70
     1
102
RTVSPropertyOp14
 70
     1
102
RTVSPropertyOp15
 70
     1
102
RTVSPropertyOp16
 70
     1
102
RTVSPropertyOp17
 70
     1
102
RTVSPropertyOp18
 70
     1
102
RTVSPropertyOp19
 70
     1
102
RTVSPropertyOp20
 70
     1
102
RTVSPropertyOp21
 70
     1
102
RTVSPropertyOp22
 70
     1
102
RTVSPropertyOp23
 70
     1
102
RTVSPropertyOp24
 70
     1
102
RTVSPropertyOp25
 70
     1
102
RTVSPropertyOp26
 70
     1
102
RTVSPropertyOp27
 70
     1
102
RTVSPropertyOp28
 70
     1
102
RTVSPropertyOp29
 70
     1
102
RTVSPropertyOp30
 70
     1
102
RTVSPropertyOp31
 70
     1
102
RTVSPropertyOp32
 70
     1
102
RTVSPropertyOp33
 70
     1
102
RTVSPropertyOp34
 70
     1
102
RTVSPropertyOp35
 70
     1
102
RTVSPropertyOp36
 70
     1
102
RTVSPropertyOp37
 70
     1
102
RTVSPropertyOp38
 70
     1
102
RTVSPropertyOp39
 70
     1
102
RTVSPropertyOp40
 70
     1
102
RTVSPropertyOp41
 70
     1
102
RTVSPropertyOp42
 70
     1
102
RTVSPropertyOp43
 70
     1
102
RTVSPropertyOp44
 70
     1
102
RTVSPropertyOp45
 70
     1
102
RTVSPropertyOp46
 70
     1
102
RTVSPropertyOp47
 70
     1
102
RTVSPropertyOp48
 70
     1
102
RTVSPropertyOp49
 70
     1
102
RTVSPropertyOp50
 70
     1
102
RTVSPropertyOp51
 70
     0
102
RTVSPropertyOp52
 70
     0
102
RTVSPropertyOp53
 70
     1
102
RTVSPropertyOp54
 70
     1
102
RTVSPropertyOp55
 70
     1
102
RTVSPropertyOp56
 70
     1
102
RTVSPropertyOp57
 70
     1
102
RTVSPropertyOp58
 70
     1
102
RTVSPropertyOp59
 70
     1
102
RTVSPropertyOp60
 70
     1
102
RTVSPropertyOp61
 70
     1
102
RTVSPropertyOp62
 70
     1
  0
XRECORD
  5
2BF05
102
{ACAD_REACTORS
330
2BF04
102
}
330
2BF04
100
AcDbXrecord
280
     1
102
RTVSPost2010Prop28
280
     0
102
RTVSPost2010PropOp28
 70
     1
102
RTVSPost2010Prop29
280
     1
102
RTVSPost2010PropOp29
 70
     1
102
RTVSPost2010Prop30
280
     1
102
RTVSPost2010PropOp30
 70
     1
102
RTVSPost2010Prop31
280
     0
102
RTVSPost2010PropOp31
 70
     1
102
RTVSPost2010Prop32
280
     0
102
RTVSPost2010PropOp32
 70
     1
102
RTVSPost2010Prop33
280
     0
102
RTVSPost2010PropOp33
 70
     1
102
RTVSPost2010Prop34
280
     0
102
RTVSPost2010PropOp34
 70
     1
102
RTVSPost2010Prop35
280
     0
102
RTVSPost2010PropOp35
 70
     1
102
RTVSPost2010Prop36
280
     0
102
RTVSPost2010PropOp36
 70
     1
102
RTVSPost2010Prop37
 90
       50
102
RTVSPost2010PropOp37
 70
     1
102
RTVSPost2010Prop38
140
0.0
102
RTVSPost2010PropOp38
 70
     1
102
RTVSPost2010Prop39
140
1.0
102
RTVSPost2010PropOp39
 70
     1
102
RTVSPost2010Prop40
 90
        0
102
RTVSPost2010PropOp40
 70
     1
102
RTVSPost2010Prop41ColorIndex
 90
       18
102
RTVSPost2010Prop41ColorRGB
 90
        0
102
RTVSPost2010PropOp41
 70
     1
102
RTVSPost2010Prop42
 90
       50
102
RTVSPost2010PropOp42
 70
     1
102
RTVSPost2010Prop43
 90
        3
102
RTVSPost2010PropOp43
 70
     1
102
RTVSPost2010Prop44ColorIndex
 90
        5
102
RTVSPost2010Prop44ColorRGB
 90
      255
102
RTVSPost2010PropOp44
 70
     1
102
RTVSPost2010Prop45
280
     0
102
RTVSPost2010PropOp45
 70
     1
102
RTVSPost2010Prop46
 90
       50
102
RTVSPost2010PropOp46
 70
     1
102
RTVSPost2010Prop47
 90
       50
102
RTVSPost2010PropOp47
 70
     1
102
RTVSPost2010Prop48
 90
       50
102
RTVSPost2010PropOp48
 70
     1
102
RTVSPost2010Prop49
280
     0
102
RTVSPost2010PropOp49
 70
     1
102
RTVSPost2010Prop50
 90
       50
102
RTVSPost2010PropOp50
 70
     1
102
RTVSPost2010Prop51ColorIndex
 90
      256
102
RTVSPost2010Prop51ColorRGB
 90
-16777216
102
RTVSPost2010PropOp51
 70
     0
102
RTVSPost2010Prop52
140
1.0
102
RTVSPost2010PropOp52
 70
     0
102
RTVSPost2010Prop53
 90
        2
102
RTVSPost2010PropOp53
 70
     1
102
RTVSPost2010Prop54
  1
strokes_ogs.tif
102
RTVSPost2010PropOp54
 70
     1
102
RTVSPost2010Prop55
280
     0
102
RTVSPost2010PropOp55
 70
     1
102
RTVSPost2010Prop56
140
1.0
102
RTVSPost2010PropOp56
 70
     1
102
RTVSPost2010Prop57
140
1.0
102
RTVSPost2010PropOp57
 70
     1
102
RTVSPropertyOp0
 70
     1
102
RTVSPropertyOp1
 70
     1
102
RTVSPropertyOp2
 70
     1
102
RTVSPropertyOp3
 70
     1
102
RTVSPropertyOp4
 70
     1
102
RTVSPropertyOp5
 70
     1
102
RTVSPropertyOp6
 70
     1
102
RTVSPropertyOp7
 70
     1
102
RTVSPropertyOp8
 70
     1
102
RTVSPropertyOp9
 70
     1
102
RTVSPropertyOp10
 70
     1
102
RTVSPropertyOp11
 70
     1
102
RTVSPropertyOp12
 70
     1
102
RTVSPropertyOp13
 70
     1
102
RTVSPropertyOp14
 70
     1
102
RTVSPropertyOp15
 70
     1
102
RTVSPropertyOp16
 70
     1
102
RTVSPropertyOp17
 70
     1
102
RTVSPropertyOp18
 70
     1
102
RTVSPropertyOp19
 70
     1
102
RTVSPropertyOp20
 70
     1
102
RTVSPropertyOp21
 70
     1
102
RTVSPropertyOp22
 70
     1
102
RTVSPropertyOp23
 70
     1
102
RTVSPropertyOp24
 70
     1
102
RTVSPropertyOp25
 70
     1
102
RTVSPropertyOp26
 70
     1
102
RTVSPropertyOp27
 70
     1
102
RTVSPropertyOp28
 70
     1
102
RTVSPropertyOp29
 70
     1
102
RTVSPropertyOp30
 70
     1
102
RTVSPropertyOp31
 70
     1
102
RTVSPropertyOp32
 70
     1
102
RTVSPropertyOp33
 70
     1
102
RTVSPropertyOp34
 70
     1
102
RTVSPropertyOp35
 70
     1
102
RTVSPropertyOp36
 70
     1
102
RTVSPropertyOp37
 70
     1
102
RTVSPropertyOp38
 70
     1
102
RTVSPropertyOp39
 70
     1
102
RTVSPropertyOp40
 70
     1
102
RTVSPropertyOp41
 70
     1
102
RTVSPropertyOp42
 70
     1
102
RTVSPropertyOp43
 70
     1
102
RTVSPropertyOp44
 70
     1
102
RTVSPropertyOp45
 70
     1
102
RTVSPropertyOp46
 70
     1
102
RTVSPropertyOp47
 70
     1
102
RTVSPropertyOp48
 70
     1
102
RTVSPropertyOp49
 70
     1
102
RTVSPropertyOp50
 70
     1
102
RTVSPropertyOp51
 70
     0
102
RTVSPropertyOp52
 70
     0
102
RTVSPropertyOp53
 70
     1
102
RTVSPropertyOp54
 70
     1
102
RTVSPropertyOp55
 70
     1
102
RTVSPropertyOp56
 70
     1
102
RTVSPropertyOp57
 70
     1
102
RTVSPropertyOp58
 70
     1
102
RTVSPropertyOp59
 70
     1
102
RTVSPropertyOp60
 70
     1
102
RTVSPropertyOp61
 70
     1
102
RTVSPropertyOp62
 70
     1
  0
XRECORD
  5
2BF0B
102
{ACAD_REACTORS
330
2BF0A
102
}
330
2BF0A
100
AcDbXrecord
280
     1
102
RTVSPost2010Prop28
280
     0
102
RTVSPost2010PropOp28
 70
     1
102
RTVSPost2010Prop29
280
     1
102
RTVSPost2010PropOp29
 70
     1
102
RTVSPost2010Prop30
280
     1
102
RTVSPost2010PropOp30
 70
     1
102
RTVSPost2010Prop31
280
     0
102
RTVSPost2010PropOp31
 70
     1
102
RTVSPost2010Prop32
280
     0
102
RTVSPost2010PropOp32
 70
     1
102
RTVSPost2010Prop33
280
     0
102
RTVSPost2010PropOp33
 70
     1
102
RTVSPost2010Prop34
280
     0
102
RTVSPost2010PropOp34
 70
     1
102
RTVSPost2010Prop35
280
     0
102
RTVSPost2010PropOp35
 70
     1
102
RTVSPost2010Prop36
280
     0
102
RTVSPost2010PropOp36
 70
     1
102
RTVSPost2010Prop37
 90
       50
102
RTVSPost2010PropOp37
 70
     1
102
RTVSPost2010Prop38
140
0.0
102
RTVSPost2010PropOp38
 70
     1
102
RTVSPost2010Prop39
140
1.0
102
RTVSPost2010PropOp39
 70
     1
102
RTVSPost2010Prop40
 90
        0
102
RTVSPost2010PropOp40
 70
     1
102
RTVSPost2010Prop41ColorIndex
 90
       18
102
RTVSPost2010Prop41ColorRGB
 90
        0
102
RTVSPost2010PropOp41
 70
     1
102
RTVSPost2010Prop42
 90
       50
102
RTVSPost2010PropOp42
 70
     1
102
RTVSPost2010Prop43
 90
        3
102
RTVSPost2010PropOp43
 70
     1
102
RTVSPost2010Prop44ColorIndex
 90
        5
102
RTVSPost2010Prop44ColorRGB
 90
      255
102
RTVSPost2010PropOp44
 70
     1
102
RTVSPost2010Prop45
280
     0
102
RTVSPost2010PropOp45
 70
     1
102
RTVSPost2010Prop46
 90
       50
102
RTVSPost2010PropOp46
 70
     1
102
RTVSPost2010Prop47
 90
       50
102
RTVSPost2010PropOp47
 70
     1
102
RTVSPost2010Prop48
 90
       50
102
RTVSPost2010PropOp48
 70
     1
102
RTVSPost2010Prop49
280
     0
102
RTVSPost2010PropOp49
 70
     1
102
RTVSPost2010Prop50
 90
       50
102
RTVSPost2010PropOp50
 70
     1
102
RTVSPost2010Prop51ColorIndex
 90
      256
102
RTVSPost2010Prop51ColorRGB
 90
-16777216
102
RTVSPost2010PropOp51
 70
     0
102
RTVSPost2010Prop52
140
1.0
102
RTVSPost2010PropOp52
 70
     0
102
RTVSPost2010Prop53
 90
        2
102
RTVSPost2010PropOp53
 70
     1
102
RTVSPost2010Prop54
  1
strokes_ogs.tif
102
RTVSPost2010PropOp54
 70
     1
102
RTVSPost2010Prop55
280
     0
102
RTVSPost2010PropOp55
 70
     1
102
RTVSPost2010Prop56
140
1.0
102
RTVSPost2010PropOp56
 70
     1
102
RTVSPost2010Prop57
140
1.0
102
RTVSPost2010PropOp57
 70
     1
102
RTVSPropertyOp0
 70
     1
102
RTVSPropertyOp1
 70
     1
102
RTVSPropertyOp2
 70
     1
102
RTVSPropertyOp3
 70
     1
102
RTVSPropertyOp4
 70
     1
102
RTVSPropertyOp5
 70
     1
102
RTVSPropertyOp6
 70
     1
102
RTVSPropertyOp7
 70
     1
102
RTVSPropertyOp8
 70
     1
102
RTVSPropertyOp9
 70
     1
102
RTVSPropertyOp10
 70
     1
102
RTVSPropertyOp11
 70
     1
102
RTVSPropertyOp12
 70
     1
102
RTVSPropertyOp13
 70
     1
102
RTVSPropertyOp14
 70
     1
102
RTVSPropertyOp15
 70
     1
102
RTVSPropertyOp16
 70
     1
102
RTVSPropertyOp17
 70
     1
102
RTVSPropertyOp18
 70
     1
102
RTVSPropertyOp19
 70
     1
102
RTVSPropertyOp20
 70
     1
102
RTVSPropertyOp21
 70
     1
102
RTVSPropertyOp22
 70
     1
102
RTVSPropertyOp23
 70
     1
102
RTVSPropertyOp24
 70
     1
102
RTVSPropertyOp25
 70
     1
102
RTVSPropertyOp26
 70
     1
102
RTVSPropertyOp27
 70
     1
102
RTVSPropertyOp28
 70
     1
102
RTVSPropertyOp29
 70
     1
102
RTVSPropertyOp30
 70
     1
102
RTVSPropertyOp31
 70
     1
102
RTVSPropertyOp32
 70
     1
102
RTVSPropertyOp33
 70
     1
102
RTVSPropertyOp34
 70
     1
102
RTVSPropertyOp35
 70
     1
102
RTVSPropertyOp36
 70
     1
102
RTVSPropertyOp37
 70
     1
102
RTVSPropertyOp38
 70
     1
102
RTVSPropertyOp39
 70
     1
102
RTVSPropertyOp40
 70
     1
102
RTVSPropertyOp41
 70
     1
102
RTVSPropertyOp42
 70
     1
102
RTVSPropertyOp43
 70
     1
102
RTVSPropertyOp44
 70
     1
102
RTVSPropertyOp45
 70
     1
102
RTVSPropertyOp46
 70
     1
102
RTVSPropertyOp47
 70
     1
102
RTVSPropertyOp48
 70
     1
102
RTVSPropertyOp49
 70
     1
102
RTVSPropertyOp50
 70
     1
102
RTVSPropertyOp51
 70
     0
102
RTVSPropertyOp52
 70
     0
102
RTVSPropertyOp53
 70
     1
102
RTVSPropertyOp54
 70
     1
102
RTVSPropertyOp55
 70
     1
102
RTVSPropertyOp56
 70
     1
102
RTVSPropertyOp57
 70
     1
102
RTVSPropertyOp58
 70
     1
102
RTVSPropertyOp59
 70
     1
102
RTVSPropertyOp60
 70
     1
102
RTVSPropertyOp61
 70
     1
102
RTVSPropertyOp62
 70
     1
  0
XRECORD
  5
2BF1F
102
{ACAD_REACTORS
330
2BF1E
102
}
330
2BF1E
100
AcDbXrecord
280
     1
102
RTVSPost2010Prop28
280
     0
102
RTVSPost2010PropOp28
 70
     0
102
RTVSPost2010Prop29
280
     1
102
RTVSPost2010PropOp29
 70
     0
102
RTVSPost2010Prop30
280
     1
102
RTVSPost2010PropOp30
 70
     0
102
RTVSPost2010Prop31
280
     0
102
RTVSPost2010PropOp31
 70
     0
102
RTVSPost2010Prop32
280
     0
102
RTVSPost2010PropOp32
 70
     0
102
RTVSPost2010Prop33
280
     0
102
RTVSPost2010PropOp33
 70
     0
102
RTVSPost2010Prop34
280
     0
102
RTVSPost2010PropOp34
 70
     0
102
RTVSPost2010Prop35
280
     0
102
RTVSPost2010PropOp35
 70
     0
102
RTVSPost2010Prop36
280
     0
102
RTVSPost2010PropOp36
 70
     0
102
RTVSPost2010Prop37
 90
       50
102
RTVSPost2010PropOp37
 70
     0
102
RTVSPost2010Prop38
140
0.0
102
RTVSPost2010PropOp38
 70
     0
102
RTVSPost2010Prop39
140
1.0
102
RTVSPost2010PropOp39
 70
     0
102
RTVSPost2010Prop40
 90
        0
102
RTVSPost2010PropOp40
 70
     0
102
RTVSPost2010Prop41ColorIndex
 90
       18
102
RTVSPost2010Prop41ColorRGB
 90
        0
102
RTVSPost2010PropOp41
 70
     0
102
RTVSPost2010Prop42
 90
       50
102
RTVSPost2010PropOp42
 70
     0
102
RTVSPost2010Prop43
 90
        3
102
RTVSPost2010PropOp43
 70
     0
102
RTVSPost2010Prop44ColorIndex
 90
        5
102
RTVSPost2010Prop44ColorRGB
 90
      255
102
RTVSPost2010PropOp44
 70
     0
102
RTVSPost2010Prop45
280
     0
102
RTVSPost2010PropOp45
 70
     0
102
RTVSPost2010Prop46
 90
       50
102
RTVSPost2010PropOp46
 70
     0
102
RTVSPost2010Prop47
 90
       50
102
RTVSPost2010PropOp47
 70
     0
102
RTVSPost2010Prop48
 90
       50
102
RTVSPost2010PropOp48
 70
     0
102
RTVSPost2010Prop49
280
     0
102
RTVSPost2010PropOp49
 70
     0
102
RTVSPost2010Prop50
 90
       50
102
RTVSPost2010PropOp50
 70
     0
102
RTVSPost2010Prop51ColorIndex
 90
      256
102
RTVSPost2010Prop51ColorRGB
 90
-16777216
102
RTVSPost2010PropOp51
 70
     0
102
RTVSPost2010Prop52
140
1.0
102
RTVSPost2010PropOp52
 70
     0
102
RTVSPost2010Prop53
 90
        2
102
RTVSPost2010PropOp53
 70
     0
102
RTVSPost2010Prop54
  1
strokes_ogs.tif
102
RTVSPost2010PropOp54
 70
     0
102
RTVSPost2010Prop55
280
     0
102
RTVSPost2010PropOp55
 70
     0
102
RTVSPost2010Prop56
140
1.0
102
RTVSPost2010PropOp56
 70
     0
102
RTVSPost2010Prop57
140
1.0
102
RTVSPost2010PropOp57
 70
     0
102
RTVSPropertyOp0
 70
     0
102
RTVSPropertyOp1
 70
     0
102
RTVSPropertyOp2
 70
     0
102
RTVSPropertyOp3
 70
     0
102
RTVSPropertyOp4
 70
     0
102
RTVSPropertyOp5
 70
     0
102
RTVSPropertyOp6
 70
     0
102
RTVSPropertyOp7
 70
     0
102
RTVSPropertyOp8
 70
     0
102
RTVSPropertyOp9
 70
     0
102
RTVSPropertyOp10
 70
     0
102
RTVSPropertyOp11
 70
     0
102
RTVSPropertyOp12
 70
     0
102
RTVSPropertyOp13
 70
     0
102
RTVSPropertyOp14
 70
     2
102
RTVSPropertyOp15
 70
     0
102
RTVSPropertyOp16
 70
     0
102
RTVSPropertyOp17
 70
     0
102
RTVSPropertyOp18
 70
     0
102
RTVSPropertyOp19
 70
     0
102
RTVSPropertyOp20
 70
     0
102
RTVSPropertyOp21
 70
     0
102
RTVSPropertyOp22
 70
     0
102
RTVSPropertyOp23
 70
     0
102
RTVSPropertyOp24
 70
     0
102
RTVSPropertyOp25
 70
     0
102
RTVSPropertyOp26
 70
     0
102
RTVSPropertyOp27
 70
     0
102
RTVSPropertyOp28
 70
     0
102
RTVSPropertyOp29
 70
     0
102
RTVSPropertyOp30
 70
     0
102
RTVSPropertyOp31
 70
     0
102
RTVSPropertyOp32
 70
     0
102
RTVSPropertyOp33
 70
     0
102
RTVSPropertyOp34
 70
     0
102
RTVSPropertyOp35
 70
     0
102
RTVSPropertyOp36
 70
     0
102
RTVSPropertyOp37
 70
     0
102
RTVSPropertyOp38
 70
     0
102
RTVSPropertyOp39
 70
     0
102
RTVSPropertyOp40
 70
     0
102
RTVSPropertyOp41
 70
     0
102
RTVSPropertyOp42
 70
     0
102
RTVSPropertyOp43
 70
     0
102
RTVSPropertyOp44
 70
     0
102
RTVSPropertyOp45
 70
     0
102
RTVSPropertyOp46
 70
     0
102
RTVSPropertyOp47
 70
     0
102
RTVSPropertyOp48
 70
     0
102
RTVSPropertyOp49
 70
     0
102
RTVSPropertyOp50
 70
     0
102
RTVSPropertyOp51
 70
     0
102
RTVSPropertyOp52
 70
     0
102
RTVSPropertyOp53
 70
     0
102
RTVSPropertyOp54
 70
     0
102
RTVSPropertyOp55
 70
     0
102
RTVSPropertyOp56
 70
     0
102
RTVSPropertyOp57
 70
     0
102
RTVSPropertyOp58
 70
     1
102
RTVSPropertyOp59
 70
     1
102
RTVSPropertyOp60
 70
     1
102
RTVSPropertyOp61
 70
     1
102
RTVSPropertyOp62
 70
     1
  0
XRECORD
  5
2BF19
102
{ACAD_REACTORS
330
2BF18
102
}
330
2BF18
100
AcDbXrecord
280
     1
102
RTVSPost2010Prop28
280
     0
102
RTVSPost2010PropOp28
 70
     1
102
RTVSPost2010Prop29
280
     1
102
RTVSPost2010PropOp29
 70
     1
102
RTVSPost2010Prop30
280
     1
102
RTVSPost2010PropOp30
 70
     1
102
RTVSPost2010Prop31
280
     0
102
RTVSPost2010PropOp31
 70
     1
102
RTVSPost2010Prop32
280
     0
102
RTVSPost2010PropOp32
 70
     1
102
RTVSPost2010Prop33
280
     0
102
RTVSPost2010PropOp33
 70
     1
102
RTVSPost2010Prop34
280
     0
102
RTVSPost2010PropOp34
 70
     1
102
RTVSPost2010Prop35
280
     0
102
RTVSPost2010PropOp35
 70
     1
102
RTVSPost2010Prop36
280
     0
102
RTVSPost2010PropOp36
 70
     1
102
RTVSPost2010Prop37
 90
       50
102
RTVSPost2010PropOp37
 70
     1
102
RTVSPost2010Prop38
140
0.0
102
RTVSPost2010PropOp38
 70
     1
102
RTVSPost2010Prop39
140
1.0
102
RTVSPost2010PropOp39
 70
     1
102
RTVSPost2010Prop40
 90
        0
102
RTVSPost2010PropOp40
 70
     1
102
RTVSPost2010Prop41ColorIndex
 90
       18
102
RTVSPost2010Prop41ColorRGB
 90
        0
102
RTVSPost2010PropOp41
 70
     1
102
RTVSPost2010Prop42
 90
       50
102
RTVSPost2010PropOp42
 70
     1
102
RTVSPost2010Prop43
 90
        3
102
RTVSPost2010PropOp43
 70
     1
102
RTVSPost2010Prop44ColorIndex
 90
        5
102
RTVSPost2010Prop44ColorRGB
 90
      255
102
RTVSPost2010PropOp44
 70
     1
102
RTVSPost2010Prop45
280
     0
102
RTVSPost2010PropOp45
 70
     1
102
RTVSPost2010Prop46
 90
       50
102
RTVSPost2010PropOp46
 70
     1
102
RTVSPost2010Prop47
 90
       50
102
RTVSPost2010PropOp47
 70
     1
102
RTVSPost2010Prop48
 90
       50
102
RTVSPost2010PropOp48
 70
     1
102
RTVSPost2010Prop49
280
     0
102
RTVSPost2010PropOp49
 70
     1
102
RTVSPost2010Prop50
 90
       50
102
RTVSPost2010PropOp50
 70
     1
102
RTVSPost2010Prop51ColorIndex
 90
      256
102
RTVSPost2010Prop51ColorRGB
 90
-16777216
102
RTVSPost2010PropOp51
 70
     0
102
RTVSPost2010Prop52
140
1.0
102
RTVSPost2010PropOp52
 70
     0
102
RTVSPost2010Prop53
 90
        2
102
RTVSPost2010PropOp53
 70
     1
102
RTVSPost2010Prop54
  1
strokes_ogs.tif
102
RTVSPost2010PropOp54
 70
     1
102
RTVSPost2010Prop55
280
     0
102
RTVSPost2010PropOp55
 70
     1
102
RTVSPost2010Prop56
140
1.0
102
RTVSPost2010PropOp56
 70
     1
102
RTVSPost2010Prop57
140
1.0
102
RTVSPost2010PropOp57
 70
     1
102
RTVSPropertyOp0
 70
     1
102
RTVSPropertyOp1
 70
     1
102
RTVSPropertyOp2
 70
     1
102
RTVSPropertyOp3
 70
     1
102
RTVSPropertyOp4
 70
     1
102
RTVSPropertyOp5
 70
     1
102
RTVSPropertyOp6
 70
     1
102
RTVSPropertyOp7
 70
     1
102
RTVSPropertyOp8
 70
     1
102
RTVSPropertyOp9
 70
     1
102
RTVSPropertyOp10
 70
     1
102
RTVSPropertyOp11
 70
     1
102
RTVSPropertyOp12
 70
     1
102
RTVSPropertyOp13
 70
     1
102
RTVSPropertyOp14
 70
     1
102
RTVSPropertyOp15
 70
     1
102
RTVSPropertyOp16
 70
     1
102
RTVSPropertyOp17
 70
     1
102
RTVSPropertyOp18
 70
     1
102
RTVSPropertyOp19
 70
     1
102
RTVSPropertyOp20
 70
     1
102
RTVSPropertyOp21
 70
     1
102
RTVSPropertyOp22
 70
     1
102
RTVSPropertyOp23
 70
     1
102
RTVSPropertyOp24
 70
     1
102
RTVSPropertyOp25
 70
     1
102
RTVSPropertyOp26
 70
     1
102
RTVSPropertyOp27
 70
     1
102
RTVSPropertyOp28
 70
     1
102
RTVSPropertyOp29
 70
     1
102
RTVSPropertyOp30
 70
     1
102
RTVSPropertyOp31
 70
     1
102
RTVSPropertyOp32
 70
     1
102
RTVSPropertyOp33
 70
     1
102
RTVSPropertyOp34
 70
     1
102
RTVSPropertyOp35
 70
     1
102
RTVSPropertyOp36
 70
     1
102
RTVSPropertyOp37
 70
     1
102
RTVSPropertyOp38
 70
     1
102
RTVSPropertyOp39
 70
     1
102
RTVSPropertyOp40
 70
     1
102
RTVSPropertyOp41
 70
     1
102
RTVSPropertyOp42
 70
     1
102
RTVSPropertyOp43
 70
     1
102
RTVSPropertyOp44
 70
     1
102
RTVSPropertyOp45
 70
     1
102
RTVSPropertyOp46
 70
     1
102
RTVSPropertyOp47
 70
     1
102
RTVSPropertyOp48
 70
     1
102
RTVSPropertyOp49
 70
     1
102
RTVSPropertyOp50
 70
     1
102
RTVSPropertyOp51
 70
     0
102
RTVSPropertyOp52
 70
     0
102
RTVSPropertyOp53
 70
     1
102
RTVSPropertyOp54
 70
     1
102
RTVSPropertyOp55
 70
     1
102
RTVSPropertyOp56
 70
     1
102
RTVSPropertyOp57
 70
     1
102
RTVSPropertyOp58
 70
     1
102
RTVSPropertyOp59
 70
     1
102
RTVSPropertyOp60
 70
     1
102
RTVSPropertyOp61
 70
     1
102
RTVSPropertyOp62
 70
     1
  0
XRECORD
  5
2BF21
102
{ACAD_REACTORS
330
2BF20
102
}
330
2BF20
100
AcDbXrecord
280
     1
102
RTVSPost2010Prop28
280
     0
102
RTVSPost2010PropOp28
 70
     0
102
RTVSPost2010Prop29
280
     1
102
RTVSPost2010PropOp29
 70
     0
102
RTVSPost2010Prop30
280
     1
102
RTVSPost2010PropOp30
 70
     0
102
RTVSPost2010Prop31
280
     0
102
RTVSPost2010PropOp31
 70
     0
102
RTVSPost2010Prop32
280
     0
102
RTVSPost2010PropOp32
 70
     0
102
RTVSPost2010Prop33
280
     0
102
RTVSPost2010PropOp33
 70
     0
102
RTVSPost2010Prop34
280
     0
102
RTVSPost2010PropOp34
 70
     0
102
RTVSPost2010Prop35
280
     0
102
RTVSPost2010PropOp35
 70
     0
102
RTVSPost2010Prop36
280
     0
102
RTVSPost2010PropOp36
 70
     0
102
RTVSPost2010Prop37
 90
       50
102
RTVSPost2010PropOp37
 70
     0
102
RTVSPost2010Prop38
140
0.0
102
RTVSPost2010PropOp38
 70
     0
102
RTVSPost2010Prop39
140
1.0
102
RTVSPost2010PropOp39
 70
     0
102
RTVSPost2010Prop40
 90
        0
102
RTVSPost2010PropOp40
 70
     0
102
RTVSPost2010Prop41ColorIndex
 90
       18
102
RTVSPost2010Prop41ColorRGB
 90
        0
102
RTVSPost2010PropOp41
 70
     0
102
RTVSPost2010Prop42
 90
       50
102
RTVSPost2010PropOp42
 70
     0
102
RTVSPost2010Prop43
 90
        3
102
RTVSPost2010PropOp43
 70
     0
102
RTVSPost2010Prop44ColorIndex
 90
        5
102
RTVSPost2010Prop44ColorRGB
 90
      255
102
RTVSPost2010PropOp44
 70
     0
102
RTVSPost2010Prop45
280
     0
102
RTVSPost2010PropOp45
 70
     0
102
RTVSPost2010Prop46
 90
       50
102
RTVSPost2010PropOp46
 70
     0
102
RTVSPost2010Prop47
 90
       50
102
RTVSPost2010PropOp47
 70
     0
102
RTVSPost2010Prop48
 90
       50
102
RTVSPost2010PropOp48
 70
     0
102
RTVSPost2010Prop49
280
     0
102
RTVSPost2010PropOp49
 70
     0
102
RTVSPost2010Prop50
 90
       50
102
RTVSPost2010PropOp50
 70
     0
102
RTVSPost2010Prop51ColorIndex
 90
      256
102
RTVSPost2010Prop51ColorRGB
 90
-16777216
102
RTVSPost2010PropOp51
 70
     0
102
RTVSPost2010Prop52
140
1.0
102
RTVSPost2010PropOp52
 70
     0
102
RTVSPost2010Prop53
 90
        2
102
RTVSPost2010PropOp53
 70
     0
102
RTVSPost2010Prop54
  1
strokes_ogs.tif
102
RTVSPost2010PropOp54
 70
     0
102
RTVSPost2010Prop55
280
     0
102
RTVSPost2010PropOp55
 70
     0
102
RTVSPost2010Prop56
140
1.0
102
RTVSPost2010PropOp56
 70
     0
102
RTVSPost2010Prop57
140
1.0
102
RTVSPost2010PropOp57
 70
     0
102
RTVSPropertyOp0
 70
     0
102
RTVSPropertyOp1
 70
     0
102
RTVSPropertyOp2
 70
     0
102
RTVSPropertyOp3
 70
     0
102
RTVSPropertyOp4
 70
     0
102
RTVSPropertyOp5
 70
     0
102
RTVSPropertyOp6
 70
     0
102
RTVSPropertyOp7
 70
     0
102
RTVSPropertyOp8
 70
     0
102
RTVSPropertyOp9
 70
     0
102
RTVSPropertyOp10
 70
     0
102
RTVSPropertyOp11
 70
     0
102
RTVSPropertyOp12
 70
     0
102
RTVSPropertyOp13
 70
     0
102
RTVSPropertyOp14
 70
     2
102
RTVSPropertyOp15
 70
     0
102
RTVSPropertyOp16
 70
     0
102
RTVSPropertyOp17
 70
     0
102
RTVSPropertyOp18
 70
     0
102
RTVSPropertyOp19
 70
     0
102
RTVSPropertyOp20
 70
     0
102
RTVSPropertyOp21
 70
     0
102
RTVSPropertyOp22
 70
     0
102
RTVSPropertyOp23
 70
     0
102
RTVSPropertyOp24
 70
     0
102
RTVSPropertyOp25
 70
     0
102
RTVSPropertyOp26
 70
     0
102
RTVSPropertyOp27
 70
     0
102
RTVSPropertyOp28
 70
     0
102
RTVSPropertyOp29
 70
     0
102
RTVSPropertyOp30
 70
     0
102
RTVSPropertyOp31
 70
     0
102
RTVSPropertyOp32
 70
     0
102
RTVSPropertyOp33
 70
     0
102
RTVSPropertyOp34
 70
     0
102
RTVSPropertyOp35
 70
     0
102
RTVSPropertyOp36
 70
     0
102
RTVSPropertyOp37
 70
     0
102
RTVSPropertyOp38
 70
     0
102
RTVSPropertyOp39
 70
     0
102
RTVSPropertyOp40
 70
     0
102
RTVSPropertyOp41
 70
     0
102
RTVSPropertyOp42
 70
     0
102
RTVSPropertyOp43
 70
     0
102
RTVSPropertyOp44
 70
     0
102
RTVSPropertyOp45
 70
     0
102
RTVSPropertyOp46
 70
     0
102
RTVSPropertyOp47
 70
     0
102
RTVSPropertyOp48
 70
     0
102
RTVSPropertyOp49
 70
     0
102
RTVSPropertyOp50
 70
     0
102
RTVSPropertyOp51
 70
     0
102
RTVSPropertyOp52
 70
     0
102
RTVSPropertyOp53
 70
     0
102
RTVSPropertyOp54
 70
     0
102
RTVSPropertyOp55
 70
     0
102
RTVSPropertyOp56
 70
     0
102
RTVSPropertyOp57
 70
     0
102
RTVSPropertyOp58
 70
     1
102
RTVSPropertyOp59
 70
     1
102
RTVSPropertyOp60
 70
     1
102
RTVSPropertyOp61
 70
     1
102
RTVSPropertyOp62
 70
     1
  0
XRECORD
  5
2BF0F
102
{ACAD_REACTORS
330
2BF0E
102
}
330
2BF0E
100
AcDbXrecord
280
     1
102
RTVSPost2010Prop28
280
     0
102
RTVSPost2010PropOp28
 70
     1
102
RTVSPost2010Prop29
280
     1
102
RTVSPost2010PropOp29
 70
     1
102
RTVSPost2010Prop30
280
     1
102
RTVSPost2010PropOp30
 70
     1
102
RTVSPost2010Prop31
280
     0
102
RTVSPost2010PropOp31
 70
     1
102
RTVSPost2010Prop32
280
     0
102
RTVSPost2010PropOp32
 70
     1
102
RTVSPost2010Prop33
280
     0
102
RTVSPost2010PropOp33
 70
     1
102
RTVSPost2010Prop34
280
     0
102
RTVSPost2010PropOp34
 70
     1
102
RTVSPost2010Prop35
280
     0
102
RTVSPost2010PropOp35
 70
     1
102
RTVSPost2010Prop36
280
     0
102
RTVSPost2010PropOp36
 70
     1
102
RTVSPost2010Prop37
 90
       50
102
RTVSPost2010PropOp37
 70
     1
102
RTVSPost2010Prop38
140
0.0
102
RTVSPost2010PropOp38
 70
     1
102
RTVSPost2010Prop39
140
1.0
102
RTVSPost2010PropOp39
 70
     1
102
RTVSPost2010Prop40
 90
        0
102
RTVSPost2010PropOp40
 70
     1
102
RTVSPost2010Prop41ColorIndex
 90
       18
102
RTVSPost2010Prop41ColorRGB
 90
        0
102
RTVSPost2010PropOp41
 70
     1
102
RTVSPost2010Prop42
 90
       50
102
RTVSPost2010PropOp42
 70
     1
102
RTVSPost2010Prop43
 90
        3
102
RTVSPost2010PropOp43
 70
     1
102
RTVSPost2010Prop44ColorIndex
 90
        5
102
RTVSPost2010Prop44ColorRGB
 90
      255
102
RTVSPost2010PropOp44
 70
     1
102
RTVSPost2010Prop45
280
     0
102
RTVSPost2010PropOp45
 70
     1
102
RTVSPost2010Prop46
 90
       50
102
RTVSPost2010PropOp46
 70
     1
102
RTVSPost2010Prop47
 90
       50
102
RTVSPost2010PropOp47
 70
     1
102
RTVSPost2010Prop48
 90
       50
102
RTVSPost2010PropOp48
 70
     1
102
RTVSPost2010Prop49
280
     0
102
RTVSPost2010PropOp49
 70
     1
102
RTVSPost2010Prop50
 90
       50
102
RTVSPost2010PropOp50
 70
     1
102
RTVSPost2010Prop51ColorIndex
 90
      256
102
RTVSPost2010Prop51ColorRGB
 90
-16777216
102
RTVSPost2010PropOp51
 70
     0
102
RTVSPost2010Prop52
140
1.0
102
RTVSPost2010PropOp52
 70
     0
102
RTVSPost2010Prop53
 90
        2
102
RTVSPost2010PropOp53
 70
     1
102
RTVSPost2010Prop54
  1
strokes_ogs.tif
102
RTVSPost2010PropOp54
 70
     1
102
RTVSPost2010Prop55
280
     0
102
RTVSPost2010PropOp55
 70
     1
102
RTVSPost2010Prop56
140
1.0
102
RTVSPost2010PropOp56
 70
     1
102
RTVSPost2010Prop57
140
1.0
102
RTVSPost2010PropOp57
 70
     1
102
RTVSPropertyOp0
 70
     1
102
RTVSPropertyOp1
 70
     1
102
RTVSPropertyOp2
 70
     1
102
RTVSPropertyOp3
 70
     1
102
RTVSPropertyOp4
 70
     1
102
RTVSPropertyOp5
 70
     1
102
RTVSPropertyOp6
 70
     1
102
RTVSPropertyOp7
 70
     1
102
RTVSPropertyOp8
 70
     1
102
RTVSPropertyOp9
 70
     1
102
RTVSPropertyOp10
 70
     1
102
RTVSPropertyOp11
 70
     1
102
RTVSPropertyOp12
 70
     1
102
RTVSPropertyOp13
 70
     1
102
RTVSPropertyOp14
 70
     1
102
RTVSPropertyOp15
 70
     1
102
RTVSPropertyOp16
 70
     1
102
RTVSPropertyOp17
 70
     1
102
RTVSPropertyOp18
 70
     1
102
RTVSPropertyOp19
 70
     1
102
RTVSPropertyOp20
 70
     1
102
RTVSPropertyOp21
 70
     1
102
RTVSPropertyOp22
 70
     1
102
RTVSPropertyOp23
 70
     1
102
RTVSPropertyOp24
 70
     1
102
RTVSPropertyOp25
 70
     1
102
RTVSPropertyOp26
 70
     1
102
RTVSPropertyOp27
 70
     1
102
RTVSPropertyOp28
 70
     1
102
RTVSPropertyOp29
 70
     1
102
RTVSPropertyOp30
 70
     1
102
RTVSPropertyOp31
 70
     1
102
RTVSPropertyOp32
 70
     1
102
RTVSPropertyOp33
 70
     1
102
RTVSPropertyOp34
 70
     1
102
RTVSPropertyOp35
 70
     1
102
RTVSPropertyOp36
 70
     1
102
RTVSPropertyOp37
 70
     1
102
RTVSPropertyOp38
 70
     1
102
RTVSPropertyOp39
 70
     1
102
RTVSPropertyOp40
 70
     1
102
RTVSPropertyOp41
 70
     1
102
RTVSPropertyOp42
 70
     1
102
RTVSPropertyOp43
 70
     1
102
RTVSPropertyOp44
 70
     1
102
RTVSPropertyOp45
 70
     1
102
RTVSPropertyOp46
 70
     1
102
RTVSPropertyOp47
 70
     1
102
RTVSPropertyOp48
 70
     1
102
RTVSPropertyOp49
 70
     1
102
RTVSPropertyOp50
 70
     1
102
RTVSPropertyOp51
 70
     0
102
RTVSPropertyOp52
 70
     0
102
RTVSPropertyOp53
 70
     1
102
RTVSPropertyOp54
 70
     1
102
RTVSPropertyOp55
 70
     1
102
RTVSPropertyOp56
 70
     1
102
RTVSPropertyOp57
 70
     1
102
RTVSPropertyOp58
 70
     1
102
RTVSPropertyOp59
 70
     1
102
RTVSPropertyOp60
 70
     1
102
RTVSPropertyOp61
 70
     1
102
RTVSPropertyOp62
 70
     1
  0
XRECORD
  5
2BF2D
102
{ACAD_REACTORS
330
2BF2C
102
}
330
2BF2C
100
AcDbXrecord
280
     1
102
RTVSPost2010Prop28
280
     0
102
RTVSPost2010PropOp28
 70
     1
102
RTVSPost2010Prop29
280
     1
102
RTVSPost2010PropOp29
 70
     1
102
RTVSPost2010Prop30
280
     1
102
RTVSPost2010PropOp30
 70
     1
102
RTVSPost2010Prop31
280
     0
102
RTVSPost2010PropOp31
 70
     1
102
RTVSPost2010Prop32
280
     0
102
RTVSPost2010PropOp32
 70
     1
102
RTVSPost2010Prop33
280
     0
102
RTVSPost2010PropOp33
 70
     1
102
RTVSPost2010Prop34
280
     0
102
RTVSPost2010PropOp34
 70
     1
102
RTVSPost2010Prop35
280
     0
102
RTVSPost2010PropOp35
 70
     1
102
RTVSPost2010Prop36
280
     0
102
RTVSPost2010PropOp36
 70
     1
102
RTVSPost2010Prop37
 90
       50
102
RTVSPost2010PropOp37
 70
     1
102
RTVSPost2010Prop38
140
0.0
102
RTVSPost2010PropOp38
 70
     1
102
RTVSPost2010Prop39
140
1.0
102
RTVSPost2010PropOp39
 70
     1
102
RTVSPost2010Prop40
 90
        0
102
RTVSPost2010PropOp40
 70
     1
102
RTVSPost2010Prop41ColorIndex
 90
       18
102
RTVSPost2010Prop41ColorRGB
 90
        0
102
RTVSPost2010PropOp41
 70
     1
102
RTVSPost2010Prop42
 90
       50
102
RTVSPost2010PropOp42
 70
     1
102
RTVSPost2010Prop43
 90
        3
102
RTVSPost2010PropOp43
 70
     1
102
RTVSPost2010Prop44ColorIndex
 90
        5
102
RTVSPost2010Prop44ColorRGB
 90
      255
102
RTVSPost2010PropOp44
 70
     1
102
RTVSPost2010Prop45
280
     0
102
RTVSPost2010PropOp45
 70
     1
102
RTVSPost2010Prop46
 90
       50
102
RTVSPost2010PropOp46
 70
     1
102
RTVSPost2010Prop47
 90
       50
102
RTVSPost2010PropOp47
 70
     1
102
RTVSPost2010Prop48
 90
       50
102
RTVSPost2010PropOp48
 70
     1
102
RTVSPost2010Prop49
280
     0
102
RTVSPost2010PropOp49
 70
     1
102
RTVSPost2010Prop50
 90
       50
102
RTVSPost2010PropOp50
 70
     1
102
RTVSPost2010Prop51ColorIndex
 90
      256
102
RTVSPost2010Prop51ColorRGB
 90
-16777216
102
RTVSPost2010PropOp51
 70
     0
102
RTVSPost2010Prop52
140
1.0
102
RTVSPost2010PropOp52
 70
     0
102
RTVSPost2010Prop53
 90
        2
102
RTVSPost2010PropOp53
 70
     1
102
RTVSPost2010Prop54
  1
strokes_ogs.tif
102
RTVSPost2010PropOp54
 70
     1
102
RTVSPost2010Prop55
280
     0
102
RTVSPost2010PropOp55
 70
     1
102
RTVSPost2010Prop56
140
1.0
102
RTVSPost2010PropOp56
 70
     1
102
RTVSPost2010Prop57
140
1.0
102
RTVSPost2010PropOp57
 70
     1
102
RTVSPropertyOp0
 70
     1
102
RTVSPropertyOp1
 70
     1
102
RTVSPropertyOp2
 70
     1
102
RTVSPropertyOp3
 70
     1
102
RTVSPropertyOp4
 70
     1
102
RTVSPropertyOp5
 70
     1
102
RTVSPropertyOp6
 70
     1
102
RTVSPropertyOp7
 70
     1
102
RTVSPropertyOp8
 70
     1
102
RTVSPropertyOp9
 70
     1
102
RTVSPropertyOp10
 70
     1
102
RTVSPropertyOp11
 70
     1
102
RTVSPropertyOp12
 70
     1
102
RTVSPropertyOp13
 70
     1
102
RTVSPropertyOp14
 70
     1
102
RTVSPropertyOp15
 70
     1
102
RTVSPropertyOp16
 70
     1
102
RTVSPropertyOp17
 70
     1
102
RTVSPropertyOp18
 70
     1
102
RTVSPropertyOp19
 70
     1
102
RTVSPropertyOp20
 70
     1
102
RTVSPropertyOp21
 70
     1
102
RTVSPropertyOp22
 70
     1
102
RTVSPropertyOp23
 70
     1
102
RTVSPropertyOp24
 70
     1
102
RTVSPropertyOp25
 70
     1
102
RTVSPropertyOp26
 70
     1
102
RTVSPropertyOp27
 70
     1
102
RTVSPropertyOp28
 70
     1
102
RTVSPropertyOp29
 70
     1
102
RTVSPropertyOp30
 70
     1
102
RTVSPropertyOp31
 70
     1
102
RTVSPropertyOp32
 70
     1
102
RTVSPropertyOp33
 70
     1
102
RTVSPropertyOp34
 70
     1
102
RTVSPropertyOp35
 70
     1
102
RTVSPropertyOp36
 70
     1
102
RTVSPropertyOp37
 70
     1
102
RTVSPropertyOp38
 70
     1
102
RTVSPropertyOp39
 70
     1
102
RTVSPropertyOp40
 70
     1
102
RTVSPropertyOp41
 70
     1
102
RTVSPropertyOp42
 70
     1
102
RTVSPropertyOp43
 70
     1
102
RTVSPropertyOp44
 70
     1
102
RTVSPropertyOp45
 70
     1
102
RTVSPropertyOp46
 70
     1
102
RTVSPropertyOp47
 70
     1
102
RTVSPropertyOp48
 70
     1
102
RTVSPropertyOp49
 70
     1
102
RTVSPropertyOp50
 70
     1
102
RTVSPropertyOp51
 70
     0
102
RTVSPropertyOp52
 70
     0
102
RTVSPropertyOp53
 70
     1
102
RTVSPropertyOp54
 70
     1
102
RTVSPropertyOp55
 70
     1
102
RTVSPropertyOp56
 70
     1
102
RTVSPropertyOp57
 70
     1
102
RTVSPropertyOp58
 70
     1
102
RTVSPropertyOp59
 70
     1
102
RTVSPropertyOp60
 70
     1
102
RTVSPropertyOp61
 70
     1
102
RTVSPropertyOp62
 70
     1
  0
XRECORD
  5
2BF2B
102
{ACAD_REACTORS
330
2BF2A
102
}
330
2BF2A
100
AcDbXrecord
280
     1
102
RTVSPost2010Prop28
280
     0
102
RTVSPost2010PropOp28
 70
     1
102
RTVSPost2010Prop29
280
     1
102
RTVSPost2010PropOp29
 70
     1
102
RTVSPost2010Prop30
280
     1
102
RTVSPost2010PropOp30
 70
     1
102
RTVSPost2010Prop31
280
     0
102
RTVSPost2010PropOp31
 70
     1
102
RTVSPost2010Prop32
280
     0
102
RTVSPost2010PropOp32
 70
     1
102
RTVSPost2010Prop33
280
     0
102
RTVSPost2010PropOp33
 70
     1
102
RTVSPost2010Prop34
280
     0
102
RTVSPost2010PropOp34
 70
     1
102
RTVSPost2010Prop35
280
     0
102
RTVSPost2010PropOp35
 70
     1
102
RTVSPost2010Prop36
280
     0
102
RTVSPost2010PropOp36
 70
     1
102
RTVSPost2010Prop37
 90
       50
102
RTVSPost2010PropOp37
 70
     1
102
RTVSPost2010Prop38
140
0.0
102
RTVSPost2010PropOp38
 70
     1
102
RTVSPost2010Prop39
140
1.0
102
RTVSPost2010PropOp39
 70
     1
102
RTVSPost2010Prop40
 90
        0
102
RTVSPost2010PropOp40
 70
     1
102
RTVSPost2010Prop41ColorIndex
 90
       18
102
RTVSPost2010Prop41ColorRGB
 90
        0
102
RTVSPost2010PropOp41
 70
     1
102
RTVSPost2010Prop42
 90
       50
102
RTVSPost2010PropOp42
 70
     1
102
RTVSPost2010Prop43
 90
        3
102
RTVSPost2010PropOp43
 70
     1
102
RTVSPost2010Prop44ColorIndex
 90
        5
102
RTVSPost2010Prop44ColorRGB
 90
      255
102
RTVSPost2010PropOp44
 70
     1
102
RTVSPost2010Prop45
280
     0
102
RTVSPost2010PropOp45
 70
     1
102
RTVSPost2010Prop46
 90
       50
102
RTVSPost2010PropOp46
 70
     1
102
RTVSPost2010Prop47
 90
       50
102
RTVSPost2010PropOp47
 70
     1
102
RTVSPost2010Prop48
 90
       50
102
RTVSPost2010PropOp48
 70
     1
102
RTVSPost2010Prop49
280
     0
102
RTVSPost2010PropOp49
 70
     1
102
RTVSPost2010Prop50
 90
       50
102
RTVSPost2010PropOp50
 70
     1
102
RTVSPost2010Prop51ColorIndex
 90
      256
102
RTVSPost2010Prop51ColorRGB
 90
-16777216
102
RTVSPost2010PropOp51
 70
     0
102
RTVSPost2010Prop52
140
1.0
102
RTVSPost2010PropOp52
 70
     0
102
RTVSPost2010Prop53
 90
        2
102
RTVSPost2010PropOp53
 70
     1
102
RTVSPost2010Prop54
  1
strokes_ogs.tif
102
RTVSPost2010PropOp54
 70
     1
102
RTVSPost2010Prop55
280
     0
102
RTVSPost2010PropOp55
 70
     1
102
RTVSPost2010Prop56
140
1.0
102
RTVSPost2010PropOp56
 70
     1
102
RTVSPost2010Prop57
140
1.0
102
RTVSPost2010PropOp57
 70
     1
102
RTVSPropertyOp0
 70
     1
102
RTVSPropertyOp1
 70
     1
102
RTVSPropertyOp2
 70
     1
102
RTVSPropertyOp3
 70
     1
102
RTVSPropertyOp4
 70
     1
102
RTVSPropertyOp5
 70
     1
102
RTVSPropertyOp6
 70
     1
102
RTVSPropertyOp7
 70
     1
102
RTVSPropertyOp8
 70
     1
102
RTVSPropertyOp9
 70
     1
102
RTVSPropertyOp10
 70
     1
102
RTVSPropertyOp11
 70
     1
102
RTVSPropertyOp12
 70
     1
102
RTVSPropertyOp13
 70
     1
102
RTVSPropertyOp14
 70
     1
102
RTVSPropertyOp15
 70
     1
102
RTVSPropertyOp16
 70
     1
102
RTVSPropertyOp17
 70
     1
102
RTVSPropertyOp18
 70
     1
102
RTVSPropertyOp19
 70
     1
102
RTVSPropertyOp20
 70
     1
102
RTVSPropertyOp21
 70
     1
102
RTVSPropertyOp22
 70
     1
102
RTVSPropertyOp23
 70
     1
102
RTVSPropertyOp24
 70
     1
102
RTVSPropertyOp25
 70
     1
102
RTVSPropertyOp26
 70
     1
102
RTVSPropertyOp27
 70
     1
102
RTVSPropertyOp28
 70
     1
102
RTVSPropertyOp29
 70
     1
102
RTVSPropertyOp30
 70
     1
102
RTVSPropertyOp31
 70
     1
102
RTVSPropertyOp32
 70
     1
102
RTVSPropertyOp33
 70
     1
102
RTVSPropertyOp34
 70
     1
102
RTVSPropertyOp35
 70
     1
102
RTVSPropertyOp36
 70
     1
102
RTVSPropertyOp37
 70
     1
102
RTVSPropertyOp38
 70
     1
102
RTVSPropertyOp39
 70
     1
102
RTVSPropertyOp40
 70
     1
102
RTVSPropertyOp41
 70
     1
102
RTVSPropertyOp42
 70
     1
102
RTVSPropertyOp43
 70
     1
102
RTVSPropertyOp44
 70
     1
102
RTVSPropertyOp45
 70
     1
102
RTVSPropertyOp46
 70
     1
102
RTVSPropertyOp47
 70
     1
102
RTVSPropertyOp48
 70
     1
102
RTVSPropertyOp49
 70
     1
102
RTVSPropertyOp50
 70
     1
102
RTVSPropertyOp51
 70
     0
102
RTVSPropertyOp52
 70
     0
102
RTVSPropertyOp53
 70
     1
102
RTVSPropertyOp54
 70
     1
102
RTVSPropertyOp55
 70
     1
102
RTVSPropertyOp56
 70
     1
102
RTVSPropertyOp57
 70
     1
102
RTVSPropertyOp58
 70
     1
102
RTVSPropertyOp59
 70
     1
102
RTVSPropertyOp60
 70
     1
102
RTVSPropertyOp61
 70
     1
102
RTVSPropertyOp62
 70
     1
  0
XRECORD
  5
2BF25
102
{ACAD_REACTORS
330
2BF24
102
}
330
2BF24
100
AcDbXrecord
280
     1
102
RTVSPost2010Prop28
280
     0
102
RTVSPost2010PropOp28
 70
     1
102
RTVSPost2010Prop29
280
     1
102
RTVSPost2010PropOp29
 70
     1
102
RTVSPost2010Prop30
280
     1
102
RTVSPost2010PropOp30
 70
     1
102
RTVSPost2010Prop31
280
     0
102
RTVSPost2010PropOp31
 70
     1
102
RTVSPost2010Prop32
280
     0
102
RTVSPost2010PropOp32
 70
     1
102
RTVSPost2010Prop33
280
     0
102
RTVSPost2010PropOp33
 70
     1
102
RTVSPost2010Prop34
280
     0
102
RTVSPost2010PropOp34
 70
     1
102
RTVSPost2010Prop35
280
     0
102
RTVSPost2010PropOp35
 70
     1
102
RTVSPost2010Prop36
280
     0
102
RTVSPost2010PropOp36
 70
     1
102
RTVSPost2010Prop37
 90
       50
102
RTVSPost2010PropOp37
 70
     1
102
RTVSPost2010Prop38
140
0.0
102
RTVSPost2010PropOp38
 70
     1
102
RTVSPost2010Prop39
140
1.0
102
RTVSPost2010PropOp39
 70
     1
102
RTVSPost2010Prop40
 90
        0
102
RTVSPost2010PropOp40
 70
     1
102
RTVSPost2010Prop41ColorIndex
 90
       18
102
RTVSPost2010Prop41ColorRGB
 90
        0
102
RTVSPost2010PropOp41
 70
     1
102
RTVSPost2010Prop42
 90
       50
102
RTVSPost2010PropOp42
 70
     1
102
RTVSPost2010Prop43
 90
        3
102
RTVSPost2010PropOp43
 70
     1
102
RTVSPost2010Prop44ColorIndex
 90
        5
102
RTVSPost2010Prop44ColorRGB
 90
      255
102
RTVSPost2010PropOp44
 70
     1
102
RTVSPost2010Prop45
280
     0
102
RTVSPost2010PropOp45
 70
     1
102
RTVSPost2010Prop46
 90
       50
102
RTVSPost2010PropOp46
 70
     1
102
RTVSPost2010Prop47
 90
       50
102
RTVSPost2010PropOp47
 70
     1
102
RTVSPost2010Prop48
 90
       50
102
RTVSPost2010PropOp48
 70
     1
102
RTVSPost2010Prop49
280
     0
102
RTVSPost2010PropOp49
 70
     1
102
RTVSPost2010Prop50
 90
       50
102
RTVSPost2010PropOp50
 70
     1
102
RTVSPost2010Prop51ColorIndex
 90
      256
102
RTVSPost2010Prop51ColorRGB
 90
-16777216
102
RTVSPost2010PropOp51
 70
     0
102
RTVSPost2010Prop52
140
1.0
102
RTVSPost2010PropOp52
 70
     0
102
RTVSPost2010Prop53
 90
        2
102
RTVSPost2010PropOp53
 70
     1
102
RTVSPost2010Prop54
  1
strokes_ogs.tif
102
RTVSPost2010PropOp54
 70
     1
102
RTVSPost2010Prop55
280
     0
102
RTVSPost2010PropOp55
 70
     1
102
RTVSPost2010Prop56
140
1.0
102
RTVSPost2010PropOp56
 70
     1
102
RTVSPost2010Prop57
140
1.0
102
RTVSPost2010PropOp57
 70
     1
102
RTVSPropertyOp0
 70
     1
102
RTVSPropertyOp1
 70
     1
102
RTVSPropertyOp2
 70
     1
102
RTVSPropertyOp3
 70
     1
102
RTVSPropertyOp4
 70
     1
102
RTVSPropertyOp5
 70
     1
102
RTVSPropertyOp6
 70
     1
102
RTVSPropertyOp7
 70
     1
102
RTVSPropertyOp8
 70
     1
102
RTVSPropertyOp9
 70
     1
102
RTVSPropertyOp10
 70
     1
102
RTVSPropertyOp11
 70
     1
102
RTVSPropertyOp12
 70
     1
102
RTVSPropertyOp13
 70
     1
102
RTVSPropertyOp14
 70
     1
102
RTVSPropertyOp15
 70
     1
102
RTVSPropertyOp16
 70
     1
102
RTVSPropertyOp17
 70
     1
102
RTVSPropertyOp18
 70
     1
102
RTVSPropertyOp19
 70
     1
102
RTVSPropertyOp20
 70
     1
102
RTVSPropertyOp21
 70
     1
102
RTVSPropertyOp22
 70
     1
102
RTVSPropertyOp23
 70
     1
102
RTVSPropertyOp24
 70
     1
102
RTVSPropertyOp25
 70
     1
102
RTVSPropertyOp26
 70
     1
102
RTVSPropertyOp27
 70
     1
102
RTVSPropertyOp28
 70
     1
102
RTVSPropertyOp29
 70
     1
102
RTVSPropertyOp30
 70
     1
102
RTVSPropertyOp31
 70
     1
102
RTVSPropertyOp32
 70
     1
102
RTVSPropertyOp33
 70
     1
102
RTVSPropertyOp34
 70
     1
102
RTVSPropertyOp35
 70
     1
102
RTVSPropertyOp36
 70
     1
102
RTVSPropertyOp37
 70
     1
102
RTVSPropertyOp38
 70
     1
102
RTVSPropertyOp39
 70
     1
102
RTVSPropertyOp40
 70
     1
102
RTVSPropertyOp41
 70
     1
102
RTVSPropertyOp42
 70
     1
102
RTVSPropertyOp43
 70
     1
102
RTVSPropertyOp44
 70
     1
102
RTVSPropertyOp45
 70
     1
102
RTVSPropertyOp46
 70
     1
102
RTVSPropertyOp47
 70
     1
102
RTVSPropertyOp48
 70
     1
102
RTVSPropertyOp49
 70
     1
102
RTVSPropertyOp50
 70
     1
102
RTVSPropertyOp51
 70
     0
102
RTVSPropertyOp52
 70
     0
102
RTVSPropertyOp53
 70
     1
102
RTVSPropertyOp54
 70
     1
102
RTVSPropertyOp55
 70
     1
102
RTVSPropertyOp56
 70
     1
102
RTVSPropertyOp57
 70
     1
102
RTVSPropertyOp58
 70
     1
102
RTVSPropertyOp59
 70
     1
102
RTVSPropertyOp60
 70
     1
102
RTVSPropertyOp61
 70
     1
102
RTVSPropertyOp62
 70
     1
  0
XRECORD
  5
2BF27
102
{ACAD_REACTORS
330
2BF26
102
}
330
2BF26
100
AcDbXrecord
280
     1
102
RTVSPost2010Prop28
280
     0
102
RTVSPost2010PropOp28
 70
     1
102
RTVSPost2010Prop29
280
     1
102
RTVSPost2010PropOp29
 70
     1
102
RTVSPost2010Prop30
280
     1
102
RTVSPost2010PropOp30
 70
     1
102
RTVSPost2010Prop31
280
     0
102
RTVSPost2010PropOp31
 70
     1
102
RTVSPost2010Prop32
280
     0
102
RTVSPost2010PropOp32
 70
     1
102
RTVSPost2010Prop33
280
     0
102
RTVSPost2010PropOp33
 70
     1
102
RTVSPost2010Prop34
280
     0
102
RTVSPost2010PropOp34
 70
     1
102
RTVSPost2010Prop35
280
     0
102
RTVSPost2010PropOp35
 70
     1
102
RTVSPost2010Prop36
280
     0
102
RTVSPost2010PropOp36
 70
     1
102
RTVSPost2010Prop37
 90
       50
102
RTVSPost2010PropOp37
 70
     1
102
RTVSPost2010Prop38
140
0.0
102
RTVSPost2010PropOp38
 70
     1
102
RTVSPost2010Prop39
140
1.0
102
RTVSPost2010PropOp39
 70
     1
102
RTVSPost2010Prop40
 90
        0
102
RTVSPost2010PropOp40
 70
     1
102
RTVSPost2010Prop41ColorIndex
 90
       18
102
RTVSPost2010Prop41ColorRGB
 90
        0
102
RTVSPost2010PropOp41
 70
     1
102
RTVSPost2010Prop42
 90
       50
102
RTVSPost2010PropOp42
 70
     1
102
RTVSPost2010Prop43
 90
        3
102
RTVSPost2010PropOp43
 70
     1
102
RTVSPost2010Prop44ColorIndex
 90
        5
102
RTVSPost2010Prop44ColorRGB
 90
      255
102
RTVSPost2010PropOp44
 70
     1
102
RTVSPost2010Prop45
280
     0
102
RTVSPost2010PropOp45
 70
     1
102
RTVSPost2010Prop46
 90
       50
102
RTVSPost2010PropOp46
 70
     1
102
RTVSPost2010Prop47
 90
       50
102
RTVSPost2010PropOp47
 70
     1
102
RTVSPost2010Prop48
 90
       50
102
RTVSPost2010PropOp48
 70
     1
102
RTVSPost2010Prop49
280
     0
102
RTVSPost2010PropOp49
 70
     1
102
RTVSPost2010Prop50
 90
       50
102
RTVSPost2010PropOp50
 70
     1
102
RTVSPost2010Prop51ColorIndex
 90
      256
102
RTVSPost2010Prop51ColorRGB
 90
-16777216
102
RTVSPost2010PropOp51
 70
     0
102
RTVSPost2010Prop52
140
1.0
102
RTVSPost2010PropOp52
 70
     0
102
RTVSPost2010Prop53
 90
        2
102
RTVSPost2010PropOp53
 70
     1
102
RTVSPost2010Prop54
  1
strokes_ogs.tif
102
RTVSPost2010PropOp54
 70
     1
102
RTVSPost2010Prop55
280
     0
102
RTVSPost2010PropOp55
 70
     1
102
RTVSPost2010Prop56
140
1.0
102
RTVSPost2010PropOp56
 70
     1
102
RTVSPost2010Prop57
140
1.0
102
RTVSPost2010PropOp57
 70
     1
102
RTVSPropertyOp0
 70
     1
102
RTVSPropertyOp1
 70
     1
102
RTVSPropertyOp2
 70
     1
102
RTVSPropertyOp3
 70
     1
102
RTVSPropertyOp4
 70
     1
102
RTVSPropertyOp5
 70
     1
102
RTVSPropertyOp6
 70
     1
102
RTVSPropertyOp7
 70
     1
102
RTVSPropertyOp8
 70
     1
102
RTVSPropertyOp9
 70
     1
102
RTVSPropertyOp10
 70
     1
102
RTVSPropertyOp11
 70
     1
102
RTVSPropertyOp12
 70
     1
102
RTVSPropertyOp13
 70
     1
102
RTVSPropertyOp14
 70
     1
102
RTVSPropertyOp15
 70
     1
102
RTVSPropertyOp16
 70
     1
102
RTVSPropertyOp17
 70
     1
102
RTVSPropertyOp18
 70
     1
102
RTVSPropertyOp19
 70
     1
102
RTVSPropertyOp20
 70
     1
102
RTVSPropertyOp21
 70
     1
102
RTVSPropertyOp22
 70
     1
102
RTVSPropertyOp23
 70
     1
102
RTVSPropertyOp24
 70
     1
102
RTVSPropertyOp25
 70
     1
102
RTVSPropertyOp26
 70
     1
102
RTVSPropertyOp27
 70
     1
102
RTVSPropertyOp28
 70
     1
102
RTVSPropertyOp29
 70
     1
102
RTVSPropertyOp30
 70
     1
102
RTVSPropertyOp31
 70
     1
102
RTVSPropertyOp32
 70
     1
102
RTVSPropertyOp33
 70
     1
102
RTVSPropertyOp34
 70
     1
102
RTVSPropertyOp35
 70
     1
102
RTVSPropertyOp36
 70
     1
102
RTVSPropertyOp37
 70
     1
102
RTVSPropertyOp38
 70
     1
102
RTVSPropertyOp39
 70
     1
102
RTVSPropertyOp40
 70
     1
102
RTVSPropertyOp41
 70
     1
102
RTVSPropertyOp42
 70
     1
102
RTVSPropertyOp43
 70
     1
102
RTVSPropertyOp44
 70
     1
102
RTVSPropertyOp45
 70
     1
102
RTVSPropertyOp46
 70
     1
102
RTVSPropertyOp47
 70
     1
102
RTVSPropertyOp48
 70
     1
102
RTVSPropertyOp49
 70
     1
102
RTVSPropertyOp50
 70
     1
102
RTVSPropertyOp51
 70
     0
102
RTVSPropertyOp52
 70
     0
102
RTVSPropertyOp53
 70
     1
102
RTVSPropertyOp54
 70
     1
102
RTVSPropertyOp55
 70
     1
102
RTVSPropertyOp56
 70
     1
102
RTVSPropertyOp57
 70
     1
102
RTVSPropertyOp58
 70
     1
102
RTVSPropertyOp59
 70
     1
102
RTVSPropertyOp60
 70
     1
102
RTVSPropertyOp61
 70
     1
102
RTVSPropertyOp62
 70
     1
  0
XRECORD
  5
2BF17
102
{ACAD_REACTORS
330
2BF16
102
}
330
2BF16
100
AcDbXrecord
280
     1
102
RTVSPost2010Prop28
280
     0
102
RTVSPost2010PropOp28
 70
     1
102
RTVSPost2010Prop29
280
     1
102
RTVSPost2010PropOp29
 70
     1
102
RTVSPost2010Prop30
280
     1
102
RTVSPost2010PropOp30
 70
     1
102
RTVSPost2010Prop31
280
     0
102
RTVSPost2010PropOp31
 70
     1
102
RTVSPost2010Prop32
280
     0
102
RTVSPost2010PropOp32
 70
     1
102
RTVSPost2010Prop33
280
     0
102
RTVSPost2010PropOp33
 70
     1
102
RTVSPost2010Prop34
280
     0
102
RTVSPost2010PropOp34
 70
     1
102
RTVSPost2010Prop35
280
     0
102
RTVSPost2010PropOp35
 70
     1
102
RTVSPost2010Prop36
280
     0
102
RTVSPost2010PropOp36
 70
     1
102
RTVSPost2010Prop37
 90
       50
102
RTVSPost2010PropOp37
 70
     1
102
RTVSPost2010Prop38
140
0.0
102
RTVSPost2010PropOp38
 70
     1
102
RTVSPost2010Prop39
140
1.0
102
RTVSPost2010PropOp39
 70
     1
102
RTVSPost2010Prop40
 90
        0
102
RTVSPost2010PropOp40
 70
     1
102
RTVSPost2010Prop41ColorIndex
 90
       18
102
RTVSPost2010Prop41ColorRGB
 90
        0
102
RTVSPost2010PropOp41
 70
     1
102
RTVSPost2010Prop42
 90
       50
102
RTVSPost2010PropOp42
 70
     1
102
RTVSPost2010Prop43
 90
        3
102
RTVSPost2010PropOp43
 70
     1
102
RTVSPost2010Prop44ColorIndex
 90
        5
102
RTVSPost2010Prop44ColorRGB
 90
      255
102
RTVSPost2010PropOp44
 70
     1
102
RTVSPost2010Prop45
280
     0
102
RTVSPost2010PropOp45
 70
     1
102
RTVSPost2010Prop46
 90
       50
102
RTVSPost2010PropOp46
 70
     1
102
RTVSPost2010Prop47
 90
       50
102
RTVSPost2010PropOp47
 70
     1
102
RTVSPost2010Prop48
 90
       50
102
RTVSPost2010PropOp48
 70
     1
102
RTVSPost2010Prop49
280
     0
102
RTVSPost2010PropOp49
 70
     1
102
RTVSPost2010Prop50
 90
       50
102
RTVSPost2010PropOp50
 70
     1
102
RTVSPost2010Prop51ColorIndex
 90
      256
102
RTVSPost2010Prop51ColorRGB
 90
-16777216
102
RTVSPost2010PropOp51
 70
     0
102
RTVSPost2010Prop52
140
1.0
102
RTVSPost2010PropOp52
 70
     0
102
RTVSPost2010Prop53
 90
        2
102
RTVSPost2010PropOp53
 70
     1
102
RTVSPost2010Prop54
  1
strokes_ogs.tif
102
RTVSPost2010PropOp54
 70
     1
102
RTVSPost2010Prop55
280
     0
102
RTVSPost2010PropOp55
 70
     1
102
RTVSPost2010Prop56
140
1.0
102
RTVSPost2010PropOp56
 70
     1
102
RTVSPost2010Prop57
140
1.0
102
RTVSPost2010PropOp57
 70
     1
102
RTVSPropertyOp0
 70
     1
102
RTVSPropertyOp1
 70
     1
102
RTVSPropertyOp2
 70
     1
102
RTVSPropertyOp3
 70
     1
102
RTVSPropertyOp4
 70
     1
102
RTVSPropertyOp5
 70
     1
102
RTVSPropertyOp6
 70
     1
102
RTVSPropertyOp7
 70
     1
102
RTVSPropertyOp8
 70
     1
102
RTVSPropertyOp9
 70
     1
102
RTVSPropertyOp10
 70
     1
102
RTVSPropertyOp11
 70
     1
102
RTVSPropertyOp12
 70
     1
102
RTVSPropertyOp13
 70
     1
102
RTVSPropertyOp14
 70
     1
102
RTVSPropertyOp15
 70
     1
102
RTVSPropertyOp16
 70
     1
102
RTVSPropertyOp17
 70
     1
102
RTVSPropertyOp18
 70
     1
102
RTVSPropertyOp19
 70
     1
102
RTVSPropertyOp20
 70
     1
102
RTVSPropertyOp21
 70
     1
102
RTVSPropertyOp22
 70
     1
102
RTVSPropertyOp23
 70
     1
102
RTVSPropertyOp24
 70
     1
102
RTVSPropertyOp25
 70
     1
102
RTVSPropertyOp26
 70
     1
102
RTVSPropertyOp27
 70
     1
102
RTVSPropertyOp28
 70
     1
102
RTVSPropertyOp29
 70
     1
102
RTVSPropertyOp30
 70
     1
102
RTVSPropertyOp31
 70
     1
102
RTVSPropertyOp32
 70
     1
102
RTVSPropertyOp33
 70
     1
102
RTVSPropertyOp34
 70
     1
102
RTVSPropertyOp35
 70
     1
102
RTVSPropertyOp36
 70
     1
102
RTVSPropertyOp37
 70
     1
102
RTVSPropertyOp38
 70
     1
102
RTVSPropertyOp39
 70
     1
102
RTVSPropertyOp40
 70
     1
102
RTVSPropertyOp41
 70
     1
102
RTVSPropertyOp42
 70
     1
102
RTVSPropertyOp43
 70
     1
102
RTVSPropertyOp44
 70
     1
102
RTVSPropertyOp45
 70
     1
102
RTVSPropertyOp46
 70
     1
102
RTVSPropertyOp47
 70
     1
102
RTVSPropertyOp48
 70
     1
102
RTVSPropertyOp49
 70
     1
102
RTVSPropertyOp50
 70
     1
102
RTVSPropertyOp51
 70
     0
102
RTVSPropertyOp52
 70
     0
102
RTVSPropertyOp53
 70
     1
102
RTVSPropertyOp54
 70
     1
102
RTVSPropertyOp55
 70
     1
102
RTVSPropertyOp56
 70
     1
102
RTVSPropertyOp57
 70
     1
102
RTVSPropertyOp58
 70
     1
102
RTVSPropertyOp59
 70
     1
102
RTVSPropertyOp60
 70
     1
102
RTVSPropertyOp61
 70
     1
102
RTVSPropertyOp62
 70
     1
  0
XRECORD
  5
2BF09
102
{ACAD_REACTORS
330
2BF08
102
}
330
2BF08
100
AcDbXrecord
280
     1
102
RTVSPost2010Prop28
280
     0
102
RTVSPost2010PropOp28
 70
     1
102
RTVSPost2010Prop29
280
     1
102
RTVSPost2010PropOp29
 70
     1
102
RTVSPost2010Prop30
280
     1
102
RTVSPost2010PropOp30
 70
     1
102
RTVSPost2010Prop31
280
     0
102
RTVSPost2010PropOp31
 70
     1
102
RTVSPost2010Prop32
280
     0
102
RTVSPost2010PropOp32
 70
     1
102
RTVSPost2010Prop33
280
     0
102
RTVSPost2010PropOp33
 70
     1
102
RTVSPost2010Prop34
280
     0
102
RTVSPost2010PropOp34
 70
     1
102
RTVSPost2010Prop35
280
     0
102
RTVSPost2010PropOp35
 70
     1
102
RTVSPost2010Prop36
280
     0
102
RTVSPost2010PropOp36
 70
     1
102
RTVSPost2010Prop37
 90
       50
102
RTVSPost2010PropOp37
 70
     1
102
RTVSPost2010Prop38
140
0.0
102
RTVSPost2010PropOp38
 70
     1
102
RTVSPost2010Prop39
140
1.0
102
RTVSPost2010PropOp39
 70
     1
102
RTVSPost2010Prop40
 90
        0
102
RTVSPost2010PropOp40
 70
     1
102
RTVSPost2010Prop41ColorIndex
 90
       18
102
RTVSPost2010Prop41ColorRGB
 90
        0
102
RTVSPost2010PropOp41
 70
     1
102
RTVSPost2010Prop42
 90
       50
102
RTVSPost2010PropOp42
 70
     1
102
RTVSPost2010Prop43
 90
        3
102
RTVSPost2010PropOp43
 70
     1
102
RTVSPost2010Prop44ColorIndex
 90
        5
102
RTVSPost2010Prop44ColorRGB
 90
      255
102
RTVSPost2010PropOp44
 70
     1
102
RTVSPost2010Prop45
280
     0
102
RTVSPost2010PropOp45
 70
     1
102
RTVSPost2010Prop46
 90
       50
102
RTVSPost2010PropOp46
 70
     1
102
RTVSPost2010Prop47
 90
       50
102
RTVSPost2010PropOp47
 70
     1
102
RTVSPost2010Prop48
 90
       50
102
RTVSPost2010PropOp48
 70
     1
102
RTVSPost2010Prop49
280
     0
102
RTVSPost2010PropOp49
 70
     1
102
RTVSPost2010Prop50
 90
       50
102
RTVSPost2010PropOp50
 70
     1
102
RTVSPost2010Prop51ColorIndex
 90
      256
102
RTVSPost2010Prop51ColorRGB
 90
-16777216
102
RTVSPost2010PropOp51
 70
     0
102
RTVSPost2010Prop52
140
1.0
102
RTVSPost2010PropOp52
 70
     0
102
RTVSPost2010Prop53
 90
        2
102
RTVSPost2010PropOp53
 70
     1
102
RTVSPost2010Prop54
  1
strokes_ogs.tif
102
RTVSPost2010PropOp54
 70
     1
102
RTVSPost2010Prop55
280
     0
102
RTVSPost2010PropOp55
 70
     1
102
RTVSPost2010Prop56
140
1.0
102
RTVSPost2010PropOp56
 70
     1
102
RTVSPost2010Prop57
140
1.0
102
RTVSPost2010PropOp57
 70
     1
102
RTVSPropertyOp0
 70
     1
102
RTVSPropertyOp1
 70
     1
102
RTVSPropertyOp2
 70
     1
102
RTVSPropertyOp3
 70
     1
102
RTVSPropertyOp4
 70
     1
102
RTVSPropertyOp5
 70
     1
102
RTVSPropertyOp6
 70
     1
102
RTVSPropertyOp7
 70
     1
102
RTVSPropertyOp8
 70
     1
102
RTVSPropertyOp9
 70
     1
102
RTVSPropertyOp10
 70
     1
102
RTVSPropertyOp11
 70
     1
102
RTVSPropertyOp12
 70
     1
102
RTVSPropertyOp13
 70
     1
102
RTVSPropertyOp14
 70
     1
102
RTVSPropertyOp15
 70
     1
102
RTVSPropertyOp16
 70
     1
102
RTVSPropertyOp17
 70
     1
102
RTVSPropertyOp18
 70
     1
102
RTVSPropertyOp19
 70
     1
102
RTVSPropertyOp20
 70
     1
102
RTVSPropertyOp21
 70
     1
102
RTVSPropertyOp22
 70
     1
102
RTVSPropertyOp23
 70
     1
102
RTVSPropertyOp24
 70
     1
102
RTVSPropertyOp25
 70
     1
102
RTVSPropertyOp26
 70
     1
102
RTVSPropertyOp27
 70
     1
102
RTVSPropertyOp28
 70
     1
102
RTVSPropertyOp29
 70
     1
102
RTVSPropertyOp30
 70
     1
102
RTVSPropertyOp31
 70
     1
102
RTVSPropertyOp32
 70
     1
102
RTVSPropertyOp33
 70
     1
102
RTVSPropertyOp34
 70
     1
102
RTVSPropertyOp35
 70
     1
102
RTVSPropertyOp36
 70
     1
102
RTVSPropertyOp37
 70
     1
102
RTVSPropertyOp38
 70
     1
102
RTVSPropertyOp39
 70
     1
102
RTVSPropertyOp40
 70
     1
102
RTVSPropertyOp41
 70
     1
102
RTVSPropertyOp42
 70
     1
102
RTVSPropertyOp43
 70
     1
102
RTVSPropertyOp44
 70
     1
102
RTVSPropertyOp45
 70
     1
102
RTVSPropertyOp46
 70
     1
102
RTVSPropertyOp47
 70
     1
102
RTVSPropertyOp48
 70
     1
102
RTVSPropertyOp49
 70
     1
102
RTVSPropertyOp50
 70
     1
102
RTVSPropertyOp51
 70
     0
102
RTVSPropertyOp52
 70
     0
102
RTVSPropertyOp53
 70
     1
102
RTVSPropertyOp54
 70
     1
102
RTVSPropertyOp55
 70
     1
102
RTVSPropertyOp56
 70
     1
102
RTVSPropertyOp57
 70
     1
102
RTVSPropertyOp58
 70
     1
102
RTVSPropertyOp59
 70
     1
102
RTVSPropertyOp60
 70
     1
102
RTVSPropertyOp61
 70
     1
102
RTVSPropertyOp62
 70
     1
  0
XRECORD
  5
2BF29
102
{ACAD_REACTORS
330
2BF28
102
}
330
2BF28
100
AcDbXrecord
280
     1
102
RTVSPost2010Prop28
280
     0
102
RTVSPost2010PropOp28
 70
     1
102
RTVSPost2010Prop29
280
     1
102
RTVSPost2010PropOp29
 70
     1
102
RTVSPost2010Prop30
280
     1
102
RTVSPost2010PropOp30
 70
     1
102
RTVSPost2010Prop31
280
     0
102
RTVSPost2010PropOp31
 70
     1
102
RTVSPost2010Prop32
280
     0
102
RTVSPost2010PropOp32
 70
     1
102
RTVSPost2010Prop33
280
     0
102
RTVSPost2010PropOp33
 70
     1
102
RTVSPost2010Prop34
280
     0
102
RTVSPost2010PropOp34
 70
     1
102
RTVSPost2010Prop35
280
     0
102
RTVSPost2010PropOp35
 70
     1
102
RTVSPost2010Prop36
280
     0
102
RTVSPost2010PropOp36
 70
     1
102
RTVSPost2010Prop37
 90
       50
102
RTVSPost2010PropOp37
 70
     1
102
RTVSPost2010Prop38
140
0.0
102
RTVSPost2010PropOp38
 70
     1
102
RTVSPost2010Prop39
140
1.0
102
RTVSPost2010PropOp39
 70
     1
102
RTVSPost2010Prop40
 90
        0
102
RTVSPost2010PropOp40
 70
     1
102
RTVSPost2010Prop41ColorIndex
 90
       18
102
RTVSPost2010Prop41ColorRGB
 90
        0
102
RTVSPost2010PropOp41
 70
     1
102
RTVSPost2010Prop42
 90
       50
102
RTVSPost2010PropOp42
 70
     1
102
RTVSPost2010Prop43
 90
        3
102
RTVSPost2010PropOp43
 70
     1
102
RTVSPost2010Prop44ColorIndex
 90
        5
102
RTVSPost2010Prop44ColorRGB
 90
      255
102
RTVSPost2010PropOp44
 70
     1
102
RTVSPost2010Prop45
280
     0
102
RTVSPost2010PropOp45
 70
     1
102
RTVSPost2010Prop46
 90
       50
102
RTVSPost2010PropOp46
 70
     1
102
RTVSPost2010Prop47
 90
       50
102
RTVSPost2010PropOp47
 70
     1
102
RTVSPost2010Prop48
 90
       50
102
RTVSPost2010PropOp48
 70
     1
102
RTVSPost2010Prop49
280
     0
102
RTVSPost2010PropOp49
 70
     1
102
RTVSPost2010Prop50
 90
       50
102
RTVSPost2010PropOp50
 70
     1
102
RTVSPost2010Prop51ColorIndex
 90
      256
102
RTVSPost2010Prop51ColorRGB
 90
-16777216
102
RTVSPost2010PropOp51
 70
     0
102
RTVSPost2010Prop52
140
1.0
102
RTVSPost2010PropOp52
 70
     0
102
RTVSPost2010Prop53
 90
        2
102
RTVSPost2010PropOp53
 70
     1
102
RTVSPost2010Prop54
  1
strokes_ogs.tif
102
RTVSPost2010PropOp54
 70
     1
102
RTVSPost2010Prop55
280
     0
102
RTVSPost2010PropOp55
 70
     1
102
RTVSPost2010Prop56
140
1.0
102
RTVSPost2010PropOp56
 70
     1
102
RTVSPost2010Prop57
140
1.0
102
RTVSPost2010PropOp57
 70
     1
102
RTVSPropertyOp0
 70
     1
102
RTVSPropertyOp1
 70
     1
102
RTVSPropertyOp2
 70
     1
102
RTVSPropertyOp3
 70
     1
102
RTVSPropertyOp4
 70
     1
102
RTVSPropertyOp5
 70
     1
102
RTVSPropertyOp6
 70
     1
102
RTVSPropertyOp7
 70
     1
102
RTVSPropertyOp8
 70
     1
102
RTVSPropertyOp9
 70
     1
102
RTVSPropertyOp10
 70
     1
102
RTVSPropertyOp11
 70
     1
102
RTVSPropertyOp12
 70
     1
102
RTVSPropertyOp13
 70
     1
102
RTVSPropertyOp14
 70
     1
102
RTVSPropertyOp15
 70
     1
102
RTVSPropertyOp16
 70
     1
102
RTVSPropertyOp17
 70
     1
102
RTVSPropertyOp18
 70
     1
102
RTVSPropertyOp19
 70
     1
102
RTVSPropertyOp20
 70
     1
102
RTVSPropertyOp21
 70
     1
102
RTVSPropertyOp22
 70
     1
102
RTVSPropertyOp23
 70
     1
102
RTVSPropertyOp24
 70
     1
102
RTVSPropertyOp25
 70
     1
102
RTVSPropertyOp26
 70
     1
102
RTVSPropertyOp27
 70
     1
102
RTVSPropertyOp28
 70
     1
102
RTVSPropertyOp29
 70
     1
102
RTVSPropertyOp30
 70
     1
102
RTVSPropertyOp31
 70
     1
102
RTVSPropertyOp32
 70
     1
102
RTVSPropertyOp33
 70
     1
102
RTVSPropertyOp34
 70
     1
102
RTVSPropertyOp35
 70
     1
102
RTVSPropertyOp36
 70
     1
102
RTVSPropertyOp37
 70
     1
102
RTVSPropertyOp38
 70
     1
102
RTVSPropertyOp39
 70
     1
102
RTVSPropertyOp40
 70
     1
102
RTVSPropertyOp41
 70
     1
102
RTVSPropertyOp42
 70
     1
102
RTVSPropertyOp43
 70
     1
102
RTVSPropertyOp44
 70
     1
102
RTVSPropertyOp45
 70
     1
102
RTVSPropertyOp46
 70
     1
102
RTVSPropertyOp47
 70
     1
102
RTVSPropertyOp48
 70
     1
102
RTVSPropertyOp49
 70
     1
102
RTVSPropertyOp50
 70
     1
102
RTVSPropertyOp51
 70
     0
102
RTVSPropertyOp52
 70
     0
102
RTVSPropertyOp53
 70
     1
102
RTVSPropertyOp54
 70
     1
102
RTVSPropertyOp55
 70
     1
102
RTVSPropertyOp56
 70
     1
102
RTVSPropertyOp57
 70
     1
102
RTVSPropertyOp58
 70
     1
102
RTVSPropertyOp59
 70
     1
102
RTVSPropertyOp60
 70
     1
102
RTVSPropertyOp61
 70
     1
102
RTVSPropertyOp62
 70
     1
  0
ENDSEC
  0
EOF
