  0
SECTION
  2
HEADER
  9
$ACADVER
  1
AC1014
  9
$ACADMAINTVER
 70
     9
  9
$DWGCODEPAGE
  3
ANSI_932
  9
$INSBASE
 10
0.0
 20
0.0
 30
0.0
  9
$EXTMIN
 10
1861.382530492371
 20
-1737.628524325445
 30
0.0
  9
$EXTMAX
 10
2334.780198836408
 20
-1496.755284407703
 30
0.0
  9
$LIMMIN
 10
0.0
 20
0.0
  9
$LIMMAX
 10
420.0
 20
297.0
  9
$ORTHOMODE
 70
     1
  9
$REGENMODE
 70
     1
  9
$FILLMODE
 70
     1
  9
$QTEXTMODE
 70
     0
  9
$MIRRTEXT
 70
     0
  9
$DRAGMODE
 70
     2
  9
$LTSCALE
 40
1.0
  9
$OSMODE
 70
   959
  9
$ATTMODE
 70
     1
  9
$TEXTSIZE
 40
104.6430065411867
  9
$TRACEWID
 40
1.0
  9
$TEXTSTYLE
  7
MSｺ_ｼｯｸ-S
  9
$CLAYER
  8
文字１
  9
$CELTYPE
  6
BYLAYER
  9
$CECOLOR
 62
   256
  9
$CELTSCALE
 40
0.1
  9
$DELOBJ
 70
     1
  9
$DISPSILH
 70
     0
  9
$DIMSCALE
 40
1.0
  9
$DIMASZ
 40
3.0
  9
$DIMEXO
 40
1.0
  9
$DIMDLI
 40
0.38
  9
$DIMRND
 40
0.0
  9
$DIMDLE
 40
0.0
  9
$DIMEXE
 40
1.0
  9
$DIMTP
 40
0.0
  9
$DIMTM
 40
0.0
  9
$DIMTXT
 40
5.0
  9
$DIMCEN
 40
0.0
  9
$DIMTSZ
 40
0.0
  9
$DIMTOL
 70
     0
  9
$DIMLIM
 70
     0
  9
$DIMTIH
 70
     0
  9
$DIMTOH
 70
     0
  9
$DIMSE1
 70
     0
  9
$DIMSE2
 70
     0
  9
$DIMTAD
 70
     3
  9
$DIMZIN
 70
     8
  9
$DIMBLK
  1
OPEN30
  9
$DIMASO
 70
     1
  9
$DIMSHO
 70
     1
  9
$DIMPOST
  1

  9
$DIMAPOST
  1

  9
$DIMALT
 70
     0
  9
$DIMALTD
 70
     2
  9
$DIMALTF
 40
25.4
  9
$DIMLFAC
 40
1.0
  9
$DIMTOFL
 70
     1
  9
$DIMTVP
 40
0.0
  9
$DIMTIX
 70
     0
  9
$DIMSOXD
 70
     0
  9
$DIMSAH
 70
     0
  9
$DIMBLK1
  1

  9
$DIMBLK2
  1

  9
$DIMSTYLE
  2
まこ-１_２
  9
$DIMCLRD
 70
     4
  9
$DIMCLRE
 70
     4
  9
$DIMCLRT
 70
   256
  9
$DIMTFAC
 40
1.0
  9
$DIMGAP
 40
1.0
  9
$DIMJUST
 70
     0
  9
$DIMSD1
 70
     0
  9
$DIMSD2
 70
     0
  9
$DIMTOLJ
 70
     1
  9
$DIMTZIN
 70
     0
  9
$DIMALTZ
 70
     0
  9
$DIMALTTZ
 70
     0
  9
$DIMFIT
 70
     3
  9
$DIMUPT
 70
     0
  9
$DIMUNIT
 70
     2
  9
$DIMDEC
 70
     2
  9
$DIMTDEC
 70
     2
  9
$DIMALTU
 70
     2
  9
$DIMALTTD
 70
     2
  9
$DIMTXSTY
  7
MSｺ_ｼｯｸ-0
  9
$DIMAUNIT
 70
     0
  9
$LUNITS
 70
     2
  9
$LUPREC
 70
     4
  9
$SKETCHINC
 40
1.0
  9
$FILLETRAD
 40
0.1
  9
$AUNITS
 70
     0
  9
$AUPREC
 70
     0
  9
$MENU
  1
.
  9
$ELEVATION
 40
0.0
  9
$PELEVATION
 40
0.0
  9
$THICKNESS
 40
0.0
  9
$LIMCHECK
 70
     0
  9
$BLIPMODE
 70
     0
  9
$CHAMFERA
 40
0.5
  9
$CHAMFERB
 40
0.5
  9
$CHAMFERC
 40
20.0
  9
$CHAMFERD
 40
0.0
  9
$SKPOLY
 70
     0
  9
$TDCREATE
 40
2452312.443623217
  9
$TDUPDATE
 40
2455601.387919919
  9
$TDINDWG
 40
14.3423067593
  9
$TDUSRTIMER
 40
14.3423056944
  9
$USRTIMER
 70
     1
  9
$ANGBASE
 50
0.0
  9
$ANGDIR
 70
     0
  9
$PDMODE
 70
     0
  9
$PDSIZE
 40
0.0
  9
$PLINEWID
 40
0.0
  9
$COORDS
 70
     1
  9
$SPLFRAME
 70
     0
  9
$SPLINETYPE
 70
     6
  9
$SPLINESEGS
 70
     8
  9
$ATTDIA
 70
     0
  9
$ATTREQ
 70
     1
  9
$HANDLING
 70
-16383
  9
$HANDSEED
  5
2D591
  9
$SURFTAB1
 70
     6
  9
$SURFTAB2
 70
     6
  9
$SURFTYPE
 70
     6
  9
$SURFU
 70
     6
  9
$SURFV
 70
     6
  9
$UCSNAME
  2

  9
$UCSORG
 10
0.0
 20
0.0
 30
0.0
  9
$UCSXDIR
 10
1.0
 20
0.0
 30
0.0
  9
$UCSYDIR
 10
0.0
 20
1.0
 30
0.0
  9
$PUCSNAME
  2

  9
$PUCSORG
 10
0.0
 20
0.0
 30
0.0
  9
$PUCSXDIR
 10
1.0
 20
0.0
 30
0.0
  9
$PUCSYDIR
 10
0.0
 20
1.0
 30
0.0
  9
$USERI1
 70
     0
  9
$USERI2
 70
     0
  9
$USERI3
 70
     0
  9
$USERI4
 70
     0
  9
$USERI5
 70
     0
  9
$USERR1
 40
0.0
  9
$USERR2
 40
0.0
  9
$USERR3
 40
0.0
  9
$USERR4
 40
0.0
  9
$USERR5
 40
0.0
  9
$WORLDVIEW
 70
     1
  9
$SHADEDGE
 70
     3
  9
$SHADEDIF
 70
    70
  9
$TILEMODE
 70
     0
  9
$MAXACTVP
 70
    64
  9
$PINSBASE
 10
0.0
 20
0.0
 30
0.0
  9
$PLIMCHECK
 70
     0
  9
$PEXTMIN
 10
0.2292037932338644
 20
1.127416477734755
 30
-0.0015258207003583
  9
$PEXTMAX
 10
414.6586765927429
 20
292.2042374642554
 30
0.0000000349246037
  9
$PLIMMIN
 10
-2.289093017578125
 20
-0.789083480834961
  9
$PLIMMAX
 10
417.6575622558591
 20
296.1369113922117
  9
$UNITMODE
 70
     0
  9
$VISRETAIN
 70
     1
  9
$PLINEGEN
 70
     0
  9
$PSLTSCALE
 70
     0
  9
$TREEDEPTH
 70
  3020
  9
$PICKSTYLE
 70
     0
  9
$CMLSTYLE
  2
STANDARD
  9
$CMLJUST
 70
     0
  9
$CMLSCALE
 40
20.0
  9
$PROXYGRAPHICS
 70
     1
  9
$MEASUREMENT
 70
     0
  0
ENDSEC
  0
SECTION
  2
CLASSES
  0
CLASS
  1
ACDBDICTIONARYWDFLT
  2
AcDbDictionaryWithDefault
  3
AutoCAD 2000
 90
        0
280
     0
281
     0
  0
CLASS
  1
ACDBPLACEHOLDER
  2
AcDbPlaceHolder
  3
AutoCAD 2000
 90
        0
280
     0
281
     0
  0
CLASS
  1
LAYOUT
  2
AcDbLayout
  3
AutoCAD 2000
 90
        0
280
     0
281
     0
  0
CLASS
  1
DICTIONARYVAR
  2
AcDbDictionaryVar
  3
AutoCAD 2000
 90
        0
280
     0
281
     0
  0
CLASS
  1
SORTENTSTABLE
  2
AcDbSortentsTable
  3
AutoCAD 2000
 90
        0
280
     0
281
     0
  0
CLASS
  1
LONG_TRANSACTION
  2
AcDbLongTransaction
  3
AutoCAD 2000
 90
        0
280
     0
281
     0
  0
CLASS
  1
LWPOLYLINE
  2
AcDbPolyline
  3
AutoCAD 2000
 90
        0
280
     0
281
     1
  0
CLASS
  1
HATCH
  2
AcDbHatch
  3
AutoCAD 2000
 90
        0
280
     0
281
     1
  0
CLASS
  1
XRECORD
  2
AcDbXrecord
  3
AutoCAD 2000
 90
        0
280
     0
281
     0
  0
ENDSEC
  0
SECTION
  2
TABLES
  0
TABLE
  2
VPORT
  5
8
330
0
100
AcDbSymbolTable
 70
     2
  0
VPORT
  5
2D56C
330
8
100
AcDbSymbolTableRecord
100
AcDbViewportTableRecord
  2
*ACTIVE
 70
     0
 10
0.0
 20
0.0
 11
1.0
 21
1.0
 12
2098.133546259581
 22
-1617.154643852405
 13
0.0
 23
0.0
 14
10.0
 24
10.0
 15
10.0
 25
10.0
 16
0.0
 26
0.0
 36
1.0
 17
0.0
 27
0.0
 37
0.0
 40
242.7836887286789
 41
2.184834123222748
 42
50.0
 43
0.0
 44
0.0
 50
0.0
 51
0.0
 71
     0
 72
   100
 73
     1
 74
     2
 75
     0
 76
     0
 77
     0
 78
     2
  0
ENDTAB
  0
TABLE
  2
LTYPE
  5
5
330
0
100
AcDbSymbolTable
 70
     4
  0
LTYPE
  5
14
330
5
100
AcDbSymbolTableRecord
100
AcDbLinetypeTableRecord
  2
BYBLOCK
 70
     0
  3

 72
    65
 73
     0
 40
0.0
  0
LTYPE
  5
15
330
5
100
AcDbSymbolTableRecord
100
AcDbLinetypeTableRecord
  2
BYLAYER
 70
     0
  3

 72
    65
 73
     0
 40
0.0
  0
LTYPE
  5
16
330
5
100
AcDbSymbolTableRecord
100
AcDbLinetypeTableRecord
  2
CONTINUOUS
 70
     0
  3
Solid line
 72
    65
 73
     0
 40
0.0
  0
LTYPE
  5
6B0
330
5
100
AcDbSymbolTableRecord
100
AcDbLinetypeTableRecord
  2
CENTER2
 70
     0
  3
Center (.5x) ___ _ ___ _ ___ _ ___ _ ___ _ ___
 72
    65
 73
     4
 40
28.57499999999999
 49
19.05
 74
     0
 49
-3.174999999999998
 74
     0
 49
3.174999999999998
 74
     0
 49
-3.174999999999998
 74
     0
  0
LTYPE
  5
6B1
330
5
100
AcDbSymbolTableRecord
100
AcDbLinetypeTableRecord
  2
HIDDEN
 70
     0
  3
Hidden __ __ __ __ __ __ __ __ __ __ __ __ __ _
 72
    65
 73
     2
 40
9.524999999999996
 49
6.349999999999997
 74
     0
 49
-3.174999999999998
 74
     0
  0
LTYPE
  5
2AA26
330
5
100
AcDbSymbolTableRecord
100
AcDbLinetypeTableRecord
  2
PHANTOM
 70
     0
  3
Phantom ______  __  __  ______  __  __  ______
 72
    65
 73
     6
 40
2.5
 49
1.25
 74
     0
 49
-0.25
 74
     0
 49
0.25
 74
     0
 49
-0.25
 74
     0
 49
0.25
 74
     0
 49
-0.25
 74
     0
  0
ENDTAB
  0
TABLE
  2
LAYER
  5
2
102
{ACAD_XDICTIONARY
360
29CAD
102
}
330
0
100
AcDbSymbolTable
 70
    13
  0
LAYER
  5
10
330
2
100
AcDbSymbolTableRecord
100
AcDbLayerTableRecord
  2
0
 70
     0
 62
     7
  6
CONTINUOUS
  0
LAYER
  5
31
330
2
100
AcDbSymbolTableRecord
100
AcDbLayerTableRecord
  2
MYVIEW
 70
     0
 62
    -1
  6
CONTINUOUS
  0
LAYER
  5
12A
330
2
100
AcDbSymbolTableRecord
100
AcDbLayerTableRecord
  2
DIMENSION
 70
     0
 62
     7
  6
CONTINUOUS
  0
LAYER
  5
12B
330
2
100
AcDbSymbolTableRecord
100
AcDbLayerTableRecord
  2
文字
 70
     0
 62
     7
  6
CONTINUOUS
  0
LAYER
  5
540
330
2
100
AcDbSymbolTableRecord
100
AcDbLayerTableRecord
  2
WAKUMOJI1
 70
     0
 62
    -7
  6
CONTINUOUS
  0
LAYER
  5
6B2
330
2
100
AcDbSymbolTableRecord
100
AcDbLayerTableRecord
  2
DEFPOINTS
 70
     1
 62
    -7
  6
CONTINUOUS
  0
LAYER
  5
6B3
330
2
100
AcDbSymbolTableRecord
100
AcDbLayerTableRecord
  2
中心線
 70
     0
 62
     7
  6
CENTER2
  0
LAYER
  5
20D69
330
2
100
AcDbSymbolTableRecord
100
AcDbLayerTableRecord
  2
実線
 70
     0
 62
     7
  6
CONTINUOUS
  0
LAYER
  5
2134A
330
2
100
AcDbSymbolTableRecord
100
AcDbLayerTableRecord
  2
細線
 70
     0
 62
     7
  6
CONTINUOUS
  0
LAYER
  5
21D6D
330
2
100
AcDbSymbolTableRecord
100
AcDbLayerTableRecord
  2
破線
 70
     0
 62
     7
  6
HIDDEN
  0
LAYER
  5
28BB4
330
2
100
AcDbSymbolTableRecord
100
AcDbLayerTableRecord
  2
文字１
 70
     0
 62
     7
  6
CONTINUOUS
  0
LAYER
  5
2AA28
330
2
100
AcDbSymbolTableRecord
100
AcDbLayerTableRecord
  2
２点鎖線
 70
     0
 62
     7
  6
PHANTOM
  0
ENDTAB
  0
TABLE
  2
STYLE
  5
3
330
0
100
AcDbSymbolTable
 70
     6
  0
STYLE
  5
11
330
3
100
AcDbSymbolTableRecord
100
AcDbTextStyleTableRecord
  2
STANDARD
 70
     0
 40
0.0
 41
1.0
 50
0.0
 71
     0
 42
2.5
  3
simplex.shx
  4
bigfont.shx
  0
STYLE
  5
133
330
3
100
AcDbSymbolTableRecord
100
AcDbTextStyleTableRecord
  2
MSｺ_ｼｯｸ-0
 70
     0
 40
0.0
 41
1.0
 50
0.0
 71
     0
 42
4.0
  3
simplex.shx
  4
bigfont.shx
  0
STYLE
  5
4E1
330
3
100
AcDbSymbolTableRecord
100
AcDbTextStyleTableRecord
  2
MSｺ_ｼｯｸ-S
 70
     0
 40
0.0
 41
1.0
 50
0.0
 71
     0
 42
104.6430065411867
  3
isocp.shx
  4
bigfont.shx
  0
ENDTAB
  0
TABLE
  2
VIEW
  5
6
330
0
100
AcDbSymbolTable
 70
     0
  0
ENDTAB
  0
TABLE
  2
UCS
  5
7
330
0
100
AcDbSymbolTable
 70
     0
  0
ENDTAB
  0
TABLE
  2
APPID
  5
9
330
0
100
AcDbSymbolTable
 70
     1
  0
APPID
  5
12
330
9
100
AcDbSymbolTableRecord
100
AcDbRegAppTableRecord
  2
ACAD
 70
     0
  0
ENDTAB
  0
TABLE
  2
DIMSTYLE
  5
A
330
0
100
AcDbSymbolTable
 70
     2
  0
DIMSTYLE
105
135
330
A
100
AcDbSymbolTableRecord
100
AcDbDimStyleTableRecord
  2
STANDARD
 70
     0
  3

  4

  5
OPEN
  6

  7

 40
1.0
 41
3.0
 42
0.8
 43
0.38
 44
0.18
 45
0.0
 46
0.0
 47
0.0
 48
0.0
140
3.0
141
0.0
142
0.0
143
25.4
144
1.0
145
0.0
146
1.0
147
1.0
 71
     0
 72
     0
 73
     0
 74
     0
 75
     0
 76
     0
 77
     3
 78
     8
170
     0
171
     2
172
     0
173
     0
174
     0
175
     0
176
     4
177
     4
178
    40
270
     2
271
     2
272
     2
273
     2
274
     2
340
133
275
     0
280
     0
281
     0
282
     0
283
     1
284
     0
285
     0
286
     0
287
     3
288
     0
  0
DIMSTYLE
105
21455
330
A
100
AcDbSymbolTableRecord
100
AcDbDimStyleTableRecord
  2
まこ-１_２
 70
     0
  3

  4

  5
OPEN30
  6

  7

 40
1.0
 41
3.0
 42
1.0
 43
0.38
 44
1.0
 45
0.0
 46
0.0
 47
0.0
 48
0.0
140
5.0
141
0.0
142
0.0
143
25.4
144
1.0
145
0.0
146
1.0
147
1.0
 71
     0
 72
     0
 73
     0
 74
     0
 75
     0
 76
     0
 77
     3
 78
     8
170
     0
171
     2
172
     1
173
     0
174
     0
175
     0
176
     4
177
     4
178
   256
270
     2
271
     2
272
     2
273
     2
274
     2
340
133
275
     0
280
     0
281
     0
282
     0
283
     1
284
     0
285
     0
286
     0
287
     3
288
     0
  0
ENDTAB
  0
TABLE
  2
BLOCK_RECORD
  5
1
330
0
100
AcDbSymbolTable
 70
    22
  0
BLOCK_RECORD
  5
1F
102
{ACAD_XDICTIONARY
360
2847E
102
}
330
1
100
AcDbSymbolTableRecord
100
AcDbBlockTableRecord
  2
*MODEL_SPACE
  0
BLOCK_RECORD
  5
2D204
102
{ACAD_XDICTIONARY
360
2D58F
102
}
330
1
100
AcDbSymbolTableRecord
100
AcDbBlockTableRecord
  2
*PAPER_SPACE
  0
BLOCK_RECORD
  5
123
330
1
100
AcDbSymbolTableRecord
100
AcDbBlockTableRecord
  2
_OPEN
  0
BLOCK_RECORD
  5
495
330
1
100
AcDbSymbolTableRecord
100
AcDbBlockTableRecord
  2
_OPEN30
  0
ENDTAB
  0
ENDSEC
  0
SECTION
  2
BLOCKS
  0
BLOCK
  5
20
330
1F
100
AcDbEntity
  8
0
100
AcDbBlockBegin
  2
*MODEL_SPACE
 70
     0
 10
0.0
 20
0.0
 30
0.0
  3
*MODEL_SPACE
  1

  0
ENDBLK
  5
21
330
1F
100
AcDbEntity
  8
0
100
AcDbBlockEnd
  0
BLOCK
  5
2D2C0
330
2D204
100
AcDbEntity
 67
     1
  8
0
100
AcDbBlockBegin
  2
*PAPER_SPACE
 70
     0
 10
0.0
 20
0.0
 30
0.0
  3
*PAPER_SPACE
  1

  0
ENDBLK
  5
2D2C1
330
2D204
100
AcDbEntity
 67
     1
  8
0
100
AcDbBlockEnd
  0
BLOCK
  5
127
330
123
100
AcDbEntity
  8
0
100
AcDbBlockBegin
  2
_OPEN
 70
     0
 10
0.0
 20
0.0
 30
0.0
  3
_OPEN
  1

  0
LINE
  5
124
330
123
100
AcDbEntity
  8
0
  6
BYBLOCK
 62
     0
100
AcDbLine
 10
-1.0
 20
0.1666666666666666
 30
0.0
 11
0.0
 21
0.0
 31
0.0
  0
LINE
  5
125
330
123
100
AcDbEntity
  8
0
  6
BYBLOCK
 62
     0
100
AcDbLine
 10
0.0
 20
0.0
 30
0.0
 11
-1.0
 21
-0.1666666666666666
 31
0.0
  0
LINE
  5
126
330
123
100
AcDbEntity
  8
0
  6
BYBLOCK
 62
     0
100
AcDbLine
 10
0.0
 20
0.0
 30
0.0
 11
-1.0
 21
0.0
 31
0.0
  0
ENDBLK
  5
128
330
123
100
AcDbEntity
  8
0
100
AcDbBlockEnd
  0
BLOCK
  5
499
330
495
100
AcDbEntity
  8
0
100
AcDbBlockBegin
  2
_OPEN30
 70
     0
 10
0.0
 20
0.0
 30
0.0
  3
_OPEN30
  1

  0
LINE
  5
496
330
495
100
AcDbEntity
  8
DIMENSION
 62
     0
100
AcDbLine
 10
-1.0
 20
0.26794919
 30
0.0
 11
0.0
 21
0.0
 31
0.0
  0
LINE
  5
497
330
495
100
AcDbEntity
  8
DIMENSION
 62
     0
100
AcDbLine
 10
0.0
 20
0.0
 30
0.0
 11
-1.0
 21
-0.26794919
 31
0.0
  0
LINE
  5
498
330
495
100
AcDbEntity
  8
DIMENSION
 62
     0
100
AcDbLine
 10
0.0
 20
0.0
 30
0.0
 11
-1.0
 21
0.0
 31
0.0
  0
ENDBLK
  5
49A
330
495
100
AcDbEntity
  8
0
100
AcDbBlockEnd
  0
ENDSEC
  0
SECTION
  2
ENTITIES
  0
LINE
  5
2C286
330
1F
100
AcDbEntity
  8
実線
100
AcDbLine
 10
2234.989318283678
 20
-1588.105284407703
 30
0.0
 11
2237.08253049237
 21
-1588.105284407703
 31
0.0
  0
LINE
  5
2C287
330
1F
100
AcDbEntity
  8
実線
100
AcDbLine
 10
2236.68253049237
 20
-1587.105284407703
 30
0.0
 11
2233.582530492371
 21
-1587.105284407703
 31
0.0
  0
LINE
  5
2C288
330
1F
100
AcDbEntity
  8
実線
100
AcDbLine
 10
2237.08253049237
 20
-1588.905284407703
 30
0.0
 11
2234.989318283678
 21
-1588.905284407703
 31
0.0
  0
LINE
  5
2C289
330
1F
100
AcDbEntity
  8
実線
100
AcDbLine
 10
2234.58253049237
 20
-1594.745284407703
 30
0.0
 11
2245.082530492371
 21
-1594.745284407703
 31
0.0
  0
LINE
  5
2C28A
330
1F
100
AcDbEntity
  8
実線
100
AcDbLine
 10
2245.082530492371
 20
-1591.305284407702
 30
0.0
 11
2234.58253049237
 21
-1591.305284407702
 31
0.0
  0
LINE
  5
2C28B
330
1F
100
AcDbEntity
  8
実線
100
AcDbLine
 10
2234.58253049237
 20
-1599.305284407702
 30
0.0
 11
2245.082530492371
 21
-1599.305284407702
 31
0.0
  0
LINE
  5
2C28C
330
1F
100
AcDbEntity
  8
実線
100
AcDbLine
 10
2245.082530492371
 20
-1595.865284407703
 30
0.0
 11
2234.58253049237
 21
-1595.865284407703
 31
0.0
  0
LINE
  5
2C28D
330
1F
100
AcDbEntity
  8
実線
100
AcDbLine
 10
2236.082530492371
 20
-1586.505284407702
 30
0.0
 11
2227.88253049237
 21
-1586.505284407702
 31
0.0
  0
LINE
  5
2C28E
330
1F
100
AcDbEntity
  8
実線
 48
10.0
100
AcDbLine
 10
2171.382530492369
 20
-1580.755284407703
 30
0.0
 11
2171.382530492369
 21
-1513.255284407702
 31
0.0
  0
LINE
  5
2C28F
330
1F
100
AcDbEntity
  8
実線
 48
10.0
100
AcDbLine
 10
1867.382530492371
 20
-1580.755284407703
 30
0.0
 11
1867.382530492371
 21
-1513.255284407702
 31
0.0
  0
LINE
  5
2C292
330
1F
100
AcDbEntity
  8
実線
 48
10.0
100
AcDbLine
 10
2171.882530492371
 20
-1580.755284407703
 30
0.0
 11
1866.882530492372
 21
-1580.755284407703
 31
0.0
  0
LINE
  5
2C293
330
1F
100
AcDbEntity
  8
実線
 48
10.0
100
AcDbLine
 10
2171.882530492371
 20
-1605.755284407702
 30
0.0
 11
1866.882530492372
 21
-1605.755284407702
 31
0.0
  0
LINE
  5
2C297
330
1F
100
AcDbEntity
  8
実線
 48
10.0
100
AcDbLine
 10
1866.38253049237
 20
-1581.255284407703
 30
0.0
 11
1866.38253049237
 21
-1605.255284407703
 31
0.0
  0
LINE
  5
2C298
330
1F
100
AcDbEntity
  8
中心線
 48
0.2
100
AcDbLine
 10
1884.38253049237
 20
-1603.405284407701
 30
0.0
 11
1884.38253049237
 21
-1596.105284407705
 31
0.0
  0
LINE
  5
2C299
330
1F
100
AcDbEntity
  8
実線
 48
10.0
100
AcDbLine
 10
1866.38253049237
 20
-1605.255284407703
 30
0.0
 11
1866.882530492372
 21
-1605.755284407702
 31
0.0
  0
CIRCLE
  5
2C29A
330
1F
100
AcDbEntity
  8
実線
100
AcDbCircle
 10
1884.38253049237
 20
-1599.755284407702
 30
0.0
 40
1.649999999998384
  0
CIRCLE
  5
2C29B
330
1F
100
AcDbEntity
  8
細線
100
AcDbCircle
 10
1884.38253049237
 20
-1599.755284407702
 30
0.0
 40
1.999999999998293
  0
LINE
  5
2C29C
330
1F
100
AcDbEntity
  8
中心線
 48
0.2
100
AcDbLine
 10
1880.732530492372
 20
-1599.755284407702
 30
0.0
 11
1888.032530492369
 21
-1599.755284407701
 31
0.0
  0
LINE
  5
2C29D
330
1F
100
AcDbEntity
  8
実線
 48
10.0
100
AcDbLine
 10
1866.38253049237
 20
-1581.255284407703
 30
0.0
 11
1866.882530492372
 21
-1580.755284407703
 31
0.0
  0
CIRCLE
  5
2C29E
330
1F
100
AcDbEntity
  8
実線
100
AcDbCircle
 10
2109.382530492371
 20
-1599.755284407702
 30
0.0
 40
1.649999999998384
  0
CIRCLE
  5
2C29F
330
1F
100
AcDbEntity
  8
細線
100
AcDbCircle
 10
2109.382530492371
 20
-1599.755284407702
 30
0.0
 40
1.999999999998293
  0
LINE
  5
2C2A0
330
1F
100
AcDbEntity
  8
中心線
 48
0.2
100
AcDbLine
 10
2105.732530492371
 20
-1599.755284407702
 30
0.0
 11
2113.032530492369
 21
-1599.755284407701
 31
0.0
  0
CIRCLE
  5
2C2A1
330
1F
100
AcDbEntity
  8
実線
100
AcDbCircle
 10
1929.382530492371
 20
-1599.755284407702
 30
0.0
 40
1.649999999998384
  0
CIRCLE
  5
2C2A2
330
1F
100
AcDbEntity
  8
細線
100
AcDbCircle
 10
1929.382530492371
 20
-1599.755284407702
 30
0.0
 40
1.999999999998293
  0
LINE
  5
2C2A3
330
1F
100
AcDbEntity
  8
中心線
 48
0.2
100
AcDbLine
 10
1925.732530492372
 20
-1599.755284407702
 30
0.0
 11
1933.032530492369
 21
-1599.755284407701
 31
0.0
  0
LINE
  5
2C2A4
330
1F
100
AcDbEntity
  8
中心線
 48
0.2
100
AcDbLine
 10
1929.382530492371
 20
-1603.405284407701
 30
0.0
 11
1929.382530492371
 21
-1596.105284407705
 31
0.0
  0
LINE
  5
2C2A5
330
1F
100
AcDbEntity
  8
中心線
 48
0.2
100
AcDbLine
 10
2064.382530492371
 20
-1603.405284407701
 30
0.0
 11
2064.382530492371
 21
-1596.105284407705
 31
0.0
  0
CIRCLE
  5
2C2A6
330
1F
100
AcDbEntity
  8
実線
100
AcDbCircle
 10
2064.382530492371
 20
-1599.755284407702
 30
0.0
 40
1.649999999998384
  0
CIRCLE
  5
2C2A7
330
1F
100
AcDbEntity
  8
細線
100
AcDbCircle
 10
2064.382530492371
 20
-1599.755284407702
 30
0.0
 40
1.999999999998293
  0
LINE
  5
2C2A8
330
1F
100
AcDbEntity
  8
中心線
 48
0.2
100
AcDbLine
 10
2060.732530492372
 20
-1599.755284407702
 30
0.0
 11
2068.032530492369
 21
-1599.755284407701
 31
0.0
  0
LINE
  5
2C2A9
330
1F
100
AcDbEntity
  8
中心線
 48
0.2
100
AcDbLine
 10
2109.382530492371
 20
-1603.405284407701
 30
0.0
 11
2109.382530492371
 21
-1596.105284407705
 31
0.0
  0
LINE
  5
2C2AC
330
1F
100
AcDbEntity
  8
実線
100
AcDbLine
 10
2184.382530492368
 20
-1591.655284407702
 30
0.0
 11
2172.38253049237
 21
-1591.655284407702
 31
0.0
  0
LINE
  5
2C2AD
330
1F
100
AcDbEntity
  8
実線
100
AcDbLine
 10
2184.382530492368
 20
-1598.855284407703
 30
0.0
 11
2172.382530492372
 21
-1598.855284407703
 31
0.0
  0
LINE
  5
2C2AE
330
1F
100
AcDbEntity
  8
実線
 48
10.0
100
AcDbLine
 10
2172.38253049237
 20
-1581.255284407703
 30
0.0
 11
2172.38253049237
 21
-1605.255284407703
 31
0.0
  0
LINE
  5
2C2AF
330
1F
100
AcDbEntity
  8
実線
 48
10.0
100
AcDbLine
 10
2172.38253049237
 20
-1605.255284407703
 30
0.0
 11
2171.882530492371
 21
-1605.755284407702
 31
0.0
  0
LINE
  5
2C2B0
330
1F
100
AcDbEntity
  8
中心線
 48
0.2
100
AcDbLine
 10
2154.382530492369
 20
-1603.405284407701
 30
0.0
 11
2154.382530492369
 21
-1596.105284407705
 31
0.0
  0
CIRCLE
  5
2C2B1
330
1F
100
AcDbEntity
  8
実線
100
AcDbCircle
 10
2154.382530492369
 20
-1599.755284407702
 30
0.0
 40
1.649999999998384
  0
LINE
  5
2C2B2
330
1F
100
AcDbEntity
  8
中心線
 48
0.2
100
AcDbLine
 10
2150.732530492372
 20
-1599.755284407702
 30
0.0
 11
2158.032530492369
 21
-1599.755284407701
 31
0.0
  0
CIRCLE
  5
2C2B3
330
1F
100
AcDbEntity
  8
細線
100
AcDbCircle
 10
2154.382530492369
 20
-1599.755284407702
 30
0.0
 40
1.999999999998293
  0
LINE
  5
2C2B4
330
1F
100
AcDbEntity
  8
実線
 48
10.0
100
AcDbLine
 10
2171.882530492371
 20
-1580.755284407703
 30
0.0
 11
2172.38253049237
 21
-1581.255284407703
 31
0.0
  0
LINE
  5
2C2B5
330
1F
100
AcDbEntity
  8
実線
100
AcDbLine
 10
2234.58253049237
 20
-1595.305284407702
 30
0.0
 11
2234.58253049237
 21
-1590.405284407703
 31
0.0
  0
LINE
  5
2C2B6
330
1F
100
AcDbEntity
  8
実線
100
AcDbLine
 10
2221.382530492371
 20
-1592.705284407703
 30
0.0
 11
2221.382530492371
 21
-1598.005284407703
 31
0.0
  0
LINE
  5
2C2B7
330
1F
100
AcDbEntity
  8
実線
100
AcDbLine
 10
2221.382530492371
 20
-1595.305284407702
 30
0.0
 11
2221.382530492371
 21
-1589.405284407703
 31
0.0
  0
LINE
  5
2C2B8
330
1F
100
AcDbEntity
  8
実線
100
AcDbLine
 10
2219.382530492369
 20
-1592.105284407703
 30
0.0
 11
2219.382530492369
 21
-1598.405284407703
 31
0.0
  0
LINE
  5
2C2B9
330
1F
100
AcDbEntity
  8
中心線
 48
0.5
100
AcDbLine
 10
2203.011395698954
 20
-1603.38137623385
 30
0.0
 11
2205.753665285786
 21
-1587.829192581556
 31
0.0
  0
LINE
  5
2C2BA
330
1F
100
AcDbEntity
  8
中心線
 48
0.5
100
AcDbLine
 10
2205.011395698954
 20
-1603.38137623385
 30
0.0
 11
2207.753665285787
 21
-1587.829192581556
 31
0.0
  0
LINE
  5
2C2BB
330
1F
100
AcDbEntity
  8
実線
 48
10.0
100
AcDbLine
 10
2184.382530492368
 20
-1591.655284407702
 30
0.0
 11
2184.382530492368
 21
-1598.855284407703
 31
0.0
  0
LINE
  5
2C2BC
330
1F
100
AcDbEntity
  8
実線
100
AcDbLine
 10
2219.382530492369
 20
-1598.405284407703
 30
0.0
 11
2205.976978436742
 21
-1598.405284407703
 31
0.0
  0
LINE
  5
2C2BD
330
1F
100
AcDbEntity
  8
実線
100
AcDbLine
 10
2203.97697843674
 20
-1598.405284407703
 30
0.0
 11
2184.382530492368
 21
-1598.405284407703
 31
0.0
  0
LINE
  5
2C2BE
330
1F
100
AcDbEntity
  8
実線
100
AcDbLine
 10
2234.58253049237
 20
-1600.205284407703
 30
0.0
 11
2234.58253049237
 21
-1595.305284407702
 31
0.0
  0
LINE
  5
2C2BF
330
1F
100
AcDbEntity
  8
実線
100
AcDbLine
 10
2222.382530492371
 20
-1600.705284407703
 30
0.0
 11
2222.382530492371
 21
-1600.205284407703
 31
0.0
  0
LINE
  5
2C2C0
330
1F
100
AcDbEntity
  8
実線
100
AcDbLine
 10
2221.382530492371
 20
-1601.205284407702
 30
0.0
 11
2221.382530492371
 21
-1595.305284407702
 31
0.0
  0
LINE
  5
2C2C1
330
1F
100
AcDbEntity
  8
実線
100
AcDbLine
 10
2221.382530492371
 20
-1595.305284407702
 30
0.0
 11
2219.382530492369
 21
-1595.305284407702
 31
0.0
  0
LINE
  5
2C2C2
330
1F
100
AcDbEntity
  8
実線
100
AcDbLine
 10
2221.382530492371
 20
-1601.205284407702
 30
0.0
 11
2221.882530492369
 21
-1601.205284407702
 31
0.0
  0
LINE
  5
2C2C3
330
1F
100
AcDbEntity
  8
実線
100
AcDbLine
 10
2221.382530492371
 20
-1597.905284407703
 30
0.0
 11
2219.382530492369
 21
-1597.905284407703
 31
0.0
  0
LINE
  5
2C2C4
330
1F
100
AcDbEntity
  8
実線
100
AcDbLine
 10
2221.382530492371
 20
-1596.605284407702
 30
0.0
 11
2219.382530492369
 21
-1596.605284407702
 31
0.0
  0
ARC
  5
2C2C5
330
1F
100
AcDbEntity
  8
実線
100
AcDbCircle
 10
2221.882530492369
 20
-1600.705284407703
 30
0.0
 40
0.5
100
AcDbArc
 50
270.0
 51
0.0
  0
LINE
  5
2C2C6
330
1F
100
AcDbEntity
  8
実線
100
AcDbLine
 10
2222.382530492371
 20
-1600.205284407703
 30
0.0
 11
2234.58253049237
 21
-1600.205284407703
 31
0.0
  0
LINE
  5
2C2C7
330
1F
100
AcDbEntity
  8
実線
100
AcDbLine
 10
2206.911511434495
 20
-1592.105284407703
 30
0.0
 11
2219.382530492369
 21
-1592.105284407703
 31
0.0
  0
LINE
  5
2C2C8
330
1F
100
AcDbEntity
  8
実線
100
AcDbLine
 10
2184.382530492368
 20
-1592.105284407703
 30
0.0
 11
2204.911511434497
 21
-1592.105284407703
 31
0.0
  0
LINE
  5
2C2C9
330
1F
100
AcDbEntity
  8
実線
100
AcDbLine
 10
2233.582530492371
 20
-1588.105284407703
 30
0.0
 11
2234.989318283678
 21
-1588.105284407703
 31
0.0
  0
LINE
  5
2C2CA
330
1F
100
AcDbEntity
  8
実線
100
AcDbLine
 10
2233.582530492371
 20
-1588.105284407703
 30
0.0
 11
2233.582530492371
 21
-1587.105284407703
 31
0.0
  0
ARC
  5
2C2CB
330
1F
100
AcDbEntity
  8
実線
100
AcDbCircle
 10
2233.872662682493
 20
-1589.308247776799
 30
0.0
 40
0.2901321901215654
100
AcDbArc
 50
180.0
 51
225.7347860444803
  0
LINE
  5
2C2CC
330
1F
100
AcDbEntity
  8
実線
100
AcDbLine
 10
2234.58253049237
 20
-1590.405284407703
 30
0.0
 11
2233.670156031477
 21
-1589.516016263436
 31
0.0
  0
LINE
  5
2C2CD
330
1F
100
AcDbEntity
  8
実線
100
AcDbLine
 10
2233.582530492371
 20
-1589.308247776799
 30
0.0
 11
2233.582530492371
 21
-1588.905284407703
 31
0.0
  0
LINE
  5
2C2CE
330
1F
100
AcDbEntity
  8
実線
100
AcDbLine
 10
2234.989318283678
 20
-1588.905284407703
 30
0.0
 11
2233.582530492371
 21
-1588.905284407703
 31
0.0
  0
LINE
  5
2C2CF
330
1F
100
AcDbEntity
  8
実線
100
AcDbLine
 10
2234.989318283678
 20
-1588.905284407703
 30
0.0
 11
2234.989318283678
 21
-1588.105284407703
 31
0.0
  0
LINE
  5
2C2D0
330
1F
100
AcDbEntity
  8
実線
100
AcDbLine
 10
2233.582530492371
 20
-1588.905284407703
 30
0.0
 11
2233.582530492371
 21
-1588.105284407703
 31
0.0
  0
LINE
  5
2C2D1
330
1F
100
AcDbEntity
  8
実線
100
AcDbLine
 10
2227.88253049237
 20
-1587.105284407703
 30
0.0
 11
2227.88253049237
 21
-1586.505284407702
 31
0.0
  0
LINE
  5
2C2D2
330
1F
100
AcDbEntity
  8
実線
100
AcDbLine
 10
2222.382530492371
 20
-1590.405284407703
 30
0.0
 11
2222.382530492371
 21
-1589.905284407703
 31
0.0
  0
LINE
  5
2C2D3
330
1F
100
AcDbEntity
  8
実線
100
AcDbLine
 10
2227.082530492371
 20
-1588.505284407703
 30
0.0
 11
2227.082530492371
 21
-1586.505284407702
 31
0.0
  0
LINE
  5
2C2D4
330
1F
100
AcDbEntity
  8
実線
100
AcDbLine
 10
2227.88253049237
 20
-1586.505284407702
 30
0.0
 11
2227.082530492371
 21
-1586.505284407702
 31
0.0
  0
LINE
  5
2C2D5
330
1F
100
AcDbEntity
  8
実線
100
AcDbLine
 10
2231.633509504143
 20
-1589.322923502018
 30
0.0
 11
2227.082530492371
 21
-1588.505284407703
 31
0.0
  0
LINE
  5
2C2D6
330
1F
100
AcDbEntity
  8
実線
100
AcDbLine
 10
2231.537052004975
 20
-1590.405284407703
 30
0.0
 11
2222.382530492371
 21
-1590.405284407703
 31
0.0
  0
LINE
  5
2C2D7
330
1F
100
AcDbEntity
  8
実線
100
AcDbLine
 10
2221.382530492371
 20
-1593.905284407703
 30
0.0
 11
2219.382530492369
 21
-1593.905284407703
 31
0.0
  0
LINE
  5
2C2D8
330
1F
100
AcDbEntity
  8
実線
100
AcDbLine
 10
2219.382530492369
 20
-1592.605284407703
 30
0.0
 11
2221.382530492371
 21
-1592.605284407703
 31
0.0
  0
LINE
  5
2C2D9
330
1F
100
AcDbEntity
  8
実線
100
AcDbLine
 10
2221.882530492369
 20
-1589.405284407703
 30
0.0
 11
2221.382530492371
 21
-1589.405284407703
 31
0.0
  0
ARC
  5
2C2DA
330
1F
100
AcDbEntity
  8
実線
100
AcDbCircle
 10
2221.882530492369
 20
-1589.905284407703
 30
0.0
 40
0.5
100
AcDbArc
 50
0.0
 51
90.0
  0
ARC
  5
2C2DB
330
1F
100
AcDbEntity
  8
実線
100
AcDbCircle
 10
2231.537052004975
 20
-1589.859805920307
 30
0.0
 40
0.545478487396098
100
AcDbArc
 50
270.0
 51
79.81477213708254
  0
LINE
  5
2C2DC
330
1F
100
AcDbEntity
  8
実線
100
AcDbLine
 10
2233.582530492371
 20
-1587.105284407703
 30
0.0
 11
2227.88253049237
 21
-1587.105284407703
 31
0.0
  0
LINE
  5
2C2DD
330
1F
100
AcDbEntity
  8
実線
 48
10.0
100
AcDbLine
 10
1867.382530492371
 20
-1513.255284407702
 30
0.0
 11
2171.382530492369
 21
-1513.255284407702
 31
0.0
  0
LINE
  5
2C2DE
330
1F
100
AcDbEntity
  8
中心線
 48
0.5
100
AcDbLine
 10
2319.280198836408
 20
-1508.019823770177
 30
0.0
 11
2319.280198836408
 21
-1610.992438747289
 31
0.0
  0
LINE
  5
2C2DF
330
1F
100
AcDbEntity
  8
実線
100
AcDbLine
 10
2316.130198836409
 20
-1513.255284407702
 30
0.0
 11
2316.130198836409
 21
-1578.755284407701
 31
0.0
  0
LINE
  5
2C2E0
330
1F
100
AcDbEntity
  8
実線
100
AcDbLine
 10
2322.430198836408
 20
-1513.255284407702
 30
0.0
 11
2322.430198836408
 21
-1578.755284407701
 31
0.0
  0
LINE
  5
2C2E1
330
1F
100
AcDbEntity
  8
実線
 48
0.2
100
AcDbLine
 10
2331.780198836409
 20
-1581.255284407703
 30
0.0
 11
2331.780198836409
 21
-1605.255284407703
 31
0.0
  0
LINE
  5
2C2E2
330
1F
100
AcDbEntity
  8
実線
 48
0.2
100
AcDbLine
 10
2306.780198836409
 20
-1605.255284407703
 30
0.0
 11
2306.780198836409
 21
-1581.255284407703
 31
0.0
  0
LINE
  5
2C2E3
330
1F
100
AcDbEntity
  8
破線
 48
0.2
100
AcDbLine
 10
2306.780198836409
 20
-1597.755284407702
 30
0.0
 11
2312.780198836409
 21
-1597.755284407702
 31
0.0
  0
LINE
  5
2C2E4
330
1F
100
AcDbEntity
  8
破線
 48
0.2
100
AcDbLine
 10
2306.780198836409
 20
-1598.155284407703
 30
0.0
 11
2313.530198836409
 21
-1598.155284407703
 31
0.0
  0
LINE
  5
2C2E5
330
1F
100
AcDbEntity
  8
破線
 48
0.2
100
AcDbLine
 10
2306.780198836409
 20
-1601.755284407703
 30
0.0
 11
2312.780198836409
 21
-1601.755284407703
 31
0.0
  0
LINE
  5
2C2E6
330
1F
100
AcDbEntity
  8
破線
 48
0.2
100
AcDbLine
 10
2306.780198836409
 20
-1601.355284407703
 30
0.0
 11
2313.530198836409
 21
-1601.355284407703
 31
0.0
  0
LINE
  5
2C2E7
330
1F
100
AcDbEntity
  8
中心線
 48
0.5
100
AcDbLine
 10
2332.77167715807
 20
-1599.755284407702
 30
0.0
 11
2306.010081230901
 21
-1599.755284407702
 31
0.0
  0
LINE
  5
2C2E8
330
1F
100
AcDbEntity
  8
実線
 48
0.2
100
AcDbLine
 10
2307.280198836409
 20
-1605.755284407702
 30
0.0
 11
2331.280198836409
 21
-1605.755284407702
 31
0.0
  0
LINE
  5
2C2E9
330
1F
100
AcDbEntity
  8
実線
 48
0.2
100
AcDbLine
 10
2307.280198836409
 20
-1605.755284407702
 30
0.0
 11
2306.780198836409
 21
-1605.255284407703
 31
0.0
  0
LINE
  5
2C2EA
330
1F
100
AcDbEntity
  8
実線
100
AcDbLine
 10
2245.082530492371
 20
-1599.305284407702
 30
0.0
 11
2245.082530492371
 21
-1595.865284407703
 31
0.0
  0
LINE
  5
2C2EB
330
1F
100
AcDbEntity
  8
実線
 48
0.2
100
AcDbLine
 10
2322.080198836407
 20
-1599.255284407703
 30
0.0
 11
2315.980198836407
 21
-1599.255284407703
 31
0.0
  0
ARC
  5
2C2EC
330
1F
100
AcDbEntity
  8
実線
 48
0.2
100
AcDbCircle
 10
2315.980198836407
 20
-1598.255284407701
 30
0.0
 40
1.0
100
AcDbArc
 50
180.0
 51
270.0
  0
ARC
  5
2C2ED
330
1F
100
AcDbEntity
  8
実線
 48
0.2
100
AcDbCircle
 10
2322.080198836407
 20
-1598.255284407701
 30
0.0
 40
1.0
100
AcDbArc
 50
270.0
 51
0.0
  0
LINE
  5
2C2EE
330
1F
100
AcDbEntity
  8
破線
 48
0.2
100
AcDbLine
 10
2325.780198836409
 20
-1601.755284407703
 30
0.0
 11
2325.780198836409
 21
-1597.755284407702
 31
0.0
  0
LINE
  5
2C2EF
330
1F
100
AcDbEntity
  8
破線
 48
0.2
100
AcDbLine
 10
2325.780198836409
 20
-1601.755284407703
 30
0.0
 11
2325.780198836409
 21
-1597.755284407702
 31
0.0
  0
LINE
  5
2C2F0
330
1F
100
AcDbEntity
  8
破線
 48
0.2
100
AcDbLine
 10
2325.030198836409
 20
-1598.155284407703
 30
0.0
 11
2325.030198836409
 21
-1601.355284407703
 31
0.0
  0
LINE
  5
2C2F1
330
1F
100
AcDbEntity
  8
破線
 48
0.2
100
AcDbLine
 10
2324.106438405705
 20
-1599.755284407702
 30
0.0
 11
2325.030198836409
 21
-1598.155284407703
 31
0.0
  0
LINE
  5
2C2F2
330
1F
100
AcDbEntity
  8
破線
 48
0.2
100
AcDbLine
 10
2324.106438405705
 20
-1599.755284407702
 30
0.0
 11
2325.030198836409
 21
-1601.355284407703
 31
0.0
  0
LINE
  5
2C2F3
330
1F
100
AcDbEntity
  8
破線
 48
0.2
100
AcDbLine
 10
2325.780198836409
 20
-1597.755284407702
 30
0.0
 11
2325.08737851338
 21
-1598.155284407703
 31
0.0
  0
LINE
  5
2C2F4
330
1F
100
AcDbEntity
  8
破線
 48
0.2
100
AcDbLine
 10
2325.780198836409
 20
-1597.755284407702
 30
0.0
 11
2325.08737851338
 21
-1598.155284407703
 31
0.0
  0
LINE
  5
2C2F5
330
1F
100
AcDbEntity
  8
破線
 48
0.2
100
AcDbLine
 10
2325.780198836409
 20
-1601.755284407703
 30
0.0
 11
2325.08737851338
 21
-1601.355284407703
 31
0.0
  0
LINE
  5
2C2F6
330
1F
100
AcDbEntity
  8
破線
 48
0.2
100
AcDbLine
 10
2325.780198836409
 20
-1601.755284407703
 30
0.0
 11
2325.08737851338
 21
-1601.355284407703
 31
0.0
  0
LINE
  5
2C2F7
330
1F
100
AcDbEntity
  8
破線
 48
0.2
100
AcDbLine
 10
2331.780198836409
 20
-1597.755284407702
 30
0.0
 11
2325.780198836409
 21
-1597.755284407702
 31
0.0
  0
LINE
  5
2C2F8
330
1F
100
AcDbEntity
  8
破線
 48
0.2
100
AcDbLine
 10
2331.780198836409
 20
-1601.755284407703
 30
0.0
 11
2325.780198836409
 21
-1601.755284407703
 31
0.0
  0
LINE
  5
2C2F9
330
1F
100
AcDbEntity
  8
破線
 48
0.2
100
AcDbLine
 10
2331.780198836409
 20
-1598.155284407703
 30
0.0
 11
2325.030198836409
 21
-1598.155284407703
 31
0.0
  0
LINE
  5
2C2FA
330
1F
100
AcDbEntity
  8
破線
 48
0.2
100
AcDbLine
 10
2331.780198836409
 20
-1601.355284407703
 30
0.0
 11
2325.030198836409
 21
-1601.355284407703
 31
0.0
  0
LINE
  5
2C2FB
330
1F
100
AcDbEntity
  8
実線
 48
0.2
100
AcDbLine
 10
2331.780198836409
 20
-1605.255284407703
 30
0.0
 11
2331.280198836409
 21
-1605.755284407702
 31
0.0
  0
LINE
  5
2C2FC
330
1F
100
AcDbEntity
  8
破線
 48
0.2
100
AcDbLine
 10
2312.780198836409
 20
-1597.755284407702
 30
0.0
 11
2313.473019159436
 21
-1598.155284407703
 31
0.0
  0
LINE
  5
2C2FD
330
1F
100
AcDbEntity
  8
破線
 48
0.2
100
AcDbLine
 10
2312.780198836409
 20
-1597.755284407702
 30
0.0
 11
2313.473019159436
 21
-1598.155284407703
 31
0.0
  0
LINE
  5
2C2FE
330
1F
100
AcDbEntity
  8
破線
 48
0.2
100
AcDbLine
 10
2312.780198836409
 20
-1601.755284407703
 30
0.0
 11
2312.780198836409
 21
-1597.755284407702
 31
0.0
  0
LINE
  5
2C2FF
330
1F
100
AcDbEntity
  8
破線
 48
0.2
100
AcDbLine
 10
2312.780198836409
 20
-1601.755284407703
 30
0.0
 11
2312.780198836409
 21
-1597.755284407702
 31
0.0
  0
LINE
  5
2C300
330
1F
100
AcDbEntity
  8
破線
 48
0.2
100
AcDbLine
 10
2313.530198836409
 20
-1598.155284407703
 30
0.0
 11
2313.530198836409
 21
-1601.355284407703
 31
0.0
  0
LINE
  5
2C301
330
1F
100
AcDbEntity
  8
破線
 48
0.2
100
AcDbLine
 10
2312.780198836409
 20
-1601.755284407703
 30
0.0
 11
2313.473019159436
 21
-1601.355284407703
 31
0.0
  0
LINE
  5
2C302
330
1F
100
AcDbEntity
  8
破線
 48
0.2
100
AcDbLine
 10
2312.780198836409
 20
-1601.755284407703
 30
0.0
 11
2313.473019159436
 21
-1601.355284407703
 31
0.0
  0
LINE
  5
2C303
330
1F
100
AcDbEntity
  8
破線
 48
0.2
100
AcDbLine
 10
2314.453959267112
 20
-1599.755284407702
 30
0.0
 11
2313.530198836409
 21
-1598.155284407703
 31
0.0
  0
LINE
  5
2C304
330
1F
100
AcDbEntity
  8
破線
 48
0.2
100
AcDbLine
 10
2314.453959267112
 20
-1599.755284407702
 30
0.0
 11
2313.530198836409
 21
-1601.355284407703
 31
0.0
  0
LINE
  5
2C305
330
1F
100
AcDbEntity
  8
実線
 48
0.2
100
AcDbLine
 10
2314.980198836408
 20
-1580.755284407703
 30
0.0
 11
2307.280198836409
 21
-1580.755284407703
 31
0.0
  0
LINE
  5
2C306
330
1F
100
AcDbEntity
  8
実線
 48
0.2
100
AcDbLine
 10
2307.280198836409
 20
-1580.755284407703
 30
0.0
 11
2306.780198836409
 21
-1581.255284407703
 31
0.0
  0
LINE
  5
2C307
330
1F
100
AcDbEntity
  8
実線
100
AcDbLine
 10
2245.082530492371
 20
-1594.745284407703
 30
0.0
 11
2245.082530492371
 21
-1591.305284407702
 31
0.0
  0
LINE
  5
2C308
330
1F
100
AcDbEntity
  8
実線
100
AcDbLine
 10
2239.082530492371
 20
-1588.105284407703
 30
0.0
 11
2238.082530492371
 21
-1587.105284407703
 31
0.0
  0
LINE
  5
2C309
330
1F
100
AcDbEntity
  8
実線
100
AcDbLine
 10
2238.082530492371
 20
-1589.905284407703
 30
0.0
 11
2239.082530492371
 21
-1588.905284407703
 31
0.0
  0
LINE
  5
2C30A
330
1F
100
AcDbEntity
  8
実線
100
AcDbLine
 10
2239.082530492371
 20
-1588.905284407703
 30
0.0
 11
2239.082530492371
 21
-1588.105284407703
 31
0.0
  0
LINE
  5
2C30B
330
1F
100
AcDbEntity
  8
実線
100
AcDbLine
 10
2237.08253049237
 20
-1587.105284407703
 30
0.0
 11
2236.68253049237
 21
-1587.105284407703
 31
0.0
  0
LINE
  5
2C30C
330
1F
100
AcDbEntity
  8
実線
100
AcDbLine
 10
2236.68253049237
 20
-1587.105284407703
 30
0.0
 11
2236.082530492371
 21
-1586.505284407702
 31
0.0
  0
LINE
  5
2C30D
330
1F
100
AcDbEntity
  8
実線
100
AcDbLine
 10
2237.08253049237
 20
-1588.105284407703
 30
0.0
 11
2237.08253049237
 21
-1587.105284407703
 31
0.0
  0
LINE
  5
2C30E
330
1F
100
AcDbEntity
  8
実線
100
AcDbLine
 10
2237.08253049237
 20
-1588.905284407703
 30
0.0
 11
2237.08253049237
 21
-1589.905284407703
 31
0.0
  0
LINE
  5
2C30F
330
1F
100
AcDbEntity
  8
実線
100
AcDbLine
 10
2238.082530492371
 20
-1587.105284407703
 30
0.0
 11
2237.08253049237
 21
-1587.105284407703
 31
0.0
  0
LINE
  5
2C310
330
1F
100
AcDbEntity
  8
実線
100
AcDbLine
 10
2237.08253049237
 20
-1589.905284407703
 30
0.0
 11
2238.082530492371
 21
-1589.905284407703
 31
0.0
  0
LINE
  5
2C311
330
1F
100
AcDbEntity
  8
実線
100
AcDbLine
 10
2324.430198836409
 20
-1580.755284407703
 30
0.0
 11
2322.430198836408
 21
-1578.755284407701
 31
0.0
  0
LINE
  5
2C312
330
1F
100
AcDbEntity
  8
実線
 48
0.2
100
AcDbLine
 10
2331.280198836409
 20
-1580.755284407703
 30
0.0
 11
2323.080198836407
 21
-1580.755284407703
 31
0.0
  0
LINE
  5
2C313
330
1F
100
AcDbEntity
  8
実線
 48
0.2
100
AcDbLine
 10
2331.280198836409
 20
-1580.755284407703
 30
0.0
 11
2331.780198836409
 21
-1581.255284407703
 31
0.0
  0
LINE
  5
2C314
330
1F
100
AcDbEntity
  8
実線
100
AcDbLine
 10
2314.130198836408
 20
-1580.755284407703
 30
0.0
 11
2316.130198836409
 21
-1578.755284407701
 31
0.0
  0
LINE
  5
2C315
330
1F
100
AcDbEntity
  8
実線
100
AcDbLine
 10
2322.430198836408
 20
-1513.255284407702
 30
0.0
 11
2316.130198836408
 21
-1513.255284407702
 31
0.0
  0
LINE
  5
2C317
330
1F
100
AcDbEntity
  8
実線
 48
10.0
100
AcDbLine
 10
2323.080198836407
 20
-1587.755284407704
 30
0.0
 11
2325.080198836408
 21
-1587.755284407704
 31
0.0
  0
LINE
  5
2C318
330
1F
100
AcDbEntity
  8
実線
 48
10.0
100
AcDbLine
 10
2323.080198836407
 20
-1580.755284407703
 30
0.0
 11
2323.080198836407
 21
-1587.755284407704
 31
0.0
  0
LINE
  5
2C319
330
1F
100
AcDbEntity
  8
実線
 48
10.0
100
AcDbLine
 10
2325.080198836408
 20
-1591.755284407702
 30
0.0
 11
2325.080198836408
 21
-1587.755284407704
 31
0.0
  0
LINE
  5
2C31A
330
1F
100
AcDbEntity
  8
実線
 48
10.0
100
AcDbLine
 10
2323.080198836407
 20
-1591.755284407702
 30
0.0
 11
2325.080198836408
 21
-1591.755284407702
 31
0.0
  0
LINE
  5
2C31B
330
1F
100
AcDbEntity
  8
実線
 48
10.0
100
AcDbLine
 10
2314.980198836408
 20
-1591.755284407702
 30
0.0
 11
2312.980198836407
 21
-1591.755284407702
 31
0.0
  0
LINE
  5
2C31C
330
1F
100
AcDbEntity
  8
実線
 48
10.0
100
AcDbLine
 10
2312.980198836407
 20
-1591.755284407702
 30
0.0
 11
2312.980198836407
 21
-1587.755284407704
 31
0.0
  0
LINE
  5
2C31D
330
1F
100
AcDbEntity
  8
実線
 48
10.0
100
AcDbLine
 10
2314.980198836408
 20
-1587.755284407704
 30
0.0
 11
2312.980198836407
 21
-1587.755284407704
 31
0.0
  0
LINE
  5
2C31E
330
1F
100
AcDbEntity
  8
実線
 48
10.0
100
AcDbLine
 10
2314.980198836408
 20
-1580.755284407703
 30
0.0
 11
2314.980198836408
 21
-1587.755284407704
 31
0.0
  0
LINE
  5
2C31F
330
1F
100
AcDbEntity
  8
実線
 48
10.0
100
AcDbLine
 10
2314.980198836408
 20
-1591.755284407702
 30
0.0
 11
2314.980198836408
 21
-1598.255284407701
 31
0.0
  0
LINE
  5
2C320
330
1F
100
AcDbEntity
  8
実線
 48
10.0
100
AcDbLine
 10
2323.080198836407
 20
-1591.755284407702
 30
0.0
 11
2323.080198836407
 21
-1598.255284407701
 31
0.0
  0
LINE
  5
2C321
102
{ACAD_REACTORS
330
2C5D3
102
}
330
1F
100
AcDbEntity
  8
２点鎖線
 48
5.0
100
AcDbLine
 10
2310.280198836407
 20
-1496.755284407703
 30
0.0
 11
2305.780198836408
 21
-1496.755284407703
 31
0.0
  0
LINE
  5
2C322
102
{ACAD_REACTORS
330
2C5D3
102
}
330
1F
100
AcDbEntity
  8
２点鎖線
 48
5.0
100
AcDbLine
 10
2310.280198836408
 20
-1499.755284407704
 30
0.0
 11
2305.780198836408
 21
-1499.755284407704
 31
0.0
  0
LINE
  5
2C323
102
{ACAD_REACTORS
330
2C5D3
102
}
330
1F
100
AcDbEntity
  8
２点鎖線
 48
5.0
100
AcDbLine
 10
2310.280198836408
 20
-1509.755284407702
 30
0.0
 11
2305.780198836408
 21
-1509.755284407702
 31
0.0
  0
LINE
  5
2C324
102
{ACAD_REACTORS
330
2C5D3
102
}
330
1F
100
AcDbEntity
  8
２点鎖線
 48
5.0
100
AcDbLine
 10
2305.780198836408
 20
-1578.755284407701
 30
0.0
 11
2310.280198836408
 21
-1578.755284407701
 31
0.0
  0
LINE
  5
2C325
102
{ACAD_REACTORS
330
2C5D3
102
}
330
1F
100
AcDbEntity
  8
中心線
 48
0.5
100
AcDbLine
 10
2334.780198836408
 20
-1504.755284407703
 30
0.0
 11
2303.780198836406
 21
-1504.755284407703
 31
0.0
  0
LINE
  5
2C326
102
{ACAD_REACTORS
330
2C5D3
102
}
330
1F
100
AcDbEntity
  8
２点鎖線
 48
5.0
100
AcDbLine
 10
2305.780198836408
 20
-1578.755284407701
 30
0.0
 11
2305.780198836408
 21
-1496.755284407703
 31
0.0
  0
LINE
  5
2C327
102
{ACAD_REACTORS
330
2C5D3
102
}
330
1F
100
AcDbEntity
  8
２点鎖線
 48
5.0
100
AcDbLine
 10
2332.780198836408
 20
-1578.755284407701
 30
0.0
 11
2332.780198836408
 21
-1496.755284407703
 31
0.0
  0
LINE
  5
2C328
102
{ACAD_REACTORS
330
2C5D3
102
}
330
1F
100
AcDbEntity
  8
２点鎖線
 48
5.0
100
AcDbLine
 10
2323.230198836407
 20
-1528.055284407701
 30
0.0
 11
2323.230198836407
 21
-1578.455284407703
 31
0.0
  0
LINE
  5
2C329
102
{ACAD_REACTORS
330
2C5D3
102
}
330
1F
100
AcDbEntity
  8
２点鎖線
 48
5.0
100
AcDbLine
 10
2328.280198836408
 20
-1528.255284407704
 30
0.0
 11
2328.280198836408
 21
-1578.255284407704
 31
0.0
  0
LINE
  5
2C32A
102
{ACAD_REACTORS
330
2C5D3
102
}
330
1F
100
AcDbEntity
  8
２点鎖線
 48
5.0
100
AcDbLine
 10
2328.280198836408
 20
-1578.755284407701
 30
0.0
 11
2328.280198836408
 21
-1523.155284407704
 31
0.0
  0
LINE
  5
2C32B
102
{ACAD_REACTORS
330
2C5D3
102
}
330
1F
100
AcDbEntity
  8
２点鎖線
 48
5.0
100
AcDbLine
 10
2315.330198836407
 20
-1528.055284407701
 30
0.0
 11
2315.330198836409
 21
-1578.455284407703
 31
0.0
  0
LINE
  5
2C32C
102
{ACAD_REACTORS
330
2C5D3
102
}
330
1F
100
AcDbEntity
  8
２点鎖線
 48
5.0
100
AcDbLine
 10
2310.280198836408
 20
-1528.255284407704
 30
0.0
 11
2310.280198836408
 21
-1578.255284407704
 31
0.0
  0
LINE
  5
2C32D
102
{ACAD_REACTORS
330
2C5D3
102
}
330
1F
100
AcDbEntity
  8
２点鎖線
 48
5.0
100
AcDbLine
 10
2310.280198836408
 20
-1578.755284407701
 30
0.0
 11
2310.280198836407
 21
-1523.155284407704
 31
0.0
  0
LINE
  5
2C32E
102
{ACAD_REACTORS
330
2C5D3
102
}
330
1F
100
AcDbEntity
  8
２点鎖線
 48
5.0
100
AcDbLine
 10
2323.230198836407
 20
-1578.455284407703
 30
0.0
 11
2328.280198836408
 21
-1578.455284407703
 31
0.0
  0
LINE
  5
2C32F
102
{ACAD_REACTORS
330
2C5D3
102
}
330
1F
100
AcDbEntity
  8
２点鎖線
 48
5.0
100
AcDbLine
 10
2315.330198836409
 20
-1578.455284407703
 30
0.0
 11
2310.280198836408
 21
-1578.455284407703
 31
0.0
  0
LINE
  5
2C330
102
{ACAD_REACTORS
330
2C5D3
102
}
330
1F
100
AcDbEntity
  8
２点鎖線
 48
5.0
100
AcDbLine
 10
2332.780198836408
 20
-1578.755284407701
 30
0.0
 11
2328.280198836408
 21
-1578.755284407701
 31
0.0
  0
LINE
  5
2C331
102
{ACAD_REACTORS
330
2C5D3
102
}
330
1F
100
AcDbEntity
  8
２点鎖線
 48
5.0
100
AcDbLine
 10
2328.280198836405
 20
-1523.155284407704
 30
0.0
 11
2323.380198836408
 21
-1523.155284407704
 31
0.0
  0
LINE
  5
2C332
102
{ACAD_REACTORS
330
2C5D3
102
}
330
1F
100
AcDbEntity
  8
２点鎖線
 48
5.0
100
AcDbLine
 10
2323.230198836407
 20
-1528.055284407701
 30
0.0
 11
2328.280198836408
 21
-1528.055284407701
 31
0.0
  0
LINE
  5
2C333
102
{ACAD_REACTORS
330
2C5D3
102
}
330
1F
100
AcDbEntity
  8
２点鎖線
 48
5.0
100
AcDbLine
 10
2323.380198836408
 20
-1511.155284407704
 30
0.0
 11
2315.180198836408
 21
-1511.155284407704
 31
0.0
  0
LINE
  5
2C334
102
{ACAD_REACTORS
330
2C5D3
102
}
330
1F
100
AcDbEntity
  8
２点鎖線
 48
5.0
100
AcDbLine
 10
2315.180198836408
 20
-1523.155284407704
 30
0.0
 11
2310.280198836407
 21
-1523.155284407704
 31
0.0
  0
LINE
  5
2C335
102
{ACAD_REACTORS
330
2C5D3
102
}
330
1F
100
AcDbEntity
  8
２点鎖線
 48
5.0
100
AcDbLine
 10
2315.330198836407
 20
-1528.055284407701
 30
0.0
 11
2310.280198836408
 21
-1528.055284407701
 31
0.0
  0
LINE
  5
2C336
102
{ACAD_REACTORS
330
2C5D3
102
}
330
1F
100
AcDbEntity
  8
２点鎖線
 48
5.0
100
AcDbLine
 10
2315.180198836408
 20
-1511.155284407704
 30
0.0
 11
2315.180198836408
 21
-1523.155284407704
 31
0.0
  0
LINE
  5
2C337
102
{ACAD_REACTORS
330
2C5D3
102
}
330
1F
100
AcDbEntity
  8
２点鎖線
 48
5.0
100
AcDbLine
 10
2323.380198836408
 20
-1511.155284407704
 30
0.0
 11
2323.380198836408
 21
-1523.155284407704
 31
0.0
  0
LINE
  5
2C338
102
{ACAD_REACTORS
330
2C5D3
102
}
330
1F
100
AcDbEntity
  8
２点鎖線
 48
5.0
100
AcDbLine
 10
2328.280198836408
 20
-1497.155284407702
 30
0.0
 11
2310.280198836407
 21
-1497.155284407702
 31
0.0
  0
LINE
  5
2C339
102
{ACAD_REACTORS
330
2C5D3
102
}
330
1F
100
AcDbEntity
  8
２点鎖線
 48
5.0
100
AcDbLine
 10
2328.280198836408
 20
-1501.755284407702
 30
0.0
 11
2310.280198836407
 21
-1501.755284407702
 31
0.0
  0
LINE
  5
2C33A
102
{ACAD_REACTORS
330
2C5D3
102
}
330
1F
100
AcDbEntity
  8
２点鎖線
 48
5.0
100
AcDbLine
 10
2328.280198836408
 20
-1507.755284407704
 30
0.0
 11
2310.280198836407
 21
-1507.755284407704
 31
0.0
  0
LINE
  5
2C33B
102
{ACAD_REACTORS
330
2C5D3
102
}
330
1F
100
AcDbEntity
  8
２点鎖線
 48
5.0
100
AcDbLine
 10
2310.280198836407
 20
-1496.755284407703
 30
0.0
 11
2310.280198836407
 21
-1497.155284407702
 31
0.0
  0
LINE
  5
2C33C
102
{ACAD_REACTORS
330
2C5D3
102
}
330
1F
100
AcDbEntity
  8
２点鎖線
 48
5.0
100
AcDbLine
 10
2310.280198836408
 20
-1509.755284407702
 30
0.0
 11
2310.280198836408
 21
-1499.755284407704
 31
0.0
  0
LINE
  5
2C33D
102
{ACAD_REACTORS
330
2C5D3
102
}
330
1F
100
AcDbEntity
  8
２点鎖線
 48
5.0
100
AcDbLine
 10
2328.280198836408
 20
-1496.755284407703
 30
0.0
 11
2328.280198836408
 21
-1497.155284407702
 31
0.0
  0
LINE
  5
2C33E
102
{ACAD_REACTORS
330
2C5D3
102
}
330
1F
100
AcDbEntity
  8
２点鎖線
 48
5.0
100
AcDbLine
 10
2332.780198836408
 20
-1496.755284407703
 30
0.0
 11
2328.280198836408
 21
-1496.755284407703
 31
0.0
  0
LINE
  5
2C33F
102
{ACAD_REACTORS
330
2C5D3
102
}
330
1F
100
AcDbEntity
  8
２点鎖線
 48
5.0
100
AcDbLine
 10
2332.780198836408
 20
-1499.755284407704
 30
0.0
 11
2328.280198836408
 21
-1499.755284407704
 31
0.0
  0
LINE
  5
2C340
102
{ACAD_REACTORS
330
2C5D3
102
}
330
1F
100
AcDbEntity
  8
２点鎖線
 48
5.0
100
AcDbLine
 10
2332.780198836408
 20
-1509.755284407702
 30
0.0
 11
2328.280198836408
 21
-1509.755284407702
 31
0.0
  0
LINE
  5
2C341
102
{ACAD_REACTORS
330
2C5D3
102
}
330
1F
100
AcDbEntity
  8
２点鎖線
 48
5.0
100
AcDbLine
 10
2328.280198836408
 20
-1509.755284407702
 30
0.0
 11
2328.280198836408
 21
-1499.755284407704
 31
0.0
  0
LINE
  5
2C34D
102
{ACAD_REACTORS
330
2C5D4
102
}
330
1F
100
AcDbEntity
  8
実線
 48
0.2
100
AcDbLine
 10
2171.882530492371
 20
-1732.628524325445
 30
0.0
 11
1866.882530492372
 21
-1732.628524325445
 31
0.0
  0
LINE
  5
2C34E
102
{ACAD_REACTORS
330
2C5D4
102
}
330
1F
100
AcDbEntity
  8
実線
 48
0.2
100
AcDbLine
 10
2172.38253049237
 20
-1732.128524325445
 30
0.0
 11
2172.38253049237
 21
-1708.128524325444
 31
0.0
  0
LINE
  5
2C34F
102
{ACAD_REACTORS
330
2C5D4
102
}
330
1F
100
AcDbEntity
  8
実線
 48
0.2
100
AcDbLine
 10
2171.882530492371
 20
-1707.628524325444
 30
0.0
 11
1866.882530492372
 21
-1707.628524325444
 31
0.0
  0
LINE
  5
2C350
102
{ACAD_REACTORS
330
2C5D4
102
}
330
1F
100
AcDbEntity
  8
実線
 48
0.2
100
AcDbLine
 10
2171.882530492371
 20
-1707.628524325444
 30
0.0
 11
2172.38253049237
 21
-1708.128524325444
 31
0.0
  0
LINE
  5
2C351
102
{ACAD_REACTORS
330
2C5D4
102
}
330
1F
100
AcDbEntity
  8
実線
 48
0.2
100
AcDbLine
 10
2172.38253049237
 20
-1732.128524325445
 30
0.0
 11
2171.882530492371
 21
-1732.628524325445
 31
0.0
  0
LINE
  5
2C352
102
{ACAD_REACTORS
330
2C5D4
102
}
330
1F
100
AcDbEntity
  8
中心線
 48
0.5
100
AcDbLine
 10
2188.204466140267
 20
-1720.128524325445
 30
0.0
 11
1861.382530492371
 21
-1720.128524325445
 31
0.0
  0
LINE
  5
2C355
102
{ACAD_REACTORS
330
2C5D5
102
}
330
1F
100
AcDbEntity
  8
0
100
AcDbLine
 10
2146.882530492371
 20
-1714.128524325445
 30
0.0
 11
2112.882530492369
 21
-1714.128524325445
 31
0.0
  0
LINE
  5
2C356
102
{ACAD_REACTORS
330
2C5D5
102
}
330
1F
100
AcDbEntity
  8
0
100
AcDbLine
 10
2112.382530492371
 20
-1721.128524325444
 30
0.0
 11
2147.382530492369
 21
-1721.128524325444
 31
0.0
  0
LINE
  5
2C357
102
{ACAD_REACTORS
330
2C5D5
102
}
330
1F
100
AcDbEntity
  8
0
100
AcDbLine
 10
2112.882530492369
 20
-1726.128524325444
 30
0.0
 11
2146.882530492371
 21
-1726.128524325444
 31
0.0
  0
LINE
  5
2C358
102
{ACAD_REACTORS
330
2C5D5
102
}
330
1F
100
AcDbEntity
  8
0
100
AcDbLine
 10
2112.382530492371
 20
-1714.628524325445
 30
0.0
 11
2112.382530492371
 21
-1725.628524325443
 31
0.0
  0
ARC
  5
2C359
102
{ACAD_REACTORS
330
2C5D5
102
}
330
1F
100
AcDbEntity
  8
0
100
AcDbCircle
 10
2112.882530492369
 20
-1714.628524325445
 30
0.0
 40
0.5
100
AcDbArc
 50
90.0
 51
180.0
  0
ARC
  5
2C35A
102
{ACAD_REACTORS
330
2C5D5
102
}
330
1F
100
AcDbEntity
  8
0
100
AcDbCircle
 10
2112.882530492369
 20
-1725.628524325443
 30
0.0
 40
0.5
100
AcDbArc
 50
180.0
 51
270.0
  0
LINE
  5
2C367
102
{ACAD_REACTORS
330
2C5D5
102
}
330
1F
100
AcDbEntity
  8
0
100
AcDbLine
 10
2147.382530492369
 20
-1725.628524325443
 30
0.0
 11
2147.382530492369
 21
-1714.628524325445
 31
0.0
  0
ARC
  5
2C368
102
{ACAD_REACTORS
330
2C5D5
102
}
330
1F
100
AcDbEntity
  8
0
100
AcDbCircle
 10
2146.882530492371
 20
-1714.628524325445
 30
0.0
 40
0.5
100
AcDbArc
 50
0.0
 51
90.0
  0
ARC
  5
2C369
102
{ACAD_REACTORS
330
2C5D5
102
}
330
1F
100
AcDbEntity
  8
0
100
AcDbCircle
 10
2146.882530492371
 20
-1725.628524325443
 30
0.0
 40
0.5
100
AcDbArc
 50
270.0
 51
0.0
  0
LWPOLYLINE
  5
2C377
102
{ACAD_REACTORS
330
2C5D6
102
}
330
1F
100
AcDbEntity
  8
0
100
AcDbPolyline
 90
        8
 70
     1
 43
0.0
 10
2152.882530492369
 20
-1725.128524325445
 10
2166.882530492368
 20
-1725.128524325445
 42
0.4142135623730951
 10
2167.382530492369
 20
-1724.628524325444
 10
2167.382530492369
 20
-1715.628524325444
 42
0.4142135623730951
 10
2166.882530492368
 20
-1715.128524325445
 10
2152.882530492369
 20
-1715.128524325445
 42
0.4142135623730996
 10
2152.382530492368
 20
-1715.628524325444
 10
2152.382530492368
 20
-1724.628524325444
 42
0.4142135623730904
  0
LINE
  5
2C378
102
{ACAD_REACTORS
330
2C5D6
102
}
330
1F
100
AcDbEntity
  8
0
100
AcDbLine
 10
2152.382530492368
 20
-1719.128524325444
 30
0.0
 11
2167.382530492369
 21
-1719.128524325444
 31
0.0
  0
LINE
  5
2C383
102
{ACAD_REACTORS
330
2C5D7
102
}
330
1F
100
AcDbEntity
  8
２点鎖線
 48
5.0
100
AcDbLine
 10
2172.38253049237
 20
-1590.755284407705
 30
0.0
 11
2172.382530492367
 21
-1544.755284407703
 31
0.0
  0
LINE
  5
2C384
102
{ACAD_REACTORS
330
2C5D7
102
}
330
1F
100
AcDbEntity
  8
２点鎖線
 48
5.0
100
AcDbLine
 10
2195.38253049236
 20
-1544.755284407703
 30
0.0
 11
2195.382530492365
 21
-1590.755284407705
 31
0.0
  0
LINE
  5
2C385
102
{ACAD_REACTORS
330
2C5D7
102
}
330
1F
100
AcDbEntity
  8
２点鎖線
 48
5.0
100
AcDbLine
 10
2172.382530492368
 20
-1590.755284407705
 30
0.0
 11
2195.382530492365
 21
-1590.755284407705
 31
0.0
  0
LWPOLYLINE
  5
2C386
102
{ACAD_REACTORS
330
2C5D7
102
}
330
1F
100
AcDbEntity
  8
２点鎖線
 48
5.0
100
AcDbPolyline
 90
        5
 70
     0
 43
0.0
 10
2195.382530492364
 20
-1580.755284407705
 10
2195.882530492368
 20
-1580.755284407705
 10
2195.882530492368
 20
-1597.755284407702
 10
2172.38253049237
 20
-1597.755284407702
 10
2172.38253049237
 20
-1590.755284407705
  0
SPLINE
  5
2C387
102
{ACAD_REACTORS
330
2C5D7
102
}
330
1F
100
AcDbEntity
  8
２点鎖線
 48
5.0
100
AcDbSpline
210
0.0
220
0.0
230
1.0
 70
     8
 71
     3
 72
    11
 73
     7
 74
     0
 42
0.0000000001
 43
0.0000000001
 40
0.7400739024284913
 40
0.7400739024284913
 40
0.7400739024284913
 40
0.7400739024284913
 40
1.581138830084188
 40
3.162277660168379
 40
5.320980974660691
 40
6.163181696929322
 40
6.163181696929322
 40
6.163181696929322
 40
6.163181696929322
 10
2211.710673052615
 20
-1586.890621388928
 30
0.0
 10
2211.606326287438
 20
-1586.624470571553
 30
0.0
 10
2211.404292377415
 20
-1585.85912308924
 30
0.0
 10
2212.168115165541
 20
-1584.425032055527
 30
0.0
 10
2212.707741857048
 20
-1582.90814541748
 30
0.0
 10
2212.435589753543
 20
-1581.956242607033
 30
0.0
 10
2212.336183410199
 20
-1581.690621388927
 30
0.0
  0
LINE
  5
2C388
102
{ACAD_REACTORS
330
2C5D7
102
}
330
1F
100
AcDbEntity
  8
２点鎖線
 48
5.0
100
AcDbLine
 10
2211.713235492401
 20
-1586.890621388929
 30
0.0
 11
2199.882530334798
 21
-1586.890621388929
 31
0.0
  0
LINE
  5
2C389
102
{ACAD_REACTORS
330
2C5D7
102
}
330
1F
100
AcDbEntity
  8
２点鎖線
 48
5.0
100
AcDbLine
 10
2212.362417502163
 20
-1581.690621388927
 30
0.0
 11
2199.882530334798
 21
-1581.690621388927
 31
0.0
  0
LINE
  5
2C38A
102
{ACAD_REACTORS
330
2C5D7
102
}
330
1F
100
AcDbEntity
  8
２点鎖線
 48
5.0
100
AcDbLine
 10
2198.382530492369
 20
-1586.880285912147
 30
0.0
 11
2195.882530492368
 21
-1586.880284407705
 31
0.0
  0
LINE
  5
2C38B
102
{ACAD_REACTORS
330
2C5D7
102
}
330
1F
100
AcDbEntity
  8
２点鎖線
 48
5.0
100
AcDbLine
 10
2198.382530492369
 20
-1581.630286213033
 30
0.0
 11
2195.882530492368
 21
-1581.630284407703
 31
0.0
  0
LINE
  5
2C38C
102
{ACAD_REACTORS
330
2C5D7
102
}
330
1F
100
AcDbEntity
  8
２点鎖線
 48
5.0
100
AcDbLine
 10
2198.382530492369
 20
-1591.630286213034
 30
0.0
 11
2195.882530492368
 21
-1591.630284407703
 31
0.0
  0
LINE
  5
2C38D
102
{ACAD_REACTORS
330
2C5D7
102
}
330
1F
100
AcDbEntity
  8
２点鎖線
 48
5.0
100
AcDbLine
 10
2195.882530492368
 20
-1581.630284407703
 30
0.0
 11
2195.882530492368
 21
-1586.880284407705
 31
0.0
  0
LINE
  5
2C38E
102
{ACAD_REACTORS
330
2C5D7
102
}
330
1F
100
AcDbEntity
  8
２点鎖線
 48
5.0
100
AcDbLine
 10
2195.882530492368
 20
-1590.755284407705
 30
0.0
 11
2195.382530492365
 21
-1590.755284407705
 31
0.0
  0
LINE
  5
2C38F
102
{ACAD_REACTORS
330
2C5D7
102
}
330
1F
100
AcDbEntity
  8
２点鎖線
 48
5.0
100
AcDbLine
 10
2198.382530492369
 20
-1586.880286213035
 30
0.0
 11
2198.882530492368
 21
-1586.630286213035
 31
0.0
  0
LINE
  5
2C390
102
{ACAD_REACTORS
330
2C5D7
102
}
330
1F
100
AcDbEntity
  8
２点鎖線
 48
5.0
100
AcDbLine
 10
2198.382530492369
 20
-1581.630286213033
 30
0.0
 11
2198.382530492369
 21
-1586.880286213035
 31
0.0
  0
LINE
  5
2C391
102
{ACAD_REACTORS
330
2C5D7
102
}
330
1F
100
AcDbEntity
  8
２点鎖線
 48
5.0
100
AcDbLine
 10
2198.882530341923
 20
-1581.880286213035
 30
0.0
 11
2198.882530492368
 21
-1586.630286213035
 31
0.0
  0
LINE
  5
2C392
102
{ACAD_REACTORS
330
2C5D7
102
}
330
1F
100
AcDbEntity
  8
２点鎖線
 48
5.0
100
AcDbLine
 10
2198.382530492369
 20
-1581.630286213033
 30
0.0
 11
2198.882530341923
 21
-1581.880286213035
 31
0.0
  0
LINE
  5
2C393
102
{ACAD_REACTORS
330
2C5D7
102
}
330
1F
100
AcDbEntity
  8
２点鎖線
 48
5.0
100
AcDbLine
 10
2198.382530492369
 20
-1586.855284407703
 30
0.0
 11
2198.382530492369
 21
-1586.880286213035
 31
0.0
  0
LINE
  5
2C394
102
{ACAD_REACTORS
330
2C5D7
102
}
330
1F
100
AcDbEntity
  8
２点鎖線
 48
5.0
100
AcDbLine
 10
2198.382530492369
 20
-1591.630286213034
 30
0.0
 11
2198.882530341923
 21
-1591.880286213035
 31
0.0
  0
LINE
  5
2C395
102
{ACAD_REACTORS
330
2C5D7
102
}
330
1F
100
AcDbEntity
  8
２点鎖線
 48
5.0
100
AcDbLine
 10
2198.382530492369
 20
-1596.880285912146
 30
0.0
 11
2195.882530492368
 21
-1596.880284407705
 31
0.0
  0
LINE
  5
2C396
102
{ACAD_REACTORS
330
2C5D7
102
}
330
1F
100
AcDbEntity
  8
２点鎖線
 48
5.0
100
AcDbLine
 10
2198.382530492369
 20
-1596.880286213035
 30
0.0
 11
2198.882530492368
 21
-1596.630286213033
 31
0.0
  0
LINE
  5
2C397
102
{ACAD_REACTORS
330
2C5D7
102
}
330
1F
100
AcDbEntity
  8
２点鎖線
 48
5.0
100
AcDbLine
 10
2195.882530492368
 20
-1591.630284407703
 30
0.0
 11
2195.882530492368
 21
-1596.880284407705
 31
0.0
  0
LINE
  5
2C398
102
{ACAD_REACTORS
330
2C5D7
102
}
330
1F
100
AcDbEntity
  8
２点鎖線
 48
5.0
100
AcDbLine
 10
2198.882530341923
 20
-1591.880286213035
 30
0.0
 11
2198.882530492368
 21
-1596.630286213033
 31
0.0
  0
LINE
  5
2C399
102
{ACAD_REACTORS
330
2C5D7
102
}
330
1F
100
AcDbEntity
  8
２点鎖線
 48
5.0
100
AcDbLine
 10
2198.382530492369
 20
-1591.630286213034
 30
0.0
 11
2198.382530492369
 21
-1596.880286213035
 31
0.0
  0
LINE
  5
2C39A
102
{ACAD_REACTORS
330
2C5D7
102
}
330
1F
100
AcDbEntity
  8
２点鎖線
 48
5.0
100
AcDbLine
 10
2172.382530492367
 20
-1544.755284407703
 30
0.0
 11
2195.382530492362
 21
-1544.755284407703
 31
0.0
  0
LINE
  5
2C39B
102
{ACAD_REACTORS
330
2C5D7
102
}
330
1F
100
AcDbEntity
  8
２点鎖線
 48
5.0
100
AcDbLine
 10
2244.592153170429
 20
-1588.090621388928
 30
0.0
 11
2249.592153170429
 21
-1588.090621388928
 31
0.0
  0
LINE
  5
2C39C
102
{ACAD_REACTORS
330
2C5D7
102
}
330
1F
100
AcDbEntity
  8
２点鎖線
 48
5.0
100
AcDbLine
 10
2244.592153170429
 20
-1580.490621388928
 30
0.0
 11
2249.592153170429
 21
-1580.490621388928
 31
0.0
  0
LWPOLYLINE
  5
2C39D
102
{ACAD_REACTORS
330
2C5D7
102
}
330
1F
100
AcDbEntity
  8
２点鎖線
 48
5.0
100
AcDbPolyline
 90
        2
 70
     0
 43
0.0
 10
2212.710673052614
 20
-1586.890621388929
 10
2231.776538571052
 20
-1586.890621388929
  0
LWPOLYLINE
  5
2C39E
102
{ACAD_REACTORS
330
2C5D7
102
}
330
1F
100
AcDbEntity
  8
２点鎖線
 48
5.0
100
AcDbPolyline
 90
        2
 70
     0
 43
0.0
 10
2231.776538571052
 20
-1581.690621388927
 10
2213.336183410198
 20
-1581.690621388927
  0
SPLINE
  5
2C39F
102
{ACAD_REACTORS
330
2C5D7
102
}
330
1F
100
AcDbEntity
  8
２点鎖線
 48
5.0
100
AcDbSpline
210
0.0
220
0.0
230
1.0
 70
     8
 71
     3
 72
    11
 73
     7
 74
     0
 42
0.0000000001
 43
0.0000000001
 40
0.7400739024284913
 40
0.7400739024284913
 40
0.7400739024284913
 40
0.7400739024284913
 40
1.581138830084188
 40
3.162277660168379
 40
5.320980974660691
 40
6.163181696929142
 40
6.163181696929142
 40
6.163181696929142
 40
6.163181696929142
 10
2212.710673052617
 20
-1586.890621388928
 30
0.0
 10
2212.606326287438
 20
-1586.624470571553
 30
0.0
 10
2212.404292377417
 20
-1585.85912308924
 30
0.0
 10
2213.168115165542
 20
-1584.425032055527
 30
0.0
 10
2213.707741857044
 20
-1582.90814541748
 30
0.0
 10
2213.435589753542
 20
-1581.956242607033
 30
0.0
 10
2213.336183410198
 20
-1581.690621388927
 30
0.0
  0
LINE
  5
2C3A0
102
{ACAD_REACTORS
330
2C5D7
102
}
330
1F
100
AcDbEntity
  8
２点鎖線
 48
5.0
100
AcDbLine
 10
2238.842153170428
 20
-1581.690621388927
 30
0.0
 11
2238.842153170428
 21
-1586.890621388929
 31
0.0
  0
LINE
  5
2C3A1
102
{ACAD_REACTORS
330
2C5D7
102
}
330
1F
100
AcDbEntity
  8
２点鎖線
 48
5.0
100
AcDbLine
 10
2231.776538571052
 20
-1580.544323595199
 30
0.0
 11
2231.776538571052
 21
-1587.344323595198
 31
0.0
  0
LINE
  5
2C3A2
102
{ACAD_REACTORS
330
2C5D7
102
}
330
1F
100
AcDbEntity
  8
２点鎖線
 48
5.0
100
AcDbLine
 10
2232.776538571051
 20
-1587.344323595198
 30
0.0
 11
2232.776538571051
 21
-1580.544323595199
 31
0.0
  0
SPLINE
  5
2C3A3
102
{ACAD_REACTORS
330
2C5D7
102
}
330
1F
100
AcDbEntity
  8
２点鎖線
 48
5.0
100
AcDbSpline
210
0.0
220
0.0
230
1.0
 70
     8
 71
     3
 72
    11
 73
     7
 74
     0
 42
0.0000000001
 43
0.0000000001
 40
0.7400739024272012
 40
0.7400739024272012
 40
0.7400739024272012
 40
0.7400739024272012
 40
1.581138830084188
 40
3.162277660168379
 40
5.320980974660691
 40
6.163181696929322
 40
6.163181696929322
 40
6.163181696929322
 40
6.163181696929322
 10
2235.924112418918
 20
-1586.890621388929
 30
0.0
 10
2235.819765653742
 20
-1586.624470571553
 30
0.0
 10
2235.617731743722
 20
-1585.85912308924
 30
0.0
 10
2236.381554531845
 20
-1584.425032055527
 30
0.0
 10
2236.921181223351
 20
-1582.90814541748
 30
0.0
 10
2236.649029119848
 20
-1581.956242607033
 30
0.0
 10
2236.549622776502
 20
-1581.690621388927
 30
0.0
  0
SPLINE
  5
2C3A4
102
{ACAD_REACTORS
330
2C5D7
102
}
330
1F
100
AcDbEntity
  8
２点鎖線
 48
5.0
100
AcDbSpline
210
0.0
220
0.0
230
1.0
 70
     8
 71
     3
 72
    11
 73
     7
 74
     0
 42
0.0000000001
 43
0.0000000001
 40
0.7400739024269944
 40
0.7400739024269944
 40
0.7400739024269944
 40
0.7400739024269944
 40
1.581138830084188
 40
3.162277660168379
 40
5.320980974660691
 40
6.163181696929452
 40
6.163181696929452
 40
6.163181696929452
 40
6.163181696929452
 10
2234.924112418918
 20
-1586.890621388929
 30
0.0
 10
2234.819765653742
 20
-1586.624470571553
 30
0.0
 10
2234.617731743723
 20
-1585.85912308924
 30
0.0
 10
2235.381554531846
 20
-1584.425032055527
 30
0.0
 10
2235.921181223351
 20
-1582.90814541748
 30
0.0
 10
2235.649029119846
 20
-1581.956242607033
 30
0.0
 10
2235.549622776502
 20
-1581.690621388927
 30
0.0
  0
LINE
  5
2C3A5
102
{ACAD_REACTORS
330
2C5D7
102
}
330
1F
100
AcDbEntity
  8
２点鎖線
 48
5.0
100
AcDbLine
 10
2238.842153170428
 20
-1587.090621388927
 30
0.0
 11
2238.84215317043
 21
-1581.490621388929
 31
0.0
  0
LINE
  5
2C3A6
102
{ACAD_REACTORS
330
2C5D7
102
}
330
1F
100
AcDbEntity
  8
２点鎖線
 48
5.0
100
AcDbLine
 10
2231.776538571052
 20
-1587.344323595198
 30
0.0
 11
2232.776538571051
 21
-1587.344323595198
 31
0.0
  0
ARC
  5
2C3A7
102
{ACAD_REACTORS
330
2C5D7
102
}
330
1F
100
AcDbEntity
  8
２点鎖線
 48
5.0
100
AcDbCircle
 10
2244.592153170429
 20
-1587.590621388929
 30
0.0
 40
0.5
100
AcDbArc
 50
180.0
 51
270.0
  0
ARC
  5
2C3A8
102
{ACAD_REACTORS
330
2C5D7
102
}
330
1F
100
AcDbEntity
  8
２点鎖線
 48
5.0
100
AcDbCircle
 10
2243.59215317043
 20
-1587.590621388928
 30
0.0
 40
0.5
100
AcDbArc
 50
0.0
 51
90.0
  0
LINE
  5
2C3A9
102
{ACAD_REACTORS
330
2C5D7
102
}
330
1F
100
AcDbEntity
  8
２点鎖線
 48
5.0
100
AcDbLine
 10
2243.59215317043
 20
-1587.090621388927
 30
0.0
 11
2238.84215317043
 21
-1587.090621388927
 31
0.0
  0
LWPOLYLINE
  5
2C3AA
102
{ACAD_REACTORS
330
2C5D7
102
}
330
1F
100
AcDbEntity
  8
２点鎖線
 48
5.0
100
AcDbPolyline
 90
        2
 70
     0
 43
0.0
 10
2235.924112418918
 20
-1586.890621388929
 10
2238.842153170428
 20
-1586.890621388929
  0
LWPOLYLINE
  5
2C3AB
102
{ACAD_REACTORS
330
2C5D7
102
}
330
1F
100
AcDbEntity
  8
２点鎖線
 48
5.0
100
AcDbPolyline
 90
        2
 70
     0
 43
0.0
 10
2232.776538571051
 20
-1586.890621388929
 10
2234.926674858705
 20
-1586.890621388929
  0
LINE
  5
2C3AC
102
{ACAD_REACTORS
330
2C5D7
102
}
330
1F
100
AcDbEntity
  8
２点鎖線
 48
5.0
100
AcDbLine
 10
2232.776538571051
 20
-1580.544323595199
 30
0.0
 11
2231.776538571052
 21
-1580.544323595199
 31
0.0
  0
ARC
  5
2C3AD
102
{ACAD_REACTORS
330
2C5D7
102
}
330
1F
100
AcDbEntity
  8
２点鎖線
 48
5.0
100
AcDbCircle
 10
2243.59215317043
 20
-1580.990621388929
 30
0.0
 40
0.5
100
AcDbArc
 50
270.0
 51
0.0
  0
ARC
  5
2C3AE
102
{ACAD_REACTORS
330
2C5D7
102
}
330
1F
100
AcDbEntity
  8
２点鎖線
 48
5.0
100
AcDbCircle
 10
2244.592153170429
 20
-1580.990621388925
 30
0.0
 40
0.5
100
AcDbArc
 50
90.0
 51
180.0
  0
LINE
  5
2C3AF
102
{ACAD_REACTORS
330
2C5D7
102
}
330
1F
100
AcDbEntity
  8
２点鎖線
 48
5.0
100
AcDbLine
 10
2238.84215317043
 20
-1581.490621388927
 30
0.0
 11
2243.59215317043
 21
-1581.490621388929
 31
0.0
  0
LWPOLYLINE
  5
2C3B0
102
{ACAD_REACTORS
330
2C5D7
102
}
330
1F
100
AcDbEntity
  8
２点鎖線
 48
5.0
100
AcDbPolyline
 90
        2
 70
     0
 43
0.0
 10
2235.549622776502
 20
-1581.690621388927
 10
2232.776538571051
 20
-1581.690621388927
  0
LWPOLYLINE
  5
2C3B1
102
{ACAD_REACTORS
330
2C5D7
102
}
330
1F
100
AcDbEntity
  8
２点鎖線
 48
5.0
100
AcDbPolyline
 90
        2
 70
     0
 43
0.0
 10
2238.842153170428
 20
-1581.690621388927
 10
2236.549622776502
 20
-1581.690621388927
  0
LWPOLYLINE
  5
2C3B2
102
{ACAD_REACTORS
330
2C5D7
102
}
330
1F
100
AcDbEntity
  8
２点鎖線
 48
5.0
100
AcDbPolyline
 90
        4
 70
     1
 43
0.0
 10
2227.276538571052
 20
-1580.544323595199
 10
2237.27653857105
 20
-1580.544323595199
 10
2237.27653857105
 20
-1575.544323595198
 10
2227.276538571052
 20
-1575.544323595198
  0
LINE
  5
2C3B3
102
{ACAD_REACTORS
330
2C5D7
102
}
330
1F
100
AcDbEntity
  8
２点鎖線
 48
5.0
100
AcDbLine
 10
2251.59219827179
 20
-1589.140611408819
 30
0.0
 11
2265.59216327179
 21
-1589.140611408819
 31
0.0
  0
LINE
  5
2C3B4
102
{ACAD_REACTORS
330
2C5D7
102
}
330
1F
100
AcDbEntity
  8
２点鎖線
 48
5.0
100
AcDbLine
 10
2251.59219827179
 20
-1579.340635908818
 30
0.0
 11
2265.59216327179
 21
-1579.340635908818
 31
0.0
  0
LINE
  5
2C3B5
102
{ACAD_REACTORS
330
2C5D7
102
}
330
1F
100
AcDbEntity
  8
２点鎖線
 48
5.0
100
AcDbLine
 10
2249.592153170429
 20
-1580.490621388928
 30
0.0
 11
2249.592153170429
 21
-1588.090621388928
 31
0.0
  0
LINE
  5
2C3B6
102
{ACAD_REACTORS
330
2C5D7
102
}
330
1F
100
AcDbEntity
  8
２点鎖線
 48
5.0
100
AcDbLine
 10
2251.592153170429
 20
-1589.140605355791
 30
0.0
 11
2251.592153170429
 21
-1579.340635908818
 31
0.0
  0
LINE
  5
2C3B7
102
{ACAD_REACTORS
330
2C5D7
102
}
330
1F
100
AcDbEntity
  8
２点鎖線
 48
5.0
100
AcDbLine
 10
2251.592153170429
 20
-1586.740618362405
 30
0.0
 11
2249.592153170429
 21
-1586.740618362405
 31
0.0
  0
LINE
  5
2C3B8
102
{ACAD_REACTORS
330
2C5D7
102
}
330
1F
100
AcDbEntity
  8
２点鎖線
 48
5.0
100
AcDbLine
 10
2251.592153170429
 20
-1583.740618362406
 30
0.0
 11
2249.592153170429
 21
-1583.740618362406
 31
0.0
  0
LINE
  5
2C3B9
102
{ACAD_REACTORS
330
2C5D7
102
}
330
1F
100
AcDbEntity
  8
２点鎖線
 48
5.0
100
AcDbLine
 10
2251.592153170429
 20
-1585.740618362406
 30
0.0
 11
2249.592153170429
 21
-1585.740618362406
 31
0.0
  0
LINE
  5
2C3BA
102
{ACAD_REACTORS
330
2C5D7
102
}
330
1F
100
AcDbEntity
  8
２点鎖線
 48
5.0
100
AcDbLine
 10
2251.592153170429
 20
-1584.740618362405
 30
0.0
 11
2249.592153170429
 21
-1584.740618362405
 31
0.0
  0
LINE
  5
2C3BB
102
{ACAD_REACTORS
330
2C5D7
102
}
330
1F
100
AcDbEntity
  8
２点鎖線
 48
5.0
100
AcDbLine
 10
2252.59215067043
 20
-1590.140602855792
 30
0.0
 11
2252.59215067043
 21
-1589.140605355791
 31
0.0
  0
LINE
  5
2C3BC
102
{ACAD_REACTORS
330
2C5D7
102
}
330
1F
100
AcDbEntity
  8
２点鎖線
 48
5.0
100
AcDbLine
 10
2251.592153170429
 20
-1590.140602855792
 30
0.0
 11
2251.592153170429
 21
-1589.140605355791
 31
0.0
  0
LINE
  5
2C3BD
102
{ACAD_REACTORS
330
2C5D7
102
}
330
1F
100
AcDbEntity
  8
２点鎖線
 48
5.0
100
AcDbLine
 10
2251.59219827179
 20
-1590.140608908819
 30
0.0
 11
2252.592195771788
 21
-1590.140608908819
 31
0.0
  0
LINE
  5
2C3BE
102
{ACAD_REACTORS
330
2C5D7
102
}
330
1F
100
AcDbEntity
  8
２点鎖線
 48
5.0
100
AcDbLine
 10
2251.59219827179
 20
-1578.340638408818
 30
0.0
 11
2252.592195771788
 21
-1578.340638408818
 31
0.0
  0
LINE
  5
2C3BF
102
{ACAD_REACTORS
330
2C5D7
102
}
330
1F
100
AcDbEntity
  8
２点鎖線
 48
5.0
100
AcDbLine
 10
2251.592153170429
 20
-1579.340629855791
 30
0.0
 11
2251.592153170429
 21
-1578.340632355791
 31
0.0
  0
LINE
  5
2C3C0
102
{ACAD_REACTORS
330
2C5D7
102
}
330
1F
100
AcDbEntity
  8
２点鎖線
 48
5.0
100
AcDbLine
 10
2252.59215067043
 20
-1579.340629855791
 30
0.0
 11
2252.59215067043
 21
-1578.340632355791
 31
0.0
  0
LINE
  5
2C3C1
102
{ACAD_REACTORS
330
2C5D7
102
}
330
1F
100
AcDbEntity
  8
２点鎖線
 48
5.0
100
AcDbLine
 10
2251.592153170429
 20
-1582.740618362405
 30
0.0
 11
2249.592153170429
 21
-1582.740618362405
 31
0.0
  0
LINE
  5
2C3C2
102
{ACAD_REACTORS
330
2C5D7
102
}
330
1F
100
AcDbEntity
  8
２点鎖線
 48
5.0
100
AcDbLine
 10
2251.592153170429
 20
-1581.740618362406
 30
0.0
 11
2249.592153170429
 21
-1581.740618362406
 31
0.0
  0
LWPOLYLINE
  5
2C3C3
102
{ACAD_REACTORS
330
2C5D7
102
}
330
1F
100
AcDbEntity
  8
２点鎖線
 48
5.0
100
AcDbPolyline
 90
        4
 70
     1
 43
0.0
 10
2265.592163271791
 20
-1580.340621302764
 10
2274.592140771788
 20
-1580.340621302764
 10
2274.592140771788
 20
-1583.840612552764
 10
2265.592163271791
 20
-1583.840612552764
  0
LINE
  5
2C3C4
102
{ACAD_REACTORS
330
2C5D7
102
}
330
1F
100
AcDbEntity
  8
２点鎖線
 48
5.0
100
AcDbLine
 10
2265.592118170427
 20
-1589.140605355791
 30
0.0
 11
2265.592118170427
 21
-1579.340629855791
 31
0.0
  0
LWPOLYLINE
  5
2C3C5
102
{ACAD_REACTORS
330
2C5D7
102
}
330
1F
100
AcDbEntity
  8
２点鎖線
 48
5.0
100
AcDbPolyline
 90
        4
 70
     1
 43
0.0
 10
2265.592163271791
 20
-1588.140613908818
 10
2274.592140771788
 20
-1588.140613908818
 10
2274.592140771788
 20
-1584.640622658818
 10
2265.592163271791
 20
-1584.640622658818
  0
LINE
  5
2C3C6
102
{ACAD_REACTORS
330
2C5D7
102
}
330
1F
100
AcDbEntity
  8
２点鎖線
 48
5.0
100
AcDbLine
 10
2268.742110295427
 20
-1577.906150442
 30
0.0
 11
2268.742110295427
 21
-1576.590636730791
 31
0.0
  0
LINE
  5
2C3C7
102
{ACAD_REACTORS
330
2C5D7
102
}
330
1F
100
AcDbEntity
  8
２点鎖線
 48
5.0
100
AcDbLine
 10
2257.042139545429
 20
-1574.640641605792
 30
0.0
 11
2268.742110295427
 21
-1576.590636730791
 31
0.0
  0
LINE
  5
2C3C8
102
{ACAD_REACTORS
330
2C5D7
102
}
330
1F
100
AcDbEntity
  8
２点鎖線
 48
5.0
100
AcDbLine
 10
2268.742110295427
 20
-1577.906150442
 30
0.0
 11
2265.592118170427
 21
-1578.340632355791
 31
0.0
  0
LINE
  5
2C3C9
102
{ACAD_REACTORS
330
2C5D7
102
}
330
1F
100
AcDbEntity
  8
２点鎖線
 48
5.0
100
AcDbLine
 10
2262.56392074094
 20
-1578.540631855791
 30
0.0
 11
2257.492138420429
 21
-1576.39063723079
 31
0.0
  0
LINE
  5
2C3CA
102
{ACAD_REACTORS
330
2C5D7
102
}
330
1F
100
AcDbEntity
  8
２点鎖線
 48
5.0
100
AcDbLine
 10
2265.592118170427
 20
-1578.340632355791
 30
0.0
 11
2265.59216327179
 21
-1579.340635908818
 31
0.0
  0
LINE
  5
2C3CB
102
{ACAD_REACTORS
330
2C5D7
102
}
330
1F
100
AcDbEntity
  8
２点鎖線
 48
5.0
100
AcDbLine
 10
2262.56392074094
 20
-1578.540631855791
 30
0.0
 11
2262.56392074094
 21
-1579.340635908818
 31
0.0
  0
LINE
  5
2C3CC
102
{ACAD_REACTORS
330
2C5D7
102
}
330
1F
100
AcDbEntity
  8
２点鎖線
 48
5.0
100
AcDbLine
 10
2257.492138420429
 20
-1576.390637230793
 30
0.0
 11
2257.042139545429
 21
-1574.640641605792
 31
0.0
  0
LINE
  5
2C3CD
102
{ACAD_REACTORS
330
2C5D8
330
2C5D9
102
}
330
1F
100
AcDbEntity
  8
２点鎖線
 48
5.0
100
AcDbLine
 10
2314.280198836408
 20
-1597.755284407702
 30
0.0
 11
2314.280198836408
 21
-1590.755284407703
 31
0.0
  0
LINE
  5
2C3CE
102
{ACAD_REACTORS
330
2C5D8
330
2C5D9
102
}
330
1F
100
AcDbEntity
  8
２点鎖線
 48
5.0
100
AcDbLine
 10
2307.280198836409
 20
-1580.755284407703
 30
0.0
 11
2307.280198836408
 21
-1597.755284407702
 31
0.0
  0
LINE
  5
2C3CF
102
{ACAD_REACTORS
330
2C5D8
330
2C5D9
102
}
330
1F
100
AcDbEntity
  8
２点鎖線
 48
5.0
100
AcDbLine
 10
2307.280198836408
 20
-1597.755284407702
 30
0.0
 11
2314.280198836408
 21
-1597.755284407705
 31
0.0
  0
LINE
  5
2C3D0
102
{ACAD_REACTORS
330
2C5D8
330
2C5D9
102
}
330
1F
100
AcDbEntity
  8
２点鎖線
 48
5.0
100
AcDbLine
 10
2316.780198836409
 20
-1546.755379594831
 30
0.0
 11
2316.380198836408
 21
-1580.755284407703
 31
0.0
  0
LINE
  5
2C3D1
102
{ACAD_REACTORS
330
2C5D8
330
2C5D9
102
}
330
1F
100
AcDbEntity
  8
２点鎖線
 48
5.0
100
AcDbLine
 10
2321.780198836409
 20
-1546.755379594826
 30
0.0
 11
2322.297845741528
 21
-1590.755284407703
 31
0.0
  0
LINE
  5
2C3D2
102
{ACAD_REACTORS
330
2C5D8
330
2C5D9
102
}
330
1F
100
AcDbEntity
  8
２点鎖線
 48
5.0
100
AcDbLine
 10
2317.380198836408
 20
-1580.755284407703
 30
0.0
 11
2307.280198836409
 21
-1580.755284407703
 31
0.0
  0
LINE
  5
2C3D3
102
{ACAD_REACTORS
330
2C5D8
330
2C5D9
102
}
330
1F
100
AcDbEntity
  8
２点鎖線
 48
5.0
100
AcDbLine
 10
2317.380198836408
 20
-1590.755284407703
 30
0.0
 11
2322.297845741528
 21
-1590.755284407703
 31
0.0
  0
LINE
  5
2C3D4
102
{ACAD_REACTORS
330
2C5D8
330
2C5D9
102
}
330
1F
100
AcDbEntity
  8
２点鎖線
 48
5.0
100
AcDbLine
 10
2317.380198836408
 20
-1590.755284407703
 30
0.0
 11
2317.380198836408
 21
-1580.755284407703
 31
0.0
  0
LINE
  5
2C3D5
102
{ACAD_REACTORS
330
2C5D8
330
2C5D9
102
}
330
1F
100
AcDbEntity
  8
２点鎖線
 48
5.0
100
AcDbLine
 10
2317.380198836408
 20
-1590.755284407703
 30
0.0
 11
2314.280198836408
 21
-1590.755284407703
 31
0.0
  0
ARC
  5
2C3D6
102
{ACAD_REACTORS
330
2C5D8
330
2C5D9
102
}
330
1F
100
AcDbEntity
  8
２点鎖線
 48
5.0
100
AcDbCircle
 10
2319.780198836409
 20
-1546.755379594826
 30
0.0
 40
2.0
100
AcDbArc
 50
0.0000000001042204
 51
90.0
  0
LINE
  5
2C3D7
102
{ACAD_REACTORS
330
2C5D8
330
2C5D9
102
}
330
1F
100
AcDbEntity
  8
２点鎖線
 48
5.0
100
AcDbLine
 10
2319.780198836409
 20
-1544.755379594826
 30
0.0
 11
2318.780198836408
 21
-1544.755379594826
 31
0.0
  0
ARC
  5
2C3D8
102
{ACAD_REACTORS
330
2C5D8
330
2C5D9
102
}
330
1F
100
AcDbEntity
  8
２点鎖線
 48
5.0
100
AcDbCircle
 10
2318.780198836408
 20
-1546.755379594826
 30
0.0
 40
2.0
100
AcDbArc
 50
90.0
 51
180.0000000001041
  0
CIRCLE
  5
2C3D9
102
{ACAD_REACTORS
330
2C5D9
330
2C5DA
102
}
330
1F
100
AcDbEntity
  8
２点鎖線
 48
5.0
100
AcDbCircle
 10
2310.780198836409
 20
-1584.255284407704
 30
0.0
 40
2.75
  0
LINE
  5
2C3DA
102
{ACAD_REACTORS
330
2C5D9
330
2C5DA
102
}
330
1F
100
AcDbEntity
  8
中心線
 48
0.2
100
AcDbLine
 10
2310.780198836409
 20
-1580.489284407704
 30
0.0
 11
2310.780198836409
 21
-1588.021284407705
 31
0.0
  0
CIRCLE
  5
2C3DB
102
{ACAD_REACTORS
330
2C5D9
330
2C5DA
102
}
330
1F
100
AcDbEntity
  8
２点鎖線
 48
5.0
100
AcDbCircle
 10
2310.780198836409
 20
-1584.255284407704
 30
0.0
 40
2.450000000000001
  0
LINE
  5
2C3DC
102
{ACAD_REACTORS
330
2C5D9
330
2C5DA
102
}
330
1F
100
AcDbEntity
  8
２点鎖線
 48
5.0
100
AcDbLine
 10
2310.780198836409
 20
-1582.811908707705
 30
0.0
 11
2312.030198436406
 21
-1583.533596497703
 31
0.0
  0
LINE
  5
2C3DD
102
{ACAD_REACTORS
330
2C5D9
330
2C5DA
102
}
330
1F
100
AcDbEntity
  8
中心線
 48
0.2
100
AcDbLine
 10
2307.014198836405
 20
-1584.255284407704
 30
0.0
 11
2314.546198236408
 21
-1584.255284407704
 31
0.0
  0
LINE
  5
2C3DE
102
{ACAD_REACTORS
330
2C5D9
330
2C5DA
102
}
330
1F
100
AcDbEntity
  8
２点鎖線
 48
5.0
100
AcDbLine
 10
2312.030198436406
 20
-1584.976972317703
 30
0.0
 11
2310.780198836409
 21
-1585.698660107702
 31
0.0
  0
LINE
  5
2C3DF
102
{ACAD_REACTORS
330
2C5D9
330
2C5DA
102
}
330
1F
100
AcDbEntity
  8
２点鎖線
 48
5.0
100
AcDbLine
 10
2310.780198836409
 20
-1582.811908807704
 30
0.0
 11
2309.530198836409
 21
-1583.533596677701
 31
0.0
  0
LINE
  5
2C3E0
102
{ACAD_REACTORS
330
2C5D9
330
2C5DA
102
}
330
1F
100
AcDbEntity
  8
２点鎖線
 48
5.0
100
AcDbLine
 10
2310.780198836409
 20
-1585.698660007703
 30
0.0
 11
2309.530198836409
 21
-1584.976972137702
 31
0.0
  0
LINE
  5
2C3E1
102
{ACAD_REACTORS
330
2C5D9
330
2C5DA
102
}
330
1F
100
AcDbEntity
  8
２点鎖線
 48
5.0
100
AcDbLine
 10
2309.530198836409
 20
-1583.533596557705
 30
0.0
 11
2309.530198836409
 21
-1584.976972137702
 31
0.0
  0
LINE
  5
2C3E2
102
{ACAD_REACTORS
330
2C5D9
330
2C5DA
102
}
330
1F
100
AcDbEntity
  8
２点鎖線
 48
5.0
100
AcDbLine
 10
2312.030198436406
 20
-1583.533596557705
 30
0.0
 11
2312.030198436406
 21
-1584.976972317703
 31
0.0
  0
CIRCLE
  5
2C3E3
102
{ACAD_REACTORS
330
2C5D9
330
2C5DB
102
}
330
1F
100
AcDbEntity
  8
２点鎖線
 48
5.0
100
AcDbCircle
 10
2310.780198836409
 20
-1594.255284407704
 30
0.0
 40
2.75
  0
LINE
  5
2C3E4
102
{ACAD_REACTORS
330
2C5D9
330
2C5DB
102
}
330
1F
100
AcDbEntity
  8
中心線
 48
0.2
100
AcDbLine
 10
2310.780198836409
 20
-1590.489284407704
 30
0.0
 11
2310.780198836409
 21
-1598.021284407705
 31
0.0
  0
CIRCLE
  5
2C3E5
102
{ACAD_REACTORS
330
2C5D9
330
2C5DB
102
}
330
1F
100
AcDbEntity
  8
２点鎖線
 48
5.0
100
AcDbCircle
 10
2310.780198836409
 20
-1594.255284407704
 30
0.0
 40
2.450000000000001
  0
LINE
  5
2C3E6
102
{ACAD_REACTORS
330
2C5D9
330
2C5DB
102
}
330
1F
100
AcDbEntity
  8
２点鎖線
 48
5.0
100
AcDbLine
 10
2310.780198836409
 20
-1592.811908707705
 30
0.0
 11
2312.030198436406
 21
-1593.533596497703
 31
0.0
  0
LINE
  5
2C3E7
102
{ACAD_REACTORS
330
2C5D9
330
2C5DB
102
}
330
1F
100
AcDbEntity
  8
中心線
 48
0.2
100
AcDbLine
 10
2307.014198836405
 20
-1594.255284407704
 30
0.0
 11
2314.546198236408
 21
-1594.255284407704
 31
0.0
  0
LINE
  5
2C3E8
102
{ACAD_REACTORS
330
2C5D9
330
2C5DB
102
}
330
1F
100
AcDbEntity
  8
２点鎖線
 48
5.0
100
AcDbLine
 10
2312.030198436406
 20
-1594.976972317703
 30
0.0
 11
2310.780198836409
 21
-1595.698660107703
 31
0.0
  0
LINE
  5
2C3E9
102
{ACAD_REACTORS
330
2C5D9
330
2C5DB
102
}
330
1F
100
AcDbEntity
  8
２点鎖線
 48
5.0
100
AcDbLine
 10
2310.780198836409
 20
-1592.811908807703
 30
0.0
 11
2309.530198836409
 21
-1593.533596677704
 31
0.0
  0
LINE
  5
2C3EA
102
{ACAD_REACTORS
330
2C5D9
330
2C5DB
102
}
330
1F
100
AcDbEntity
  8
２点鎖線
 48
5.0
100
AcDbLine
 10
2310.780198836409
 20
-1595.698660007703
 30
0.0
 11
2309.530198836409
 21
-1594.976972137702
 31
0.0
  0
LINE
  5
2C3EB
102
{ACAD_REACTORS
330
2C5D9
330
2C5DB
102
}
330
1F
100
AcDbEntity
  8
２点鎖線
 48
5.0
100
AcDbLine
 10
2309.530198836409
 20
-1593.533596557705
 30
0.0
 11
2309.530198836409
 21
-1594.976972137702
 31
0.0
  0
LINE
  5
2C3EC
102
{ACAD_REACTORS
330
2C5D9
330
2C5DB
102
}
330
1F
100
AcDbEntity
  8
２点鎖線
 48
5.0
100
AcDbLine
 10
2312.030198436406
 20
-1593.533596557705
 30
0.0
 11
2312.030198436406
 21
-1594.976972317703
 31
0.0
  0
LINE
  5
2C3F7
102
{ACAD_REACTORS
330
2C5D4
102
}
330
1F
100
AcDbEntity
  8
実線
 48
0.2
100
AcDbLine
 10
1866.38253049237
 20
-1708.128524325446
 30
0.0
 11
1866.38253049237
 21
-1732.128524325445
 31
0.0
  0
LINE
  5
2C3F8
102
{ACAD_REACTORS
330
2C5D4
102
}
330
1F
100
AcDbEntity
  8
実線
 48
0.2
100
AcDbLine
 10
1866.882530492372
 20
-1732.628524325445
 30
0.0
 11
1866.38253049237
 21
-1732.128524325445
 31
0.0
  0
LINE
  5
2C3F9
102
{ACAD_REACTORS
330
2C5D4
102
}
330
1F
100
AcDbEntity
  8
実線
 48
0.2
100
AcDbLine
 10
1866.882530492372
 20
-1707.628524325444
 30
0.0
 11
1866.38253049237
 21
-1708.128524325446
 31
0.0
  0
LINE
  5
2C3FC
102
{ACAD_REACTORS
330
2C5D4
102
}
330
1F
100
AcDbEntity
  8
中心線
 48
0.5
100
AcDbLine
 10
1884.38253049237
 20
-1702.628524325445
 30
0.0
 11
1884.38253049237
 21
-1737.628524325445
 31
0.0
  0
LINE
  5
2C3FD
102
{ACAD_REACTORS
330
2C5D4
102
}
330
1F
100
AcDbEntity
  8
中心線
 48
0.5
100
AcDbLine
 10
1929.382530492371
 20
-1702.628524325445
 30
0.0
 11
1929.382530492371
 21
-1737.628524325445
 31
0.0
  0
LINE
  5
2C3FE
102
{ACAD_REACTORS
330
2C5D4
102
}
330
1F
100
AcDbEntity
  8
中心線
 48
0.5
100
AcDbLine
 10
2064.382530492371
 20
-1702.628524325445
 30
0.0
 11
2064.382530492371
 21
-1737.628524325445
 31
0.0
  0
LINE
  5
2C3FF
102
{ACAD_REACTORS
330
2C5D4
102
}
330
1F
100
AcDbEntity
  8
中心線
 48
0.5
100
AcDbLine
 10
2109.382530492371
 20
-1702.628524325445
 30
0.0
 11
2109.382530492371
 21
-1737.628524325445
 31
0.0
  0
LINE
  5
2C400
102
{ACAD_REACTORS
330
2C5D4
102
}
330
1F
100
AcDbEntity
  8
中心線
 48
0.5
100
AcDbLine
 10
2154.382530492369
 20
-1702.628524325445
 30
0.0
 11
2154.382530492369
 21
-1737.628524325445
 31
0.0
  0
LINE
  5
2C401
102
{ACAD_REACTORS
330
2C5D4
102
}
330
1F
100
AcDbEntity
  8
実線
100
AcDbLine
 10
2221.382530492371
 20
-1714.228524325445
 30
0.0
 11
2221.382530492371
 21
-1726.028524325445
 31
0.0
  0
LINE
  5
2C402
102
{ACAD_REACTORS
330
2C5D4
102
}
330
1F
100
AcDbEntity
  8
実線
100
AcDbLine
 10
2234.58253049237
 20
-1720.688524325444
 30
0.0
 11
2245.082530492371
 21
-1720.688524325444
 31
0.0
  0
LINE
  5
2C403
102
{ACAD_REACTORS
330
2C5D4
102
}
330
1F
100
AcDbEntity
  8
実線
100
AcDbLine
 10
2245.082530492371
 20
-1719.568524325445
 30
0.0
 11
2234.58253049237
 21
-1719.568524325445
 31
0.0
  0
LINE
  5
2C404
102
{ACAD_REACTORS
330
2C5D4
102
}
330
1F
100
AcDbEntity
  8
実線
100
AcDbLine
 10
2234.58253049237
 20
-1716.128524325445
 30
0.0
 11
2245.082530492371
 21
-1716.128524325445
 31
0.0
  0
LINE
  5
2C405
102
{ACAD_REACTORS
330
2C5D4
102
}
330
1F
100
AcDbEntity
  8
実線
100
AcDbLine
 10
2245.082530492371
 20
-1724.128524325446
 30
0.0
 11
2234.58253049237
 21
-1724.128524325446
 31
0.0
  0
LINE
  5
2C406
102
{ACAD_REACTORS
330
2C5D4
102
}
330
1F
100
AcDbEntity
  8
実線
100
AcDbLine
 10
2234.58253049237
 20
-1715.228524325445
 30
0.0
 11
2234.58253049237
 21
-1725.028524325445
 31
0.0
  0
LINE
  5
2C407
102
{ACAD_REACTORS
330
2C5D4
102
}
330
1F
100
AcDbEntity
  8
実線
100
AcDbLine
 10
2221.882530492369
 20
-1726.028524325445
 30
0.0
 11
2221.382530492371
 21
-1726.028524325445
 31
0.0
  0
LINE
  5
2C408
102
{ACAD_REACTORS
330
2C5D4
102
}
330
1F
100
AcDbEntity
  8
実線
100
AcDbLine
 10
2222.382530492371
 20
-1725.028524325445
 30
0.0
 11
2222.382530492371
 21
-1725.528524325445
 31
0.0
  0
ARC
  5
2C409
102
{ACAD_REACTORS
330
2C5D4
102
}
330
1F
100
AcDbEntity
  8
実線
100
AcDbCircle
 10
2221.882530492369
 20
-1725.528524325445
 30
0.0
 40
0.5
100
AcDbArc
 50
270.0
 51
0.0
  0
LINE
  5
2C40A
102
{ACAD_REACTORS
330
2C5D4
102
}
330
1F
100
AcDbEntity
  8
実線
100
AcDbLine
 10
2234.58253049237
 20
-1725.028524325445
 30
0.0
 11
2222.382530492371
 21
-1725.028524325445
 31
0.0
  0
LINE
  5
2C40B
102
{ACAD_REACTORS
330
2C5D4
102
}
330
1F
100
AcDbEntity
  8
実線
 48
0.5
100
AcDbLine
 10
2221.382530492371
 20
-1717.528524325445
 30
0.0
 11
2219.382530492369
 21
-1717.528524325445
 31
0.0
  0
LINE
  5
2C40C
102
{ACAD_REACTORS
330
2C5D4
102
}
330
1F
100
AcDbEntity
  8
実線
 48
0.5
100
AcDbLine
 10
2221.382530492371
 20
-1718.828524325445
 30
0.0
 11
2219.382530492369
 21
-1718.828524325445
 31
0.0
  0
LINE
  5
2C40D
102
{ACAD_REACTORS
330
2C5D4
102
}
330
1F
100
AcDbEntity
  8
実線
 48
0.5
100
AcDbLine
 10
2221.382530492371
 20
-1721.528524325445
 30
0.0
 11
2219.382530492369
 21
-1721.528524325445
 31
0.0
  0
LINE
  5
2C40E
102
{ACAD_REACTORS
330
2C5D4
102
}
330
1F
100
AcDbEntity
  8
実線
 48
0.5
100
AcDbLine
 10
2221.382530492371
 20
-1720.128524325445
 30
0.0
 11
2219.382530492369
 21
-1720.128524325445
 31
0.0
  0
LINE
  5
2C40F
102
{ACAD_REACTORS
330
2C5D4
102
}
330
1F
100
AcDbEntity
  8
実線
 48
0.5
100
AcDbLine
 10
2219.382530492369
 20
-1722.828524325445
 30
0.0
 11
2221.382530492371
 21
-1722.828524325445
 31
0.0
  0
LINE
  5
2C410
102
{ACAD_REACTORS
330
2C5D4
102
}
330
1F
100
AcDbEntity
  8
実線
100
AcDbLine
 10
2245.082530492371
 20
-1716.128524325445
 30
0.0
 11
2245.082530492371
 21
-1719.568524325445
 31
0.0
  0
LINE
  5
2C411
102
{ACAD_REACTORS
330
2C5D4
102
}
330
1F
100
AcDbEntity
  8
実線
100
AcDbLine
 10
2245.082530492371
 20
-1720.688524325444
 30
0.0
 11
2245.082530492371
 21
-1724.128524325446
 31
0.0
  0
LINE
  5
2C412
102
{ACAD_REACTORS
330
2C5D4
102
}
330
1F
100
AcDbEntity
  8
実線
100
AcDbLine
 10
2222.382530492371
 20
-1715.228524325445
 30
0.0
 11
2234.58253049237
 21
-1715.228524325445
 31
0.0
  0
LINE
  5
2C413
102
{ACAD_REACTORS
330
2C5D4
102
}
330
1F
100
AcDbEntity
  8
実線
100
AcDbLine
 10
2221.382530492371
 20
-1714.228524325445
 30
0.0
 11
2221.882530492369
 21
-1714.228524325445
 31
0.0
  0
LINE
  5
2C414
102
{ACAD_REACTORS
330
2C5D4
102
}
330
1F
100
AcDbEntity
  8
実線
100
AcDbLine
 10
2222.382530492371
 20
-1714.728524325445
 30
0.0
 11
2222.382530492371
 21
-1715.228524325445
 31
0.0
  0
ARC
  5
2C415
102
{ACAD_REACTORS
330
2C5D4
102
}
330
1F
100
AcDbEntity
  8
実線
100
AcDbCircle
 10
2221.882530492369
 20
-1714.728524325445
 30
0.0
 40
0.5
100
AcDbArc
 50
0.0
 51
90.0
  0
LINE
  5
2C416
102
{ACAD_REACTORS
330
2C5D4
102
}
330
1F
100
AcDbEntity
  8
実線
100
AcDbLine
 10
2184.382530492368
 20
-1716.528524325445
 30
0.0
 11
2172.38253049237
 21
-1716.528524325445
 31
0.0
  0
LINE
  5
2C417
102
{ACAD_REACTORS
330
2C5D4
102
}
330
1F
100
AcDbEntity
  8
実線
100
AcDbLine
 10
2184.382530492368
 20
-1723.728524325445
 30
0.0
 11
2172.382530492372
 21
-1723.728524325445
 31
0.0
  0
LINE
  5
2C418
102
{ACAD_REACTORS
330
2C5D4
102
}
330
1F
100
AcDbEntity
  8
実線
100
AcDbLine
 10
2219.382530492369
 20
-1716.978524325445
 30
0.0
 11
2219.382530492369
 21
-1723.278524325445
 31
0.0
  0
LINE
  5
2C419
102
{ACAD_REACTORS
330
2C5D4
102
}
330
1F
100
AcDbEntity
  8
中心線
 48
0.5
100
AcDbLine
 10
2203.011395698954
 20
-1728.254616151592
 30
0.0
 11
2205.753665285786
 21
-1712.702432499298
 31
0.0
  0
LINE
  5
2C41A
102
{ACAD_REACTORS
330
2C5D4
102
}
330
1F
100
AcDbEntity
  8
中心線
 48
0.5
100
AcDbLine
 10
2205.011395698954
 20
-1728.254616151592
 30
0.0
 11
2207.753665285787
 21
-1712.702432499298
 31
0.0
  0
LINE
  5
2C41B
102
{ACAD_REACTORS
330
2C5D4
102
}
330
1F
100
AcDbEntity
  8
実線
 48
10.0
100
AcDbLine
 10
2184.382530492368
 20
-1716.528524325445
 30
0.0
 11
2184.382530492368
 21
-1723.728524325445
 31
0.0
  0
LINE
  5
2C41C
102
{ACAD_REACTORS
330
2C5D4
102
}
330
1F
100
AcDbEntity
  8
実線
100
AcDbLine
 10
2219.382530492369
 20
-1723.278524325445
 30
0.0
 11
2205.976978436742
 21
-1723.278524325445
 31
0.0
  0
LINE
  5
2C41D
102
{ACAD_REACTORS
330
2C5D4
102
}
330
1F
100
AcDbEntity
  8
実線
100
AcDbLine
 10
2203.97697843674
 20
-1723.278524325445
 30
0.0
 11
2184.382530492368
 21
-1723.278524325445
 31
0.0
  0
LINE
  5
2C41E
102
{ACAD_REACTORS
330
2C5D4
102
}
330
1F
100
AcDbEntity
  8
実線
100
AcDbLine
 10
2206.911511434495
 20
-1716.978524325445
 30
0.0
 11
2219.382530492369
 21
-1716.978524325445
 31
0.0
  0
LINE
  5
2C41F
102
{ACAD_REACTORS
330
2C5D4
102
}
330
1F
100
AcDbEntity
  8
実線
100
AcDbLine
 10
2184.382530492368
 20
-1716.978524325445
 30
0.0
 11
2204.911511434497
 21
-1716.978524325445
 31
0.0
  0
LINE
  5
2C420
330
1F
100
AcDbEntity
  8
中心線
 48
0.5
100
AcDbLine
 10
2312.853012439646
 20
-1595.255284407703
 30
0.0
 11
2325.753012439645
 21
-1595.255284407703
 31
0.0
  0
CIRCLE
  5
2C421
330
1F
100
AcDbEntity
  8
実線
 48
0.1
100
AcDbCircle
 10
2319.280198836408
 20
-1595.255284407703
 30
0.0
 40
3.6
  0
HATCH
  5
2C422
330
1F
100
AcDbEntity
  8
実線
 48
0.1
100
AcDbHatch
 10
0.0
 20
0.0
 30
0.0
210
0.0
220
0.0
230
1.0
  2
ANSI31
 70
     0
 71
     0
 91
        2
 92
        7
 72
     1
 73
     1
 93
        3
 10
2319.280198836408
 20
-1591.655284407702
 42
0.0
 10
2319.280198836408
 20
-1595.255284407703
 42
0.0
 10
2322.880198836406
 20
-1595.255284407703
 42
0.4142135623730895
 97
        0
 92
        7
 72
     1
 73
     1
 93
        3
 10
2319.280198836408
 20
-1595.255284407703
 42
0.0
 10
2315.680198836408
 20
-1595.255284407703
 42
0.4142135623730895
 10
2319.280198836408
 20
-1598.855284407703
 42
0.0
 97
        0
 75
     0
 76
     1
 52
0.0
 41
5.0
 77
     0
 78
     1
 53
45.0
 43
0.0
 44
-944.1378357487288
 45
-0.4419417382415923
 46
0.4419417382415923
 79
     0
 47
0.0363543198641016
 98
        2
 10
2321.741013190465
 20
-1593.761561551072
 10
2318.540300100367
 20
-1595.797408117304
  0
LINE
  5
2C626
330
1F
100
AcDbEntity
  8
中心線
 48
0.2
100
AcDbLine
 10
2019.382530492371
 20
-1603.405284407701
 30
0.0
 11
2019.382530492371
 21
-1596.105284407705
 31
0.0
  0
CIRCLE
  5
2C627
330
1F
100
AcDbEntity
  8
実線
100
AcDbCircle
 10
2019.382530492371
 20
-1599.755284407702
 30
0.0
 40
1.649999999998384
  0
CIRCLE
  5
2C628
330
1F
100
AcDbEntity
  8
細線
100
AcDbCircle
 10
2019.382530492371
 20
-1599.755284407702
 30
0.0
 40
1.999999999998293
  0
LINE
  5
2C629
330
1F
100
AcDbEntity
  8
中心線
 48
0.2
100
AcDbLine
 10
2015.732530492372
 20
-1599.755284407702
 30
0.0
 11
2023.032530492369
 21
-1599.755284407701
 31
0.0
  0
LINE
  5
2C62A
330
1F
100
AcDbEntity
  8
中心線
 48
0.5
100
AcDbLine
 10
2019.382530492371
 20
-1702.628524325445
 30
0.0
 11
2019.382530492371
 21
-1737.628524325445
 31
0.0
  0
LINE
  5
2C62B
330
1F
100
AcDbEntity
  8
中心線
 48
0.2
100
AcDbLine
 10
1974.382530492371
 20
-1603.405284407701
 30
0.0
 11
1974.382530492371
 21
-1596.105284407705
 31
0.0
  0
CIRCLE
  5
2C62C
330
1F
100
AcDbEntity
  8
実線
100
AcDbCircle
 10
1974.382530492371
 20
-1599.755284407702
 30
0.0
 40
1.649999999998384
  0
CIRCLE
  5
2C62D
330
1F
100
AcDbEntity
  8
細線
100
AcDbCircle
 10
1974.382530492371
 20
-1599.755284407702
 30
0.0
 40
1.999999999998293
  0
LINE
  5
2C62E
330
1F
100
AcDbEntity
  8
中心線
 48
0.2
100
AcDbLine
 10
1970.732530492372
 20
-1599.755284407702
 30
0.0
 11
1978.032530492368
 21
-1599.755284407701
 31
0.0
  0
LINE
  5
2C62F
330
1F
100
AcDbEntity
  8
中心線
 48
0.5
100
AcDbLine
 10
1974.382530492371
 20
-1702.628524325445
 30
0.0
 11
1974.382530492371
 21
-1737.628524325445
 31
0.0
  0
VIEWPORT
  5
2D205
330
2D204
100
AcDbEntity
 67
     1
  8
0
100
AcDbViewport
 10
207.6842346191404
 20
147.6739139556883
 30
0.0
 40
653.3404412610549
 41
299.0343451325002
 68
     1
 69
     1
1001
ACAD
1000
MVIEW
1002
{
1070
    16
1010
0.0
1020
0.0
1030
0.0
1010
0.0
1020
0.0
1030
1.0
1040
0.0
1040
299.0343451325002
1040
207.6842346191404
1040
147.6739139556883
1040
50.0
1040
0.0
1040
0.0
1070
     0
1070
   100
1070
     1
1070
     0
1070
     0
1070
     0
1070
     0
1070
     2
1040
0.0
1040
0.0
1040
0.0
1040
10.0
1040
10.0
1040
10.0
1040
10.0
1070
     0
1002
{
1002
}
1002
}
  0
VIEWPORT
  5
2D206
330
2D204
100
AcDbEntity
 67
     1
  8
MYVIEW
100
AcDbViewport
 10
207.4313274472447
 20
146.6688338714809
 30
0.0
 40
414.3908449126611
 41
291.0531579536398
 68
     2
 69
     2
1001
ACAD
1000
MVIEW
1002
{
1070
    16
1010
0.0
1020
0.0
1030
0.0
1010
0.0
1020
0.0
1030
1.0
1040
0.0
1040
436.5797375251196
1040
2111.171512479865
1040
-1630.029086441297
1040
50.0
1040
0.0
1040
0.0
1070
     0
1070
   100
1070
     1
1070
     2
1070
     0
1070
     0
1070
     0
1070
     0
1040
0.0
1040
0.0
1040
0.0
1040
10.0
1040
10.0
1040
10.0
1040
10.0
1070
     0
1002
{
1002
}
1002
}
  0
TEXT
  5
2D233
330
2D204
100
AcDbEntity
 67
     1
  8
文字
  6
CONTINUOUS
100
AcDbText
 10
337.6689773544477
 20
11.75329967377081
 30
0.0
 40
7.0
  1
ＳＥ－５６２９０
 41
0.9529999999999999
100
AcDbText
  0
TEXT
  5
2D2B8
330
2D204
100
AcDbEntity
 67
     1
  8
WAKUMOJI1
  6
CONTINUOUS
100
AcDbText
 10
144.131927571291
 20
21.39335646759497
 30
0.0
 40
4.0
  1
１～＊
 41
0.625
100
AcDbText
  0
TEXT
  5
2D2B9
330
2D204
100
AcDbEntity
 67
     1
  8
WAKUMOJI1
  6
CONTINUOUS
100
AcDbText
 10
136.1333845714824
 20
21.2100231342654
 30
0.0
 40
3.5
  1
Ａ
 72
     1
 11
137.7667179048157
 21
21.2100231342654
 31
0.0
100
AcDbText
  0
TEXT
  5
2D2BA
330
2D204
100
AcDbEntity
 67
     1
  8
WAKUMOJI1
  6
CONTINUOUS
100
AcDbText
 10
135.1319275712915
 20
16.39335646759499
 30
0.0
 40
4.0
  1
Ｒ＊－
 41
0.625
100
AcDbText
  0
TEXT
  5
2D2BB
330
2D204
100
AcDbEntity
 67
     1
  8
WAKUMOJI1
  6
CONTINUOUS
100
AcDbText
 10
160.1627465868908
 20
21.77803427355024
 30
0.0
 40
3.5
  1
＊＊＊＊＊
100
AcDbText
  0
TEXT
  5
2D2BC
330
2D204
100
AcDbEntity
 67
     1
  8
WAKUMOJI1
  6
CONTINUOUS
100
AcDbText
 10
232.131927571291
 20
16.39335646759499
 30
0.0
 40
3.0
  1
'99.**.**
 41
0.5
100
AcDbText
  0
MTEXT
  5
2D554
330
2D204
100
AcDbEntity
 67
     1
  8
文字１
 48
0.1
100
AcDbMText
 10
185.8789495764365
 20
30.75004145482694
 30
0.0
 40
6.0
 41
219.7878104437061
 71
     1
 72
     5
  1
τﾘﾆｱﾓｰﾀ ｺｱﾚｽｽﾀﾝﾀﾞｰﾄﾞ NLD-AM CLﾕﾆｯﾄ CLD-AM30SA2A (150N)
  7
MSｺ_ｼｯｸ-S
1001
ACAD
1000
MTEXTBEGIN
1070
    73
1070
     1
1070
    44
1040
1.0
1070
    74
1070
     0
1000
MTEXTEND
  0
ENDSEC
  0
SECTION
  2
OBJECTS
  0
DICTIONARY
  5
C
330
0
100
AcDbDictionary
  3
ACAD_GROUP
350
D
  3
ACAD_LAYOUT
350
1A
  3
ACAD_MLINESTYLE
350
17
  3
ACAD_PLOTSETTINGS
350
19
  3
ACAD_PLOTSTYLENAME
350
E
  3
ACADDIM
350
2C078
  3
ACDBHEADERROUNDTRIPXREC
350
2D56D
  3
ACDBVARIABLEDICTIONARY
350
72CC
  0
DICTIONARY
  5
29CAD
330
2
100
AcDbDictionary
280
     1
  3
ACAD_LAYERFILTERS
360
29CAE
  3
ACAD_LAYERSTATES
360
29CBB
  0
DICTIONARY
  5
2847E
330
1F
100
AcDbDictionary
280
     1
  3
ACAD_LAYOUTSELFREF
360
2D58E
  3
ACAD_SORTENTS
360
2847F
  0
DICTIONARY
  5
2D58F
330
2D204
100
AcDbDictionary
280
     1
  3
ACAD_LAYOUTSELFREF
360
2D590
  0
DICTIONARY
  5
D
102
{ACAD_REACTORS
330
C
102
}
330
C
100
AcDbDictionary
  3
*A1
350
1220
  3
*A10
350
2B0DE
  3
*A100
350
21E76
  3
*A101
350
27093
  3
*A102
350
A53E
  3
*A103
350
C1CA
  3
*A104
350
24698
  3
*A105
350
C536
  3
*A106
350
CA67
  3
*A107
350
27500
  3
*A108
350
2790D
  3
*A109
350
A4F4
  3
*A11
350
27079
  3
*A110
350
23507
  3
*A111
350
AA9E
  3
*A112
350
93C3
  3
*A113
350
25374
  3
*A114
350
28680
  3
*A115
350
CC1A
  3
*A116
350
24A7B
  3
*A117
350
274D1
  3
*A118
350
9131
  3
*A119
350
2707A
  3
*A12
350
25F42
  3
*A120
350
27086
  3
*A121
350
6E9B
  3
*A122
350
2707D
  3
*A123
350
9936
  3
*A124
350
80FC
  3
*A125
350
27088
  3
*A126
350
90E7
  3
*A127
350
2449B
  3
*A128
350
6FF5
  3
*A129
350
1A5B
  3
*A13
350
A4F3
  3
*A130
350
2706C
  3
*A131
350
245B4
  3
*A132
350
2C5D3
  3
*A133
350
2C5D4
  3
*A134
350
2C5D5
  3
*A135
350
21E27
  3
*A136
350
242E5
  3
*A137
350
2C5D6
  3
*A138
350
662F
  3
*A139
350
80FD
  3
*A14
350
2B3A2
  3
*A140
350
27070
  3
*A141
350
2C5D7
  3
*A142
350
283A6
  3
*A143
350
2C5D8
  3
*A144
350
2C5D9
  3
*A145
350
2C5DA
  3
*A146
350
22263
  3
*A147
350
8306
  3
*A148
350
239CA
  3
*A149
350
2C5DB
  3
*A15
350
24A7E
  3
*A150
350
2CA0A
  3
*A151
350
2CA0B
  3
*A152
350
9C90
  3
*A153
350
2CA0C
  3
*A154
350
10EBD
  3
*A155
350
24694
  3
*A156
350
2CA0D
  3
*A157
350
25F3F
  3
*A158
350
22DAD
  3
*A159
350
2CA0E
  3
*A16
350
9130
  3
*A160
350
2CA0F
  3
*A161
350
2CA10
  3
*A162
350
2536F
  3
*A163
350
23ECD
  3
*A164
350
22B10
  3
*A165
350
2CA11
  3
*A166
350
AA60
  3
*A167
350
2CA12
  3
*A168
350
27089
  3
*A169
350
1207
  3
*A17
350
BFA9
  3
*A170
350
27075
  3
*A171
350
2D098
  3
*A172
350
2D099
  3
*A173
350
2D09A
  3
*A174
350
2D09B
  3
*A175
350
2D09C
  3
*A176
350
25F49
  3
*A177
350
24D5E
  3
*A178
350
285C3
  3
*A179
350
CB80
  3
*A18
350
2449D
  3
*A180
350
25371
  3
*A181
350
2D09D
  3
*A182
350
2790C
  3
*A183
350
21E26
  3
*A184
350
2D09E
  3
*A185
350
92A7
  3
*A186
350
2755E
  3
*A187
350
2D09F
  3
*A188
350
23E92
  3
*A189
350
2D0A0
  3
*A19
350
3DA0
  3
*A190
350
2867F
  3
*A191
350
27446
  3
*A192
350
2707B
  3
*A193
350
A5B4
  3
*A194
350
D6FD
  3
*A195
350
22DB2
  3
*A196
350
1C56
  3
*A197
350
2706A
  3
*A198
350
22782
  3
*A199
350
AAAF
  3
*A2
350
27063
  3
*A20
350
2B3A3
  3
*A200
350
25921
  3
*A201
350
9B47
  3
*A202
350
24693
  3
*A203
350
27087
  3
*A204
350
24F5C
  3
*A205
350
27942
  3
*A206
350
927F
  3
*A207
350
2A44A
  3
*A208
350
19BED
  3
*A209
350
227A6
  3
*A21
350
128B
  3
*A210
350
27074
  3
*A211
350
228C4
  3
*A212
350
228C5
  3
*A213
350
242E2
  3
*A214
350
80FE
  3
*A215
350
939C
  3
*A216
350
2A44E
  3
*A217
350
2708B
  3
*A218
350
2A452
  3
*A219
350
25F40
  3
*A22
350
2B822
  3
*A220
350
4FA2
  3
*A221
350
B351
  3
*A222
350
27068
  3
*A223
350
25F44
  3
*A224
350
C5AE
  3
*A225
350
239CB
  3
*A226
350
639C
  3
*A227
350
1D706
  3
*A228
350
D6FC
  3
*A229
350
920C
  3
*A23
350
2B88B
  3
*A230
350
229C3
  3
*A231
350
2845E
  3
*A232
350
22DB3
  3
*A233
350
227B6
  3
*A234
350
19794
  3
*A235
350
279D3
  3
*A236
350
1BC3
  3
*A237
350
27C47
  3
*A238
350
24956
  3
*A239
350
22C04
  3
*A24
350
148A6
  3
*A240
350
9282
  3
*A241
350
639B
  3
*A242
350
6F90
  3
*A243
350
45DB
  3
*A244
350
27064
  3
*A245
350
1C73
  3
*A246
350
22369
  3
*A247
350
27060
  3
*A248
350
25F46
  3
*A249
350
27562
  3
*A25
350
2B923
  3
*A250
350
AAB1
  3
*A251
350
228C2
  3
*A252
350
1152
  3
*A253
350
27084
  3
*A254
350
275F9
  3
*A255
350
27091
  3
*A256
350
1A425
  3
*A257
350
AAB0
  3
*A258
350
2536A
  3
*A259
350
2708F
  3
*A26
350
2B94C
  3
*A260
350
80D6
  3
*A261
350
4190
  3
*A262
350
27082
  3
*A263
350
8166
  3
*A264
350
243C0
  3
*A265
350
27067
  3
*A266
350
6565
  3
*A267
350
2844C
  3
*A268
350
12F2
  3
*A269
350
9C4A
  3
*A27
350
2B9CF
  3
*A270
350
A332
  3
*A271
350
27081
  3
*A272
350
8307
  3
*A273
350
1C7E3
  3
*A274
350
7074
  3
*A275
350
24695
  3
*A276
350
92CC
  3
*A277
350
19D1
  3
*A278
350
23A30
  3
*A279
350
B1F2
  3
*A28
350
9132
  3
*A280
350
8BED
  3
*A281
350
18F3
  3
*A282
350
1C33
  3
*A283
350
236FC
  3
*A284
350
92A6
  3
*A285
350
243BB
  3
*A286
350
25526
  3
*A287
350
920F
  3
*A288
350
1A85
  3
*A289
350
2749A
  3
*A29
350
25925
  3
*A290
350
274E7
  3
*A291
350
3102
  3
*A292
350
25F45
  3
*A293
350
24D5B
  3
*A294
350
22E84
  3
*A295
350
16BB
  3
*A296
350
242E3
  3
*A297
350
2536B
  3
*A298
350
27077
  3
*A299
350
2707C
  3
*A3
350
2B0D9
  3
*A30
350
2B9DA
  3
*A300
350
1C64C
  3
*A301
350
24692
  3
*A302
350
99B0
  3
*A303
350
2707E
  3
*A304
350
280D2
  3
*A305
350
8BB5
  3
*A306
350
1A46C
  3
*A307
350
63E1
  3
*A308
350
243BC
  3
*A309
350
23E8E
  3
*A31
350
2B9DB
  3
*A310
350
2707F
  3
*A311
350
D4D4
  3
*A312
350
2349A
  3
*A313
350
24879
  3
*A314
350
CB94
  3
*A315
350
80D7
  3
*A316
350
22B17
  3
*A317
350
25929
  3
*A318
350
22DB0
  3
*A319
350
117E
  3
*A32
350
242E0
  3
*A320
350
D8D7
  3
*A321
350
283F3
  3
*A322
350
27080
  3
*A323
350
25B45
  3
*A324
350
243BE
  3
*A325
350
24B2B
  3
*A326
350
27CF1
  3
*A327
350
1C0D
  3
*A328
350
AAAE
  3
*A329
350
37C8
  3
*A33
350
27090
  3
*A330
350
8BB3
  3
*A331
350
2239C
  3
*A332
350
27071
  3
*A333
350
B948
  3
*A334
350
25F86
  3
*A335
350
286BA
  3
*A336
350
6962
  3
*A337
350
349E
  3
*A338
350
A986
  3
*A339
350
6C31
  3
*A34
350
24F58
  3
*A340
350
917A
  3
*A341
350
24F5A
  3
*A342
350
22E6E
  3
*A343
350
23337
  3
*A344
350
228C3
  3
*A345
350
228C6
  3
*A346
350
6CF7
  3
*A347
350
B949
  3
*A348
350
45D7
  3
*A349
350
24A7C
  3
*A35
350
27078
  3
*A350
350
243BD
  3
*A351
350
6623
  3
*A352
350
27066
  3
*A353
350
2784F
  3
*A354
350
2449E
  3
*A355
350
280E0
  3
*A356
350
B974
  3
*A357
350
A2EC
  3
*A358
350
BA57
  3
*A359
350
28417
  3
*A36
350
1D705
  3
*A360
350
25920
  3
*A361
350
8122
  3
*A362
350
34DC
  3
*A363
350
6FB1
  3
*A364
350
1208
  3
*A365
350
4199
  3
*A366
350
6C2E
  3
*A367
350
1A89
  3
*A368
350
230AB
  3
*A369
350
2536C
  3
*A37
350
2C14A
  3
*A370
350
A107
  3
*A371
350
1101D
  3
*A372
350
23E94
  3
*A373
350
6569
  3
*A374
350
26067
  3
*A375
350
25F47
  3
*A376
350
282DD
  3
*A377
350
2449A
  3
*A378
350
4501
  3
*A379
350
63BF
  3
*A38
350
A2ED
  3
*A380
350
8124
  3
*A381
350
27069
  3
*A382
350
117F
  3
*A383
350
190B
  3
*A384
350
22B12
  3
*A385
350
25F3E
  3
*A386
350
639D
  3
*A387
350
27062
  3
*A388
350
22DAA
  3
*A389
350
AA61
  3
*A39
350
272ED
  3
*A390
350
28405
  3
*A391
350
26131
  3
*A392
350
25F43
  3
*A393
350
A336
  3
*A394
350
2292D
  3
*A395
350
B946
  3
*A396
350
22C22
  3
*A397
350
16DA
  3
*A398
350
7FF3
  3
*A399
350
3442
  3
*A4
350
A4F1
  3
*A40
350
26210
  3
*A400
350
25923
  3
*A401
350
2592A
  3
*A402
350
2706B
  3
*A403
350
23E90
  3
*A404
350
24878
  3
*A405
350
2E19
  3
*A406
350
282DC
  3
*A407
350
A4F2
  3
*A408
350
25373
  3
*A409
350
282DE
  3
*A41
350
25B44
  3
*A410
350
25369
  3
*A411
350
22DB1
  3
*A412
350
25370
  3
*A413
350
283A7
  3
*A414
350
D5EB
  3
*A415
350
9935
  3
*A416
350
7FF8
  3
*A417
350
25446
  3
*A418
350
A591
  3
*A419
350
920E
  3
*A42
350
28559
  3
*A420
350
C7BB
  3
*A421
350
6C9C
  3
*A422
350
C69D
  3
*A423
350
2708C
  3
*A424
350
27061
  3
*A425
350
24A66
  3
*A426
350
22DAC
  3
*A427
350
245B8
  3
*A428
350
22DAB
  3
*A429
350
236FD
  3
*A43
350
239C6
  3
*A430
350
2845F
  3
*A431
350
1A689
  3
*A432
350
2785C
  3
*A433
350
830B
  3
*A434
350
C1E4
  3
*A435
350
7FF4
  3
*A436
350
2708A
  3
*A437
350
36C8
  3
*A438
350
BB10
  3
*A439
350
23A96
  3
*A44
350
6AB6
  3
*A440
350
1A15
  3
*A441
350
9C8F
  3
*A442
350
920D
  3
*A443
350
D724
  3
*A444
350
B94B
  3
*A445
350
23338
  3
*A446
350
229C2
  3
*A447
350
DCA
  3
*A448
350
2487C
  3
*A449
350
25926
  3
*A45
350
C538
  3
*A450
350
2705F
  3
*A451
350
B94A
  3
*A452
350
26068
  3
*A453
350
6FA2
  3
*A454
350
1A688
  3
*A455
350
2487A
  3
*A456
350
25F48
  3
*A457
350
8123
  3
*A458
350
28681
  3
*A459
350
91C4
  3
*A46
350
21E25
  3
*A460
350
939D
  3
*A461
350
A53F
  3
*A462
350
3101
  3
*A463
350
27065
  3
*A464
350
24955
  3
*A465
350
24D60
  3
*A466
350
6CCC
  3
*A467
350
A56C
  3
*A468
350
2844D
  3
*A469
350
2495B
  3
*A47
350
10CEC
  3
*A470
350
8CD1
  3
*A471
350
2708E
  3
*A472
350
2495C
  3
*A473
350
2536D
  3
*A474
350
CCA0
  3
*A475
350
BF05
  3
*A476
350
A4F0
  3
*A477
350
1D708
  3
*A478
350
2591F
  3
*A479
350
1A5A
  3
*A48
350
2487B
  3
*A480
350
27197
  3
*A481
350
93C4
  3
*A482
350
CC5E
  3
*A483
350
A2F5
  3
*A484
350
2487D
  3
*A485
350
242E1
  3
*A486
350
27095
  3
*A487
350
BB55
  3
*A488
350
AFF4
  3
*A489
350
B947
  3
*A49
350
25368
  3
*A490
350
27094
  3
*A491
350
28692
  3
*A492
350
22BE6
  3
*A493
350
25924
  3
*A494
350
12D2
  3
*A495
350
25367
  3
*A496
350
BFA8
  3
*A497
350
231F2
  3
*A498
350
A966
  3
*A499
350
AA9F
  3
*A5
350
27516
  3
*A50
350
22DAE
  3
*A500
350
2265B
  3
*A501
350
6C2B
  3
*A502
350
695F
  3
*A503
350
25B47
  3
*A504
350
1153
  3
*A505
350
1A12B
  3
*A506
350
22B14
  3
*A507
350
D69A
  3
*A508
350
3443
  3
*A509
350
DE6
  3
*A51
350
239C9
  3
*A510
350
25922
  3
*A511
350
235E0
  3
*A512
350
1A12A
  3
*A513
350
9933
  3
*A514
350
2257A
  3
*A515
350
9B46
  3
*A516
350
24B2A
  3
*A517
350
3DBF
  3
*A518
350
27073
  3
*A519
350
3ED3
  3
*A52
350
22DAF
  3
*A520
350
24A14
  3
*A521
350
BF7B
  3
*A522
350
22B11
  3
*A523
350
24A15
  3
*A524
350
AF2A
  3
*A525
350
27076
  3
*A526
350
23AFB
  3
*A527
350
242E4
  3
*A528
350
92CB
  3
*A529
350
91A0
  3
*A53
350
24957
  3
*A530
350
21E77
  3
*A531
350
349F
  3
*A532
350
6DFB
  3
*A533
350
2596A
  3
*A534
350
36E8
  3
*A535
350
A0BB
  3
*A536
350
12F1
  3
*A537
350
2536E
  3
*A538
350
2708D
  3
*A539
350
22B0F
  3
*A54
350
A331
  3
*A540
350
BEE2
  3
*A541
350
24699
  3
*A542
350
6960
  3
*A543
350
6C2C
  3
*A544
350
BF76
  3
*A545
350
25928
  3
*A546
350
24499
  3
*A547
350
A91C
  3
*A548
350
278E7
  3
*A549
350
418F
  3
*A55
350
6FC8
  3
*A550
350
6FC2
  3
*A551
350
225F5
  3
*A552
350
22DA9
  3
*A553
350
279CE
  3
*A554
350
2706F
  3
*A555
350
285C4
  3
*A556
350
25F41
  3
*A557
350
22B16
  3
*A558
350
6961
  3
*A559
350
27612
  3
*A56
350
29D12
  3
*A560
350
BFA7
  3
*A561
350
1A7B8
  3
*A562
350
25F85
  3
*A563
350
260CD
  3
*A564
350
D820
  3
*A565
350
8CD0
  3
*A566
350
25927
  3
*A567
350
24F5D
  3
*A568
350
126C
  3
*A569
350
228C7
  3
*A57
350
283E5
  3
*A570
350
2706D
  3
*A571
350
6355
  3
*A572
350
6356
  3
*A573
350
C88F
  3
*A574
350
234D7
  3
*A575
350
C410
  3
*A576
350
27085
  3
*A577
350
27092
  3
*A578
350
239C7
  3
*A579
350
270EF
  3
*A58
350
29D13
  3
*A580
350
A329
  3
*A581
350
23E8F
  3
*A582
350
D74A
  3
*A583
350
91C5
  3
*A584
350
2A9BB
  3
*A585
350
2A9BC
  3
*A586
350
2A9BD
  3
*A587
350
2A9BE
  3
*A588
350
2A9BF
  3
*A589
350
24959
  3
*A59
350
2219F
  3
*A590
350
2A9C0
  3
*A591
350
2ABA0
  3
*A592
350
12AA
  3
*A593
350
280D3
  3
*A594
350
25F4B
  3
*A595
350
9367
  3
*A596
350
2ABC2
  3
*A597
350
7FF2
  3
*A598
350
34A0
  3
*A599
350
2B0D7
  3
*A6
350
2B0DA
  3
*A60
350
BA56
  3
*A600
350
239C8
  3
*A601
350
2459C
  3
*A602
350
2B0D8
  3
*A603
350
6E9D
  3
*A61
350
29D2A
  3
*A62
350
2705E
  3
*A63
350
22B13
  3
*A64
350
8076
  3
*A65
350
148A7
  3
*A66
350
A4F5
  3
*A67
350
28416
  3
*A68
350
B973
  3
*A69
350
A919
  3
*A7
350
2B0DB
  3
*A70
350
6C2D
  3
*A71
350
A56E
  3
*A72
350
919F
  3
*A73
350
225AD
  3
*A74
350
22B15
  3
*A75
350
19E9
  3
*A76
350
2706E
  3
*A77
350
4502
  3
*A78
350
22E98
  3
*A79
350
28008
  3
*A8
350
2B0DC
  3
*A80
350
23EE2
  3
*A81
350
27398
  3
*A82
350
27072
  3
*A83
350
99AF
  3
*A84
350
15E1
  3
*A85
350
27AF2
  3
*A86
350
249B9
  3
*A87
350
A2F4
  3
*A88
350
27083
  3
*A89
350
25372
  3
*A9
350
2B0DD
  3
*A90
350
27545
  3
*A91
350
AAA0
  3
*A92
350
278E6
  3
*A93
350
36E7
  3
*A94
350
2596D
  3
*A95
350
28009
  3
*A96
350
21F2B
  3
*A97
350
CC19
  3
*A98
350
2752F
  3
*A99
350
A962
  0
DICTIONARY
  5
1A
102
{ACAD_REACTORS
330
C
102
}
330
C
100
AcDbDictionary
  0
DICTIONARY
  5
17
102
{ACAD_REACTORS
330
C
102
}
330
C
100
AcDbDictionary
  3
STANDARD
350
18
  0
DICTIONARY
  5
19
102
{ACAD_REACTORS
330
C
102
}
330
C
100
AcDbDictionary
  0
ACDBDICTIONARYWDFLT
  5
E
102
{ACAD_REACTORS
330
C
102
}
330
C
100
AcDbDictionary
281
     1
  3
Normal
350
F
100
AcDbDictionaryWithDefault
340
F
  0
XRECORD
  5
2C078
102
{ACAD_REACTORS
330
C
102
}
330
C
100
AcDbXrecord
 90
   990106
  3
OPEN
 60
     0
 61
     0
 62
     4
 63
     4
 64
     1
 65
     0
 66
     0
 67
     3
 68
     0
 69
     1
 70
     0
 71
     0
 72
     0
 40
0.0
170
     1
340
0
  0
DICTIONARY
  5
2D56D
102
{ACAD_REACTORS
330
C
102
}
330
C
100
AcDbDictionary
  3
CEPSNTYPE
350
2D577
  3
DIMSTYLEDATA
350
2D57B
  3
FINGERPRINTGUID
350
2D578
  3
HYPERLINKBASE
350
2D570
  3
INSUNITS
350
2D576
  3
LAYOUTDICT
350
2D572
  3
LWETCUNION
350
2D575
  3
PLOTSETDICT
350
2D573
  3
PLOTSTYLNAMDICT
350
2D574
  3
PSVPSCALE
350
2D57A
  3
PUCSBASE
350
2D57E
  3
PUCSORGBACK
350
2D584
  3
PUCSORGBOTTOM
350
2D580
  3
PUCSORGFRONT
350
2D583
  3
PUCSORGLEFT
350
2D581
  3
PUCSORGRIGHT
350
2D582
  3
PUCSORGTOP
350
2D57F
  3
PUCSORTHOREF
350
2D57C
  3
PUCSORTHOVIEW
350
2D57D
  3
STYLESHEET
350
2D571
  3
TSTACKALIGN
350
2D56E
  3
TSTACKSIZE
350
2D56F
  3
UCSBASE
350
2D587
  3
UCSORGBACK
350
2D58D
  3
UCSORGBOTTOM
350
2D589
  3
UCSORGFRONT
350
2D58C
  3
UCSORGLEFT
350
2D58A
  3
UCSORGRIGHT
350
2D58B
  3
UCSORGTOP
350
2D588
  3
UCSORTHOREF
350
2D585
  3
UCSORTHOVIEW
350
2D586
  3
VERSIONGUID
350
2D579
  0
DICTIONARY
  5
72CC
102
{ACAD_REACTORS
330
C
102
}
330
C
100
AcDbDictionary
  3
SORTENTS
350
72CD
  0
DICTIONARY
  5
29CAE
102
{ACAD_REACTORS
330
29CAD
102
}
330
29CAD
100
AcDbDictionary
280
     1
  3
0
360
29CAF
  3
11
360
29CB0
  3
150_
360
29CB1
  3
160_
360
29CB2
  3
170_
360
29CB3
  3
171_
360
29CB4
  3
350_
360
29CB5
  3
4
360
29CB6
  3
5
360
29CB7
  3
7
360
29CB8
  3
KISEKI
360
29CB9
  0
DICTIONARY
  5
29CBB
102
{ACAD_REACTORS
330
29CAD
102
}
330
29CAD
100
AcDbDictionary
  0
XRECORD
  5
2D58E
102
{ACAD_REACTORS
330
2847E
102
}
330
2847E
100
AcDbXrecord
340
1F
  0
SORTENTSTABLE
  5
2847F
102
{ACAD_REACTORS
330
2847E
102
}
330
2847E
100
AcDbSortentsTable
330
1F
  0
XRECORD
  5
2D590
102
{ACAD_REACTORS
330
2D58F
102
}
330
2D58F
100
AcDbXrecord
340
2D204
  0
GROUP
  5
1220
102
{ACAD_REACTORS
330
D
102
}
330
D
100
AcDbGroup
300

 70
     1
 71
     1
  0
GROUP
  5
2B0DE
102
{ACAD_REACTORS
330
D
102
}
330
D
100
AcDbGroup
300

 70
     1
 71
     1
  0
GROUP
  5
21E76
102
{ACAD_REACTORS
330
D
102
}
330
D
100
AcDbGroup
300

 70
     1
 71
     1
  0
GROUP
  5
27093
102
{ACAD_REACTORS
330
D
102
}
330
D
100
AcDbGroup
300

 70
     1
 71
     1
  0
GROUP
  5
A53E
102
{ACAD_REACTORS
330
D
102
}
330
D
100
AcDbGroup
300

 70
     1
 71
     1
  0
GROUP
  5
C1CA
102
{ACAD_REACTORS
330
D
102
}
330
D
100
AcDbGroup
300

 70
     1
 71
     1
  0
GROUP
  5
24698
102
{ACAD_REACTORS
330
D
102
}
330
D
100
AcDbGroup
300

 70
     1
 71
     1
  0
GROUP
  5
C536
102
{ACAD_REACTORS
330
D
102
}
330
D
100
AcDbGroup
300

 70
     1
 71
     1
  0
GROUP
  5
CA67
102
{ACAD_REACTORS
330
D
102
}
330
D
100
AcDbGroup
300

 70
     1
 71
     1
  0
GROUP
  5
27500
102
{ACAD_REACTORS
330
D
102
}
330
D
100
AcDbGroup
300

 70
     1
 71
     1
  0
GROUP
  5
2790D
102
{ACAD_REACTORS
330
D
102
}
330
D
100
AcDbGroup
300

 70
     1
 71
     1
  0
GROUP
  5
A4F4
102
{ACAD_REACTORS
330
D
102
}
330
D
100
AcDbGroup
300

 70
     1
 71
     1
  0
GROUP
  5
27079
102
{ACAD_REACTORS
330
D
102
}
330
D
100
AcDbGroup
300

 70
     1
 71
     1
  0
GROUP
  5
23507
102
{ACAD_REACTORS
330
D
102
}
330
D
100
AcDbGroup
300

 70
     1
 71
     1
  0
GROUP
  5
AA9E
102
{ACAD_REACTORS
330
D
102
}
330
D
100
AcDbGroup
300

 70
     1
 71
     1
  0
GROUP
  5
93C3
102
{ACAD_REACTORS
330
D
102
}
330
D
100
AcDbGroup
300

 70
     1
 71
     1
  0
GROUP
  5
25374
102
{ACAD_REACTORS
330
D
102
}
330
D
100
AcDbGroup
300

 70
     1
 71
     1
  0
GROUP
  5
28680
102
{ACAD_REACTORS
330
D
102
}
330
D
100
AcDbGroup
300

 70
     1
 71
     1
  0
GROUP
  5
CC1A
102
{ACAD_REACTORS
330
D
102
}
330
D
100
AcDbGroup
300

 70
     1
 71
     1
  0
GROUP
  5
24A7B
102
{ACAD_REACTORS
330
D
102
}
330
D
100
AcDbGroup
300

 70
     1
 71
     1
  0
GROUP
  5
274D1
102
{ACAD_REACTORS
330
D
102
}
330
D
100
AcDbGroup
300

 70
     1
 71
     1
  0
GROUP
  5
9131
102
{ACAD_REACTORS
330
D
102
}
330
D
100
AcDbGroup
300

 70
     1
 71
     1
  0
GROUP
  5
2707A
102
{ACAD_REACTORS
330
D
102
}
330
D
100
AcDbGroup
300

 70
     1
 71
     1
  0
GROUP
  5
25F42
102
{ACAD_REACTORS
330
D
102
}
330
D
100
AcDbGroup
300

 70
     1
 71
     1
  0
GROUP
  5
27086
102
{ACAD_REACTORS
330
D
102
}
330
D
100
AcDbGroup
300

 70
     1
 71
     1
  0
GROUP
  5
6E9B
102
{ACAD_REACTORS
330
D
102
}
330
D
100
AcDbGroup
300

 70
     1
 71
     1
  0
GROUP
  5
2707D
102
{ACAD_REACTORS
330
D
102
}
330
D
100
AcDbGroup
300

 70
     1
 71
     1
  0
GROUP
  5
9936
102
{ACAD_REACTORS
330
D
102
}
330
D
100
AcDbGroup
300

 70
     1
 71
     1
  0
GROUP
  5
80FC
102
{ACAD_REACTORS
330
D
102
}
330
D
100
AcDbGroup
300

 70
     1
 71
     1
  0
GROUP
  5
27088
102
{ACAD_REACTORS
330
D
102
}
330
D
100
AcDbGroup
300

 70
     1
 71
     1
  0
GROUP
  5
90E7
102
{ACAD_REACTORS
330
D
102
}
330
D
100
AcDbGroup
300

 70
     1
 71
     1
  0
GROUP
  5
2449B
102
{ACAD_REACTORS
330
D
102
}
330
D
100
AcDbGroup
300

 70
     1
 71
     1
  0
GROUP
  5
6FF5
102
{ACAD_REACTORS
330
D
102
}
330
D
100
AcDbGroup
300

 70
     1
 71
     1
  0
GROUP
  5
1A5B
102
{ACAD_REACTORS
330
D
102
}
330
D
100
AcDbGroup
300

 70
     1
 71
     1
  0
GROUP
  5
A4F3
102
{ACAD_REACTORS
330
D
102
}
330
D
100
AcDbGroup
300

 70
     1
 71
     1
  0
GROUP
  5
2706C
102
{ACAD_REACTORS
330
D
102
}
330
D
100
AcDbGroup
300

 70
     1
 71
     1
  0
GROUP
  5
245B4
102
{ACAD_REACTORS
330
D
102
}
330
D
100
AcDbGroup
300

 70
     1
 71
     1
  0
GROUP
  5
2C5D3
102
{ACAD_REACTORS
330
D
102
}
330
D
100
AcDbGroup
300

 70
     1
 71
     1
340
2C341
340
2C340
340
2C33F
340
2C33E
340
2C33D
340
2C33C
340
2C33B
340
2C33A
340
2C339
340
2C338
340
2C337
340
2C336
340
2C335
340
2C334
340
2C333
340
2C332
340
2C331
340
2C330
340
2C32F
340
2C32E
340
2C32D
340
2C32C
340
2C32B
340
2C32A
340
2C329
340
2C328
340
2C327
340
2C326
340
2C325
340
2C324
340
2C323
340
2C322
340
2C321
  0
GROUP
  5
2C5D4
102
{ACAD_REACTORS
330
D
102
}
330
D
100
AcDbGroup
300

 70
     1
 71
     1
340
2C41F
340
2C41E
340
2C41D
340
2C41C
340
2C41B
340
2C41A
340
2C419
340
2C418
340
2C417
340
2C416
340
2C415
340
2C414
340
2C413
340
2C412
340
2C411
340
2C410
340
2C40F
340
2C40E
340
2C40D
340
2C40C
340
2C40B
340
2C40A
340
2C409
340
2C408
340
2C407
340
2C406
340
2C405
340
2C404
340
2C403
340
2C402
340
2C401
340
2C400
340
2C3FF
340
2C3FE
340
2C3FD
340
2C3FC
340
2C3F9
340
2C3F8
340
2C3F7
340
2C352
340
2C351
340
2C350
340
2C34F
340
2C34E
340
2C34D
  0
GROUP
  5
2C5D5
102
{ACAD_REACTORS
330
D
102
}
330
D
100
AcDbGroup
300

 70
     1
 71
     1
340
2C369
340
2C368
340
2C367
340
2C35A
340
2C359
340
2C358
340
2C357
340
2C356
340
2C355
  0
GROUP
  5
21E27
102
{ACAD_REACTORS
330
D
102
}
330
D
100
AcDbGroup
300

 70
     1
 71
     1
  0
GROUP
  5
242E5
102
{ACAD_REACTORS
330
D
102
}
330
D
100
AcDbGroup
300

 70
     1
 71
     1
  0
GROUP
  5
2C5D6
102
{ACAD_REACTORS
330
D
102
}
330
D
100
AcDbGroup
300

 70
     1
 71
     1
340
2C378
340
2C377
  0
GROUP
  5
662F
102
{ACAD_REACTORS
330
D
102
}
330
D
100
AcDbGroup
300

 70
     1
 71
     1
  0
GROUP
  5
80FD
102
{ACAD_REACTORS
330
D
102
}
330
D
100
AcDbGroup
300

 70
     1
 71
     1
  0
GROUP
  5
2B3A2
102
{ACAD_REACTORS
330
D
102
}
330
D
100
AcDbGroup
300

 70
     1
 71
     1
  0
GROUP
  5
27070
102
{ACAD_REACTORS
330
D
102
}
330
D
100
AcDbGroup
300

 70
     1
 71
     1
  0
GROUP
  5
2C5D7
102
{ACAD_REACTORS
330
D
102
}
330
D
100
AcDbGroup
300

 70
     1
 71
     1
340
2C3CC
340
2C3CB
340
2C3CA
340
2C3C9
340
2C3C8
340
2C3C7
340
2C3C6
340
2C3C5
340
2C3C4
340
2C3C3
340
2C3C2
340
2C3C1
340
2C3C0
340
2C3BF
340
2C3BE
340
2C3BD
340
2C3BC
340
2C3BB
340
2C3BA
340
2C3B9
340
2C3B8
340
2C3B7
340
2C3B6
340
2C3B5
340
2C3B4
340
2C3B3
340
2C3B2
340
2C3B1
340
2C3B0
340
2C3AF
340
2C3AE
340
2C3AD
340
2C3AC
340
2C3AB
340
2C3AA
340
2C3A9
340
2C3A8
340
2C3A7
340
2C3A6
340
2C3A5
340
2C3A4
340
2C3A3
340
2C3A2
340
2C3A1
340
2C3A0
340
2C39F
340
2C39E
340
2C39D
340
2C39C
340
2C39B
340
2C39A
340
2C399
340
2C398
340
2C397
340
2C396
340
2C395
340
2C394
340
2C393
340
2C392
340
2C391
340
2C390
340
2C38F
340
2C38E
340
2C38D
340
2C38C
340
2C38B
340
2C38A
340
2C389
340
2C388
340
2C387
340
2C386
340
2C385
340
2C384
340
2C383
  0
GROUP
  5
283A6
102
{ACAD_REACTORS
330
D
102
}
330
D
100
AcDbGroup
300

 70
     1
 71
     1
  0
GROUP
  5
2C5D8
102
{ACAD_REACTORS
330
D
102
}
330
D
100
AcDbGroup
300

 70
     1
 71
     1
340
2C3D8
340
2C3D7
340
2C3D6
340
2C3D5
340
2C3D4
340
2C3D3
340
2C3D2
340
2C3D1
340
2C3D0
340
2C3CF
340
2C3CE
340
2C3CD
  0
GROUP
  5
2C5D9
102
{ACAD_REACTORS
330
D
102
}
330
D
100
AcDbGroup
300

 70
     1
 71
     1
340
2C3D0
340
2C3D8
340
2C3D7
340
2C3D6
340
2C3D5
340
2C3D4
340
2C3D3
340
2C3D2
340
2C3D1
340
2C3CF
340
2C3CE
340
2C3CD
340
2C3D9
340
2C3E2
340
2C3E1
340
2C3E0
340
2C3DF
340
2C3DE
340
2C3DD
340
2C3DC
340
2C3DB
340
2C3DA
340
2C3E5
340
2C3EC
340
2C3EB
340
2C3EA
340
2C3E9
340
2C3E8
340
2C3E7
340
2C3E6
340
2C3E4
340
2C3E3
  0
GROUP
  5
2C5DA
102
{ACAD_REACTORS
330
D
102
}
330
D
100
AcDbGroup
300

 70
     1
 71
     1
340
2C3E2
340
2C3E1
340
2C3E0
340
2C3DF
340
2C3DE
340
2C3DD
340
2C3DC
340
2C3DB
340
2C3DA
340
2C3D9
  0
GROUP
  5
22263
102
{ACAD_REACTORS
330
D
102
}
330
D
100
AcDbGroup
300

 70
     1
 71
     1
  0
GROUP
  5
8306
102
{ACAD_REACTORS
330
D
102
}
330
D
100
AcDbGroup
300

 70
     1
 71
     1
  0
GROUP
  5
239CA
102
{ACAD_REACTORS
330
D
102
}
330
D
100
AcDbGroup
300

 70
     1
 71
     1
  0
GROUP
  5
2C5DB
102
{ACAD_REACTORS
330
D
102
}
330
D
100
AcDbGroup
300

 70
     1
 71
     1
340
2C3EC
340
2C3EB
340
2C3EA
340
2C3E9
340
2C3E8
340
2C3E7
340
2C3E6
340
2C3E5
340
2C3E4
340
2C3E3
  0
GROUP
  5
24A7E
102
{ACAD_REACTORS
330
D
102
}
330
D
100
AcDbGroup
300

 70
     1
 71
     1
  0
GROUP
  5
2CA0A
102
{ACAD_REACTORS
330
D
102
}
330
D
100
AcDbGroup
300

 70
     1
 71
     1
  0
GROUP
  5
2CA0B
102
{ACAD_REACTORS
330
D
102
}
330
D
100
AcDbGroup
300

 70
     1
 71
     1
  0
GROUP
  5
9C90
102
{ACAD_REACTORS
330
D
102
}
330
D
100
AcDbGroup
300

 70
     1
 71
     1
  0
GROUP
  5
2CA0C
102
{ACAD_REACTORS
330
D
102
}
330
D
100
AcDbGroup
300

 70
     1
 71
     1
  0
GROUP
  5
10EBD
102
{ACAD_REACTORS
330
D
102
}
330
D
100
AcDbGroup
300

 70
     1
 71
     1
  0
GROUP
  5
24694
102
{ACAD_REACTORS
330
D
102
}
330
D
100
AcDbGroup
300

 70
     1
 71
     1
  0
GROUP
  5
2CA0D
102
{ACAD_REACTORS
330
D
102
}
330
D
100
AcDbGroup
300

 70
     1
 71
     1
  0
GROUP
  5
25F3F
102
{ACAD_REACTORS
330
D
102
}
330
D
100
AcDbGroup
300

 70
     1
 71
     1
  0
GROUP
  5
22DAD
102
{ACAD_REACTORS
330
D
102
}
330
D
100
AcDbGroup
300

 70
     1
 71
     1
  0
GROUP
  5
2CA0E
102
{ACAD_REACTORS
330
D
102
}
330
D
100
AcDbGroup
300

 70
     1
 71
     1
  0
GROUP
  5
9130
102
{ACAD_REACTORS
330
D
102
}
330
D
100
AcDbGroup
300

 70
     1
 71
     1
  0
GROUP
  5
2CA0F
102
{ACAD_REACTORS
330
D
102
}
330
D
100
AcDbGroup
300

 70
     1
 71
     1
  0
GROUP
  5
2CA10
102
{ACAD_REACTORS
330
D
102
}
330
D
100
AcDbGroup
300

 70
     1
 71
     1
  0
GROUP
  5
2536F
102
{ACAD_REACTORS
330
D
102
}
330
D
100
AcDbGroup
300

 70
     1
 71
     1
  0
GROUP
  5
23ECD
102
{ACAD_REACTORS
330
D
102
}
330
D
100
AcDbGroup
300

 70
     1
 71
     1
  0
GROUP
  5
22B10
102
{ACAD_REACTORS
330
D
102
}
330
D
100
AcDbGroup
300

 70
     1
 71
     1
  0
GROUP
  5
2CA11
102
{ACAD_REACTORS
330
D
102
}
330
D
100
AcDbGroup
300

 70
     1
 71
     1
  0
GROUP
  5
AA60
102
{ACAD_REACTORS
330
D
102
}
330
D
100
AcDbGroup
300

 70
     1
 71
     1
  0
GROUP
  5
2CA12
102
{ACAD_REACTORS
330
D
102
}
330
D
100
AcDbGroup
300

 70
     1
 71
     1
  0
GROUP
  5
27089
102
{ACAD_REACTORS
330
D
102
}
330
D
100
AcDbGroup
300

 70
     1
 71
     1
  0
GROUP
  5
1207
102
{ACAD_REACTORS
330
D
102
}
330
D
100
AcDbGroup
300

 70
     1
 71
     1
  0
GROUP
  5
BFA9
102
{ACAD_REACTORS
330
D
102
}
330
D
100
AcDbGroup
300

 70
     1
 71
     1
  0
GROUP
  5
27075
102
{ACAD_REACTORS
330
D
102
}
330
D
100
AcDbGroup
300

 70
     1
 71
     1
  0
GROUP
  5
2D098
102
{ACAD_REACTORS
330
D
102
}
330
D
100
AcDbGroup
300

 70
     1
 71
     1
  0
GROUP
  5
2D099
102
{ACAD_REACTORS
330
D
102
}
330
D
100
AcDbGroup
300

 70
     1
 71
     1
  0
GROUP
  5
2D09A
102
{ACAD_REACTORS
330
D
102
}
330
D
100
AcDbGroup
300

 70
     1
 71
     1
  0
GROUP
  5
2D09B
102
{ACAD_REACTORS
330
D
102
}
330
D
100
AcDbGroup
300

 70
     1
 71
     1
  0
GROUP
  5
2D09C
102
{ACAD_REACTORS
330
D
102
}
330
D
100
AcDbGroup
300

 70
     1
 71
     1
  0
GROUP
  5
25F49
102
{ACAD_REACTORS
330
D
102
}
330
D
100
AcDbGroup
300

 70
     1
 71
     1
  0
GROUP
  5
24D5E
102
{ACAD_REACTORS
330
D
102
}
330
D
100
AcDbGroup
300

 70
     1
 71
     1
  0
GROUP
  5
285C3
102
{ACAD_REACTORS
330
D
102
}
330
D
100
AcDbGroup
300

 70
     1
 71
     1
  0
GROUP
  5
CB80
102
{ACAD_REACTORS
330
D
102
}
330
D
100
AcDbGroup
300

 70
     1
 71
     1
  0
GROUP
  5
2449D
102
{ACAD_REACTORS
330
D
102
}
330
D
100
AcDbGroup
300

 70
     1
 71
     1
  0
GROUP
  5
25371
102
{ACAD_REACTORS
330
D
102
}
330
D
100
AcDbGroup
300

 70
     1
 71
     1
  0
GROUP
  5
2D09D
102
{ACAD_REACTORS
330
D
102
}
330
D
100
AcDbGroup
300

 70
     1
 71
     1
  0
GROUP
  5
2790C
102
{ACAD_REACTORS
330
D
102
}
330
D
100
AcDbGroup
300

 70
     1
 71
     1
  0
GROUP
  5
21E26
102
{ACAD_REACTORS
330
D
102
}
330
D
100
AcDbGroup
300

 70
     1
 71
     1
  0
GROUP
  5
2D09E
102
{ACAD_REACTORS
330
D
102
}
330
D
100
AcDbGroup
300

 70
     1
 71
     1
  0
GROUP
  5
92A7
102
{ACAD_REACTORS
330
D
102
}
330
D
100
AcDbGroup
300

 70
     1
 71
     1
  0
GROUP
  5
2755E
102
{ACAD_REACTORS
330
D
102
}
330
D
100
AcDbGroup
300

 70
     1
 71
     1
  0
GROUP
  5
2D09F
102
{ACAD_REACTORS
330
D
102
}
330
D
100
AcDbGroup
300

 70
     1
 71
     1
  0
GROUP
  5
23E92
102
{ACAD_REACTORS
330
D
102
}
330
D
100
AcDbGroup
300

 70
     1
 71
     1
  0
GROUP
  5
2D0A0
102
{ACAD_REACTORS
330
D
102
}
330
D
100
AcDbGroup
300

 70
     1
 71
     1
  0
GROUP
  5
3DA0
102
{ACAD_REACTORS
330
D
102
}
330
D
100
AcDbGroup
300

 70
     1
 71
     1
  0
GROUP
  5
2867F
102
{ACAD_REACTORS
330
D
102
}
330
D
100
AcDbGroup
300

 70
     1
 71
     1
  0
GROUP
  5
27446
102
{ACAD_REACTORS
330
D
102
}
330
D
100
AcDbGroup
300

 70
     1
 71
     1
  0
GROUP
  5
2707B
102
{ACAD_REACTORS
330
D
102
}
330
D
100
AcDbGroup
300

 70
     1
 71
     1
  0
GROUP
  5
A5B4
102
{ACAD_REACTORS
330
D
102
}
330
D
100
AcDbGroup
300

 70
     1
 71
     1
  0
GROUP
  5
D6FD
102
{ACAD_REACTORS
330
D
102
}
330
D
100
AcDbGroup
300

 70
     1
 71
     1
  0
GROUP
  5
22DB2
102
{ACAD_REACTORS
330
D
102
}
330
D
100
AcDbGroup
300

 70
     1
 71
     1
  0
GROUP
  5
1C56
102
{ACAD_REACTORS
330
D
102
}
330
D
100
AcDbGroup
300

 70
     1
 71
     1
  0
GROUP
  5
2706A
102
{ACAD_REACTORS
330
D
102
}
330
D
100
AcDbGroup
300

 70
     1
 71
     1
  0
GROUP
  5
22782
102
{ACAD_REACTORS
330
D
102
}
330
D
100
AcDbGroup
300

 70
     1
 71
     1
  0
GROUP
  5
AAAF
102
{ACAD_REACTORS
330
D
102
}
330
D
100
AcDbGroup
300

 70
     1
 71
     1
  0
GROUP
  5
27063
102
{ACAD_REACTORS
330
D
102
}
330
D
100
AcDbGroup
300

 70
     1
 71
     1
  0
GROUP
  5
2B3A3
102
{ACAD_REACTORS
330
D
102
}
330
D
100
AcDbGroup
300

 70
     1
 71
     1
  0
GROUP
  5
25921
102
{ACAD_REACTORS
330
D
102
}
330
D
100
AcDbGroup
300

 70
     1
 71
     1
  0
GROUP
  5
9B47
102
{ACAD_REACTORS
330
D
102
}
330
D
100
AcDbGroup
300

 70
     1
 71
     1
  0
GROUP
  5
24693
102
{ACAD_REACTORS
330
D
102
}
330
D
100
AcDbGroup
300

 70
     1
 71
     1
  0
GROUP
  5
27087
102
{ACAD_REACTORS
330
D
102
}
330
D
100
AcDbGroup
300

 70
     1
 71
     1
  0
GROUP
  5
24F5C
102
{ACAD_REACTORS
330
D
102
}
330
D
100
AcDbGroup
300

 70
     1
 71
     1
  0
GROUP
  5
27942
102
{ACAD_REACTORS
330
D
102
}
330
D
100
AcDbGroup
300

 70
     1
 71
     1
  0
GROUP
  5
927F
102
{ACAD_REACTORS
330
D
102
}
330
D
100
AcDbGroup
300

 70
     1
 71
     1
  0
GROUP
  5
2A44A
102
{ACAD_REACTORS
330
D
102
}
330
D
100
AcDbGroup
300

 70
     1
 71
     1
  0
GROUP
  5
19BED
102
{ACAD_REACTORS
330
D
102
}
330
D
100
AcDbGroup
300

 70
     1
 71
     1
  0
GROUP
  5
227A6
102
{ACAD_REACTORS
330
D
102
}
330
D
100
AcDbGroup
300

 70
     1
 71
     1
  0
GROUP
  5
128B
102
{ACAD_REACTORS
330
D
102
}
330
D
100
AcDbGroup
300

 70
     1
 71
     1
  0
GROUP
  5
27074
102
{ACAD_REACTORS
330
D
102
}
330
D
100
AcDbGroup
300

 70
     1
 71
     1
  0
GROUP
  5
228C4
102
{ACAD_REACTORS
330
D
102
}
330
D
100
AcDbGroup
300

 70
     1
 71
     1
  0
GROUP
  5
228C5
102
{ACAD_REACTORS
330
D
102
}
330
D
100
AcDbGroup
300

 70
     1
 71
     1
  0
GROUP
  5
242E2
102
{ACAD_REACTORS
330
D
102
}
330
D
100
AcDbGroup
300

 70
     1
 71
     1
  0
GROUP
  5
80FE
102
{ACAD_REACTORS
330
D
102
}
330
D
100
AcDbGroup
300

 70
     1
 71
     1
  0
GROUP
  5
939C
102
{ACAD_REACTORS
330
D
102
}
330
D
100
AcDbGroup
300

 70
     1
 71
     1
  0
GROUP
  5
2A44E
102
{ACAD_REACTORS
330
D
102
}
330
D
100
AcDbGroup
300

 70
     1
 71
     1
  0
GROUP
  5
2708B
102
{ACAD_REACTORS
330
D
102
}
330
D
100
AcDbGroup
300

 70
     1
 71
     1
  0
GROUP
  5
2A452
102
{ACAD_REACTORS
330
D
102
}
330
D
100
AcDbGroup
300

 70
     1
 71
     1
  0
GROUP
  5
25F40
102
{ACAD_REACTORS
330
D
102
}
330
D
100
AcDbGroup
300

 70
     1
 71
     1
  0
GROUP
  5
2B822
102
{ACAD_REACTORS
330
D
102
}
330
D
100
AcDbGroup
300

 70
     1
 71
     1
  0
GROUP
  5
4FA2
102
{ACAD_REACTORS
330
D
102
}
330
D
100
AcDbGroup
300

 70
     1
 71
     1
  0
GROUP
  5
B351
102
{ACAD_REACTORS
330
D
102
}
330
D
100
AcDbGroup
300

 70
     1
 71
     1
  0
GROUP
  5
27068
102
{ACAD_REACTORS
330
D
102
}
330
D
100
AcDbGroup
300

 70
     1
 71
     1
  0
GROUP
  5
25F44
102
{ACAD_REACTORS
330
D
102
}
330
D
100
AcDbGroup
300

 70
     1
 71
     1
  0
GROUP
  5
C5AE
102
{ACAD_REACTORS
330
D
102
}
330
D
100
AcDbGroup
300

 70
     1
 71
     1
  0
GROUP
  5
239CB
102
{ACAD_REACTORS
330
D
102
}
330
D
100
AcDbGroup
300

 70
     1
 71
     1
  0
GROUP
  5
639C
102
{ACAD_REACTORS
330
D
102
}
330
D
100
AcDbGroup
300

 70
     1
 71
     1
  0
GROUP
  5
1D706
102
{ACAD_REACTORS
330
D
102
}
330
D
100
AcDbGroup
300

 70
     1
 71
     1
  0
GROUP
  5
D6FC
102
{ACAD_REACTORS
330
D
102
}
330
D
100
AcDbGroup
300

 70
     1
 71
     1
  0
GROUP
  5
920C
102
{ACAD_REACTORS
330
D
102
}
330
D
100
AcDbGroup
300

 70
     1
 71
     1
  0
GROUP
  5
2B88B
102
{ACAD_REACTORS
330
D
102
}
330
D
100
AcDbGroup
300

 70
     1
 71
     1
  0
GROUP
  5
229C3
102
{ACAD_REACTORS
330
D
102
}
330
D
100
AcDbGroup
300

 70
     1
 71
     1
  0
GROUP
  5
2845E
102
{ACAD_REACTORS
330
D
102
}
330
D
100
AcDbGroup
300

 70
     1
 71
     1
  0
GROUP
  5
22DB3
102
{ACAD_REACTORS
330
D
102
}
330
D
100
AcDbGroup
300

 70
     1
 71
     1
  0
GROUP
  5
227B6
102
{ACAD_REACTORS
330
D
102
}
330
D
100
AcDbGroup
300

 70
     1
 71
     1
  0
GROUP
  5
19794
102
{ACAD_REACTORS
330
D
102
}
330
D
100
AcDbGroup
300

 70
     1
 71
     1
  0
GROUP
  5
279D3
102
{ACAD_REACTORS
330
D
102
}
330
D
100
AcDbGroup
300

 70
     1
 71
     1
  0
GROUP
  5
1BC3
102
{ACAD_REACTORS
330
D
102
}
330
D
100
AcDbGroup
300

 70
     1
 71
     1
  0
GROUP
  5
27C47
102
{ACAD_REACTORS
330
D
102
}
330
D
100
AcDbGroup
300

 70
     1
 71
     1
  0
GROUP
  5
24956
102
{ACAD_REACTORS
330
D
102
}
330
D
100
AcDbGroup
300

 70
     1
 71
     1
  0
GROUP
  5
22C04
102
{ACAD_REACTORS
330
D
102
}
330
D
100
AcDbGroup
300

 70
     1
 71
     1
  0
GROUP
  5
148A6
102
{ACAD_REACTORS
330
D
102
}
330
D
100
AcDbGroup
300

 70
     1
 71
     1
  0
GROUP
  5
9282
102
{ACAD_REACTORS
330
D
102
}
330
D
100
AcDbGroup
300

 70
     1
 71
     1
  0
GROUP
  5
639B
102
{ACAD_REACTORS
330
D
102
}
330
D
100
AcDbGroup
300

 70
     1
 71
     1
  0
GROUP
  5
6F90
102
{ACAD_REACTORS
330
D
102
}
330
D
100
AcDbGroup
300

 70
     1
 71
     1
  0
GROUP
  5
45DB
102
{ACAD_REACTORS
330
D
102
}
330
D
100
AcDbGroup
300

 70
     1
 71
     1
  0
GROUP
  5
27064
102
{ACAD_REACTORS
330
D
102
}
330
D
100
AcDbGroup
300

 70
     1
 71
     1
  0
GROUP
  5
1C73
102
{ACAD_REACTORS
330
D
102
}
330
D
100
AcDbGroup
300

 70
     1
 71
     1
  0
GROUP
  5
22369
102
{ACAD_REACTORS
330
D
102
}
330
D
100
AcDbGroup
300

 70
     1
 71
     1
  0
GROUP
  5
27060
102
{ACAD_REACTORS
330
D
102
}
330
D
100
AcDbGroup
300

 70
     1
 71
     1
  0
GROUP
  5
25F46
102
{ACAD_REACTORS
330
D
102
}
330
D
100
AcDbGroup
300

 70
     1
 71
     1
  0
GROUP
  5
27562
102
{ACAD_REACTORS
330
D
102
}
330
D
100
AcDbGroup
300

 70
     1
 71
     1
  0
GROUP
  5
2B923
102
{ACAD_REACTORS
330
D
102
}
330
D
100
AcDbGroup
300

 70
     1
 71
     1
  0
GROUP
  5
AAB1
102
{ACAD_REACTORS
330
D
102
}
330
D
100
AcDbGroup
300

 70
     1
 71
     1
  0
GROUP
  5
228C2
102
{ACAD_REACTORS
330
D
102
}
330
D
100
AcDbGroup
300

 70
     1
 71
     1
  0
GROUP
  5
1152
102
{ACAD_REACTORS
330
D
102
}
330
D
100
AcDbGroup
300

 70
     1
 71
     1
  0
GROUP
  5
27084
102
{ACAD_REACTORS
330
D
102
}
330
D
100
AcDbGroup
300

 70
     1
 71
     1
  0
GROUP
  5
275F9
102
{ACAD_REACTORS
330
D
102
}
330
D
100
AcDbGroup
300

 70
     1
 71
     1
  0
GROUP
  5
27091
102
{ACAD_REACTORS
330
D
102
}
330
D
100
AcDbGroup
300

 70
     1
 71
     1
  0
GROUP
  5
1A425
102
{ACAD_REACTORS
330
D
102
}
330
D
100
AcDbGroup
300

 70
     1
 71
     1
  0
GROUP
  5
AAB0
102
{ACAD_REACTORS
330
D
102
}
330
D
100
AcDbGroup
300

 70
     1
 71
     1
  0
GROUP
  5
2536A
102
{ACAD_REACTORS
330
D
102
}
330
D
100
AcDbGroup
300

 70
     1
 71
     1
  0
GROUP
  5
2708F
102
{ACAD_REACTORS
330
D
102
}
330
D
100
AcDbGroup
300

 70
     1
 71
     1
  0
GROUP
  5
2B94C
102
{ACAD_REACTORS
330
D
102
}
330
D
100
AcDbGroup
300

 70
     1
 71
     1
  0
GROUP
  5
80D6
102
{ACAD_REACTORS
330
D
102
}
330
D
100
AcDbGroup
300

 70
     1
 71
     1
  0
GROUP
  5
4190
102
{ACAD_REACTORS
330
D
102
}
330
D
100
AcDbGroup
300

 70
     1
 71
     1
  0
GROUP
  5
27082
102
{ACAD_REACTORS
330
D
102
}
330
D
100
AcDbGroup
300

 70
     1
 71
     1
  0
GROUP
  5
8166
102
{ACAD_REACTORS
330
D
102
}
330
D
100
AcDbGroup
300

 70
     1
 71
     1
  0
GROUP
  5
243C0
102
{ACAD_REACTORS
330
D
102
}
330
D
100
AcDbGroup
300

 70
     1
 71
     1
  0
GROUP
  5
27067
102
{ACAD_REACTORS
330
D
102
}
330
D
100
AcDbGroup
300

 70
     1
 71
     1
  0
GROUP
  5
6565
102
{ACAD_REACTORS
330
D
102
}
330
D
100
AcDbGroup
300

 70
     1
 71
     1
  0
GROUP
  5
2844C
102
{ACAD_REACTORS
330
D
102
}
330
D
100
AcDbGroup
300

 70
     1
 71
     1
  0
GROUP
  5
12F2
102
{ACAD_REACTORS
330
D
102
}
330
D
100
AcDbGroup
300

 70
     1
 71
     1
  0
GROUP
  5
9C4A
102
{ACAD_REACTORS
330
D
102
}
330
D
100
AcDbGroup
300

 70
     1
 71
     1
  0
GROUP
  5
2B9CF
102
{ACAD_REACTORS
330
D
102
}
330
D
100
AcDbGroup
300

 70
     1
 71
     1
  0
GROUP
  5
A332
102
{ACAD_REACTORS
330
D
102
}
330
D
100
AcDbGroup
300

 70
     1
 71
     1
  0
GROUP
  5
27081
102
{ACAD_REACTORS
330
D
102
}
330
D
100
AcDbGroup
300

 70
     1
 71
     1
  0
GROUP
  5
8307
102
{ACAD_REACTORS
330
D
102
}
330
D
100
AcDbGroup
300

 70
     1
 71
     1
  0
GROUP
  5
1C7E3
102
{ACAD_REACTORS
330
D
102
}
330
D
100
AcDbGroup
300

 70
     1
 71
     1
  0
GROUP
  5
7074
102
{ACAD_REACTORS
330
D
102
}
330
D
100
AcDbGroup
300

 70
     1
 71
     1
  0
GROUP
  5
24695
102
{ACAD_REACTORS
330
D
102
}
330
D
100
AcDbGroup
300

 70
     1
 71
     1
  0
GROUP
  5
92CC
102
{ACAD_REACTORS
330
D
102
}
330
D
100
AcDbGroup
300

 70
     1
 71
     1
  0
GROUP
  5
19D1
102
{ACAD_REACTORS
330
D
102
}
330
D
100
AcDbGroup
300

 70
     1
 71
     1
  0
GROUP
  5
23A30
102
{ACAD_REACTORS
330
D
102
}
330
D
100
AcDbGroup
300

 70
     1
 71
     1
  0
GROUP
  5
B1F2
102
{ACAD_REACTORS
330
D
102
}
330
D
100
AcDbGroup
300

 70
     1
 71
     1
  0
GROUP
  5
9132
102
{ACAD_REACTORS
330
D
102
}
330
D
100
AcDbGroup
300

 70
     1
 71
     1
  0
GROUP
  5
8BED
102
{ACAD_REACTORS
330
D
102
}
330
D
100
AcDbGroup
300

 70
     1
 71
     1
  0
GROUP
  5
18F3
102
{ACAD_REACTORS
330
D
102
}
330
D
100
AcDbGroup
300

 70
     1
 71
     1
  0
GROUP
  5
1C33
102
{ACAD_REACTORS
330
D
102
}
330
D
100
AcDbGroup
300

 70
     1
 71
     1
  0
GROUP
  5
236FC
102
{ACAD_REACTORS
330
D
102
}
330
D
100
AcDbGroup
300

 70
     1
 71
     1
  0
GROUP
  5
92A6
102
{ACAD_REACTORS
330
D
102
}
330
D
100
AcDbGroup
300

 70
     1
 71
     1
  0
GROUP
  5
243BB
102
{ACAD_REACTORS
330
D
102
}
330
D
100
AcDbGroup
300

 70
     1
 71
     1
  0
GROUP
  5
25526
102
{ACAD_REACTORS
330
D
102
}
330
D
100
AcDbGroup
300

 70
     1
 71
     1
  0
GROUP
  5
920F
102
{ACAD_REACTORS
330
D
102
}
330
D
100
AcDbGroup
300

 70
     1
 71
     1
  0
GROUP
  5
1A85
102
{ACAD_REACTORS
330
D
102
}
330
D
100
AcDbGroup
300

 70
     1
 71
     1
  0
GROUP
  5
2749A
102
{ACAD_REACTORS
330
D
102
}
330
D
100
AcDbGroup
300

 70
     1
 71
     1
  0
GROUP
  5
25925
102
{ACAD_REACTORS
330
D
102
}
330
D
100
AcDbGroup
300

 70
     1
 71
     1
  0
GROUP
  5
274E7
102
{ACAD_REACTORS
330
D
102
}
330
D
100
AcDbGroup
300

 70
     1
 71
     1
  0
GROUP
  5
3102
102
{ACAD_REACTORS
330
D
102
}
330
D
100
AcDbGroup
300

 70
     1
 71
     1
  0
GROUP
  5
25F45
102
{ACAD_REACTORS
330
D
102
}
330
D
100
AcDbGroup
300

 70
     1
 71
     1
  0
GROUP
  5
24D5B
102
{ACAD_REACTORS
330
D
102
}
330
D
100
AcDbGroup
300

 70
     1
 71
     1
  0
GROUP
  5
22E84
102
{ACAD_REACTORS
330
D
102
}
330
D
100
AcDbGroup
300

 70
     1
 71
     1
  0
GROUP
  5
16BB
102
{ACAD_REACTORS
330
D
102
}
330
D
100
AcDbGroup
300

 70
     1
 71
     1
  0
GROUP
  5
242E3
102
{ACAD_REACTORS
330
D
102
}
330
D
100
AcDbGroup
300

 70
     1
 71
     1
  0
GROUP
  5
2536B
102
{ACAD_REACTORS
330
D
102
}
330
D
100
AcDbGroup
300

 70
     1
 71
     1
  0
GROUP
  5
27077
102
{ACAD_REACTORS
330
D
102
}
330
D
100
AcDbGroup
300

 70
     1
 71
     1
  0
GROUP
  5
2707C
102
{ACAD_REACTORS
330
D
102
}
330
D
100
AcDbGroup
300

 70
     1
 71
     1
  0
GROUP
  5
2B0D9
102
{ACAD_REACTORS
330
D
102
}
330
D
100
AcDbGroup
300

 70
     1
 71
     1
  0
GROUP
  5
2B9DA
102
{ACAD_REACTORS
330
D
102
}
330
D
100
AcDbGroup
300

 70
     1
 71
     1
  0
GROUP
  5
1C64C
102
{ACAD_REACTORS
330
D
102
}
330
D
100
AcDbGroup
300

 70
     1
 71
     1
  0
GROUP
  5
24692
102
{ACAD_REACTORS
330
D
102
}
330
D
100
AcDbGroup
300

 70
     1
 71
     1
  0
GROUP
  5
99B0
102
{ACAD_REACTORS
330
D
102
}
330
D
100
AcDbGroup
300

 70
     1
 71
     1
  0
GROUP
  5
2707E
102
{ACAD_REACTORS
330
D
102
}
330
D
100
AcDbGroup
300

 70
     1
 71
     1
  0
GROUP
  5
280D2
102
{ACAD_REACTORS
330
D
102
}
330
D
100
AcDbGroup
300

 70
     1
 71
     1
  0
GROUP
  5
8BB5
102
{ACAD_REACTORS
330
D
102
}
330
D
100
AcDbGroup
300

 70
     1
 71
     1
  0
GROUP
  5
1A46C
102
{ACAD_REACTORS
330
D
102
}
330
D
100
AcDbGroup
300

 70
     1
 71
     1
  0
GROUP
  5
63E1
102
{ACAD_REACTORS
330
D
102
}
330
D
100
AcDbGroup
300

 70
     1
 71
     1
  0
GROUP
  5
243BC
102
{ACAD_REACTORS
330
D
102
}
330
D
100
AcDbGroup
300

 70
     1
 71
     1
  0
GROUP
  5
23E8E
102
{ACAD_REACTORS
330
D
102
}
330
D
100
AcDbGroup
300

 70
     1
 71
     1
  0
GROUP
  5
2B9DB
102
{ACAD_REACTORS
330
D
102
}
330
D
100
AcDbGroup
300

 70
     1
 71
     1
  0
GROUP
  5
2707F
102
{ACAD_REACTORS
330
D
102
}
330
D
100
AcDbGroup
300

 70
     1
 71
     1
  0
GROUP
  5
D4D4
102
{ACAD_REACTORS
330
D
102
}
330
D
100
AcDbGroup
300

 70
     1
 71
     1
  0
GROUP
  5
2349A
102
{ACAD_REACTORS
330
D
102
}
330
D
100
AcDbGroup
300

 70
     1
 71
     1
  0
GROUP
  5
24879
102
{ACAD_REACTORS
330
D
102
}
330
D
100
AcDbGroup
300

 70
     1
 71
     1
  0
GROUP
  5
CB94
102
{ACAD_REACTORS
330
D
102
}
330
D
100
AcDbGroup
300

 70
     1
 71
     1
  0
GROUP
  5
80D7
102
{ACAD_REACTORS
330
D
102
}
330
D
100
AcDbGroup
300

 70
     1
 71
     1
  0
GROUP
  5
22B17
102
{ACAD_REACTORS
330
D
102
}
330
D
100
AcDbGroup
300

 70
     1
 71
     1
  0
GROUP
  5
25929
102
{ACAD_REACTORS
330
D
102
}
330
D
100
AcDbGroup
300

 70
     1
 71
     1
  0
GROUP
  5
22DB0
102
{ACAD_REACTORS
330
D
102
}
330
D
100
AcDbGroup
300

 70
     1
 71
     1
  0
GROUP
  5
117E
102
{ACAD_REACTORS
330
D
102
}
330
D
100
AcDbGroup
300

 70
     1
 71
     1
  0
GROUP
  5
242E0
102
{ACAD_REACTORS
330
D
102
}
330
D
100
AcDbGroup
300

 70
     1
 71
     1
  0
GROUP
  5
D8D7
102
{ACAD_REACTORS
330
D
102
}
330
D
100
AcDbGroup
300

 70
     1
 71
     1
  0
GROUP
  5
283F3
102
{ACAD_REACTORS
330
D
102
}
330
D
100
AcDbGroup
300

 70
     1
 71
     1
  0
GROUP
  5
27080
102
{ACAD_REACTORS
330
D
102
}
330
D
100
AcDbGroup
300

 70
     1
 71
     1
  0
GROUP
  5
25B45
102
{ACAD_REACTORS
330
D
102
}
330
D
100
AcDbGroup
300

 70
     1
 71
     1
  0
GROUP
  5
243BE
102
{ACAD_REACTORS
330
D
102
}
330
D
100
AcDbGroup
300

 70
     1
 71
     1
  0
GROUP
  5
24B2B
102
{ACAD_REACTORS
330
D
102
}
330
D
100
AcDbGroup
300

 70
     1
 71
     1
  0
GROUP
  5
27CF1
102
{ACAD_REACTORS
330
D
102
}
330
D
100
AcDbGroup
300

 70
     1
 71
     1
  0
GROUP
  5
1C0D
102
{ACAD_REACTORS
330
D
102
}
330
D
100
AcDbGroup
300

 70
     1
 71
     1
  0
GROUP
  5
AAAE
102
{ACAD_REACTORS
330
D
102
}
330
D
100
AcDbGroup
300

 70
     1
 71
     1
  0
GROUP
  5
37C8
102
{ACAD_REACTORS
330
D
102
}
330
D
100
AcDbGroup
300

 70
     1
 71
     1
  0
GROUP
  5
27090
102
{ACAD_REACTORS
330
D
102
}
330
D
100
AcDbGroup
300

 70
     1
 71
     1
  0
GROUP
  5
8BB3
102
{ACAD_REACTORS
330
D
102
}
330
D
100
AcDbGroup
300

 70
     1
 71
     1
  0
GROUP
  5
2239C
102
{ACAD_REACTORS
330
D
102
}
330
D
100
AcDbGroup
300

 70
     1
 71
     1
  0
GROUP
  5
27071
102
{ACAD_REACTORS
330
D
102
}
330
D
100
AcDbGroup
300

 70
     1
 71
     1
  0
GROUP
  5
B948
102
{ACAD_REACTORS
330
D
102
}
330
D
100
AcDbGroup
300

 70
     1
 71
     1
  0
GROUP
  5
25F86
102
{ACAD_REACTORS
330
D
102
}
330
D
100
AcDbGroup
300

 70
     1
 71
     1
  0
GROUP
  5
286BA
102
{ACAD_REACTORS
330
D
102
}
330
D
100
AcDbGroup
300

 70
     1
 71
     1
  0
GROUP
  5
6962
102
{ACAD_REACTORS
330
D
102
}
330
D
100
AcDbGroup
300

 70
     1
 71
     1
  0
GROUP
  5
349E
102
{ACAD_REACTORS
330
D
102
}
330
D
100
AcDbGroup
300

 70
     1
 71
     1
  0
GROUP
  5
A986
102
{ACAD_REACTORS
330
D
102
}
330
D
100
AcDbGroup
300

 70
     1
 71
     1
  0
GROUP
  5
6C31
102
{ACAD_REACTORS
330
D
102
}
330
D
100
AcDbGroup
300

 70
     1
 71
     1
  0
GROUP
  5
24F58
102
{ACAD_REACTORS
330
D
102
}
330
D
100
AcDbGroup
300

 70
     1
 71
     1
  0
GROUP
  5
917A
102
{ACAD_REACTORS
330
D
102
}
330
D
100
AcDbGroup
300

 70
     1
 71
     1
  0
GROUP
  5
24F5A
102
{ACAD_REACTORS
330
D
102
}
330
D
100
AcDbGroup
300

 70
     1
 71
     1
  0
GROUP
  5
22E6E
102
{ACAD_REACTORS
330
D
102
}
330
D
100
AcDbGroup
300

 70
     1
 71
     1
  0
GROUP
  5
23337
102
{ACAD_REACTORS
330
D
102
}
330
D
100
AcDbGroup
300

 70
     1
 71
     1
  0
GROUP
  5
228C3
102
{ACAD_REACTORS
330
D
102
}
330
D
100
AcDbGroup
300

 70
     1
 71
     1
  0
GROUP
  5
228C6
102
{ACAD_REACTORS
330
D
102
}
330
D
100
AcDbGroup
300

 70
     1
 71
     1
  0
GROUP
  5
6CF7
102
{ACAD_REACTORS
330
D
102
}
330
D
100
AcDbGroup
300

 70
     1
 71
     1
  0
GROUP
  5
B949
102
{ACAD_REACTORS
330
D
102
}
330
D
100
AcDbGroup
300

 70
     1
 71
     1
  0
GROUP
  5
45D7
102
{ACAD_REACTORS
330
D
102
}
330
D
100
AcDbGroup
300

 70
     1
 71
     1
  0
GROUP
  5
24A7C
102
{ACAD_REACTORS
330
D
102
}
330
D
100
AcDbGroup
300

 70
     1
 71
     1
  0
GROUP
  5
27078
102
{ACAD_REACTORS
330
D
102
}
330
D
100
AcDbGroup
300

 70
     1
 71
     1
  0
GROUP
  5
243BD
102
{ACAD_REACTORS
330
D
102
}
330
D
100
AcDbGroup
300

 70
     1
 71
     1
  0
GROUP
  5
6623
102
{ACAD_REACTORS
330
D
102
}
330
D
100
AcDbGroup
300

 70
     1
 71
     1
  0
GROUP
  5
27066
102
{ACAD_REACTORS
330
D
102
}
330
D
100
AcDbGroup
300

 70
     1
 71
     1
  0
GROUP
  5
2784F
102
{ACAD_REACTORS
330
D
102
}
330
D
100
AcDbGroup
300

 70
     1
 71
     1
  0
GROUP
  5
2449E
102
{ACAD_REACTORS
330
D
102
}
330
D
100
AcDbGroup
300

 70
     1
 71
     1
  0
GROUP
  5
280E0
102
{ACAD_REACTORS
330
D
102
}
330
D
100
AcDbGroup
300

 70
     1
 71
     1
  0
GROUP
  5
B974
102
{ACAD_REACTORS
330
D
102
}
330
D
100
AcDbGroup
300

 70
     1
 71
     1
  0
GROUP
  5
A2EC
102
{ACAD_REACTORS
330
D
102
}
330
D
100
AcDbGroup
300

 70
     1
 71
     1
  0
GROUP
  5
BA57
102
{ACAD_REACTORS
330
D
102
}
330
D
100
AcDbGroup
300

 70
     1
 71
     1
  0
GROUP
  5
28417
102
{ACAD_REACTORS
330
D
102
}
330
D
100
AcDbGroup
300

 70
     1
 71
     1
  0
GROUP
  5
1D705
102
{ACAD_REACTORS
330
D
102
}
330
D
100
AcDbGroup
300

 70
     1
 71
     1
  0
GROUP
  5
25920
102
{ACAD_REACTORS
330
D
102
}
330
D
100
AcDbGroup
300

 70
     1
 71
     1
  0
GROUP
  5
8122
102
{ACAD_REACTORS
330
D
102
}
330
D
100
AcDbGroup
300

 70
     1
 71
     1
  0
GROUP
  5
34DC
102
{ACAD_REACTORS
330
D
102
}
330
D
100
AcDbGroup
300

 70
     1
 71
     1
  0
GROUP
  5
6FB1
102
{ACAD_REACTORS
330
D
102
}
330
D
100
AcDbGroup
300

 70
     1
 71
     1
  0
GROUP
  5
1208
102
{ACAD_REACTORS
330
D
102
}
330
D
100
AcDbGroup
300

 70
     1
 71
     1
  0
GROUP
  5
4199
102
{ACAD_REACTORS
330
D
102
}
330
D
100
AcDbGroup
300

 70
     1
 71
     1
  0
GROUP
  5
6C2E
102
{ACAD_REACTORS
330
D
102
}
330
D
100
AcDbGroup
300

 70
     1
 71
     1
  0
GROUP
  5
1A89
102
{ACAD_REACTORS
330
D
102
}
330
D
100
AcDbGroup
300

 70
     1
 71
     1
  0
GROUP
  5
230AB
102
{ACAD_REACTORS
330
D
102
}
330
D
100
AcDbGroup
300

 70
     1
 71
     1
  0
GROUP
  5
2536C
102
{ACAD_REACTORS
330
D
102
}
330
D
100
AcDbGroup
300

 70
     1
 71
     1
  0
GROUP
  5
2C14A
102
{ACAD_REACTORS
330
D
102
}
330
D
100
AcDbGroup
300

 70
     1
 71
     1
  0
GROUP
  5
A107
102
{ACAD_REACTORS
330
D
102
}
330
D
100
AcDbGroup
300

 70
     1
 71
     1
  0
GROUP
  5
1101D
102
{ACAD_REACTORS
330
D
102
}
330
D
100
AcDbGroup
300

 70
     1
 71
     1
  0
GROUP
  5
23E94
102
{ACAD_REACTORS
330
D
102
}
330
D
100
AcDbGroup
300

 70
     1
 71
     1
  0
GROUP
  5
6569
102
{ACAD_REACTORS
330
D
102
}
330
D
100
AcDbGroup
300

 70
     1
 71
     1
  0
GROUP
  5
26067
102
{ACAD_REACTORS
330
D
102
}
330
D
100
AcDbGroup
300

 70
     1
 71
     1
  0
GROUP
  5
25F47
102
{ACAD_REACTORS
330
D
102
}
330
D
100
AcDbGroup
300

 70
     1
 71
     1
  0
GROUP
  5
282DD
102
{ACAD_REACTORS
330
D
102
}
330
D
100
AcDbGroup
300

 70
     1
 71
     1
  0
GROUP
  5
2449A
102
{ACAD_REACTORS
330
D
102
}
330
D
100
AcDbGroup
300

 70
     1
 71
     1
  0
GROUP
  5
4501
102
{ACAD_REACTORS
330
D
102
}
330
D
100
AcDbGroup
300

 70
     1
 71
     1
  0
GROUP
  5
63BF
102
{ACAD_REACTORS
330
D
102
}
330
D
100
AcDbGroup
300

 70
     1
 71
     1
  0
GROUP
  5
A2ED
102
{ACAD_REACTORS
330
D
102
}
330
D
100
AcDbGroup
300

 70
     1
 71
     1
  0
GROUP
  5
8124
102
{ACAD_REACTORS
330
D
102
}
330
D
100
AcDbGroup
300

 70
     1
 71
     1
  0
GROUP
  5
27069
102
{ACAD_REACTORS
330
D
102
}
330
D
100
AcDbGroup
300

 70
     1
 71
     1
  0
GROUP
  5
117F
102
{ACAD_REACTORS
330
D
102
}
330
D
100
AcDbGroup
300

 70
     1
 71
     1
  0
GROUP
  5
190B
102
{ACAD_REACTORS
330
D
102
}
330
D
100
AcDbGroup
300

 70
     1
 71
     1
  0
GROUP
  5
22B12
102
{ACAD_REACTORS
330
D
102
}
330
D
100
AcDbGroup
300

 70
     1
 71
     1
  0
GROUP
  5
25F3E
102
{ACAD_REACTORS
330
D
102
}
330
D
100
AcDbGroup
300

 70
     1
 71
     1
  0
GROUP
  5
639D
102
{ACAD_REACTORS
330
D
102
}
330
D
100
AcDbGroup
300

 70
     1
 71
     1
  0
GROUP
  5
27062
102
{ACAD_REACTORS
330
D
102
}
330
D
100
AcDbGroup
300

 70
     1
 71
     1
  0
GROUP
  5
22DAA
102
{ACAD_REACTORS
330
D
102
}
330
D
100
AcDbGroup
300

 70
     1
 71
     1
  0
GROUP
  5
AA61
102
{ACAD_REACTORS
330
D
102
}
330
D
100
AcDbGroup
300

 70
     1
 71
     1
  0
GROUP
  5
272ED
102
{ACAD_REACTORS
330
D
102
}
330
D
100
AcDbGroup
300

 70
     1
 71
     1
  0
GROUP
  5
28405
102
{ACAD_REACTORS
330
D
102
}
330
D
100
AcDbGroup
300

 70
     1
 71
     1
  0
GROUP
  5
26131
102
{ACAD_REACTORS
330
D
102
}
330
D
100
AcDbGroup
300

 70
     1
 71
     1
  0
GROUP
  5
25F43
102
{ACAD_REACTORS
330
D
102
}
330
D
100
AcDbGroup
300

 70
     1
 71
     1
  0
GROUP
  5
A336
102
{ACAD_REACTORS
330
D
102
}
330
D
100
AcDbGroup
300

 70
     1
 71
     1
  0
GROUP
  5
2292D
102
{ACAD_REACTORS
330
D
102
}
330
D
100
AcDbGroup
300

 70
     1
 71
     1
  0
GROUP
  5
B946
102
{ACAD_REACTORS
330
D
102
}
330
D
100
AcDbGroup
300

 70
     1
 71
     1
  0
GROUP
  5
22C22
102
{ACAD_REACTORS
330
D
102
}
330
D
100
AcDbGroup
300

 70
     1
 71
     1
  0
GROUP
  5
16DA
102
{ACAD_REACTORS
330
D
102
}
330
D
100
AcDbGroup
300

 70
     1
 71
     1
  0
GROUP
  5
7FF3
102
{ACAD_REACTORS
330
D
102
}
330
D
100
AcDbGroup
300

 70
     1
 71
     1
  0
GROUP
  5
3442
102
{ACAD_REACTORS
330
D
102
}
330
D
100
AcDbGroup
300

 70
     1
 71
     1
  0
GROUP
  5
A4F1
102
{ACAD_REACTORS
330
D
102
}
330
D
100
AcDbGroup
300

 70
     1
 71
     1
  0
GROUP
  5
26210
102
{ACAD_REACTORS
330
D
102
}
330
D
100
AcDbGroup
300

 70
     1
 71
     1
  0
GROUP
  5
25923
102
{ACAD_REACTORS
330
D
102
}
330
D
100
AcDbGroup
300

 70
     1
 71
     1
  0
GROUP
  5
2592A
102
{ACAD_REACTORS
330
D
102
}
330
D
100
AcDbGroup
300

 70
     1
 71
     1
  0
GROUP
  5
2706B
102
{ACAD_REACTORS
330
D
102
}
330
D
100
AcDbGroup
300

 70
     1
 71
     1
  0
GROUP
  5
23E90
102
{ACAD_REACTORS
330
D
102
}
330
D
100
AcDbGroup
300

 70
     1
 71
     1
  0
GROUP
  5
24878
102
{ACAD_REACTORS
330
D
102
}
330
D
100
AcDbGroup
300

 70
     1
 71
     1
  0
GROUP
  5
2E19
102
{ACAD_REACTORS
330
D
102
}
330
D
100
AcDbGroup
300

 70
     1
 71
     1
  0
GROUP
  5
282DC
102
{ACAD_REACTORS
330
D
102
}
330
D
100
AcDbGroup
300

 70
     1
 71
     1
  0
GROUP
  5
A4F2
102
{ACAD_REACTORS
330
D
102
}
330
D
100
AcDbGroup
300

 70
     1
 71
     1
  0
GROUP
  5
25373
102
{ACAD_REACTORS
330
D
102
}
330
D
100
AcDbGroup
300

 70
     1
 71
     1
  0
GROUP
  5
282DE
102
{ACAD_REACTORS
330
D
102
}
330
D
100
AcDbGroup
300

 70
     1
 71
     1
  0
GROUP
  5
25B44
102
{ACAD_REACTORS
330
D
102
}
330
D
100
AcDbGroup
300

 70
     1
 71
     1
  0
GROUP
  5
25369
102
{ACAD_REACTORS
330
D
102
}
330
D
100
AcDbGroup
300

 70
     1
 71
     1
  0
GROUP
  5
22DB1
102
{ACAD_REACTORS
330
D
102
}
330
D
100
AcDbGroup
300

 70
     1
 71
     1
  0
GROUP
  5
25370
102
{ACAD_REACTORS
330
D
102
}
330
D
100
AcDbGroup
300

 70
     1
 71
     1
  0
GROUP
  5
283A7
102
{ACAD_REACTORS
330
D
102
}
330
D
100
AcDbGroup
300

 70
     1
 71
     1
  0
GROUP
  5
D5EB
102
{ACAD_REACTORS
330
D
102
}
330
D
100
AcDbGroup
300

 70
     1
 71
     1
  0
GROUP
  5
9935
102
{ACAD_REACTORS
330
D
102
}
330
D
100
AcDbGroup
300

 70
     1
 71
     1
  0
GROUP
  5
7FF8
102
{ACAD_REACTORS
330
D
102
}
330
D
100
AcDbGroup
300

 70
     1
 71
     1
  0
GROUP
  5
25446
102
{ACAD_REACTORS
330
D
102
}
330
D
100
AcDbGroup
300

 70
     1
 71
     1
  0
GROUP
  5
A591
102
{ACAD_REACTORS
330
D
102
}
330
D
100
AcDbGroup
300

 70
     1
 71
     1
  0
GROUP
  5
920E
102
{ACAD_REACTORS
330
D
102
}
330
D
100
AcDbGroup
300

 70
     1
 71
     1
  0
GROUP
  5
28559
102
{ACAD_REACTORS
330
D
102
}
330
D
100
AcDbGroup
300

 70
     1
 71
     1
  0
GROUP
  5
C7BB
102
{ACAD_REACTORS
330
D
102
}
330
D
100
AcDbGroup
300

 70
     1
 71
     1
  0
GROUP
  5
6C9C
102
{ACAD_REACTORS
330
D
102
}
330
D
100
AcDbGroup
300

 70
     1
 71
     1
  0
GROUP
  5
C69D
102
{ACAD_REACTORS
330
D
102
}
330
D
100
AcDbGroup
300

 70
     1
 71
     1
  0
GROUP
  5
2708C
102
{ACAD_REACTORS
330
D
102
}
330
D
100
AcDbGroup
300

 70
     1
 71
     1
  0
GROUP
  5
27061
102
{ACAD_REACTORS
330
D
102
}
330
D
100
AcDbGroup
300

 70
     1
 71
     1
  0
GROUP
  5
24A66
102
{ACAD_REACTORS
330
D
102
}
330
D
100
AcDbGroup
300

 70
     1
 71
     1
  0
GROUP
  5
22DAC
102
{ACAD_REACTORS
330
D
102
}
330
D
100
AcDbGroup
300

 70
     1
 71
     1
  0
GROUP
  5
245B8
102
{ACAD_REACTORS
330
D
102
}
330
D
100
AcDbGroup
300

 70
     1
 71
     1
  0
GROUP
  5
22DAB
102
{ACAD_REACTORS
330
D
102
}
330
D
100
AcDbGroup
300

 70
     1
 71
     1
  0
GROUP
  5
236FD
102
{ACAD_REACTORS
330
D
102
}
330
D
100
AcDbGroup
300

 70
     1
 71
     1
  0
GROUP
  5
239C6
102
{ACAD_REACTORS
330
D
102
}
330
D
100
AcDbGroup
300

 70
     1
 71
     1
  0
GROUP
  5
2845F
102
{ACAD_REACTORS
330
D
102
}
330
D
100
AcDbGroup
300

 70
     1
 71
     1
  0
GROUP
  5
1A689
102
{ACAD_REACTORS
330
D
102
}
330
D
100
AcDbGroup
300

 70
     1
 71
     1
  0
GROUP
  5
2785C
102
{ACAD_REACTORS
330
D
102
}
330
D
100
AcDbGroup
300

 70
     1
 71
     1
  0
GROUP
  5
830B
102
{ACAD_REACTORS
330
D
102
}
330
D
100
AcDbGroup
300

 70
     1
 71
     1
  0
GROUP
  5
C1E4
102
{ACAD_REACTORS
330
D
102
}
330
D
100
AcDbGroup
300

 70
     1
 71
     1
  0
GROUP
  5
7FF4
102
{ACAD_REACTORS
330
D
102
}
330
D
100
AcDbGroup
300

 70
     1
 71
     1
  0
GROUP
  5
2708A
102
{ACAD_REACTORS
330
D
102
}
330
D
100
AcDbGroup
300

 70
     1
 71
     1
  0
GROUP
  5
36C8
102
{ACAD_REACTORS
330
D
102
}
330
D
100
AcDbGroup
300

 70
     1
 71
     1
  0
GROUP
  5
BB10
102
{ACAD_REACTORS
330
D
102
}
330
D
100
AcDbGroup
300

 70
     1
 71
     1
  0
GROUP
  5
23A96
102
{ACAD_REACTORS
330
D
102
}
330
D
100
AcDbGroup
300

 70
     1
 71
     1
  0
GROUP
  5
6AB6
102
{ACAD_REACTORS
330
D
102
}
330
D
100
AcDbGroup
300

 70
     1
 71
     1
  0
GROUP
  5
1A15
102
{ACAD_REACTORS
330
D
102
}
330
D
100
AcDbGroup
300

 70
     1
 71
     1
  0
GROUP
  5
9C8F
102
{ACAD_REACTORS
330
D
102
}
330
D
100
AcDbGroup
300

 70
     1
 71
     1
  0
GROUP
  5
920D
102
{ACAD_REACTORS
330
D
102
}
330
D
100
AcDbGroup
300

 70
     1
 71
     1
  0
GROUP
  5
D724
102
{ACAD_REACTORS
330
D
102
}
330
D
100
AcDbGroup
300

 70
     1
 71
     1
  0
GROUP
  5
B94B
102
{ACAD_REACTORS
330
D
102
}
330
D
100
AcDbGroup
300

 70
     1
 71
     1
  0
GROUP
  5
23338
102
{ACAD_REACTORS
330
D
102
}
330
D
100
AcDbGroup
300

 70
     1
 71
     1
  0
GROUP
  5
229C2
102
{ACAD_REACTORS
330
D
102
}
330
D
100
AcDbGroup
300

 70
     1
 71
     1
  0
GROUP
  5
DCA
102
{ACAD_REACTORS
330
D
102
}
330
D
100
AcDbGroup
300

 70
     1
 71
     1
  0
GROUP
  5
2487C
102
{ACAD_REACTORS
330
D
102
}
330
D
100
AcDbGroup
300

 70
     1
 71
     1
  0
GROUP
  5
25926
102
{ACAD_REACTORS
330
D
102
}
330
D
100
AcDbGroup
300

 70
     1
 71
     1
  0
GROUP
  5
C538
102
{ACAD_REACTORS
330
D
102
}
330
D
100
AcDbGroup
300

 70
     1
 71
     1
  0
GROUP
  5
2705F
102
{ACAD_REACTORS
330
D
102
}
330
D
100
AcDbGroup
300

 70
     1
 71
     1
  0
GROUP
  5
B94A
102
{ACAD_REACTORS
330
D
102
}
330
D
100
AcDbGroup
300

 70
     1
 71
     1
  0
GROUP
  5
26068
102
{ACAD_REACTORS
330
D
102
}
330
D
100
AcDbGroup
300

 70
     1
 71
     1
  0
GROUP
  5
6FA2
102
{ACAD_REACTORS
330
D
102
}
330
D
100
AcDbGroup
300

 70
     1
 71
     1
  0
GROUP
  5
1A688
102
{ACAD_REACTORS
330
D
102
}
330
D
100
AcDbGroup
300

 70
     1
 71
     1
  0
GROUP
  5
2487A
102
{ACAD_REACTORS
330
D
102
}
330
D
100
AcDbGroup
300

 70
     1
 71
     1
  0
GROUP
  5
25F48
102
{ACAD_REACTORS
330
D
102
}
330
D
100
AcDbGroup
300

 70
     1
 71
     1
  0
GROUP
  5
8123
102
{ACAD_REACTORS
330
D
102
}
330
D
100
AcDbGroup
300

 70
     1
 71
     1
  0
GROUP
  5
28681
102
{ACAD_REACTORS
330
D
102
}
330
D
100
AcDbGroup
300

 70
     1
 71
     1
  0
GROUP
  5
91C4
102
{ACAD_REACTORS
330
D
102
}
330
D
100
AcDbGroup
300

 70
     1
 71
     1
  0
GROUP
  5
21E25
102
{ACAD_REACTORS
330
D
102
}
330
D
100
AcDbGroup
300

 70
     1
 71
     1
  0
GROUP
  5
939D
102
{ACAD_REACTORS
330
D
102
}
330
D
100
AcDbGroup
300

 70
     1
 71
     1
  0
GROUP
  5
A53F
102
{ACAD_REACTORS
330
D
102
}
330
D
100
AcDbGroup
300

 70
     1
 71
     1
  0
GROUP
  5
3101
102
{ACAD_REACTORS
330
D
102
}
330
D
100
AcDbGroup
300

 70
     1
 71
     1
  0
GROUP
  5
27065
102
{ACAD_REACTORS
330
D
102
}
330
D
100
AcDbGroup
300

 70
     1
 71
     1
  0
GROUP
  5
24955
102
{ACAD_REACTORS
330
D
102
}
330
D
100
AcDbGroup
300

 70
     1
 71
     1
  0
GROUP
  5
24D60
102
{ACAD_REACTORS
330
D
102
}
330
D
100
AcDbGroup
300

 70
     1
 71
     1
  0
GROUP
  5
6CCC
102
{ACAD_REACTORS
330
D
102
}
330
D
100
AcDbGroup
300

 70
     1
 71
     1
  0
GROUP
  5
A56C
102
{ACAD_REACTORS
330
D
102
}
330
D
100
AcDbGroup
300

 70
     1
 71
     1
  0
GROUP
  5
2844D
102
{ACAD_REACTORS
330
D
102
}
330
D
100
AcDbGroup
300

 70
     1
 71
     1
  0
GROUP
  5
2495B
102
{ACAD_REACTORS
330
D
102
}
330
D
100
AcDbGroup
300

 70
     1
 71
     1
  0
GROUP
  5
10CEC
102
{ACAD_REACTORS
330
D
102
}
330
D
100
AcDbGroup
300

 70
     1
 71
     1
  0
GROUP
  5
8CD1
102
{ACAD_REACTORS
330
D
102
}
330
D
100
AcDbGroup
300

 70
     1
 71
     1
  0
GROUP
  5
2708E
102
{ACAD_REACTORS
330
D
102
}
330
D
100
AcDbGroup
300

 70
     1
 71
     1
  0
GROUP
  5
2495C
102
{ACAD_REACTORS
330
D
102
}
330
D
100
AcDbGroup
300

 70
     1
 71
     1
  0
GROUP
  5
2536D
102
{ACAD_REACTORS
330
D
102
}
330
D
100
AcDbGroup
300

 70
     1
 71
     1
  0
GROUP
  5
CCA0
102
{ACAD_REACTORS
330
D
102
}
330
D
100
AcDbGroup
300

 70
     1
 71
     1
  0
GROUP
  5
BF05
102
{ACAD_REACTORS
330
D
102
}
330
D
100
AcDbGroup
300

 70
     1
 71
     1
  0
GROUP
  5
A4F0
102
{ACAD_REACTORS
330
D
102
}
330
D
100
AcDbGroup
300

 70
     1
 71
     1
  0
GROUP
  5
1D708
102
{ACAD_REACTORS
330
D
102
}
330
D
100
AcDbGroup
300

 70
     1
 71
     1
  0
GROUP
  5
2591F
102
{ACAD_REACTORS
330
D
102
}
330
D
100
AcDbGroup
300

 70
     1
 71
     1
  0
GROUP
  5
1A5A
102
{ACAD_REACTORS
330
D
102
}
330
D
100
AcDbGroup
300

 70
     1
 71
     1
  0
GROUP
  5
2487B
102
{ACAD_REACTORS
330
D
102
}
330
D
100
AcDbGroup
300

 70
     1
 71
     1
  0
GROUP
  5
27197
102
{ACAD_REACTORS
330
D
102
}
330
D
100
AcDbGroup
300

 70
     1
 71
     1
  0
GROUP
  5
93C4
102
{ACAD_REACTORS
330
D
102
}
330
D
100
AcDbGroup
300

 70
     1
 71
     1
  0
GROUP
  5
CC5E
102
{ACAD_REACTORS
330
D
102
}
330
D
100
AcDbGroup
300

 70
     1
 71
     1
  0
GROUP
  5
A2F5
102
{ACAD_REACTORS
330
D
102
}
330
D
100
AcDbGroup
300

 70
     1
 71
     1
  0
GROUP
  5
2487D
102
{ACAD_REACTORS
330
D
102
}
330
D
100
AcDbGroup
300

 70
     1
 71
     1
  0
GROUP
  5
242E1
102
{ACAD_REACTORS
330
D
102
}
330
D
100
AcDbGroup
300

 70
     1
 71
     1
  0
GROUP
  5
27095
102
{ACAD_REACTORS
330
D
102
}
330
D
100
AcDbGroup
300

 70
     1
 71
     1
  0
GROUP
  5
BB55
102
{ACAD_REACTORS
330
D
102
}
330
D
100
AcDbGroup
300

 70
     1
 71
     1
  0
GROUP
  5
AFF4
102
{ACAD_REACTORS
330
D
102
}
330
D
100
AcDbGroup
300

 70
     1
 71
     1
  0
GROUP
  5
B947
102
{ACAD_REACTORS
330
D
102
}
330
D
100
AcDbGroup
300

 70
     1
 71
     1
  0
GROUP
  5
25368
102
{ACAD_REACTORS
330
D
102
}
330
D
100
AcDbGroup
300

 70
     1
 71
     1
  0
GROUP
  5
27094
102
{ACAD_REACTORS
330
D
102
}
330
D
100
AcDbGroup
300

 70
     1
 71
     1
  0
GROUP
  5
28692
102
{ACAD_REACTORS
330
D
102
}
330
D
100
AcDbGroup
300

 70
     1
 71
     1
  0
GROUP
  5
22BE6
102
{ACAD_REACTORS
330
D
102
}
330
D
100
AcDbGroup
300

 70
     1
 71
     1
  0
GROUP
  5
25924
102
{ACAD_REACTORS
330
D
102
}
330
D
100
AcDbGroup
300

 70
     1
 71
     1
  0
GROUP
  5
12D2
102
{ACAD_REACTORS
330
D
102
}
330
D
100
AcDbGroup
300

 70
     1
 71
     1
  0
GROUP
  5
25367
102
{ACAD_REACTORS
330
D
102
}
330
D
100
AcDbGroup
300

 70
     1
 71
     1
  0
GROUP
  5
BFA8
102
{ACAD_REACTORS
330
D
102
}
330
D
100
AcDbGroup
300

 70
     1
 71
     1
  0
GROUP
  5
231F2
102
{ACAD_REACTORS
330
D
102
}
330
D
100
AcDbGroup
300

 70
     1
 71
     1
  0
GROUP
  5
A966
102
{ACAD_REACTORS
330
D
102
}
330
D
100
AcDbGroup
300

 70
     1
 71
     1
  0
GROUP
  5
AA9F
102
{ACAD_REACTORS
330
D
102
}
330
D
100
AcDbGroup
300

 70
     1
 71
     1
  0
GROUP
  5
27516
102
{ACAD_REACTORS
330
D
102
}
330
D
100
AcDbGroup
300

 70
     1
 71
     1
  0
GROUP
  5
22DAE
102
{ACAD_REACTORS
330
D
102
}
330
D
100
AcDbGroup
300

 70
     1
 71
     1
  0
GROUP
  5
2265B
102
{ACAD_REACTORS
330
D
102
}
330
D
100
AcDbGroup
300

 70
     1
 71
     1
  0
GROUP
  5
6C2B
102
{ACAD_REACTORS
330
D
102
}
330
D
100
AcDbGroup
300

 70
     1
 71
     1
  0
GROUP
  5
695F
102
{ACAD_REACTORS
330
D
102
}
330
D
100
AcDbGroup
300

 70
     1
 71
     1
  0
GROUP
  5
25B47
102
{ACAD_REACTORS
330
D
102
}
330
D
100
AcDbGroup
300

 70
     1
 71
     1
  0
GROUP
  5
1153
102
{ACAD_REACTORS
330
D
102
}
330
D
100
AcDbGroup
300

 70
     1
 71
     1
  0
GROUP
  5
1A12B
102
{ACAD_REACTORS
330
D
102
}
330
D
100
AcDbGroup
300

 70
     1
 71
     1
  0
GROUP
  5
22B14
102
{ACAD_REACTORS
330
D
102
}
330
D
100
AcDbGroup
300

 70
     1
 71
     1
  0
GROUP
  5
D69A
102
{ACAD_REACTORS
330
D
102
}
330
D
100
AcDbGroup
300

 70
     1
 71
     1
  0
GROUP
  5
3443
102
{ACAD_REACTORS
330
D
102
}
330
D
100
AcDbGroup
300

 70
     1
 71
     1
  0
GROUP
  5
DE6
102
{ACAD_REACTORS
330
D
102
}
330
D
100
AcDbGroup
300

 70
     1
 71
     1
  0
GROUP
  5
239C9
102
{ACAD_REACTORS
330
D
102
}
330
D
100
AcDbGroup
300

 70
     1
 71
     1
  0
GROUP
  5
25922
102
{ACAD_REACTORS
330
D
102
}
330
D
100
AcDbGroup
300

 70
     1
 71
     1
  0
GROUP
  5
235E0
102
{ACAD_REACTORS
330
D
102
}
330
D
100
AcDbGroup
300

 70
     1
 71
     1
  0
GROUP
  5
1A12A
102
{ACAD_REACTORS
330
D
102
}
330
D
100
AcDbGroup
300

 70
     1
 71
     1
  0
GROUP
  5
9933
102
{ACAD_REACTORS
330
D
102
}
330
D
100
AcDbGroup
300

 70
     1
 71
     1
  0
GROUP
  5
2257A
102
{ACAD_REACTORS
330
D
102
}
330
D
100
AcDbGroup
300

 70
     1
 71
     1
  0
GROUP
  5
9B46
102
{ACAD_REACTORS
330
D
102
}
330
D
100
AcDbGroup
300

 70
     1
 71
     1
  0
GROUP
  5
24B2A
102
{ACAD_REACTORS
330
D
102
}
330
D
100
AcDbGroup
300

 70
     1
 71
     1
  0
GROUP
  5
3DBF
102
{ACAD_REACTORS
330
D
102
}
330
D
100
AcDbGroup
300

 70
     1
 71
     1
  0
GROUP
  5
27073
102
{ACAD_REACTORS
330
D
102
}
330
D
100
AcDbGroup
300

 70
     1
 71
     1
  0
GROUP
  5
3ED3
102
{ACAD_REACTORS
330
D
102
}
330
D
100
AcDbGroup
300

 70
     1
 71
     1
  0
GROUP
  5
22DAF
102
{ACAD_REACTORS
330
D
102
}
330
D
100
AcDbGroup
300

 70
     1
 71
     1
  0
GROUP
  5
24A14
102
{ACAD_REACTORS
330
D
102
}
330
D
100
AcDbGroup
300

 70
     1
 71
     1
  0
GROUP
  5
BF7B
102
{ACAD_REACTORS
330
D
102
}
330
D
100
AcDbGroup
300

 70
     1
 71
     1
  0
GROUP
  5
22B11
102
{ACAD_REACTORS
330
D
102
}
330
D
100
AcDbGroup
300

 70
     1
 71
     1
  0
GROUP
  5
24A15
102
{ACAD_REACTORS
330
D
102
}
330
D
100
AcDbGroup
300

 70
     1
 71
     1
  0
GROUP
  5
AF2A
102
{ACAD_REACTORS
330
D
102
}
330
D
100
AcDbGroup
300

 70
     1
 71
     1
  0
GROUP
  5
27076
102
{ACAD_REACTORS
330
D
102
}
330
D
100
AcDbGroup
300

 70
     1
 71
     1
  0
GROUP
  5
23AFB
102
{ACAD_REACTORS
330
D
102
}
330
D
100
AcDbGroup
300

 70
     1
 71
     1
  0
GROUP
  5
242E4
102
{ACAD_REACTORS
330
D
102
}
330
D
100
AcDbGroup
300

 70
     1
 71
     1
  0
GROUP
  5
92CB
102
{ACAD_REACTORS
330
D
102
}
330
D
100
AcDbGroup
300

 70
     1
 71
     1
  0
GROUP
  5
91A0
102
{ACAD_REACTORS
330
D
102
}
330
D
100
AcDbGroup
300

 70
     1
 71
     1
  0
GROUP
  5
24957
102
{ACAD_REACTORS
330
D
102
}
330
D
100
AcDbGroup
300

 70
     1
 71
     1
  0
GROUP
  5
21E77
102
{ACAD_REACTORS
330
D
102
}
330
D
100
AcDbGroup
300

 70
     1
 71
     1
  0
GROUP
  5
349F
102
{ACAD_REACTORS
330
D
102
}
330
D
100
AcDbGroup
300

 70
     1
 71
     1
  0
GROUP
  5
6DFB
102
{ACAD_REACTORS
330
D
102
}
330
D
100
AcDbGroup
300

 70
     1
 71
     1
  0
GROUP
  5
2596A
102
{ACAD_REACTORS
330
D
102
}
330
D
100
AcDbGroup
300

 70
     1
 71
     1
  0
GROUP
  5
36E8
102
{ACAD_REACTORS
330
D
102
}
330
D
100
AcDbGroup
300

 70
     1
 71
     1
  0
GROUP
  5
A0BB
102
{ACAD_REACTORS
330
D
102
}
330
D
100
AcDbGroup
300

 70
     1
 71
     1
  0
GROUP
  5
12F1
102
{ACAD_REACTORS
330
D
102
}
330
D
100
AcDbGroup
300

 70
     1
 71
     1
  0
GROUP
  5
2536E
102
{ACAD_REACTORS
330
D
102
}
330
D
100
AcDbGroup
300

 70
     1
 71
     1
  0
GROUP
  5
2708D
102
{ACAD_REACTORS
330
D
102
}
330
D
100
AcDbGroup
300

 70
     1
 71
     1
  0
GROUP
  5
22B0F
102
{ACAD_REACTORS
330
D
102
}
330
D
100
AcDbGroup
300

 70
     1
 71
     1
  0
GROUP
  5
A331
102
{ACAD_REACTORS
330
D
102
}
330
D
100
AcDbGroup
300

 70
     1
 71
     1
  0
GROUP
  5
BEE2
102
{ACAD_REACTORS
330
D
102
}
330
D
100
AcDbGroup
300

 70
     1
 71
     1
  0
GROUP
  5
24699
102
{ACAD_REACTORS
330
D
102
}
330
D
100
AcDbGroup
300

 70
     1
 71
     1
  0
GROUP
  5
6960
102
{ACAD_REACTORS
330
D
102
}
330
D
100
AcDbGroup
300

 70
     1
 71
     1
  0
GROUP
  5
6C2C
102
{ACAD_REACTORS
330
D
102
}
330
D
100
AcDbGroup
300

 70
     1
 71
     1
  0
GROUP
  5
BF76
102
{ACAD_REACTORS
330
D
102
}
330
D
100
AcDbGroup
300

 70
     1
 71
     1
  0
GROUP
  5
25928
102
{ACAD_REACTORS
330
D
102
}
330
D
100
AcDbGroup
300

 70
     1
 71
     1
  0
GROUP
  5
24499
102
{ACAD_REACTORS
330
D
102
}
330
D
100
AcDbGroup
300

 70
     1
 71
     1
  0
GROUP
  5
A91C
102
{ACAD_REACTORS
330
D
102
}
330
D
100
AcDbGroup
300

 70
     1
 71
     1
  0
GROUP
  5
278E7
102
{ACAD_REACTORS
330
D
102
}
330
D
100
AcDbGroup
300

 70
     1
 71
     1
  0
GROUP
  5
418F
102
{ACAD_REACTORS
330
D
102
}
330
D
100
AcDbGroup
300

 70
     1
 71
     1
  0
GROUP
  5
6FC8
102
{ACAD_REACTORS
330
D
102
}
330
D
100
AcDbGroup
300

 70
     1
 71
     1
  0
GROUP
  5
6FC2
102
{ACAD_REACTORS
330
D
102
}
330
D
100
AcDbGroup
300

 70
     1
 71
     1
  0
GROUP
  5
225F5
102
{ACAD_REACTORS
330
D
102
}
330
D
100
AcDbGroup
300

 70
     1
 71
     1
  0
GROUP
  5
22DA9
102
{ACAD_REACTORS
330
D
102
}
330
D
100
AcDbGroup
300

 70
     1
 71
     1
  0
GROUP
  5
279CE
102
{ACAD_REACTORS
330
D
102
}
330
D
100
AcDbGroup
300

 70
     1
 71
     1
  0
GROUP
  5
2706F
102
{ACAD_REACTORS
330
D
102
}
330
D
100
AcDbGroup
300

 70
     1
 71
     1
  0
GROUP
  5
285C4
102
{ACAD_REACTORS
330
D
102
}
330
D
100
AcDbGroup
300

 70
     1
 71
     1
  0
GROUP
  5
25F41
102
{ACAD_REACTORS
330
D
102
}
330
D
100
AcDbGroup
300

 70
     1
 71
     1
  0
GROUP
  5
22B16
102
{ACAD_REACTORS
330
D
102
}
330
D
100
AcDbGroup
300

 70
     1
 71
     1
  0
GROUP
  5
6961
102
{ACAD_REACTORS
330
D
102
}
330
D
100
AcDbGroup
300

 70
     1
 71
     1
  0
GROUP
  5
27612
102
{ACAD_REACTORS
330
D
102
}
330
D
100
AcDbGroup
300

 70
     1
 71
     1
  0
GROUP
  5
29D12
102
{ACAD_REACTORS
330
D
102
}
330
D
100
AcDbGroup
300

 70
     1
 71
     1
  0
GROUP
  5
BFA7
102
{ACAD_REACTORS
330
D
102
}
330
D
100
AcDbGroup
300

 70
     1
 71
     1
  0
GROUP
  5
1A7B8
102
{ACAD_REACTORS
330
D
102
}
330
D
100
AcDbGroup
300

 70
     1
 71
     1
  0
GROUP
  5
25F85
102
{ACAD_REACTORS
330
D
102
}
330
D
100
AcDbGroup
300

 70
     1
 71
     1
  0
GROUP
  5
260CD
102
{ACAD_REACTORS
330
D
102
}
330
D
100
AcDbGroup
300

 70
     1
 71
     1
  0
GROUP
  5
D820
102
{ACAD_REACTORS
330
D
102
}
330
D
100
AcDbGroup
300

 70
     1
 71
     1
  0
GROUP
  5
8CD0
102
{ACAD_REACTORS
330
D
102
}
330
D
100
AcDbGroup
300

 70
     1
 71
     1
  0
GROUP
  5
25927
102
{ACAD_REACTORS
330
D
102
}
330
D
100
AcDbGroup
300

 70
     1
 71
     1
  0
GROUP
  5
24F5D
102
{ACAD_REACTORS
330
D
102
}
330
D
100
AcDbGroup
300

 70
     1
 71
     1
  0
GROUP
  5
126C
102
{ACAD_REACTORS
330
D
102
}
330
D
100
AcDbGroup
300

 70
     1
 71
     1
  0
GROUP
  5
228C7
102
{ACAD_REACTORS
330
D
102
}
330
D
100
AcDbGroup
300

 70
     1
 71
     1
  0
GROUP
  5
283E5
102
{ACAD_REACTORS
330
D
102
}
330
D
100
AcDbGroup
300

 70
     1
 71
     1
  0
GROUP
  5
2706D
102
{ACAD_REACTORS
330
D
102
}
330
D
100
AcDbGroup
300

 70
     1
 71
     1
  0
GROUP
  5
6355
102
{ACAD_REACTORS
330
D
102
}
330
D
100
AcDbGroup
300

 70
     1
 71
     1
  0
GROUP
  5
6356
102
{ACAD_REACTORS
330
D
102
}
330
D
100
AcDbGroup
300

 70
     1
 71
     1
  0
GROUP
  5
C88F
102
{ACAD_REACTORS
330
D
102
}
330
D
100
AcDbGroup
300

 70
     1
 71
     1
  0
GROUP
  5
234D7
102
{ACAD_REACTORS
330
D
102
}
330
D
100
AcDbGroup
300

 70
     1
 71
     1
  0
GROUP
  5
C410
102
{ACAD_REACTORS
330
D
102
}
330
D
100
AcDbGroup
300

 70
     1
 71
     1
  0
GROUP
  5
27085
102
{ACAD_REACTORS
330
D
102
}
330
D
100
AcDbGroup
300

 70
     1
 71
     1
  0
GROUP
  5
27092
102
{ACAD_REACTORS
330
D
102
}
330
D
100
AcDbGroup
300

 70
     1
 71
     1
  0
GROUP
  5
239C7
102
{ACAD_REACTORS
330
D
102
}
330
D
100
AcDbGroup
300

 70
     1
 71
     1
  0
GROUP
  5
270EF
102
{ACAD_REACTORS
330
D
102
}
330
D
100
AcDbGroup
300

 70
     1
 71
     1
  0
GROUP
  5
29D13
102
{ACAD_REACTORS
330
D
102
}
330
D
100
AcDbGroup
300

 70
     1
 71
     1
  0
GROUP
  5
A329
102
{ACAD_REACTORS
330
D
102
}
330
D
100
AcDbGroup
300

 70
     1
 71
     1
  0
GROUP
  5
23E8F
102
{ACAD_REACTORS
330
D
102
}
330
D
100
AcDbGroup
300

 70
     1
 71
     1
  0
GROUP
  5
D74A
102
{ACAD_REACTORS
330
D
102
}
330
D
100
AcDbGroup
300

 70
     1
 71
     1
  0
GROUP
  5
91C5
102
{ACAD_REACTORS
330
D
102
}
330
D
100
AcDbGroup
300

 70
     1
 71
     1
  0
GROUP
  5
2A9BB
102
{ACAD_REACTORS
330
D
102
}
330
D
100
AcDbGroup
300

 70
     1
 71
     1
  0
GROUP
  5
2A9BC
102
{ACAD_REACTORS
330
D
102
}
330
D
100
AcDbGroup
300

 70
     1
 71
     1
  0
GROUP
  5
2A9BD
102
{ACAD_REACTORS
330
D
102
}
330
D
100
AcDbGroup
300

 70
     1
 71
     1
  0
GROUP
  5
2A9BE
102
{ACAD_REACTORS
330
D
102
}
330
D
100
AcDbGroup
300

 70
     1
 71
     1
  0
GROUP
  5
2A9BF
102
{ACAD_REACTORS
330
D
102
}
330
D
100
AcDbGroup
300

 70
     1
 71
     1
  0
GROUP
  5
24959
102
{ACAD_REACTORS
330
D
102
}
330
D
100
AcDbGroup
300

 70
     1
 71
     1
  0
GROUP
  5
2219F
102
{ACAD_REACTORS
330
D
102
}
330
D
100
AcDbGroup
300

 70
     1
 71
     1
  0
GROUP
  5
2A9C0
102
{ACAD_REACTORS
330
D
102
}
330
D
100
AcDbGroup
300

 70
     1
 71
     1
  0
GROUP
  5
2ABA0
102
{ACAD_REACTORS
330
D
102
}
330
D
100
AcDbGroup
300

 70
     1
 71
     1
  0
GROUP
  5
12AA
102
{ACAD_REACTORS
330
D
102
}
330
D
100
AcDbGroup
300

 70
     1
 71
     1
  0
GROUP
  5
280D3
102
{ACAD_REACTORS
330
D
102
}
330
D
100
AcDbGroup
300

 70
     1
 71
     1
  0
GROUP
  5
25F4B
102
{ACAD_REACTORS
330
D
102
}
330
D
100
AcDbGroup
300

 70
     1
 71
     1
  0
GROUP
  5
9367
102
{ACAD_REACTORS
330
D
102
}
330
D
100
AcDbGroup
300

 70
     1
 71
     1
  0
GROUP
  5
2ABC2
102
{ACAD_REACTORS
330
D
102
}
330
D
100
AcDbGroup
300

 70
     1
 71
     1
  0
GROUP
  5
7FF2
102
{ACAD_REACTORS
330
D
102
}
330
D
100
AcDbGroup
300

 70
     1
 71
     1
  0
GROUP
  5
34A0
102
{ACAD_REACTORS
330
D
102
}
330
D
100
AcDbGroup
300

 70
     1
 71
     1
  0
GROUP
  5
2B0D7
102
{ACAD_REACTORS
330
D
102
}
330
D
100
AcDbGroup
300

 70
     1
 71
     1
  0
GROUP
  5
2B0DA
102
{ACAD_REACTORS
330
D
102
}
330
D
100
AcDbGroup
300

 70
     1
 71
     1
  0
GROUP
  5
BA56
102
{ACAD_REACTORS
330
D
102
}
330
D
100
AcDbGroup
300

 70
     1
 71
     1
  0
GROUP
  5
239C8
102
{ACAD_REACTORS
330
D
102
}
330
D
100
AcDbGroup
300

 70
     1
 71
     1
  0
GROUP
  5
2459C
102
{ACAD_REACTORS
330
D
102
}
330
D
100
AcDbGroup
300

 70
     1
 71
     1
  0
GROUP
  5
2B0D8
102
{ACAD_REACTORS
330
D
102
}
330
D
100
AcDbGroup
300

 70
     1
 71
     1
  0
GROUP
  5
6E9D
102
{ACAD_REACTORS
330
D
102
}
330
D
100
AcDbGroup
300

 70
     1
 71
     1
  0
GROUP
  5
29D2A
102
{ACAD_REACTORS
330
D
102
}
330
D
100
AcDbGroup
300

 70
     1
 71
     1
  0
GROUP
  5
2705E
102
{ACAD_REACTORS
330
D
102
}
330
D
100
AcDbGroup
300

 70
     1
 71
     1
  0
GROUP
  5
22B13
102
{ACAD_REACTORS
330
D
102
}
330
D
100
AcDbGroup
300

 70
     1
 71
     1
  0
GROUP
  5
8076
102
{ACAD_REACTORS
330
D
102
}
330
D
100
AcDbGroup
300

 70
     1
 71
     1
  0
GROUP
  5
148A7
102
{ACAD_REACTORS
330
D
102
}
330
D
100
AcDbGroup
300

 70
     1
 71
     1
  0
GROUP
  5
A4F5
102
{ACAD_REACTORS
330
D
102
}
330
D
100
AcDbGroup
300

 70
     1
 71
     1
  0
GROUP
  5
28416
102
{ACAD_REACTORS
330
D
102
}
330
D
100
AcDbGroup
300

 70
     1
 71
     1
  0
GROUP
  5
B973
102
{ACAD_REACTORS
330
D
102
}
330
D
100
AcDbGroup
300

 70
     1
 71
     1
  0
GROUP
  5
A919
102
{ACAD_REACTORS
330
D
102
}
330
D
100
AcDbGroup
300

 70
     1
 71
     1
  0
GROUP
  5
2B0DB
102
{ACAD_REACTORS
330
D
102
}
330
D
100
AcDbGroup
300

 70
     1
 71
     1
  0
GROUP
  5
6C2D
102
{ACAD_REACTORS
330
D
102
}
330
D
100
AcDbGroup
300

 70
     1
 71
     1
  0
GROUP
  5
A56E
102
{ACAD_REACTORS
330
D
102
}
330
D
100
AcDbGroup
300

 70
     1
 71
     1
  0
GROUP
  5
919F
102
{ACAD_REACTORS
330
D
102
}
330
D
100
AcDbGroup
300

 70
     1
 71
     1
  0
GROUP
  5
225AD
102
{ACAD_REACTORS
330
D
102
}
330
D
100
AcDbGroup
300

 70
     1
 71
     1
  0
GROUP
  5
22B15
102
{ACAD_REACTORS
330
D
102
}
330
D
100
AcDbGroup
300

 70
     1
 71
     1
  0
GROUP
  5
19E9
102
{ACAD_REACTORS
330
D
102
}
330
D
100
AcDbGroup
300

 70
     1
 71
     1
  0
GROUP
  5
2706E
102
{ACAD_REACTORS
330
D
102
}
330
D
100
AcDbGroup
300

 70
     1
 71
     1
  0
GROUP
  5
4502
102
{ACAD_REACTORS
330
D
102
}
330
D
100
AcDbGroup
300

 70
     1
 71
     1
  0
GROUP
  5
22E98
102
{ACAD_REACTORS
330
D
102
}
330
D
100
AcDbGroup
300

 70
     1
 71
     1
  0
GROUP
  5
28008
102
{ACAD_REACTORS
330
D
102
}
330
D
100
AcDbGroup
300

 70
     1
 71
     1
  0
GROUP
  5
2B0DC
102
{ACAD_REACTORS
330
D
102
}
330
D
100
AcDbGroup
300

 70
     1
 71
     1
  0
GROUP
  5
23EE2
102
{ACAD_REACTORS
330
D
102
}
330
D
100
AcDbGroup
300

 70
     1
 71
     1
  0
GROUP
  5
27398
102
{ACAD_REACTORS
330
D
102
}
330
D
100
AcDbGroup
300

 70
     1
 71
     1
  0
GROUP
  5
27072
102
{ACAD_REACTORS
330
D
102
}
330
D
100
AcDbGroup
300

 70
     1
 71
     1
  0
GROUP
  5
99AF
102
{ACAD_REACTORS
330
D
102
}
330
D
100
AcDbGroup
300

 70
     1
 71
     1
  0
GROUP
  5
15E1
102
{ACAD_REACTORS
330
D
102
}
330
D
100
AcDbGroup
300

 70
     1
 71
     1
  0
GROUP
  5
27AF2
102
{ACAD_REACTORS
330
D
102
}
330
D
100
AcDbGroup
300

 70
     1
 71
     1
  0
GROUP
  5
249B9
102
{ACAD_REACTORS
330
D
102
}
330
D
100
AcDbGroup
300

 70
     1
 71
     1
  0
GROUP
  5
A2F4
102
{ACAD_REACTORS
330
D
102
}
330
D
100
AcDbGroup
300

 70
     1
 71
     1
  0
GROUP
  5
27083
102
{ACAD_REACTORS
330
D
102
}
330
D
100
AcDbGroup
300

 70
     1
 71
     1
  0
GROUP
  5
25372
102
{ACAD_REACTORS
330
D
102
}
330
D
100
AcDbGroup
300

 70
     1
 71
     1
  0
GROUP
  5
2B0DD
102
{ACAD_REACTORS
330
D
102
}
330
D
100
AcDbGroup
300

 70
     1
 71
     1
  0
GROUP
  5
27545
102
{ACAD_REACTORS
330
D
102
}
330
D
100
AcDbGroup
300

 70
     1
 71
     1
  0
GROUP
  5
AAA0
102
{ACAD_REACTORS
330
D
102
}
330
D
100
AcDbGroup
300

 70
     1
 71
     1
  0
GROUP
  5
278E6
102
{ACAD_REACTORS
330
D
102
}
330
D
100
AcDbGroup
300

 70
     1
 71
     1
  0
GROUP
  5
36E7
102
{ACAD_REACTORS
330
D
102
}
330
D
100
AcDbGroup
300

 70
     1
 71
     1
  0
GROUP
  5
2596D
102
{ACAD_REACTORS
330
D
102
}
330
D
100
AcDbGroup
300

 70
     1
 71
     1
  0
GROUP
  5
28009
102
{ACAD_REACTORS
330
D
102
}
330
D
100
AcDbGroup
300

 70
     1
 71
     1
  0
GROUP
  5
21F2B
102
{ACAD_REACTORS
330
D
102
}
330
D
100
AcDbGroup
300

 70
     1
 71
     1
  0
GROUP
  5
CC19
102
{ACAD_REACTORS
330
D
102
}
330
D
100
AcDbGroup
300

 70
     1
 71
     1
  0
GROUP
  5
2752F
102
{ACAD_REACTORS
330
D
102
}
330
D
100
AcDbGroup
300

 70
     1
 71
     1
  0
GROUP
  5
A962
102
{ACAD_REACTORS
330
D
102
}
330
D
100
AcDbGroup
300

 70
     1
 71
     1
  0
MLINESTYLE
  5
18
102
{ACAD_REACTORS
330
17
102
}
330
17
100
AcDbMlineStyle
  2
STANDARD
 70
     0
  3

 62
   256
 51
90.0
 52
90.0
 71
     2
 49
0.5
 62
   256
  6
BYLAYER
 49
-0.5
 62
   256
  6
BYLAYER
  0
ACDBPLACEHOLDER
  5
F
102
{ACAD_REACTORS
330
E
102
}
330
E
100
AcDbPlaceHolder
280
     0
  0
XRECORD
  5
2D577
102
{ACAD_REACTORS
330
2D56D
102
}
330
2D56D
100
AcDbXrecord
 90
        0
  0
XRECORD
  5
2D57B
102
{ACAD_REACTORS
330
2D56D
102
}
330
2D56D
100
AcDbXrecord
1000
DSTYLE
1002
{
1070
    79
 70
     2
1070
   341
340
495
1070
   342
340
495
1070
   371
 70
    13
1070
   372
 70
    13
1002
}
  0
XRECORD
  5
2D578
102
{ACAD_REACTORS
330
2D56D
102
}
330
2D56D
100
AcDbXrecord
  1
{317A188D-5D9A-4B88-8B34-F77A538D2CB2}
  0
XRECORD
  5
2D570
102
{ACAD_REACTORS
330
2D56D
102
}
330
2D56D
100
AcDbXrecord
  1

  0
XRECORD
  5
2D576
102
{ACAD_REACTORS
330
2D56D
102
}
330
2D56D
100
AcDbXrecord
 90
        4
  0
XRECORD
  5
2D572
102
{ACAD_REACTORS
330
2D56D
102
}
330
2D56D
100
AcDbXrecord
340
1A
  0
XRECORD
  5
2D575
102
{ACAD_REACTORS
330
2D56D
102
}
330
2D56D
100
AcDbXrecord
 90
    10781
  0
XRECORD
  5
2D573
102
{ACAD_REACTORS
330
2D56D
102
}
330
2D56D
100
AcDbXrecord
340
19
  0
XRECORD
  5
2D574
102
{ACAD_REACTORS
330
2D56D
102
}
330
2D56D
100
AcDbXrecord
340
E
  0
XRECORD
  5
2D57A
102
{ACAD_REACTORS
330
2D56D
102
}
330
2D56D
100
AcDbXrecord
 40
0.0
  0
XRECORD
  5
2D57E
102
{ACAD_REACTORS
330
2D56D
102
}
330
2D56D
100
AcDbXrecord
340
0
  0
XRECORD
  5
2D584
102
{ACAD_REACTORS
330
2D56D
102
}
330
2D56D
100
AcDbXrecord
 10
0.0
 20
0.0
 30
0.0
  0
XRECORD
  5
2D580
102
{ACAD_REACTORS
330
2D56D
102
}
330
2D56D
100
AcDbXrecord
 10
0.0
 20
0.0
 30
0.0
  0
XRECORD
  5
2D583
102
{ACAD_REACTORS
330
2D56D
102
}
330
2D56D
100
AcDbXrecord
 10
0.0
 20
0.0
 30
0.0
  0
XRECORD
  5
2D581
102
{ACAD_REACTORS
330
2D56D
102
}
330
2D56D
100
AcDbXrecord
 10
0.0
 20
0.0
 30
0.0
  0
XRECORD
  5
2D582
102
{ACAD_REACTORS
330
2D56D
102
}
330
2D56D
100
AcDbXrecord
 10
0.0
 20
0.0
 30
0.0
  0
XRECORD
  5
2D57F
102
{ACAD_REACTORS
330
2D56D
102
}
330
2D56D
100
AcDbXrecord
 10
0.0
 20
0.0
 30
0.0
  0
XRECORD
  5
2D57C
102
{ACAD_REACTORS
330
2D56D
102
}
330
2D56D
100
AcDbXrecord
340
0
  0
XRECORD
  5
2D57D
102
{ACAD_REACTORS
330
2D56D
102
}
330
2D56D
100
AcDbXrecord
 70
     0
  0
XRECORD
  5
2D571
102
{ACAD_REACTORS
330
2D56D
102
}
330
2D56D
100
AcDbXrecord
  1

  0
XRECORD
  5
2D56E
102
{ACAD_REACTORS
330
2D56D
102
}
330
2D56D
100
AcDbXrecord
 90
        1
  0
XRECORD
  5
2D56F
102
{ACAD_REACTORS
330
2D56D
102
}
330
2D56D
100
AcDbXrecord
 90
       70
  0
XRECORD
  5
2D587
102
{ACAD_REACTORS
330
2D56D
102
}
330
2D56D
100
AcDbXrecord
340
0
  0
XRECORD
  5
2D58D
102
{ACAD_REACTORS
330
2D56D
102
}
330
2D56D
100
AcDbXrecord
 10
0.0
 20
0.0
 30
0.0
  0
XRECORD
  5
2D589
102
{ACAD_REACTORS
330
2D56D
102
}
330
2D56D
100
AcDbXrecord
 10
0.0
 20
0.0
 30
0.0
  0
XRECORD
  5
2D58C
102
{ACAD_REACTORS
330
2D56D
102
}
330
2D56D
100
AcDbXrecord
 10
0.0
 20
0.0
 30
0.0
  0
XRECORD
  5
2D58A
102
{ACAD_REACTORS
330
2D56D
102
}
330
2D56D
100
AcDbXrecord
 10
0.0
 20
0.0
 30
0.0
  0
XRECORD
  5
2D58B
102
{ACAD_REACTORS
330
2D56D
102
}
330
2D56D
100
AcDbXrecord
 10
0.0
 20
0.0
 30
0.0
  0
XRECORD
  5
2D588
102
{ACAD_REACTORS
330
2D56D
102
}
330
2D56D
100
AcDbXrecord
 10
0.0
 20
0.0
 30
0.0
  0
XRECORD
  5
2D585
102
{ACAD_REACTORS
330
2D56D
102
}
330
2D56D
100
AcDbXrecord
340
0
  0
XRECORD
  5
2D586
102
{ACAD_REACTORS
330
2D56D
102
}
330
2D56D
100
AcDbXrecord
 70
     0
  0
XRECORD
  5
2D579
102
{ACAD_REACTORS
330
2D56D
102
}
330
2D56D
100
AcDbXrecord
  1
{A9C68DFD-15A8-483F-A78B-A0CD6D47CB58}
  0
DICTIONARYVAR
  5
72CD
102
{ACAD_REACTORS
330
72CC
102
}
330
72CC
100
DictionaryVariables
280
     0
  1
127
  0
XRECORD
  5
29CAF
102
{ACAD_REACTORS
330
29CAE
102
}
330
29CAE
100
AcDbXrecord
  1
0
  1
*0
  1
*
  1
*
 70
     0
  1
*
  1
*
  0
XRECORD
  5
29CB0
102
{ACAD_REACTORS
330
29CAE
102
}
330
29CAE
100
AcDbXrecord
  1
11
  1
*11
  1
*
  1
*
 70
     0
  1
*
  1
*
  0
XRECORD
  5
29CB1
102
{ACAD_REACTORS
330
29CAE
102
}
330
29CAE
100
AcDbXrecord
  1
150_
  1
150_*
  1
*
  1
*
 70
     0
  1
*
  1
*
  0
XRECORD
  5
29CB2
102
{ACAD_REACTORS
330
29CAE
102
}
330
29CAE
100
AcDbXrecord
  1
160_
  1
160_*
  1
*
  1
*
 70
     0
  1
*
  1
*
  0
XRECORD
  5
29CB3
102
{ACAD_REACTORS
330
29CAE
102
}
330
29CAE
100
AcDbXrecord
  1
170_
  1
170_*
  1
*
  1
*
 70
     0
  1
*
  1
*
  0
XRECORD
  5
29CB4
102
{ACAD_REACTORS
330
29CAE
102
}
330
29CAE
100
AcDbXrecord
  1
171_
  1
171_*
  1
*
  1
*
 70
     0
  1
*
  1
*
  0
XRECORD
  5
29CB5
102
{ACAD_REACTORS
330
29CAE
102
}
330
29CAE
100
AcDbXrecord
  1
350_
  1
350_*
  1
*
  1
*
 70
     0
  1
*
  1
*
  0
XRECORD
  5
29CB6
102
{ACAD_REACTORS
330
29CAE
102
}
330
29CAE
100
AcDbXrecord
  1
4
  1
*4
  1
*
  1
*
 70
     0
  1
*
  1
*
  0
XRECORD
  5
29CB7
102
{ACAD_REACTORS
330
29CAE
102
}
330
29CAE
100
AcDbXrecord
  1
5
  1
*5
  1
*
  1
*
 70
     0
  1
*
  1
*
  0
XRECORD
  5
29CB8
102
{ACAD_REACTORS
330
29CAE
102
}
330
29CAE
100
AcDbXrecord
  1
7
  1
*7
  1
*
  1
*
 70
     0
  1
*
  1
*
  0
XRECORD
  5
29CB9
102
{ACAD_REACTORS
330
29CAE
102
}
330
29CAE
100
AcDbXrecord
  1
kiseki
  1
kiseki*
  1
*
  1
*
 70
     0
  1
*
  1
*
  0
ENDSEC
  0
EOF
